  0
SECTION
  2
HEADER
  9
$ACADVER
  1
AC1015
  9
$ACADMAINTVER
 70
     6
  9
$DWGCODEPAGE
  3
ANSI_932
  9
$INSBASE
 10
0.0
 20
0.0
 30
0.0
  9
$EXTMIN
 10
3450.111703003039
 20
76.22045891064454
 30
0.0
  9
$EXTMAX
 10
5839.20090720191
 20
2092.64594394397
 30
0.0
  9
$LIMMIN
 10
2868.813824592569
 20
-443.7331444327924
  9
$LIMMAX
 10
7068.813824592569
 20
2526.266855567208
  9
$ORTHOMODE
 70
     0
  9
$REGENMODE
 70
     1
  9
$FILLMODE
 70
     1
  9
$QTEXTMODE
 70
     0
  9
$MIRRTEXT
 70
     1
  9
$LTSCALE
 40
3.0
  9
$ATTMODE
 70
     1
  9
$TEXTSIZE
 40
3.0
  9
$TRACEWID
 40
1.0
  9
$TEXTSTYLE
  7
Standard
  9
$CLAYER
  8
02製品
  9
$CELTYPE
  6
ByLayer
  9
$CECOLOR
 62
   256
  9
$CELTSCALE
 40
1.0
  9
$DISPSILH
 70
     0
  9
$DIMSCALE
 40
15.0
  9
$DIMASZ
 40
3.0
  9
$DIMEXO
 40
1.5
  9
$DIMDLI
 40
10.0
  9
$DIMRND
 40
0.0
  9
$DIMDLE
 40
0.0
  9
$DIMEXE
 40
1.0
  9
$DIMTP
 40
0.0
  9
$DIMTM
 40
0.0
  9
$DIMTXT
 40
3.0
  9
$DIMCEN
 40
1.5
  9
$DIMTSZ
 40
0.0
  9
$DIMTOL
 70
     0
  9
$DIMLIM
 70
     0
  9
$DIMTIH
 70
     0
  9
$DIMTOH
 70
     0
  9
$DIMSE1
 70
     0
  9
$DIMSE2
 70
     0
  9
$DIMTAD
 70
     1
  9
$DIMZIN
 70
     8
  9
$DIMBLK
  1
Open
  9
$DIMASO
 70
     1
  9
$DIMSHO
 70
     1
  9
$DIMPOST
  1

  9
$DIMAPOST
  1

  9
$DIMALT
 70
     0
  9
$DIMALTD
 70
     3
  9
$DIMALTF
 40
0.03937007874016
  9
$DIMLFAC
 40
1.0
  9
$DIMTOFL
 70
     1
  9
$DIMTVP
 40
0.0
  9
$DIMTIX
 70
     0
  9
$DIMSOXD
 70
     0
  9
$DIMSAH
 70
     0
  9
$DIMBLK1
  1

  9
$DIMBLK2
  1

  9
$DIMSTYLE
  2
NEMY-15
  9
$DIMCLRD
 70
     0
  9
$DIMCLRE
 70
     0
  9
$DIMCLRT
 70
     0
  9
$DIMTFAC
 40
1.0
  9
$DIMGAP
 40
1.0
  9
$DIMJUST
 70
     0
  9
$DIMSD1
 70
     0
  9
$DIMSD2
 70
     0
  9
$DIMTOLJ
 70
     0
  9
$DIMTZIN
 70
     8
  9
$DIMALTZ
 70
     0
  9
$DIMALTTZ
 70
     0
  9
$DIMUPT
 70
     0
  9
$DIMDEC
 70
     1
  9
$DIMTDEC
 70
     1
  9
$DIMALTU
 70
     2
  9
$DIMALTTD
 70
     3
  9
$DIMTXSTY
  7
Standard
  9
$DIMAUNIT
 70
     0
  9
$DIMADEC
 70
     0
  9
$DIMALTRND
 40
0.0
  9
$DIMAZIN
 70
     0
  9
$DIMDSEP
 70
    46
  9
$DIMATFIT
 70
     3
  9
$DIMFRAC
 70
     0
  9
$DIMLDRBLK
  1
Open
  9
$DIMLUNIT
 70
     2
  9
$DIMLWD
 70
    -2
  9
$DIMLWE
 70
    -2
  9
$DIMTMOVE
 70
     0
  9
$LUNITS
 70
     2
  9
$LUPREC
 70
     4
  9
$SKETCHINC
 40
1.0
  9
$FILLETRAD
 40
0.0
  9
$AUNITS
 70
     0
  9
$AUPREC
 70
     0
  9
$MENU
  1
.
  9
$ELEVATION
 40
0.0
  9
$PELEVATION
 40
0.0
  9
$THICKNESS
 40
0.0
  9
$LIMCHECK
 70
     0
  9
$CHAMFERA
 40
10.0
  9
$CHAMFERB
 40
10.0
  9
$CHAMFERC
 40
20.0
  9
$CHAMFERD
 40
0.0
  9
$SKPOLY
 70
     0
  9
$TDCREATE
 40
2455859.405048461
  9
$TDUCREATE
 40
2455859.030048461
  9
$TDUPDATE
 40
2458968.604808576
  9
$TDUUPDATE
 40
2458968.229808576
  9
$TDINDWG
 40
0.5777294792
  9
$TDUSRTIMER
 40
0.0001168866
  9
$USRTIMER
 70
     1
  9
$ANGBASE
 50
0.0
  9
$ANGDIR
 70
     0
  9
$PDMODE
 70
     0
  9
$PDSIZE
 40
0.0
  9
$PLINEWID
 40
0.0
  9
$SPLFRAME
 70
     0
  9
$SPLINETYPE
 70
     6
  9
$SPLINESEGS
 70
     8
  9
$HANDSEED
  5
12C05
  9
$SURFTAB1
 70
     6
  9
$SURFTAB2
 70
     6
  9
$SURFTYPE
 70
     6
  9
$SURFU
 70
     6
  9
$SURFV
 70
     6
  9
$UCSBASE
  2

  9
$UCSNAME
  2

  9
$UCSORG
 10
0.0
 20
0.0
 30
0.0
  9
$UCSXDIR
 10
1.0
 20
0.0
 30
0.0
  9
$UCSYDIR
 10
0.0
 20
1.0
 30
0.0
  9
$UCSORTHOREF
  2

  9
$UCSORTHOVIEW
 70
     0
  9
$UCSORGTOP
 10
0.0
 20
0.0
 30
0.0
  9
$UCSORGBOTTOM
 10
0.0
 20
0.0
 30
0.0
  9
$UCSORGLEFT
 10
0.0
 20
0.0
 30
0.0
  9
$UCSORGRIGHT
 10
0.0
 20
0.0
 30
0.0
  9
$UCSORGFRONT
 10
0.0
 20
0.0
 30
0.0
  9
$UCSORGBACK
 10
0.0
 20
0.0
 30
0.0
  9
$PUCSBASE
  2

  9
$PUCSNAME
  2

  9
$PUCSORG
 10
0.0
 20
0.0
 30
0.0
  9
$PUCSXDIR
 10
1.0
 20
0.0
 30
0.0
  9
$PUCSYDIR
 10
0.0
 20
1.0
 30
0.0
  9
$PUCSORTHOREF
  2

  9
$PUCSORTHOVIEW
 70
     0
  9
$PUCSORGTOP
 10
0.0
 20
0.0
 30
0.0
  9
$PUCSORGBOTTOM
 10
0.0
 20
0.0
 30
0.0
  9
$PUCSORGLEFT
 10
0.0
 20
0.0
 30
0.0
  9
$PUCSORGRIGHT
 10
0.0
 20
0.0
 30
0.0
  9
$PUCSORGFRONT
 10
0.0
 20
0.0
 30
0.0
  9
$PUCSORGBACK
 10
0.0
 20
0.0
 30
0.0
  9
$USERI1
 70
     0
  9
$USERI2
 70
     0
  9
$USERI3
 70
     0
  9
$USERI4
 70
     0
  9
$USERI5
 70
     0
  9
$USERR1
 40
0.0
  9
$USERR2
 40
0.0
  9
$USERR3
 40
0.0
  9
$USERR4
 40
0.0
  9
$USERR5
 40
0.0
  9
$WORLDVIEW
 70
     1
  9
$SHADEDGE
 70
     3
  9
$SHADEDIF
 70
    70
  9
$TILEMODE
 70
     1
  9
$MAXACTVP
 70
    64
  9
$PINSBASE
 10
0.0
 20
0.0
 30
0.0
  9
$PLIMCHECK
 70
     0
  9
$PEXTMIN
 10
1.000000000000000E+20
 20
1.000000000000000E+20
 30
1.000000000000000E+20
  9
$PEXTMAX
 10
-1.000000000000000E+20
 20
-1.000000000000000E+20
 30
-1.000000000000000E+20
  9
$PLIMMIN
 10
0.0
 20
0.0
  9
$PLIMMAX
 10
0.0
 20
0.0
  9
$UNITMODE
 70
     0
  9
$VISRETAIN
 70
     1
  9
$PLINEGEN
 70
     0
  9
$PSLTSCALE
 70
     1
  9
$TREEDEPTH
 70
  3020
  9
$CMLSTYLE
  2
Standard
  9
$CMLJUST
 70
     0
  9
$CMLSCALE
 40
20.0
  9
$PROXYGRAPHICS
 70
     1
  9
$MEASUREMENT
 70
     1
  9
$CELWEIGHT
370
    -1
  9
$ENDCAPS
280
     0
  9
$JOINSTYLE
280
     0
  9
$LWDISPLAY
290
     0
  9
$INSUNITS
 70
     4
  9
$HYPERLINKBASE
  1

  9
$STYLESHEET
  1
monochrome.ctb
  9
$XEDIT
290
     1
  9
$CEPSNTYPE
380
     0
  9
$PSTYLEMODE
290
     1
  9
$FINGERPRINTGUID
  2
{FDEAD578-A652-11D2-9A35-0060089B3A3F}
  9
$VERSIONGUID
  2
{FF53CD4B-1AF9-4F2F-ABC0-CA7DF949A403}
  9
$EXTNAMES
290
     1
  9
$PSVPSCALE
 40
0.0
  9
$OLESTARTUP
290
     0
  0
ENDSEC
  0
SECTION
  2
CLASSES
  0
CLASS
  1
ACDBDICTIONARYWDFLT
  2
AcDbDictionaryWithDefault
  3
ObjectDBX Classes
 90
        0
280
     0
281
     0
  0
CLASS
  1
ACDBPLACEHOLDER
  2
AcDbPlaceHolder
  3
ObjectDBX Classes
 90
        0
280
     0
281
     0
  0
CLASS
  1
LAYOUT
  2
AcDbLayout
  3
ObjectDBX Classes
 90
        0
280
     0
281
     0
  0
CLASS
  1
DICTIONARYVAR
  2
AcDbDictionaryVar
  3
ObjectDBX Classes
 90
        0
280
     0
281
     0
  0
CLASS
  1
SCALE
  2
AcDbScale
  3
ObjectDBX Classes
 90
     1153
280
     0
281
     0
  0
CLASS
  1
MATERIAL
  2
AcDbMaterial
  3
ObjectDBX Classes
 90
     1153
280
     0
281
     0
  0
CLASS
  1
VISUALSTYLE
  2
AcDbVisualStyle
  3
ObjectDBX Classes
 90
     4095
280
     0
281
     0
  0
CLASS
  1
TABLESTYLE
  2
AcDbTableStyle
  3
ObjectDBX Classes
 90
     4095
280
     0
281
     0
  0
CLASS
  1
RASTERVARIABLES
  2
AcDbRasterVariables
  3
ISM
 90
        0
280
     0
281
     0
  0
CLASS
  1
AEC_VARS_DWG_SETUP
  2
AecDbVarsDwgSetup
  3
AecBase60
 90
      129
280
     0
281
     0
  0
CLASS
  1
AEC_DISP_REP_2D_SECTION
  2
AecDbDispRep2dSection
  3
AecBase60
 90
      129
280
     0
281
     0
  0
CLASS
  1
AEC_DISP_PROPS_2D_SECTION
  2
AecDbDispProps2dSection
  3
AecBase60
 90
      129
280
     0
281
     0
  0
CLASS
  1
AEC_DISP_REP_CLIP_VOLUME_MODEL
  2
AecDbDispRepClipVolModel
  3
AecBase60
 90
      129
280
     0
281
     0
  0
CLASS
  1
AEC_DISP_PROPS_CLIP_VOLUME
  2
AecDbDispPropsClipVol
  3
AecBase60
 90
      129
280
     0
281
     0
  0
CLASS
  1
AEC_DISP_REP_CLIP_VOLUME_PLAN
  2
AecDbDispRepClipVolPlan
  3
AecBase60
 90
      129
280
     0
281
     0
  0
CLASS
  1
AEC_DISP_REP_CLIP_VOLUME_RESULT
  2
AecDbDispRepClipVolResult
  3
AecBase60
 90
      129
280
     0
281
     0
  0
CLASS
  1
AEC_DISP_REP_CLIP_VOLUME_RESULT_SUBDIV
  2
AecDbDispRepClipVolResSubDiv
  3
AecBase60
 90
      129
280
     0
281
     0
  0
CLASS
  1
AEC_DISP_PROPS_CLIP_VOLUME_RESULT
  2
AecDbDispPropsClipVolResSubDiv
  3
AecBase60
 90
      129
280
     0
281
     0
  0
CLASS
  1
AEC_DISP_REP_DISPLAYTHEME
  2
AecDbDispRepDisplayTheme
  3
AecBase60
 90
      129
280
     0
281
     0
  0
CLASS
  1
AEC_DISP_PROPS_DISPLAYTHEME
  2
AecDbDispPropsDisplayTheme
  3
AecBase60
 90
      129
280
     0
281
     0
  0
CLASS
  1
AEC_DISP_REP_ENT_REF
  2
AecDbDispRepEntRef
  3
AecBase60
 90
      129
280
     0
281
     0
  0
CLASS
  1
AEC_DISP_PROPS_ENT_REF
  2
AecDbDispPropsEntRef
  3
AecBase60
 90
      129
280
     0
281
     0
  0
CLASS
  1
AEC_DISP_REP_LAYOUT_CURVE
  2
AecDbDispRepLayoutCurve
  3
AecBase60
 90
      129
280
     0
281
     0
  0
CLASS
  1
AEC_DISP_PROPS_LAYOUT_CURVE
  2
AecDbDispPropsLayoutCurve
  3
AecBase60
 90
      129
280
     0
281
     0
  0
CLASS
  1
AEC_DISP_REP_LAYOUT_GRID2D
  2
AecDbDispRepLayoutGrid2d
  3
AecBase60
 90
      129
280
     0
281
     0
  0
CLASS
  1
AEC_DISP_PROPS_LAYOUT_GRID2D
  2
AecDbDispPropsLayoutGrid2d
  3
AecBase60
 90
      129
280
     0
281
     0
  0
CLASS
  1
AEC_DISP_REP_LAYOUT_GRID3D
  2
AecDbDispRepLayoutGrid3d
  3
AecBase60
 90
      129
280
     0
281
     0
  0
CLASS
  1
AEC_DISP_PROPS_LAYOUT_GRID3D
  2
AecDbDispPropsLayoutGrid3d
  3
AecBase60
 90
      129
280
     0
281
     0
  0
CLASS
  1
AEC_DISP_REP_MASKBLOCK_REF
  2
AecDbDispRepMaskBlockRef
  3
AecBase60
 90
      129
280
     0
281
     0
  0
CLASS
  1
AEC_DISP_PROPS_MASKBLOCK
  2
AecDbDispPropsMaskBlock
  3
AecBase60
 90
      129
280
     0
281
     0
  0
CLASS
  1
AEC_DISP_REP_MASKBLOCK_REF_RCP
  2
AecDbDispRepMaskBlockRefRcp
  3
AecArchBase60
 90
      129
280
     0
281
     0
  0
CLASS
  1
AEC_DISP_REP_MASS_ELEM_MODEL
  2
AecDbDispRepMassElemModel
  3
AecBase60
 90
      129
280
     0
281
     0
  0
CLASS
  1
AEC_DISP_PROPS_MASS_ELEM_MODEL
  2
AecDbDispPropsMassElem
  3
AecBase60
 90
      129
280
     0
281
     0
  0
CLASS
  1
AEC_DISP_REP_MASS_ELEM_SCHEM
  2
AecDbDispRepMassElemSchem
  3
AecBase60
 90
      129
280
     0
281
     0
  0
CLASS
  1
AEC_DISPREPAECDBDISPREPMASSELEMPLAN50
  2
AecDbDispRepMassElemPlan50
  3
AecArchDACHBase60
 90
      129
280
     0
281
     0
  0
CLASS
  1
AEC_DISPROPSMASSELEMPLANCOMMON
  2
AecDbDispPropsMassElemPlanCommon
  3
AecArchDACHBase60
 90
      129
280
     0
281
     0
  0
CLASS
  1
AEC_DISPREPAECDBDISPREPMASSELEMPLAN100
  2
AecDbDispRepMassElemPlan100
  3
AecArchDACHBase60
 90
      129
280
     0
281
     0
  0
CLASS
  1
AEC_DISP_REP_MASS_ELEM_RCP
  2
AecDbDispRepMassElemRcp
  3
AecArchBase60
 90
      129
280
     0
281
     0
  0
CLASS
  1
AEC_DISP_REP_MASS_GROUP_MODEL
  2
AecDbDispRepMassGroupModel
  3
AecBase60
 90
      129
280
     0
281
     0
  0
CLASS
  1
AEC_DISP_PROPS_MASS_GROUP
  2
AecDbDispPropsMassGroup
  3
AecBase60
 90
      129
280
     0
281
     0
  0
CLASS
  1
AEC_DISP_REP_MASS_GROUP_PLAN
  2
AecDbDispRepMassGroupPlan
  3
AecBase60
 90
      129
280
     0
281
     0
  0
CLASS
  1
AEC_DISPREPAECDBDISPREPMASSGROUPPLAN50
  2
AecDbDispRepMassGroupPlan50
  3
AecArchDACHBase60
 90
      129
280
     0
281
     0
  0
CLASS
  1
AEC_DISPROPSMASSGROUPPLANCOMMON
  2
AecDbDispPropsMassGroupPlanCommon
  3
AecArchDACHBase60
 90
      129
280
     0
281
     0
  0
CLASS
  1
AEC_DISPREPAECDBDISPREPMASSGROUPPLAN100
  2
AecDbDispRepMassGroupPlan100
  3
AecArchDACHBase60
 90
      129
280
     0
281
     0
  0
CLASS
  1
AEC_DISP_REP_MASS_GROUP_RCP
  2
AecDbDispRepMassGroupRcp
  3
AecArchBase60
 90
      129
280
     0
281
     0
  0
CLASS
  1
AEC_DISP_REP_MVBLOCK_REF
  2
AecDbDispRepMvBlockRef
  3
AecBase60
 90
      129
280
     0
281
     0
  0
CLASS
  1
AEC_DISP_REP_MVBLOCK_REF_MODEL
  2
AecDbDispRepMvBlockRefModel
  3
AecBase60
 90
      129
280
     0
281
     0
  0
CLASS
  1
AEC_AECDBDISPREPMVBLOCKREFPLAN100
  2
AecDbDispRepMvBlockRefPlan100
  3
AecBase60
 90
      129
280
     0
281
     0
  0
CLASS
  1
AEC_AECDBDISPREPMVBLOCKREFPLAN50
  2
AecDbDispRepMvBlockRefPlan50
  3
AecBase60
 90
      129
280
     0
281
     0
  0
CLASS
  1
AEC_DISP_REP_POLYGON_MODEL
  2
AecDbDispRepPolygonModel
  3
AecBase60
 90
      129
280
     0
281
     0
  0
CLASS
  1
AEC_DISP_PROPS_POLYGON_MODEL
  2
AecDbDispPropsPolygonModel
  3
AecBase60
 90
      129
280
     0
281
     0
  0
CLASS
  1
AEC_DISP_REP_POLYGON_TRUECOLOUR
  2
AecDbDispRepPolygonTrueColour
  3
AecBase60
 90
      129
280
     0
281
     0
  0
CLASS
  1
AEC_DISP_PROPS_POLYGON_TRUECOLOUR
  2
AecDbDispPropsPolygonTrueColour
  3
AecBase60
 90
      129
280
     0
281
     0
  0
CLASS
  1
AEC_DISP_REP_SLICE
  2
AecDbDispRepSlice
  3
AecBase60
 90
      129
280
     0
281
     0
  0
CLASS
  1
AEC_DISP_PROPS_SLICE
  2
AecDbDispPropsSlice
  3
AecBase60
 90
      129
280
     0
281
     0
  0
CLASS
  1
AEC_DISP_REP_ANCHOR
  2
AecDbDispRepAnchor
  3
AecBase60
 90
      129
280
     0
281
     0
  0
CLASS
  1
AEC_DISP_REP_ANCHOR_ENT_TO_NODE
  2
AecDbDispRepAnchorEntToNode
  3
AecBase60
 90
      129
280
     0
281
     0
  0
CLASS
  1
AEC_DISP_PROPS_ENT
  2
AecDbDispPropsEnt
  3
AecBase60
 90
      129
280
     0
281
     0
  0
CLASS
  1
AEC_DISP_REP_MATERIAL
  2
AecDbDispRepMaterial
  3
AecBase60
 90
      129
280
     0
281
     0
  0
CLASS
  1
AEC_DISP_PROPS_MATERIAL
  2
AecDbDispPropsMaterial
  3
AecBase60
 90
      129
280
     0
281
     0
  0
CLASS
  1
AEC_DISP_REP_EDITINPLACEPROFILE
  2
AecDbDispRepEditInPlaceProfile
  3
AecBase60
 90
      129
280
     0
281
     0
  0
CLASS
  1
AEC_DISP_PROPS_EDITINPLACEPROFILE_MODEL
  2
AecDbDispPropsEditInPlaceProfile
  3
AecBase60
 90
      129
280
     0
281
     0
  0
CLASS
  1
SUN
  2
AcDbSun
  3
SCENEOE
 90
     1153
280
     0
281
     0
  0
CLASS
  1
SORTENTSTABLE
  2
AcDbSortentsTable
  3
ObjectDBX Classes
 90
        0
280
     0
281
     0
  0
CLASS
  1
MLEADERSTYLE
  2
AcDbMLeaderStyle
  3
ACDB_MLEADERSTYLE_CLASS
 90
     4095
280
     0
281
     0
  0
ENDSEC
  0
SECTION
  2
TABLES
  0
TABLE
  2
VPORT
  5
8
330
0
100
AcDbSymbolTable
 70
     1
  0
VPORT
  5
A2A1
330
8
100
AcDbSymbolTableRecord
100
AcDbViewportTableRecord
  2
*Active
 70
     0
 10
0.0
 20
0.0
 11
1.0
 21
1.0
 12
4553.967815208041
 22
1034.551745466394
 13
0.0
 23
0.0
 14
10.0
 24
10.0
 15
10.0
 25
10.0
 16
0.0
 26
0.0
 36
1.0
 17
0.0
 27
0.0
 37
0.0
 40
2506.036719665266
 41
1.479876160990712
 42
50.0
 43
0.0
 44
0.0
 50
0.0
 51
0.0
 71
    16
 72
   100
 73
     1
 74
     2
 75
     0
 76
     0
 77
     0
 78
     0
281
     0
 65
     1
110
0.0
120
0.0
130
0.0
111
1.0
121
0.0
131
0.0
112
0.0
122
1.0
132
0.0
 79
     0
146
0.0
  0
ENDTAB
  0
TABLE
  2
LTYPE
  5
5
330
0
100
AcDbSymbolTable
 70
     8
  0
LTYPE
  5
14
330
5
100
AcDbSymbolTableRecord
100
AcDbLinetypeTableRecord
  2
ByBlock
 70
     0
  3

 72
    65
 73
     0
 40
0.0
  0
LTYPE
  5
15
330
5
100
AcDbSymbolTableRecord
100
AcDbLinetypeTableRecord
  2
ByLayer
 70
     0
  3

 72
    65
 73
     0
 40
0.0
  0
LTYPE
  5
16
330
5
100
AcDbSymbolTableRecord
100
AcDbLinetypeTableRecord
  2
Continuous
 70
     0
  3
Solid line
 72
    65
 73
     0
 40
0.0
  0
LTYPE
  5
BA
330
5
100
AcDbSymbolTableRecord
100
AcDbLinetypeTableRecord
  2
HIDDEN
 70
     0
  3
Hidden __ __ __ __ __ __ __ __ __ __ __ __ __ _
 72
    65
 73
     2
 40
9.524999999999999
 49
6.35
 74
     0
 49
-3.175
 74
     0
  0
LTYPE
  5
BB
330
5
100
AcDbSymbolTableRecord
100
AcDbLinetypeTableRecord
  2
PHANTOM
 70
     0
  3
Phantom ______  __  __  ______  __  __  ______
 72
    65
 73
     6
 40
63.5
 49
31.75
 74
     0
 49
-6.35
 74
     0
 49
6.35
 74
     0
 49
-6.35
 74
     0
 49
6.35
 74
     0
 49
-6.35
 74
     0
  0
LTYPE
  5
BC
330
5
100
AcDbSymbolTableRecord
100
AcDbLinetypeTableRecord
  2
CENTER
 70
     0
  3
Center ____ _ ____ _ ____ _ ____ _ ____ _ ____
 72
    65
 73
     4
 40
50.8
 49
31.75
 74
     0
 49
-6.35
 74
     0
 49
6.35
 74
     0
 49
-6.35
 74
     0
  0
LTYPE
  5
47C
330
5
100
AcDbSymbolTableRecord
100
AcDbLinetypeTableRecord
  2
DOT
 70
     0
  3
Dot . . . . . . . . . . . . . . . . . . . . . .
 72
    65
 73
     2
 40
6.35
 49
0.0
 74
     0
 49
-6.35
 74
     0
  0
LTYPE
  5
20C6
330
5
100
AcDbSymbolTableRecord
100
AcDbLinetypeTableRecord
  2
CENTER2
 70
     0
  3
Center (.5x) ___ _ ___ _ ___ _ ___ _ ___ _ ___
 72
    65
 73
     4
 40
28.575
 49
19.05
 74
     0
 49
-3.175
 74
     0
 49
3.175
 74
     0
 49
-3.175
 74
     0
  0
LTYPE
  5
3BF0
330
5
100
AcDbSymbolTableRecord
100
AcDbLinetypeTableRecord
  2
CENTERX2
 70
     0
  3
Center (2x) ________  __  ________  __  _____
 72
    65
 73
     4
 40
20.32
 49
12.7
 74
     0
 49
-2.54
 74
     0
 49
2.54
 74
     0
 49
-2.54
 74
     0
  0
LTYPE
  5
82C6
330
5
100
AcDbSymbolTableRecord
100
AcDbLinetypeTableRecord
  2
HIDDEN2
 70
     0
  3
Hidden (.5x) _ _ _ _ _ _ _ _ _ _ _ _ _ _ _ _ _
 72
    65
 73
     2
 40
4.762499999999999
 49
3.175
 74
     0
 49
-1.5875
 74
     0
  0
ENDTAB
  0
TABLE
  2
LAYER
  5
2
102
{ACAD_XDICTIONARY
360
7A6F
102
}
330
0
100
AcDbSymbolTable
 70
    10
  0
LAYER
  5
10
330
2
100
AcDbSymbolTableRecord
100
AcDbLayerTableRecord
  2
0
 70
     0
 62
     7
  6
Continuous
370
    -3
390
F
  0
LAYER
  5
45
330
2
100
AcDbSymbolTableRecord
100
AcDbLayerTableRecord
  2
01注記寸法
 70
     0
 62
     7
  6
Continuous
370
     9
390
F
  0
LAYER
  5
5F
330
2
100
AcDbSymbolTableRecord
100
AcDbLayerTableRecord
  2
Defpoints
 70
     0
 62
     7
  6
Continuous
290
     0
370
    -3
390
F
  0
LAYER
  5
82BC
330
2
100
AcDbSymbolTableRecord
100
AcDbLayerTableRecord
  2
02製品
 70
     0
 62
     2
  6
Continuous
370
    15
390
F
  0
LAYER
  5
82BD
330
2
100
AcDbSymbolTableRecord
100
AcDbLayerTableRecord
  2
03境界
 70
     0
 62
     3
  6
HIDDEN
370
     9
390
F
  0
LAYER
  5
82BF
330
2
100
AcDbSymbolTableRecord
100
AcDbLayerTableRecord
  2
04筺体
 70
     0
 62
     6
  6
Continuous
370
     9
390
F
  0
LAYER
  5
82C0
330
2
100
AcDbSymbolTableRecord
100
AcDbLayerTableRecord
  2
05GL
 70
     0
 62
     2
  6
Continuous
370
     9
390
F
  0
LAYER
  5
82C1
330
2
100
AcDbSymbolTableRecord
100
AcDbLayerTableRecord
  2
06非表示
 70
     0
 62
     4
  6
Continuous
290
     0
370
     0
390
F
  0
LAYER
  5
82C2
330
2
100
AcDbSymbolTableRecord
100
AcDbLayerTableRecord
  2
07図枠
 70
     0
 62
     1
  6
Continuous
370
    30
390
F
  0
LAYER
  5
A415
330
2
100
AcDbSymbolTableRecord
100
AcDbLayerTableRecord
  2
2　寸法
 70
     0
 62
     7
  6
Continuous
370
     9
390
F
  0
ENDTAB
  0
TABLE
  2
STYLE
  5
3
330
0
100
AcDbSymbolTable
 70
     5
  0
STYLE
  5
11
330
3
100
AcDbSymbolTableRecord
100
AcDbTextStyleTableRecord
  2
Standard
 70
     0
 40
0.0
 41
1.0
 50
0.0
 71
     0
 42
3.0
  3
MS Gothic.ttf
  4

1001
ACAD
1000
MS Gothic
1071
    32817
  0
STYLE
  5
19E
330
3
100
AcDbSymbolTableRecord
100
AcDbTextStyleTableRecord
  2
STYLE1
 70
     0
 40
0.0
 41
0.9
 50
0.0
 71
     0
 42
28.125
  3
TXT.shx
  4
extfont.shx
  0
STYLE
  5
47B
330
3
100
AcDbSymbolTableRecord
100
AcDbTextStyleTableRecord
  2

 70
     1
 40
0.0
 41
1.0
 50
0.0
 71
     0
 42
3.0
  3
ltypeshp.shx
  4

  0
STYLE
  5
25F6
330
3
100
AcDbSymbolTableRecord
100
AcDbTextStyleTableRecord
  2
ST_CUSTOM
 70
     0
 40
0.0
 41
0.8
 50
0.0
 71
     0
 42
4.2
  3
txt.shx
  4
extfont.shx
  0
STYLE
  5
25F7
330
3
100
AcDbSymbolTableRecord
100
AcDbTextStyleTableRecord
  2
StCustom
 70
     0
 40
0.0
 41
0.8
 50
0.0
 71
     0
 42
3.2
  3
txt.shx
  4
extfont.shx
  0
ENDTAB
  0
TABLE
  2
VIEW
  5
6
330
0
100
AcDbSymbolTable
 70
     0
  0
ENDTAB
  0
TABLE
  2
UCS
  5
7
330
0
100
AcDbSymbolTable
 70
     0
  0
ENDTAB
  0
TABLE
  2
APPID
  5
9
330
0
100
AcDbSymbolTable
 70
    15
  0
APPID
  5
12
330
9
100
AcDbSymbolTableRecord
100
AcDbRegAppTableRecord
  2
ACAD
 70
     0
  0
APPID
  5
6A9E
330
9
100
AcDbSymbolTableRecord
100
AcDbRegAppTableRecord
  2
ACAD_DSTYLE_DIMRADIAL_EXTENSION
 70
     0
  0
APPID
  5
742C
330
9
100
AcDbSymbolTableRecord
100
AcDbRegAppTableRecord
  2
ACAD_PSEXT
 70
     0
  0
APPID
  5
742D
330
9
100
AcDbSymbolTableRecord
100
AcDbRegAppTableRecord
  2
ACAD_DSTYLE_DIMJAG
 70
     0
  0
APPID
  5
742E
330
9
100
AcDbSymbolTableRecord
100
AcDbRegAppTableRecord
  2
ACAD_DSTYLE_DIMTALN
 70
     0
  0
APPID
  5
8254
330
9
100
AcDbSymbolTableRecord
100
AcDbRegAppTableRecord
  2
AECBASE
 70
     0
  0
APPID
  5
8255
330
9
100
AcDbSymbolTableRecord
100
AcDbRegAppTableRecord
  2
AEC_2DSECTION_XDATA
 70
     0
  0
APPID
  5
8256
330
9
100
AcDbSymbolTableRecord
100
AcDbRegAppTableRecord
  2
AEC_MASSGROUP_XDADA
 70
     0
  0
APPID
  5
CBC8
330
9
100
AcDbSymbolTableRecord
100
AcDbRegAppTableRecord
  2
ACAD_DSTYLE_DIMFLIPARROW_SYMBOL
 70
     0
  0
APPID
  5
CBC9
330
9
100
AcDbSymbolTableRecord
100
AcDbRegAppTableRecord
  2
ACAD_DSTYLE_DIMFLIPARROW_WHICH_SYMBOL
 70
     0
  0
APPID
  5
CBCA
330
9
100
AcDbSymbolTableRecord
100
AcDbRegAppTableRecord
  2
ACAD_DSTYLE_DIMARC_LENGTH_SYMBOL
 70
     0
  0
APPID
  5
CBCB
330
9
100
AcDbSymbolTableRecord
100
AcDbRegAppTableRecord
  2
ACAD_DSTYLE_DIM_LINETYPE
 70
     0
  0
APPID
  5
CBCC
330
9
100
AcDbSymbolTableRecord
100
AcDbRegAppTableRecord
  2
ACAD_DSTYLE_DIM_EXT1_LINETYPE
 70
     0
  0
APPID
  5
CBCD
330
9
100
AcDbSymbolTableRecord
100
AcDbRegAppTableRecord
  2
ACAD_DSTYLE_DIM_EXT2_LINETYPE
 70
     0
  0
APPID
  5
12A99
330
9
100
AcDbSymbolTableRecord
100
AcDbRegAppTableRecord
  2
PE_URL
 70
     0
  0
ENDTAB
  0
TABLE
  2
DIMSTYLE
  5
A
330
0
100
AcDbSymbolTable
 70
    24
100
AcDbDimStyleTable
  0
DIMSTYLE
105
73
330
A
100
AcDbSymbolTableRecord
100
AcDbDimStyleTableRecord
  2
NEMY-1
 70
     0
 41
3.0
 42
1.5
 43
10.0
 44
1.0
 73
     0
 74
     0
 77
     1
 78
     8
140
3.0
141
1.5
143
0.03937007874016
147
1.0
171
     3
172
     1
178
     0
271
     1
272
     1
274
     3
283
     0
284
     8
340
11
341
8F
342
8F
  0
DIMSTYLE
105
4DCE
330
A
100
AcDbSymbolTableRecord
100
AcDbDimStyleTableRecord
  2
NEMY-2
 70
     0
 40
2.0
 41
3.0
 42
1.5
 43
10.0
 44
1.0
 73
     0
 74
     0
 77
     1
 78
     8
140
3.0
141
1.5
143
0.03937007874016
147
1.0
171
     3
172
     1
178
     0
271
     1
272
     1
274
     3
283
     0
284
     8
340
11
341
8F
342
8F
  0
DIMSTYLE
105
4DCF
330
A
100
AcDbSymbolTableRecord
100
AcDbDimStyleTableRecord
  2
NEMY-3
 70
     0
 40
3.0
 41
3.0
 42
1.5
 43
10.0
 44
1.0
 73
     0
 74
     0
 77
     1
 78
     8
140
3.0
141
1.5
143
0.03937007874016
147
1.0
171
     3
172
     1
178
     0
271
     1
272
     1
274
     3
283
     0
284
     8
340
11
341
8F
342
8F
  0
DIMSTYLE
105
4DD0
330
A
100
AcDbSymbolTableRecord
100
AcDbDimStyleTableRecord
  2
NEMY-5
 70
     0
 40
5.0
 41
3.0
 42
1.5
 43
10.0
 44
1.0
 73
     0
 74
     0
 77
     1
 78
     8
140
3.0
141
1.5
143
0.03937007874016
147
1.0
171
     3
172
     1
178
     0
271
     1
272
     1
274
     3
283
     0
284
     8
340
11
341
8F
342
8F
  0
DIMSTYLE
105
4DD1
330
A
100
AcDbSymbolTableRecord
100
AcDbDimStyleTableRecord
  2
NEMY-8
 70
     0
 40
8.0
 41
3.0
 42
1.5
 43
10.0
 44
1.0
 73
     0
 74
     0
 77
     1
 78
     8
140
3.0
141
1.5
143
0.03937007874016
147
1.0
171
     3
172
     1
178
     0
271
     1
272
     1
274
     3
283
     0
284
     8
340
11
341
8F
342
8F
  0
DIMSTYLE
105
4DD2
330
A
100
AcDbSymbolTableRecord
100
AcDbDimStyleTableRecord
  2
NEMY-15
 70
     0
 40
15.0
 41
3.0
 42
1.5
 43
10.0
 44
1.0
 73
     0
 74
     0
 77
     1
 78
     8
140
3.0
141
1.5
143
0.03937007874016
147
1.0
171
     3
172
     1
178
     0
271
     1
272
     1
274
     3
283
     0
284
     8
340
11
341
8F
342
8F
  0
DIMSTYLE
105
4DD3
330
A
100
AcDbSymbolTableRecord
100
AcDbDimStyleTableRecord
  2
NEMY-10
 70
     0
 40
10.0
 41
3.0
 42
1.5
 43
10.0
 44
1.0
 73
     0
 74
     0
 77
     1
 78
     8
140
3.0
141
1.5
143
0.03937007874016
147
1.0
171
     3
172
     1
178
     0
271
     1
272
     1
274
     3
283
     0
284
     8
340
11
341
8F
342
8F
  0
DIMSTYLE
105
4DD4
330
A
100
AcDbSymbolTableRecord
100
AcDbDimStyleTableRecord
  2
NEMY-25
 70
     0
 40
25.0
 41
3.0
 42
1.5
 43
10.0
 44
1.0
 73
     0
 74
     0
 77
     1
 78
     8
140
3.0
141
1.5
143
0.03937007874016
147
1.0
171
     3
172
     1
178
     0
271
     1
272
     1
274
     3
283
     0
284
     8
340
11
341
8F
342
8F
  0
DIMSTYLE
105
4DD5
330
A
100
AcDbSymbolTableRecord
100
AcDbDimStyleTableRecord
  2
NEMY-30
 70
     0
 40
30.0
 41
3.0
 42
1.5
 43
10.0
 44
1.0
 73
     0
 74
     0
 77
     1
 78
     8
140
3.0
141
1.5
143
0.03937007874016
147
1.0
171
     3
172
     1
178
     0
271
     1
272
     1
274
     3
283
     0
284
     8
340
11
341
8F
342
8F
  0
DIMSTYLE
105
4DD6
330
A
100
AcDbSymbolTableRecord
100
AcDbDimStyleTableRecord
  2
NEMY-50
 70
     0
 40
50.0
 41
3.0
 42
1.5
 43
10.0
 44
1.0
 73
     0
 74
     0
 77
     1
 78
     8
140
3.0
141
1.5
143
0.03937007874016
147
1.0
171
     3
172
     1
178
     0
271
     1
272
     1
274
     3
283
     0
284
     8
340
11
341
8F
342
8F
  0
DIMSTYLE
105
4E6F
330
A
100
AcDbSymbolTableRecord
100
AcDbDimStyleTableRecord
  2
NEMY-20
 70
     0
 40
20.0
 41
3.0
 42
1.5
 43
10.0
 44
1.0
 73
     0
 74
     0
 77
     1
 78
     8
140
3.0
141
1.5
143
0.03937007874016
147
1.0
171
     3
172
     1
178
     0
271
     1
272
     1
274
     3
283
     0
284
     8
340
11
341
8F
342
8F
  0
DIMSTYLE
105
4F44
330
A
100
AcDbSymbolTableRecord
100
AcDbDimStyleTableRecord
  2
NEMY-10$3
 70
     0
 40
10.0
 41
3.0
 42
1.5
 43
10.0
 44
1.0
 77
     1
 78
     8
140
3.0
141
1.5
143
0.03937007874016
147
1.0
171
     3
172
     1
178
     0
271
     1
272
     1
274
     3
283
     0
284
     8
340
11
341
8F
342
8F
  0
DIMSTYLE
105
4F45
330
A
100
AcDbSymbolTableRecord
100
AcDbDimStyleTableRecord
  2
NEMY-1$3
 70
     0
 41
3.0
 42
1.5
 43
10.0
 44
1.0
 77
     1
 78
     8
140
3.0
141
1.5
143
0.03937007874016
147
1.0
171
     3
172
     1
178
     0
271
     1
272
     1
274
     3
283
     0
284
     8
340
11
341
8F
342
8F
  0
DIMSTYLE
105
4F46
330
A
100
AcDbSymbolTableRecord
100
AcDbDimStyleTableRecord
  2
NEMY-12
 70
     0
 40
12.0
 41
3.0
 42
1.5
 43
10.0
 44
1.0
 73
     0
 74
     0
 77
     1
 78
     8
140
3.0
141
1.5
143
0.03937007874016
147
1.0
171
     3
172
     1
178
     0
271
     1
272
     1
274
     3
283
     0
284
     8
340
11
341
8F
342
8F
  0
DIMSTYLE
105
4F47
330
A
100
AcDbSymbolTableRecord
100
AcDbDimStyleTableRecord
  2
NEMY-12$3
 70
     0
 40
12.0
 41
3.0
 42
1.5
 43
10.0
 44
1.0
 77
     1
 78
     8
140
3.0
141
1.5
143
0.03937007874016
147
1.0
171
     3
172
     1
178
     0
271
     1
272
     1
274
     3
283
     0
284
     8
340
11
341
8F
342
8F
  0
DIMSTYLE
105
5E6E
330
A
100
AcDbSymbolTableRecord
100
AcDbDimStyleTableRecord
  2
NEMY-8$3
 70
     0
 40
8.0
 41
3.0
 42
1.5
 43
10.0
 44
1.0
 77
     1
 78
     8
140
3.0
141
1.5
143
0.03937007874016
147
1.0
171
     3
172
     1
178
     0
271
     1
272
     1
274
     3
283
     0
284
     8
340
11
341
8F
342
8F
  0
DIMSTYLE
105
5E6F
330
A
100
AcDbSymbolTableRecord
100
AcDbDimStyleTableRecord
  2
NEMY-50$3
 70
     0
 40
50.0
 41
3.0
 42
1.5
 43
10.0
 44
1.0
 77
     1
 78
     8
140
3.0
141
1.5
143
0.03937007874016
147
1.0
171
     3
172
     1
178
     0
271
     1
272
     1
274
     3
283
     0
284
     8
340
11
341
8F
342
8F
  0
DIMSTYLE
105
5E70
330
A
100
AcDbSymbolTableRecord
100
AcDbDimStyleTableRecord
  2
NEMY-5$3
 70
     0
 40
5.0
 41
3.0
 42
1.5
 43
10.0
 44
1.0
 77
     1
 78
     8
140
3.0
141
1.5
143
0.03937007874016
147
1.0
171
     3
172
     1
178
     0
271
     1
272
     1
274
     3
283
     0
284
     8
340
11
341
8F
342
8F
  0
DIMSTYLE
105
5E71
330
A
100
AcDbSymbolTableRecord
100
AcDbDimStyleTableRecord
  2
NEMY-30$3
 70
     0
 40
30.0
 41
3.0
 42
1.5
 43
10.0
 44
1.0
 77
     1
 78
     8
140
3.0
141
1.5
143
0.03937007874016
147
1.0
171
     3
172
     1
178
     0
271
     1
272
     1
274
     3
283
     0
284
     8
340
11
341
8F
342
8F
  0
DIMSTYLE
105
5E72
330
A
100
AcDbSymbolTableRecord
100
AcDbDimStyleTableRecord
  2
NEMY-3$3
 70
     0
 40
3.0
 41
3.0
 42
1.5
 43
10.0
 44
1.0
 77
     1
 78
     8
140
3.0
141
1.5
143
0.03937007874016
147
1.0
171
     3
172
     1
178
     0
271
     1
272
     1
274
     3
283
     0
284
     8
340
11
341
8F
342
8F
  0
DIMSTYLE
105
5E73
330
A
100
AcDbSymbolTableRecord
100
AcDbDimStyleTableRecord
  2
NEMY-25$3
 70
     0
 40
25.0
 41
3.0
 42
1.5
 43
10.0
 44
1.0
 77
     1
 78
     8
140
3.0
141
1.5
143
0.03937007874016
147
1.0
171
     3
172
     1
178
     0
271
     1
272
     1
274
     3
283
     0
284
     8
340
11
341
8F
342
8F
  0
DIMSTYLE
105
5E74
330
A
100
AcDbSymbolTableRecord
100
AcDbDimStyleTableRecord
  2
NEMY-20$3
 70
     0
 40
20.0
 41
3.0
 42
1.5
 43
10.0
 44
1.0
 77
     1
 78
     8
140
3.0
141
1.5
143
0.03937007874016
147
1.0
171
     3
172
     1
178
     0
271
     1
272
     1
274
     3
283
     0
284
     8
340
11
341
8F
342
8F
  0
DIMSTYLE
105
5E75
330
A
100
AcDbSymbolTableRecord
100
AcDbDimStyleTableRecord
  2
NEMY-2$3
 70
     0
 40
2.0
 41
3.0
 42
1.5
 43
10.0
 44
1.0
 77
     1
 78
     8
140
3.0
141
1.5
143
0.03937007874016
147
1.0
171
     3
172
     1
178
     0
271
     1
272
     1
274
     3
283
     0
284
     8
340
11
341
8F
342
8F
  0
DIMSTYLE
105
5E76
330
A
100
AcDbSymbolTableRecord
100
AcDbDimStyleTableRecord
  2
NEMY-15$3
 70
     0
 40
15.0
 41
3.0
 42
1.5
 43
10.0
 44
1.0
 77
     1
 78
     8
140
3.0
141
1.5
143
0.03937007874016
147
1.0
171
     3
172
     1
178
     0
271
     1
272
     1
274
     3
283
     0
284
     8
340
11
341
8F
342
8F
  0
ENDTAB
  0
TABLE
  2
BLOCK_RECORD
  5
1
330
0
100
AcDbSymbolTable
 70
    23
  0
BLOCK_RECORD
  5
1F
330
1
100
AcDbSymbolTableRecord
100
AcDbBlockTableRecord
  2
*Model_Space
340
22
  0
BLOCK_RECORD
  5
1B
330
1
100
AcDbSymbolTableRecord
100
AcDbBlockTableRecord
  2
*Paper_Space
340
1E
  0
BLOCK_RECORD
  5
23
330
1
100
AcDbSymbolTableRecord
100
AcDbBlockTableRecord
  2
*Paper_Space0
340
26
  0
BLOCK_RECORD
  5
8F
330
1
100
AcDbSymbolTableRecord
100
AcDbBlockTableRecord
  2
_Open
340
0
102
{BLKREFS
331
11C32
331
11C33
331
11C3E
331
11C3F
331
11C56
331
11C57
331
11C62
331
11C63
331
11C6E
331
11C6F
331
12264
331
12265
331
12271
331
12272
102
}
  0
BLOCK_RECORD
  5
626
330
1
100
AcDbSymbolTableRecord
100
AcDbBlockTableRecord
  2
_DotSmall
340
0
  0
BLOCK_RECORD
  5
6BC1
330
1
100
AcDbSymbolTableRecord
100
AcDbBlockTableRecord
  2
_None
340
0
  0
BLOCK_RECORD
  5
8D2C
330
1
100
AcDbSymbolTableRecord
100
AcDbBlockTableRecord
  2
A$C21067
340
0
  0
BLOCK_RECORD
  5
8D37
330
1
100
AcDbSymbolTableRecord
100
AcDbBlockTableRecord
  2
A$C19953
340
0
  0
BLOCK_RECORD
  5
8D42
330
1
100
AcDbSymbolTableRecord
100
AcDbBlockTableRecord
  2
A$C26388
340
0
  0
BLOCK_RECORD
  5
A626
330
1
100
AcDbSymbolTableRecord
100
AcDbBlockTableRecord
  2
A$C3C7277DA
340
0
102
{BLKREFS
331
12639
331
12661
102
}
  0
BLOCK_RECORD
  5
A701
330
1
100
AcDbSymbolTableRecord
100
AcDbBlockTableRecord
  2
SW_CENTERMARKSYMBOL_0
340
0
  0
BLOCK_RECORD
  5
A70D
330
1
100
AcDbSymbolTableRecord
100
AcDbBlockTableRecord
  2
SW_CENTERMARKSYMBOL_1
340
0
  0
BLOCK_RECORD
  5
A719
330
1
100
AcDbSymbolTableRecord
100
AcDbBlockTableRecord
  2
SW_CENTERMARKSYMBOL_2
340
0
102
{BLKREFS
331
12828
102
}
  0
BLOCK_RECORD
  5
A725
330
1
100
AcDbSymbolTableRecord
100
AcDbBlockTableRecord
  2
SW_CENTERMARKSYMBOL_3
340
0
102
{BLKREFS
331
12836
102
}
  0
BLOCK_RECORD
  5
A7B0
330
1
100
AcDbSymbolTableRecord
100
AcDbBlockTableRecord
  2
SW_CENTERMARKSYMBOL_8
340
0
102
{BLKREFS
331
127B9
331
1293F
102
}
  0
BLOCK_RECORD
  5
A7BC
330
1
100
AcDbSymbolTableRecord
100
AcDbBlockTableRecord
  2
SW_CENTERMARKSYMBOL_9
340
0
102
{BLKREFS
331
127E2
331
12954
102
}
  0
BLOCK_RECORD
  5
A7C8
330
1
100
AcDbSymbolTableRecord
100
AcDbBlockTableRecord
  2
SW_CENTERMARKSYMBOL_10
340
0
102
{BLKREFS
331
1299A
331
129A7
331
129A9
331
129AB
102
}
  0
BLOCK_RECORD
  5
A7D4
330
1
100
AcDbSymbolTableRecord
100
AcDbBlockTableRecord
  2
SW_CENTERMARKSYMBOL_11
340
0
  0
BLOCK_RECORD
  5
A848
330
1
100
AcDbSymbolTableRecord
100
AcDbBlockTableRecord
  2
SW_CENTERMARKSYMBOL_7
340
0
102
{BLKREFS
331
127CD
102
}
  0
BLOCK_RECORD
  5
A89F
330
1
100
AcDbSymbolTableRecord
100
AcDbBlockTableRecord
  2
SW_CENTERMARKSYMBOL_4
340
0
102
{BLKREFS
331
12814
331
12985
102
}
  0
BLOCK_RECORD
  5
C481
330
1
100
AcDbSymbolTableRecord
100
AcDbBlockTableRecord
  2
A$C28467
340
0
  0
BLOCK_RECORD
  5
125EA
330
1
100
AcDbSymbolTableRecord
100
AcDbBlockTableRecord
  2
A$C19363
340
0
  0
BLOCK_RECORD
  5
125FF
330
1
100
AcDbSymbolTableRecord
100
AcDbBlockTableRecord
  2
A$C1592
340
0
102
{BLKREFS
331
12760
102
}
  0
BLOCK_RECORD
  5
12761
330
1
100
AcDbSymbolTableRecord
100
AcDbBlockTableRecord
  2
A$C11744
340
0
102
{BLKREFS
331
128EC
102
}
  0
BLOCK_RECORD
  5
128ED
330
1
100
AcDbSymbolTableRecord
100
AcDbBlockTableRecord
  2
A$C20521
340
0
102
{BLKREFS
331
129F1
102
}
  0
ENDTAB
  0
ENDSEC
  0
SECTION
  2
BLOCKS
  0
BLOCK
  5
20
330
1F
100
AcDbEntity
  8
0
100
AcDbBlockBegin
  2
*Model_Space
 70
     0
 10
0.0
 20
0.0
 30
0.0
  3
*Model_Space
  1

  0
ENDBLK
  5
21
330
1F
100
AcDbEntity
  8
0
100
AcDbBlockEnd
  0
BLOCK
  5
1C
330
1B
100
AcDbEntity
 67
     1
  8
0
100
AcDbBlockBegin
  2
*Paper_Space
 70
     0
 10
0.0
 20
0.0
 30
0.0
  3
*Paper_Space
  1

  0
ENDBLK
  5
1D
330
1B
100
AcDbEntity
 67
     1
  8
0
100
AcDbBlockEnd
  0
BLOCK
  5
24
330
23
100
AcDbEntity
  8
0
100
AcDbBlockBegin
  2
*Paper_Space0
 70
     0
 10
0.0
 20
0.0
 30
0.0
  3
*Paper_Space0
  1

  0
ENDBLK
  5
25
330
23
100
AcDbEntity
  8
0
100
AcDbBlockEnd
  0
BLOCK
  5
93
330
8F
100
AcDbEntity
  8
0
100
AcDbBlockBegin
  2
_Open
 70
     0
 10
0.0
 20
0.0
 30
0.0
  3
_Open
  1

  0
LINE
  5
90
330
8F
100
AcDbEntity
  8
01注記寸法
 62
     0
370
    -2
100
AcDbLine
 10
-1.0
 20
0.1666666666666667
 30
0.0
 11
0.0
 21
0.0
 31
0.0
  0
LINE
  5
91
330
8F
100
AcDbEntity
  8
01注記寸法
 62
     0
370
    -2
100
AcDbLine
 10
-1.0
 20
-0.1666666666666667
 30
0.0
 11
0.0
 21
0.0
 31
0.0
  0
LINE
  5
92
330
8F
100
AcDbEntity
  8
01注記寸法
 62
     0
370
    -2
100
AcDbLine
 10
0.0
 20
0.0
 30
0.0
 11
-1.0
 21
0.0
 31
0.0
  0
ENDBLK
  5
94
330
8F
100
AcDbEntity
  8
0
100
AcDbBlockEnd
  0
BLOCK
  5
628
330
626
100
AcDbEntity
  8
0
100
AcDbBlockBegin
  2
_DotSmall
 70
     0
 10
0.0
 20
0.0
 30
0.0
  3
_DotSmall
  1

  0
LWPOLYLINE
  5
627
330
626
100
AcDbEntity
  8
01注記寸法
 62
     0
100
AcDbPolyline
 90
        2
 70
     1
 43
0.5
 10
-0.0625
 20
0.0
 42
1.0
 10
0.0625
 20
0.0
 42
1.0
  0
ENDBLK
  5
629
330
626
100
AcDbEntity
  8
0
100
AcDbBlockEnd
  0
BLOCK
  5
6BC2
330
6BC1
100
AcDbEntity
  8
0
100
AcDbBlockBegin
  2
_None
 70
     0
 10
0.0
 20
0.0
 30
0.0
  3
_None
  1

  0
ENDBLK
  5
6BC3
330
6BC1
100
AcDbEntity
  8
0
100
AcDbBlockEnd
  0
BLOCK
  5
8D2D
330
8D2C
100
AcDbEntity
  8
0
100
AcDbBlockBegin
  2
A$C21067
 70
     0
 10
0.0
 20
0.0
 30
0.0
  3
A$C21067
  1

  0
LINE
  5
8D2E
330
8D2C
100
AcDbEntity
  8
01注記寸法
100
AcDbLine
 10
0.0
 20
3.0
 30
0.0
 11
6.0
 21
6.000000000000057
 31
0.0
  0
LINE
  5
8D2F
330
8D2C
100
AcDbEntity
  8
01注記寸法
100
AcDbLine
 10
15.0
 20
4.200000000000045
 30
0.0
 11
6.0
 21
4.200000000000045
 31
0.0
  0
LINE
  5
8D30
330
8D2C
100
AcDbEntity
  8
01注記寸法
100
AcDbLine
 10
6.0
 20
4.200000000000045
 30
0.0
 11
6.0
 21
6.000000000000057
 31
0.0
  0
LINE
  5
8D31
330
8D2C
100
AcDbEntity
  8
01注記寸法
100
AcDbLine
 10
15.0
 20
1.800000000000011
 30
0.0
 11
15.0
 21
4.200000000000045
 31
0.0
  0
LINE
  5
8D32
330
8D2C
100
AcDbEntity
  8
01注記寸法
100
AcDbLine
 10
6.0
 20
0.0
 30
0.0
 11
0.0
 21
3.0
 31
0.0
  0
LINE
  5
8D33
330
8D2C
100
AcDbEntity
  8
01注記寸法
100
AcDbLine
 10
15.0
 20
1.800000000000011
 30
0.0
 11
6.0
 21
1.800000000000011
 31
0.0
  0
LINE
  5
8D34
330
8D2C
100
AcDbEntity
  8
01注記寸法
100
AcDbLine
 10
6.0
 20
0.0
 30
0.0
 11
6.0
 21
1.800000000000011
 31
0.0
  0
ENDBLK
  5
8D35
330
8D2C
100
AcDbEntity
  8
0
100
AcDbBlockEnd
  0
BLOCK
  5
8D38
330
8D37
100
AcDbEntity
  8
0
100
AcDbBlockBegin
  2
A$C19953
 70
     0
 10
0.0
 20
0.0
 30
0.0
  3
A$C19953
  1

  0
LINE
  5
8D39
330
8D37
100
AcDbEntity
  8
01注記寸法
100
AcDbLine
 10
6.0
 20
0.0
 30
0.0
 11
0.0
 21
3.0
 31
0.0
  0
LINE
  5
8D3A
330
8D37
100
AcDbEntity
  8
01注記寸法
100
AcDbLine
 10
0.0
 20
3.0
 30
0.0
 11
6.0
 21
6.000000000000057
 31
0.0
  0
LINE
  5
8D3B
330
8D37
100
AcDbEntity
  8
01注記寸法
100
AcDbLine
 10
15.0
 20
1.800000000000011
 30
0.0
 11
6.0
 21
1.800000000000011
 31
0.0
  0
LINE
  5
8D3C
330
8D37
100
AcDbEntity
  8
01注記寸法
100
AcDbLine
 10
15.0
 20
4.200000000000045
 30
0.0
 11
6.0
 21
4.200000000000045
 31
0.0
  0
LINE
  5
8D3D
330
8D37
100
AcDbEntity
  8
01注記寸法
100
AcDbLine
 10
6.0
 20
0.0
 30
0.0
 11
6.0
 21
1.800000000000011
 31
0.0
  0
LINE
  5
8D3E
330
8D37
100
AcDbEntity
  8
01注記寸法
100
AcDbLine
 10
6.0
 20
4.200000000000045
 30
0.0
 11
6.0
 21
6.000000000000057
 31
0.0
  0
LINE
  5
8D3F
330
8D37
100
AcDbEntity
  8
01注記寸法
100
AcDbLine
 10
15.0
 20
1.800000000000011
 30
0.0
 11
15.0
 21
4.200000000000045
 31
0.0
  0
ENDBLK
  5
8D40
330
8D37
100
AcDbEntity
  8
0
100
AcDbBlockEnd
  0
BLOCK
  5
8D43
330
8D42
100
AcDbEntity
  8
0
100
AcDbBlockBegin
  2
A$C26388
 70
     0
 10
0.0
 20
0.0
 30
0.0
  3
A$C26388
  1

  0
LINE
  5
8D44
330
8D42
100
AcDbEntity
  8
01注記寸法
100
AcDbLine
 10
0.401923788646684
 20
6.894228634059971
 30
0.0
 11
0.0
 21
13.5903810567666
 31
0.0
  0
LINE
  5
8D45
330
8D42
100
AcDbEntity
  8
01注記寸法
100
AcDbLine
 10
6.460769515458708
 20
0.0
 30
0.0
 11
1.960769515458708
 21
7.794228634059948
 31
0.0
  0
LINE
  5
8D46
330
8D42
100
AcDbEntity
  8
01注記寸法
100
AcDbLine
 10
0.401923788646684
 20
6.894228634059971
 30
0.0
 11
1.960769515458708
 21
7.794228634059948
 31
0.0
  0
LINE
  5
8D47
330
8D42
100
AcDbEntity
  8
01注記寸法
100
AcDbLine
 10
8.53923048454135
 20
1.200000000000045
 30
0.0
 11
4.039230484541349
 21
8.994228634059994
 31
0.0
  0
LINE
  5
8D48
330
8D42
100
AcDbEntity
  8
01注記寸法
100
AcDbLine
 10
6.460769515458708
 20
0.0
 30
0.0
 11
8.53923048454135
 21
1.200000000000045
 31
0.0
  0
LINE
  5
8D49
330
8D42
100
AcDbEntity
  8
01注記寸法
100
AcDbLine
 10
0.0
 20
13.5903810567666
 30
0.0
 11
5.598076211353373
 21
9.89422863405997
 31
0.0
  0
LINE
  5
8D4A
330
8D42
100
AcDbEntity
  8
01注記寸法
100
AcDbLine
 10
4.039230484541349
 20
8.994228634059994
 30
0.0
 11
5.598076211353373
 21
9.89422863405997
 31
0.0
  0
ENDBLK
  5
8D4B
330
8D42
100
AcDbEntity
  8
0
100
AcDbBlockEnd
  0
BLOCK
  5
A627
330
A626
100
AcDbEntity
  8
0
 48
20.0
100
AcDbBlockBegin
  2
A$C3C7277DA
 70
     0
 10
0.0
 20
0.0
 30
0.0
  3
A$C3C7277DA
  1

  0
LINE
  5
A628
330
A626
100
AcDbEntity
  8
0
100
AcDbLine
 10
266.7000199373761
 20
68.00000432218076
 30
0.0
 11
304.8000199373782
 21
51.00000432218076
 31
0.0
  0
LINE
  5
A629
330
A626
100
AcDbEntity
  8
0
100
AcDbLine
 10
228.6000199373775
 20
51.00000432218076
 30
0.0
 11
266.7000199373761
 21
68.00000432218076
 31
0.0
  0
LINE
  5
A62A
330
A626
100
AcDbEntity
  8
0
100
AcDbLine
 10
152.4000199373768
 20
51.00000432218076
 30
0.0
 11
190.5000199373753
 21
68.00000432218076
 31
0.0
  0
LINE
  5
A62B
330
A626
100
AcDbEntity
  8
0
100
AcDbLine
 10
114.3000199373746
 20
68.00000432218076
 30
0.0
 11
152.4000199373768
 21
51.00000432218076
 31
0.0
  0
LINE
  5
A62C
330
A626
100
AcDbEntity
  8
0
100
AcDbLine
 10
190.5000199373753
 20
68.00000432218076
 30
0.0
 11
228.6000199373775
 21
51.00000432218076
 31
0.0
  0
LINE
  5
A62D
330
A626
100
AcDbEntity
  8
0
100
AcDbLine
 10
228.6000199373775
 20
51.00000432218076
 30
0.0
 11
190.5000199373753
 21
34.00000432218076
 31
0.0
  0
LINE
  5
A62E
330
A626
100
AcDbEntity
  8
0
100
AcDbLine
 10
190.5000199373753
 20
34.00000432218076
 30
0.0
 11
228.6000199373775
 21
17.00000432218076
 31
0.0
  0
LINE
  5
A62F
330
A626
100
AcDbEntity
  8
0
100
AcDbLine
 10
228.6000199373775
 20
17.00000432218076
 30
0.0
 11
190.5000199373753
 21
0.0000043221807573
 31
0.0
  0
LINE
  5
A630
330
A626
100
AcDbEntity
  8
0
100
AcDbLine
 10
38.10001993737387
 20
34.00000432218076
 30
0.0
 11
76.20001993737606
 21
17.00000432218076
 31
0.0
  0
LINE
  5
A631
330
A626
100
AcDbEntity
  8
0
100
AcDbLine
 10
76.20001993737606
 20
17.00000432218076
 30
0.0
 11
38.10001993737387
 21
0.0000043221807573
 31
0.0
  0
LINE
  5
A632
330
A626
100
AcDbEntity
  8
0
100
AcDbLine
 10
38.10001993737387
 20
0.0000043221807573
 30
0.0
 11
0.0000199373753276
 21
17.00000432218076
 31
0.0
  0
LINE
  5
A633
330
A626
100
AcDbEntity
  8
0
100
AcDbLine
 10
114.3000199373746
 20
34.00000432218076
 30
0.0
 11
76.20001993737606
 21
51.00000432218076
 31
0.0
  0
LINE
  5
A634
330
A626
100
AcDbEntity
  8
0
100
AcDbLine
 10
190.5000199373753
 20
34.00000432218076
 30
0.0
 11
152.4000199373768
 21
51.00000432218076
 31
0.0
  0
LINE
  5
A635
330
A626
100
AcDbEntity
  8
0
100
AcDbLine
 10
152.4000199373768
 20
51.00000432218076
 30
0.0
 11
114.3000199373746
 21
34.00000432218076
 31
0.0
  0
LINE
  5
A636
330
A626
100
AcDbEntity
  8
0
100
AcDbLine
 10
114.3000199373746
 20
34.00000432218076
 30
0.0
 11
152.4000199373768
 21
17.00000432218076
 31
0.0
  0
LINE
  5
A637
330
A626
100
AcDbEntity
  8
0
100
AcDbLine
 10
76.20001993737606
 20
17.00000432218076
 30
0.0
 11
114.3000199373746
 21
34.00000432218076
 31
0.0
  0
LINE
  5
A638
330
A626
100
AcDbEntity
  8
0
100
AcDbLine
 10
114.3000199373746
 20
0.0000043221807573
 30
0.0
 11
76.20001993737606
 21
17.00000432218076
 31
0.0
  0
LINE
  5
A639
330
A626
100
AcDbEntity
  8
0
100
AcDbLine
 10
152.4000199373768
 20
17.00000432218076
 30
0.0
 11
114.3000199373746
 21
0.0000043221807573
 31
0.0
  0
LINE
  5
A63A
330
A626
100
AcDbEntity
  8
0
100
AcDbLine
 10
152.4000199373768
 20
17.00000432218076
 30
0.0
 11
190.5000199373753
 21
34.00000432218076
 31
0.0
  0
LINE
  5
A63B
330
A626
100
AcDbEntity
  8
0
100
AcDbLine
 10
190.5000199373753
 20
0.0000043221807573
 30
0.0
 11
152.4000199373768
 21
17.00000432218076
 31
0.0
  0
LINE
  5
A63C
330
A626
100
AcDbEntity
  8
0
100
AcDbLine
 10
304.8000199373782
 20
51.00000432218076
 30
0.0
 11
266.7000199373761
 21
34.00000432218076
 31
0.0
  0
LINE
  5
A63D
330
A626
100
AcDbEntity
  8
0
100
AcDbLine
 10
266.7000199373761
 20
34.00000432218076
 30
0.0
 11
228.6000199373775
 21
51.00000432218076
 31
0.0
  0
LINE
  5
A63E
330
A626
100
AcDbEntity
  8
0
100
AcDbLine
 10
304.8000199373782
 20
17.00000432218076
 30
0.0
 11
266.7000199373761
 21
0.0000043221807573
 31
0.0
  0
LINE
  5
A63F
330
A626
100
AcDbEntity
  8
0
100
AcDbLine
 10
266.7000199373761
 20
0.0000043221807573
 30
0.0
 11
228.6000199373775
 21
17.00000432218076
 31
0.0
  0
LINE
  5
A640
330
A626
100
AcDbEntity
  8
0
100
AcDbLine
 10
228.6000199373775
 20
17.00000432218076
 30
0.0
 11
266.7000199373761
 21
34.00000432218076
 31
0.0
  0
LINE
  5
A641
330
A626
100
AcDbEntity
  8
0
100
AcDbLine
 10
266.7000199373761
 20
34.00000432218076
 30
0.0
 11
304.8000199373782
 21
17.00000432218076
 31
0.0
  0
LINE
  5
A642
330
A626
100
AcDbEntity
  8
0
100
AcDbLine
 10
228.6000199373775
 20
85.00000432218076
 30
0.0
 11
190.5000199373753
 21
68.00000432218076
 31
0.0
  0
LINE
  5
A643
330
A626
100
AcDbEntity
  8
0
100
AcDbLine
 10
190.5000199373753
 20
102.0000043221808
 30
0.0
 11
228.6000199373775
 21
85.00000432218076
 31
0.0
  0
LINE
  5
A644
330
A626
100
AcDbEntity
  8
0
100
AcDbLine
 10
190.5000199373753
 20
68.00000432218076
 30
0.0
 11
152.4000199373768
 21
85.00000432218076
 31
0.0
  0
LINE
  5
A645
330
A626
100
AcDbEntity
  8
0
100
AcDbLine
 10
266.7000199373761
 20
136.0000043221808
 30
0.0
 11
304.8000199373782
 21
119.0000043221808
 31
0.0
  0
LINE
  5
A646
330
A626
100
AcDbEntity
  8
0
100
AcDbLine
 10
304.8000199373782
 20
119.0000043221808
 30
0.0
 11
266.7000199373761
 21
102.0000043221808
 31
0.0
  0
LINE
  5
A647
330
A626
100
AcDbEntity
  8
0
100
AcDbLine
 10
266.7000199373761
 20
102.0000043221808
 30
0.0
 11
228.6000199373775
 21
119.0000043221808
 31
0.0
  0
LINE
  5
A648
330
A626
100
AcDbEntity
  8
0
100
AcDbLine
 10
266.7000199373761
 20
102.0000043221808
 30
0.0
 11
304.8000199373782
 21
85.00000432218076
 31
0.0
  0
LINE
  5
A649
330
A626
100
AcDbEntity
  8
0
100
AcDbLine
 10
304.8000199373782
 20
85.00000432218076
 30
0.0
 11
266.7000199373761
 21
68.00000432218076
 31
0.0
  0
LINE
  5
A64A
330
A626
100
AcDbEntity
  8
0
100
AcDbLine
 10
228.6000199373775
 20
85.00000432218076
 30
0.0
 11
266.7000199373761
 21
102.0000043221808
 31
0.0
  0
LINE
  5
A64B
330
A626
100
AcDbEntity
  8
0
100
AcDbLine
 10
266.7000199373761
 20
68.00000432218076
 30
0.0
 11
228.6000199373775
 21
85.00000432218076
 31
0.0
  0
ENDBLK
  5
A64C
330
A626
100
AcDbEntity
  8
0
 48
20.0
100
AcDbBlockEnd
  0
BLOCK
  5
A702
330
A701
100
AcDbEntity
  8
0
100
AcDbBlockBegin
  2
SW_CENTERMARKSYMBOL_0
 70
     0
 10
0.0
 20
0.0
 30
0.0
  3
SW_CENTERMARKSYMBOL_0
  1

  0
LINE
  5
A703
330
A701
100
AcDbEntity
  8
0
  6
Continuous
 62
     0
370
     0
100
AcDbLine
 10
0.0
 20
0.0
 30
0.0
 11
0.0
 21
0.2500000000000002
 31
0.0
  0
LINE
  5
A704
330
A701
100
AcDbEntity
  8
0
  6
Continuous
 62
     0
370
     0
100
AcDbLine
 10
0.0
 20
0.0
 30
0.0
 11
-0.2500000000000002
 21
0.0
 31
0.0
  0
LINE
  5
A705
330
A701
100
AcDbEntity
  8
0
  6
Continuous
 62
     0
370
     0
100
AcDbLine
 10
0.0
 20
0.0
 30
0.0
 11
0.0
 21
-0.2500000000000002
 31
0.0
  0
LINE
  5
A706
330
A701
100
AcDbEntity
  8
0
  6
Continuous
 62
     0
370
     0
100
AcDbLine
 10
0.0
 20
0.0
 30
0.0
 11
0.2500000000000002
 21
0.0
 31
0.0
  0
LINE
  5
A707
330
A701
100
AcDbEntity
  8
0
  6
Continuous
 62
     0
370
     0
100
AcDbLine
 10
0.0
 20
0.5000000000000004
 30
0.0
 11
0.0
 21
0.7500000000000007
 31
0.0
  0
LINE
  5
A708
330
A701
100
AcDbEntity
  8
0
  6
Continuous
 62
     0
370
     0
100
AcDbLine
 10
-0.5000000000000004
 20
0.0
 30
0.0
 11
-0.7500000000000007
 21
0.0
 31
0.0
  0
LINE
  5
A709
330
A701
100
AcDbEntity
  8
0
  6
Continuous
 62
     0
370
     0
100
AcDbLine
 10
0.0
 20
-0.5000000000000004
 30
0.0
 11
0.0
 21
-0.7500000000000007
 31
0.0
  0
LINE
  5
A70A
330
A701
100
AcDbEntity
  8
0
  6
Continuous
 62
     0
370
     0
100
AcDbLine
 10
0.5000000000000004
 20
0.0
 30
0.0
 11
0.7500000000000007
 21
0.0
 31
0.0
  0
ENDBLK
  5
A70B
330
A701
100
AcDbEntity
  8
0
100
AcDbBlockEnd
  0
BLOCK
  5
A70E
330
A70D
100
AcDbEntity
  8
0
100
AcDbBlockBegin
  2
SW_CENTERMARKSYMBOL_1
 70
     0
 10
0.0
 20
0.0
 30
0.0
  3
SW_CENTERMARKSYMBOL_1
  1

  0
LINE
  5
A70F
330
A70D
100
AcDbEntity
  8
0
  6
Continuous
 62
     0
370
     0
100
AcDbLine
 10
0.0
 20
0.0
 30
0.0
 11
0.0
 21
0.2500000000000002
 31
0.0
  0
LINE
  5
A710
330
A70D
100
AcDbEntity
  8
0
  6
Continuous
 62
     0
370
     0
100
AcDbLine
 10
0.0
 20
0.0
 30
0.0
 11
-0.2500000000000002
 21
0.0
 31
0.0
  0
LINE
  5
A711
330
A70D
100
AcDbEntity
  8
0
  6
Continuous
 62
     0
370
     0
100
AcDbLine
 10
0.0
 20
0.0
 30
0.0
 11
0.0
 21
-0.2500000000000002
 31
0.0
  0
LINE
  5
A712
330
A70D
100
AcDbEntity
  8
0
  6
Continuous
 62
     0
370
     0
100
AcDbLine
 10
0.0
 20
0.0
 30
0.0
 11
0.2500000000000002
 21
0.0
 31
0.0
  0
LINE
  5
A713
330
A70D
100
AcDbEntity
  8
0
  6
Continuous
 62
     0
370
     0
100
AcDbLine
 10
0.0
 20
0.5000000000000004
 30
0.0
 11
0.0
 21
0.7500000000000007
 31
0.0
  0
LINE
  5
A714
330
A70D
100
AcDbEntity
  8
0
  6
Continuous
 62
     0
370
     0
100
AcDbLine
 10
-0.5000000000000004
 20
0.0
 30
0.0
 11
-0.7500000000000007
 21
0.0
 31
0.0
  0
LINE
  5
A715
330
A70D
100
AcDbEntity
  8
0
  6
Continuous
 62
     0
370
     0
100
AcDbLine
 10
0.0
 20
-0.5000000000000004
 30
0.0
 11
0.0
 21
-0.7500000000000007
 31
0.0
  0
LINE
  5
A716
330
A70D
100
AcDbEntity
  8
0
  6
Continuous
 62
     0
370
     0
100
AcDbLine
 10
0.5000000000000004
 20
0.0
 30
0.0
 11
0.7500000000000007
 21
0.0
 31
0.0
  0
ENDBLK
  5
A717
330
A70D
100
AcDbEntity
  8
0
100
AcDbBlockEnd
  0
BLOCK
  5
A71A
330
A719
100
AcDbEntity
  8
0
100
AcDbBlockBegin
  2
SW_CENTERMARKSYMBOL_2
 70
     0
 10
0.0
 20
0.0
 30
0.0
  3
SW_CENTERMARKSYMBOL_2
  1

  0
LINE
  5
A71B
330
A719
100
AcDbEntity
  8
0
  6
Continuous
 62
     0
370
     0
100
AcDbLine
 10
0.0
 20
0.0
 30
0.0
 11
0.0
 21
0.2500000000000002
 31
0.0
  0
LINE
  5
A71C
330
A719
100
AcDbEntity
  8
0
  6
Continuous
 62
     0
370
     0
100
AcDbLine
 10
0.0
 20
0.0
 30
0.0
 11
-0.2500000000000002
 21
0.0
 31
0.0
  0
LINE
  5
A71D
330
A719
100
AcDbEntity
  8
0
  6
Continuous
 62
     0
370
     0
100
AcDbLine
 10
0.0
 20
0.0
 30
0.0
 11
0.0
 21
-0.2500000000000002
 31
0.0
  0
LINE
  5
A71E
330
A719
100
AcDbEntity
  8
0
  6
Continuous
 62
     0
370
     0
100
AcDbLine
 10
0.0
 20
0.0
 30
0.0
 11
0.2500000000000002
 21
0.0
 31
0.0
  0
LINE
  5
A71F
330
A719
100
AcDbEntity
  8
0
  6
Continuous
 62
     0
370
     0
100
AcDbLine
 10
0.0
 20
0.5000000000000004
 30
0.0
 11
0.0
 21
0.7500000000000007
 31
0.0
  0
LINE
  5
A720
330
A719
100
AcDbEntity
  8
0
  6
Continuous
 62
     0
370
     0
100
AcDbLine
 10
-0.5000000000000004
 20
0.0
 30
0.0
 11
-0.7500000000000007
 21
0.0
 31
0.0
  0
LINE
  5
A721
330
A719
100
AcDbEntity
  8
0
  6
Continuous
 62
     0
370
     0
100
AcDbLine
 10
0.0
 20
-0.5000000000000004
 30
0.0
 11
0.0
 21
-0.7500000000000007
 31
0.0
  0
LINE
  5
A722
330
A719
100
AcDbEntity
  8
0
  6
Continuous
 62
     0
370
     0
100
AcDbLine
 10
0.5000000000000004
 20
0.0
 30
0.0
 11
0.7500000000000007
 21
0.0
 31
0.0
  0
ENDBLK
  5
A723
330
A719
100
AcDbEntity
  8
0
100
AcDbBlockEnd
  0
BLOCK
  5
A726
330
A725
100
AcDbEntity
  8
0
100
AcDbBlockBegin
  2
SW_CENTERMARKSYMBOL_3
 70
     0
 10
0.0
 20
0.0
 30
0.0
  3
SW_CENTERMARKSYMBOL_3
  1

  0
LINE
  5
A727
330
A725
100
AcDbEntity
  8
0
  6
Continuous
 62
     0
370
     0
100
AcDbLine
 10
0.0
 20
0.0
 30
0.0
 11
0.0
 21
0.2500000000000002
 31
0.0
  0
LINE
  5
A728
330
A725
100
AcDbEntity
  8
0
  6
Continuous
 62
     0
370
     0
100
AcDbLine
 10
0.0
 20
0.0
 30
0.0
 11
-0.2500000000000002
 21
0.0
 31
0.0
  0
LINE
  5
A729
330
A725
100
AcDbEntity
  8
0
  6
Continuous
 62
     0
370
     0
100
AcDbLine
 10
0.0
 20
0.0
 30
0.0
 11
0.0
 21
-0.2500000000000002
 31
0.0
  0
LINE
  5
A72A
330
A725
100
AcDbEntity
  8
0
  6
Continuous
 62
     0
370
     0
100
AcDbLine
 10
0.0
 20
0.0
 30
0.0
 11
0.2500000000000002
 21
0.0
 31
0.0
  0
LINE
  5
A72B
330
A725
100
AcDbEntity
  8
0
  6
Continuous
 62
     0
370
     0
100
AcDbLine
 10
0.0
 20
0.5000000000000004
 30
0.0
 11
0.0
 21
0.7500000000000007
 31
0.0
  0
LINE
  5
A72C
330
A725
100
AcDbEntity
  8
0
  6
Continuous
 62
     0
370
     0
100
AcDbLine
 10
-0.5000000000000004
 20
0.0
 30
0.0
 11
-0.7500000000000007
 21
0.0
 31
0.0
  0
LINE
  5
A72D
330
A725
100
AcDbEntity
  8
0
  6
Continuous
 62
     0
370
     0
100
AcDbLine
 10
0.0
 20
-0.5000000000000004
 30
0.0
 11
0.0
 21
-0.7500000000000007
 31
0.0
  0
LINE
  5
A72E
330
A725
100
AcDbEntity
  8
0
  6
Continuous
 62
     0
370
     0
100
AcDbLine
 10
0.5000000000000004
 20
0.0
 30
0.0
 11
0.7500000000000007
 21
0.0
 31
0.0
  0
ENDBLK
  5
A72F
330
A725
100
AcDbEntity
  8
0
100
AcDbBlockEnd
  0
BLOCK
  5
A7B1
330
A7B0
100
AcDbEntity
  8
0
100
AcDbBlockBegin
  2
SW_CENTERMARKSYMBOL_8
 70
     0
 10
0.0
 20
0.0
 30
0.0
  3
SW_CENTERMARKSYMBOL_8
  1

  0
LINE
  5
A7B2
330
A7B0
100
AcDbEntity
  8
0
  6
Continuous
 62
     0
370
     0
100
AcDbLine
 10
0.0
 20
0.0
 30
0.0
 11
0.0
 21
0.2500000000000002
 31
0.0
  0
LINE
  5
A7B3
330
A7B0
100
AcDbEntity
  8
0
  6
Continuous
 62
     0
370
     0
100
AcDbLine
 10
0.0
 20
0.0
 30
0.0
 11
-0.250000000000028
 21
0.0
 31
0.0
  0
LINE
  5
A7B4
330
A7B0
100
AcDbEntity
  8
0
  6
Continuous
 62
     0
370
     0
100
AcDbLine
 10
0.0
 20
0.0
 30
0.0
 11
0.0
 21
-0.2500000000000002
 31
0.0
  0
LINE
  5
A7B5
330
A7B0
100
AcDbEntity
  8
0
  6
Continuous
 62
     0
370
     0
100
AcDbLine
 10
0.0
 20
0.0
 30
0.0
 11
0.2499999999999725
 21
0.0
 31
0.0
  0
LINE
  5
A7B6
330
A7B0
100
AcDbEntity
  8
0
  6
Continuous
 62
     0
370
     0
100
AcDbLine
 10
0.0
 20
0.5000000000000004
 30
0.0
 11
0.0
 21
0.7500000000000007
 31
0.0
  0
LINE
  5
A7B7
330
A7B0
100
AcDbEntity
  8
0
  6
Continuous
 62
     0
370
     0
100
AcDbLine
 10
-0.5000000000000004
 20
0.0
 30
0.0
 11
-0.7500000000000007
 21
0.0
 31
0.0
  0
LINE
  5
A7B8
330
A7B0
100
AcDbEntity
  8
0
  6
Continuous
 62
     0
370
     0
100
AcDbLine
 10
0.0
 20
-0.5000000000000004
 30
0.0
 11
0.0
 21
-0.7500000000000007
 31
0.0
  0
LINE
  5
A7B9
330
A7B0
100
AcDbEntity
  8
0
  6
Continuous
 62
     0
370
     0
100
AcDbLine
 10
0.5000000000000004
 20
0.0
 30
0.0
 11
0.7499999999999729
 21
0.0
 31
0.0
  0
ENDBLK
  5
A7BA
330
A7B0
100
AcDbEntity
  8
0
100
AcDbBlockEnd
  0
BLOCK
  5
A7BD
330
A7BC
100
AcDbEntity
  8
0
100
AcDbBlockBegin
  2
SW_CENTERMARKSYMBOL_9
 70
     0
 10
0.0
 20
0.0
 30
0.0
  3
SW_CENTERMARKSYMBOL_9
  1

  0
LINE
  5
A7BE
330
A7BC
100
AcDbEntity
  8
0
  6
Continuous
 62
     0
370
     0
100
AcDbLine
 10
0.0
 20
0.0
 30
0.0
 11
0.0
 21
0.2500000000000002
 31
0.0
  0
LINE
  5
A7BF
330
A7BC
100
AcDbEntity
  8
0
  6
Continuous
 62
     0
370
     0
100
AcDbLine
 10
0.0
 20
0.0
 30
0.0
 11
-0.250000000000028
 21
0.0
 31
0.0
  0
LINE
  5
A7C0
330
A7BC
100
AcDbEntity
  8
0
  6
Continuous
 62
     0
370
     0
100
AcDbLine
 10
0.0
 20
0.0
 30
0.0
 11
0.0
 21
-0.2500000000000002
 31
0.0
  0
LINE
  5
A7C1
330
A7BC
100
AcDbEntity
  8
0
  6
Continuous
 62
     0
370
     0
100
AcDbLine
 10
0.0
 20
0.0
 30
0.0
 11
0.2499999999999725
 21
0.0
 31
0.0
  0
LINE
  5
A7C2
330
A7BC
100
AcDbEntity
  8
0
  6
Continuous
 62
     0
370
     0
100
AcDbLine
 10
0.0
 20
0.5000000000000004
 30
0.0
 11
0.0
 21
0.7499999999999729
 31
0.0
  0
LINE
  5
A7C3
330
A7BC
100
AcDbEntity
  8
0
  6
Continuous
 62
     0
370
     0
100
AcDbLine
 10
-0.5000000000000004
 20
0.0
 30
0.0
 11
-0.7500000000000007
 21
0.0
 31
0.0
  0
LINE
  5
A7C4
330
A7BC
100
AcDbEntity
  8
0
  6
Continuous
 62
     0
370
     0
100
AcDbLine
 10
0.0
 20
-0.5000000000000004
 30
0.0
 11
0.0
 21
-0.7500000000000007
 31
0.0
  0
LINE
  5
A7C5
330
A7BC
100
AcDbEntity
  8
0
  6
Continuous
 62
     0
370
     0
100
AcDbLine
 10
0.5000000000000004
 20
0.0
 30
0.0
 11
0.7499999999999729
 21
0.0
 31
0.0
  0
ENDBLK
  5
A7C6
330
A7BC
100
AcDbEntity
  8
0
100
AcDbBlockEnd
  0
BLOCK
  5
A7C9
330
A7C8
100
AcDbEntity
  8
0
100
AcDbBlockBegin
  2
SW_CENTERMARKSYMBOL_10
 70
     0
 10
0.0
 20
0.0
 30
0.0
  3
SW_CENTERMARKSYMBOL_10
  1

  0
LINE
  5
A7CA
330
A7C8
100
AcDbEntity
  8
0
  6
Continuous
 62
     0
370
     0
100
AcDbLine
 10
0.0
 20
0.0
 30
0.0
 11
0.0
 21
0.2500000000000002
 31
0.0
  0
LINE
  5
A7CB
330
A7C8
100
AcDbEntity
  8
0
  6
Continuous
 62
     0
370
     0
100
AcDbLine
 10
0.0
 20
0.0
 30
0.0
 11
-0.2499999999999725
 21
0.0
 31
0.0
  0
LINE
  5
A7CC
330
A7C8
100
AcDbEntity
  8
0
  6
Continuous
 62
     0
370
     0
100
AcDbLine
 10
0.0
 20
0.0
 30
0.0
 11
0.0
 21
-0.2500000000000002
 31
0.0
  0
LINE
  5
A7CD
330
A7C8
100
AcDbEntity
  8
0
  6
Continuous
 62
     0
370
     0
100
AcDbLine
 10
0.0
 20
0.0
 30
0.0
 11
0.250000000000028
 21
0.0
 31
0.0
  0
LINE
  5
A7CE
330
A7C8
100
AcDbEntity
  8
0
  6
Continuous
 62
     0
370
     0
100
AcDbLine
 10
0.0
 20
0.5000000000000004
 30
0.0
 11
0.0
 21
0.7500000000000007
 31
0.0
  0
LINE
  5
A7CF
330
A7C8
100
AcDbEntity
  8
0
  6
Continuous
 62
     0
370
     0
100
AcDbLine
 10
-0.5000000000000004
 20
0.0
 30
0.0
 11
-0.7499999999999729
 21
0.0
 31
0.0
  0
LINE
  5
A7D0
330
A7C8
100
AcDbEntity
  8
0
  6
Continuous
 62
     0
370
     0
100
AcDbLine
 10
0.0
 20
-0.5000000000000004
 30
0.0
 11
0.0
 21
-0.7500000000000007
 31
0.0
  0
LINE
  5
A7D1
330
A7C8
100
AcDbEntity
  8
0
  6
Continuous
 62
     0
370
     0
100
AcDbLine
 10
0.5000000000000004
 20
0.0
 30
0.0
 11
0.7500000000000284
 21
0.0
 31
0.0
  0
ENDBLK
  5
A7D2
330
A7C8
100
AcDbEntity
  8
0
100
AcDbBlockEnd
  0
BLOCK
  5
A7D5
330
A7D4
100
AcDbEntity
  8
0
100
AcDbBlockBegin
  2
SW_CENTERMARKSYMBOL_11
 70
     0
 10
0.0
 20
0.0
 30
0.0
  3
SW_CENTERMARKSYMBOL_11
  1

  0
LINE
  5
A7D6
330
A7D4
100
AcDbEntity
  8
0
  6
Continuous
 62
     0
370
     0
100
AcDbLine
 10
0.0
 20
0.0
 30
0.0
 11
0.0
 21
0.2500000000000002
 31
0.0
  0
LINE
  5
A7D7
330
A7D4
100
AcDbEntity
  8
0
  6
Continuous
 62
     0
370
     0
100
AcDbLine
 10
0.0
 20
0.0
 30
0.0
 11
-0.2499999999999725
 21
0.0
 31
0.0
  0
LINE
  5
A7D8
330
A7D4
100
AcDbEntity
  8
0
  6
Continuous
 62
     0
370
     0
100
AcDbLine
 10
0.0
 20
0.0
 30
0.0
 11
0.0
 21
-0.2500000000000002
 31
0.0
  0
LINE
  5
A7D9
330
A7D4
100
AcDbEntity
  8
0
  6
Continuous
 62
     0
370
     0
100
AcDbLine
 10
0.0
 20
0.0
 30
0.0
 11
0.250000000000028
 21
0.0
 31
0.0
  0
LINE
  5
A7DA
330
A7D4
100
AcDbEntity
  8
0
  6
Continuous
 62
     0
370
     0
100
AcDbLine
 10
0.0
 20
0.5000000000000004
 30
0.0
 11
0.0
 21
0.7500000000000007
 31
0.0
  0
LINE
  5
A7DB
330
A7D4
100
AcDbEntity
  8
0
  6
Continuous
 62
     0
370
     0
100
AcDbLine
 10
-0.5000000000000004
 20
0.0
 30
0.0
 11
-0.7499999999999729
 21
0.0
 31
0.0
  0
LINE
  5
A7DC
330
A7D4
100
AcDbEntity
  8
0
  6
Continuous
 62
     0
370
     0
100
AcDbLine
 10
0.0
 20
-0.5000000000000004
 30
0.0
 11
0.0
 21
-0.7500000000000007
 31
0.0
  0
LINE
  5
A7DD
330
A7D4
100
AcDbEntity
  8
0
  6
Continuous
 62
     0
370
     0
100
AcDbLine
 10
0.5000000000000004
 20
0.0
 30
0.0
 11
0.7500000000000284
 21
0.0
 31
0.0
  0
ENDBLK
  5
A7DE
330
A7D4
100
AcDbEntity
  8
0
100
AcDbBlockEnd
  0
BLOCK
  5
A849
330
A848
100
AcDbEntity
  8
0
100
AcDbBlockBegin
  2
SW_CENTERMARKSYMBOL_7
 70
     0
 10
0.0
 20
0.0
 30
0.0
  3
SW_CENTERMARKSYMBOL_7
  1

  0
LINE
  5
A84A
330
A848
100
AcDbEntity
  8
0
  6
Continuous
 62
     0
370
     0
100
AcDbLine
 10
0.0
 20
0.0
 30
0.0
 11
0.0
 21
0.5000000000000004
 31
0.0
  0
LINE
  5
A84B
330
A848
100
AcDbEntity
  8
0
  6
Continuous
 62
     0
370
     0
100
AcDbLine
 10
0.0
 20
0.0
 30
0.0
 11
-0.500000000000056
 21
0.0
 31
0.0
  0
LINE
  5
A84C
330
A848
100
AcDbEntity
  8
0
  6
Continuous
 62
     0
370
     0
100
AcDbLine
 10
0.0
 20
0.0
 30
0.0
 11
0.0
 21
-0.5000000000000004
 31
0.0
  0
LINE
  5
A84D
330
A848
100
AcDbEntity
  8
0
  6
Continuous
 62
     0
370
     0
100
AcDbLine
 10
0.0
 20
0.0
 30
0.0
 11
0.4999999999999449
 21
0.0
 31
0.0
  0
LINE
  5
A84E
330
A848
100
AcDbEntity
  8
0
  6
Continuous
 62
     0
370
     0
100
AcDbLine
 10
0.0
 20
1.000000000000001
 30
0.0
 11
0.0
 21
1.09999999999999
 31
0.0
  0
LINE
  5
A84F
330
A848
100
AcDbEntity
  8
0
  6
Continuous
 62
     0
370
     0
100
AcDbLine
 10
-1.000000000000001
 20
0.0
 30
0.0
 11
-1.09999999999999
 21
0.0
 31
0.0
  0
LINE
  5
A850
330
A848
100
AcDbEntity
  8
0
  6
Continuous
 62
     0
370
     0
100
AcDbLine
 10
0.0
 20
-1.000000000000001
 30
0.0
 11
0.0
 21
-1.09999999999999
 31
0.0
  0
LINE
  5
A851
330
A848
100
AcDbEntity
  8
0
  6
Continuous
 62
     0
370
     0
100
AcDbLine
 10
1.000000000000001
 20
0.0
 30
0.0
 11
1.09999999999999
 21
0.0
 31
0.0
  0
ENDBLK
  5
A852
330
A848
100
AcDbEntity
  8
0
100
AcDbBlockEnd
  0
BLOCK
  5
A8A0
330
A89F
100
AcDbEntity
  8
0
100
AcDbBlockBegin
  2
SW_CENTERMARKSYMBOL_4
 70
     0
 10
0.0
 20
0.0
 30
0.0
  3
SW_CENTERMARKSYMBOL_4
  1

  0
LINE
  5
A8A1
330
A89F
100
AcDbEntity
  8
0
  6
Continuous
 62
     0
370
     0
100
AcDbLine
 10
0.0
 20
0.0
 30
0.0
 11
0.0
 21
0.5000000000000004
 31
0.0
  0
LINE
  5
A8A2
330
A89F
100
AcDbEntity
  8
0
  6
Continuous
 62
     0
370
     0
100
AcDbLine
 10
0.0
 20
0.0
 30
0.0
 11
-0.4999999999999449
 21
0.0
 31
0.0
  0
LINE
  5
A8A3
330
A89F
100
AcDbEntity
  8
0
  6
Continuous
 62
     0
370
     0
100
AcDbLine
 10
0.0
 20
0.0
 30
0.0
 11
0.0
 21
-0.5000000000000004
 31
0.0
  0
LINE
  5
A8A4
330
A89F
100
AcDbEntity
  8
0
  6
Continuous
 62
     0
370
     0
100
AcDbLine
 10
0.0
 20
0.0
 30
0.0
 11
0.500000000000056
 21
0.0
 31
0.0
  0
LINE
  5
A8A5
330
A89F
100
AcDbEntity
  8
0
  6
Continuous
 62
     0
370
     0
100
AcDbLine
 10
0.0
 20
1.000000000000001
 30
0.0
 11
0.0
 21
1.299999999999968
 31
0.0
  0
LINE
  5
A8A6
330
A89F
100
AcDbEntity
  8
0
  6
Continuous
 62
     0
370
     0
100
AcDbLine
 10
-1.000000000000001
 20
0.0
 30
0.0
 11
-1.299999999999968
 21
0.0
 31
0.0
  0
LINE
  5
A8A7
330
A89F
100
AcDbEntity
  8
0
  6
Continuous
 62
     0
370
     0
100
AcDbLine
 10
0.0
 20
-1.000000000000001
 30
0.0
 11
0.0
 21
-1.300000000000023
 31
0.0
  0
LINE
  5
A8A8
330
A89F
100
AcDbEntity
  8
0
  6
Continuous
 62
     0
370
     0
100
AcDbLine
 10
1.000000000000001
 20
0.0
 30
0.0
 11
1.300000000000079
 21
0.0
 31
0.0
  0
ENDBLK
  5
A8A9
330
A89F
100
AcDbEntity
  8
0
100
AcDbBlockEnd
  0
BLOCK
  5
C4FC
330
C481
100
AcDbEntity
  8
0
100
AcDbBlockBegin
  2
A$C28467
 70
     0
 10
0.0
 20
0.0
 30
0.0
  3
A$C28467
  1

  0
LINE
  5
C4AE
330
C481
100
AcDbEntity
  8
02製品
100
AcDbLine
 10
51.10003129983056
 20
210.8352857659062
 30
0.0
 11
31.1000312998317
 21
210.8352857659062
 31
0.0
  0
LINE
  5
C4AF
330
C481
100
AcDbEntity
  8
02製品
100
AcDbLine
 10
31.1000312998317
 20
210.8352857659062
 30
0.0
 11
51.10003129983056
 21
210.8352857659062
 31
0.0
  0
LINE
  5
C4B0
330
C481
100
AcDbEntity
  8
02製品
100
AcDbLine
 10
7.100031299833063
 20
230.835285765905
 30
0.0
 11
157.1000312998331
 21
230.835285765905
 31
0.0
  0
LINE
  5
C4B1
330
C481
100
AcDbEntity
  8
02製品
100
AcDbLine
 10
47.10003129983079
 20
80.83528576590504
 30
0.0
 11
157.1000312998331
 21
190.8352857659057
 31
0.0
  0
LINE
  5
C4B2
330
C481
100
AcDbEntity
  8
02製品
100
AcDbLine
 10
11.10003129983284
 20
0.0000000000003411
 30
0.0
 11
11.10003129983284
 21
80.83528576590504
 31
0.0
  0
LINE
  5
C4B3
330
C481
100
AcDbEntity
  8
02製品
  6
HIDDEN
100
AcDbLine
 10
14.10003129983022
 20
0.0000000000001137
 30
0.0
 11
14.10003129983011
 21
80.83528576590504
 31
0.0
  0
LINE
  5
C4B4
330
C481
100
AcDbEntity
  8
02製品
  6
ByBlock
100
AcDbLine
 10
5.500025196317893
 20
202.3352857659071
 30
0.0
 11
7.100031299833063
 21
202.3352857659071
 31
0.0
  0
LINE
  5
C4B5
330
C481
100
AcDbEntity
  8
02製品
  6
ByBlock
100
AcDbLine
 10
5.500025196317893
 20
219.3352857659071
 30
0.0
 11
7.100031299833063
 21
219.3352857659071
 31
0.0
  0
LINE
  5
C4B6
330
C481
100
AcDbEntity
  8
02製品
  6
ByBlock
100
AcDbLine
 10
7.100031299833063
 20
219.3352857659071
 30
0.0
 11
7.100031299833063
 21
202.3352857659071
 31
0.0
  0
LINE
  5
C4B7
330
C481
100
AcDbEntity
  8
02製品
  6
ByBlock
100
AcDbLine
 10
5.500025196317893
 20
219.3352857659071
 30
0.0
 11
5.500025196317893
 21
202.3352857659071
 31
0.0
  0
LINE
  5
C4B8
330
C481
100
AcDbEntity
  8
02製品
  6
ByBlock
100
AcDbLine
 10
0.6960439828935705
 20
218.3409110080655
 30
0.0
 11
0.0000146158993175
 21
217.1353526476813
 31
0.0
  0
LINE
  5
C4B9
330
C481
100
AcDbEntity
  8
02製品
  6
ByBlock
100
AcDbLine
 10
0.6019269592661658
 20
214.5881170382169
 30
0.0
 11
0.0000115351235763
 21
217.1353364454429
 31
0.0
  0
LINE
  5
C4BA
330
C481
100
AcDbEntity
  8
02製品
  6
ByBlock
100
AcDbLine
 10
0.6960548594020111
 20
218.3408552239147
 30
0.0
 11
5.500025196317893
 21
218.3408552239147
 31
0.0
  0
LINE
  5
C4BB
330
C481
100
AcDbEntity
  8
02製品
  6
ByBlock
100
AcDbLine
 10
0.6019386484672395
 20
214.5880933830953
 30
0.0
 11
5.500025196317893
 21
214.5880933830953
 31
0.0
  0
LINE
  5
C4BC
330
C481
100
AcDbEntity
  8
02製品
  6
ByBlock
100
AcDbLine
 10
5.500025196317893
 20
92.33528576590822
 30
0.0
 11
7.100031299833063
 21
92.33528576590822
 31
0.0
  0
LINE
  5
C4BD
330
C481
100
AcDbEntity
  8
02製品
  6
ByBlock
100
AcDbLine
 10
5.500025196317893
 20
109.3352857659082
 30
0.0
 11
7.100031299833063
 21
109.3352857659082
 31
0.0
  0
LINE
  5
C4BE
330
C481
100
AcDbEntity
  8
02製品
  6
ByBlock
100
AcDbLine
 10
7.100031299833063
 20
109.3352857659082
 30
0.0
 11
7.100031299833063
 21
92.33528576590822
 31
0.0
  0
LINE
  5
C4BF
330
C481
100
AcDbEntity
  8
02製品
  6
ByBlock
100
AcDbLine
 10
5.500025196317893
 20
109.3352857659082
 30
0.0
 11
5.500025196317893
 21
92.33528576590822
 31
0.0
  0
LINE
  5
C4C0
330
C481
100
AcDbEntity
  8
02製品
  6
ByBlock
100
AcDbLine
 10
5.500025196317893
 20
152.3352857659082
 30
0.0
 11
7.100031299833063
 21
152.3352857659082
 31
0.0
  0
LINE
  5
C4C1
330
C481
100
AcDbEntity
  8
02製品
  6
ByBlock
100
AcDbLine
 10
5.500025196317893
 20
169.3352857659082
 30
0.0
 11
7.100031299833063
 21
169.3352857659082
 31
0.0
  0
LINE
  5
C4C2
330
C481
100
AcDbEntity
  8
02製品
  6
ByBlock
100
AcDbLine
 10
7.100031299833063
 20
169.3352857659082
 30
0.0
 11
7.100031299833063
 21
152.3352857659082
 31
0.0
  0
LINE
  5
C4C3
330
C481
100
AcDbEntity
  8
02製品
  6
ByBlock
100
AcDbLine
 10
5.500025196317893
 20
169.3352857659082
 30
0.0
 11
5.500025196317893
 21
152.3352857659082
 31
0.0
  0
LINE
  5
C4C4
330
C481
100
AcDbEntity
  8
02製品
  6
ByBlock
100
AcDbLine
 10
0.6960548594020111
 20
203.3297468254776
 30
0.0
 11
5.500025196317893
 21
203.3297468254776
 31
0.0
  0
LINE
  5
C4C5
330
C481
100
AcDbEntity
  8
02製品
  6
ByBlock
100
AcDbLine
 10
0.0000012286943729
 20
204.5353164580619
 30
0.0
 11
0.696022787479933
 21
203.3297716218916
 31
0.0
  0
ARC
  5
C4C6
330
C481
100
AcDbEntity
  8
02製品
  6
ByBlock
100
AcDbCircle
 10
12.0000251963188
 20
210.835285765908
 30
0.0
 40
12.0
100
AcDbArc
 50
161.7759804502357
 51
198.2237823143836
  0
LINE
  5
C4C7
330
C481
100
AcDbEntity
  8
02製品
  6
ByBlock
100
AcDbLine
 10
0.0
 20
204.5353321978697
 30
0.0
 11
0.6019012297667814
 21
207.0825863172187
 31
0.0
  0
LINE
  5
C4C8
330
C481
100
AcDbEntity
  8
02製品
  6
ByBlock
100
AcDbLine
 10
0.0000251963160736
 20
217.1353040764537
 30
0.0
 11
0.0000251963160736
 21
204.5352979729383
 31
0.0
  0
LINE
  5
C4C9
330
C481
100
AcDbEntity
  8
02製品
  6
ByBlock
100
AcDbLine
 10
0.6019233896756759
 20
207.0825391838767
 30
0.0
 11
5.500025196317893
 21
207.0825391838767
 31
0.0
  0
LINE
  5
C4CA
330
C481
100
AcDbEntity
  8
02製品
  6
ByBlock
100
AcDbLine
 10
0.6960439828935705
 20
108.3409110080667
 30
0.0
 11
0.0000146158993175
 21
107.1353526476825
 31
0.0
  0
LINE
  5
C4CB
330
C481
100
AcDbEntity
  8
02製品
  6
ByBlock
100
AcDbLine
 10
0.6019269592661658
 20
104.588117038218
 30
0.0
 11
0.0000115351235763
 21
107.1353364454441
 31
0.0
  0
LINE
  5
C4CC
330
C481
100
AcDbEntity
  8
02製品
  6
ByBlock
100
AcDbLine
 10
0.6960548594020111
 20
108.3408552239158
 30
0.0
 11
5.500025196317893
 21
108.3408552239158
 31
0.0
  0
LINE
  5
C4CD
330
C481
100
AcDbEntity
  8
02製品
  6
ByBlock
100
AcDbLine
 10
0.6019386484672395
 20
104.5880933830964
 30
0.0
 11
5.500025196317893
 21
104.5880933830964
 31
0.0
  0
LINE
  5
C4CE
330
C481
100
AcDbEntity
  8
02製品
  6
ByBlock
100
AcDbLine
 10
0.6960548594020111
 20
93.32974682547876
 30
0.0
 11
5.500025196317893
 21
93.32974682547876
 31
0.0
  0
LINE
  5
C4CF
330
C481
100
AcDbEntity
  8
02製品
  6
ByBlock
100
AcDbLine
 10
0.0000012286943729
 20
94.535316458063
 30
0.0
 11
0.696022787479933
 21
93.32977162189275
 31
0.0
  0
ARC
  5
C4D0
330
C481
100
AcDbEntity
  8
02製品
  6
ByBlock
100
AcDbCircle
 10
12.0000251963188
 20
100.8352857659091
 30
0.0
 40
12.0
100
AcDbArc
 50
161.7759804502357
 51
198.2237823143833
  0
LINE
  5
C4D1
330
C481
100
AcDbEntity
  8
02製品
  6
ByBlock
100
AcDbLine
 10
0.0
 20
94.53533219787084
 30
0.0
 11
0.6019012297667814
 21
97.0825863172198
 31
0.0
  0
LINE
  5
C4D2
330
C481
100
AcDbEntity
  8
02製品
  6
ByBlock
100
AcDbLine
 10
0.0000251963160736
 20
107.1353040764549
 30
0.0
 11
0.0000251963160736
 21
94.53529797293947
 31
0.0
  0
LINE
  5
C4D3
330
C481
100
AcDbEntity
  8
02製品
  6
ByBlock
100
AcDbLine
 10
0.6019233896756759
 20
97.08253918387788
 30
0.0
 11
5.500025196317893
 21
97.08253918387788
 31
0.0
  0
LINE
  5
C4D4
330
C481
100
AcDbEntity
  8
02製品
  6
ByBlock
100
AcDbLine
 10
0.6960439828935705
 20
168.3409110080667
 30
0.0
 11
0.0000146158993175
 21
167.1353526476825
 31
0.0
  0
LINE
  5
C4D5
330
C481
100
AcDbEntity
  8
02製品
  6
ByBlock
100
AcDbLine
 10
0.6019269592661658
 20
164.588117038218
 30
0.0
 11
0.0000115351235763
 21
167.1353364454441
 31
0.0
  0
LINE
  5
C4D6
330
C481
100
AcDbEntity
  8
02製品
  6
ByBlock
100
AcDbLine
 10
0.6960548594020111
 20
168.3408552239158
 30
0.0
 11
5.500025196317893
 21
168.3408552239158
 31
0.0
  0
LINE
  5
C4D7
330
C481
100
AcDbEntity
  8
02製品
  6
ByBlock
100
AcDbLine
 10
0.6019386484672395
 20
164.5880933830964
 30
0.0
 11
5.500025196317893
 21
164.5880933830964
 31
0.0
  0
LINE
  5
C4D8
330
C481
100
AcDbEntity
  8
02製品
  6
ByBlock
100
AcDbLine
 10
0.6960548594020111
 20
153.3297468254788
 30
0.0
 11
5.500025196317893
 21
153.3297468254788
 31
0.0
  0
LINE
  5
C4D9
330
C481
100
AcDbEntity
  8
02製品
  6
ByBlock
100
AcDbLine
 10
0.0000012286943729
 20
154.535316458063
 30
0.0
 11
0.696022787479933
 21
153.3297716218927
 31
0.0
  0
ARC
  5
C4DA
330
C481
100
AcDbEntity
  8
02製品
  6
ByBlock
100
AcDbCircle
 10
12.0000251963188
 20
160.8352857659091
 30
0.0
 40
12.0
100
AcDbArc
 50
161.7759804502357
 51
198.2237823143836
  0
LINE
  5
C4DB
330
C481
100
AcDbEntity
  8
02製品
  6
ByBlock
100
AcDbLine
 10
0.0
 20
154.5353321978708
 30
0.0
 11
0.6019012297667814
 21
157.0825863172198
 31
0.0
  0
LINE
  5
C4DC
330
C481
100
AcDbEntity
  8
02製品
  6
ByBlock
100
AcDbLine
 10
0.0000251963160736
 20
167.1353040764549
 30
0.0
 11
0.0000251963160736
 21
154.5352979729395
 31
0.0
  0
LINE
  5
C4DD
330
C481
100
AcDbEntity
  8
02製品
  6
ByBlock
100
AcDbLine
 10
0.6019233896756759
 20
157.0825391838779
 30
0.0
 11
5.500025196317893
 21
157.0825391838779
 31
0.0
  0
LINE
  5
C4DE
330
C481
100
AcDbEntity
  8
02製品
  6
HIDDEN
100
AcDbLine
 10
10.3000312997824
 20
230.835285765905
 30
0.0
 11
10.3000312997824
 21
80.83528576590504
 31
0.0
  0
LINE
  5
C4DF
330
C481
100
AcDbEntity
  8
02製品
100
AcDbLine
 10
46.1000312998317
 20
160.8352857659057
 30
0.0
 11
26.10003129983284
 21
160.8352857659057
 31
0.0
  0
LINE
  5
C4E0
330
C481
100
AcDbEntity
  8
02製品
100
AcDbLine
 10
36.10003129983056
 20
170.835285765905
 30
0.0
 11
36.10003129983056
 21
150.8352857659062
 31
0.0
  0
CIRCLE
  5
C4E1
330
C481
100
AcDbEntity
  8
02製品
100
AcDbCircle
 10
36.10003129983056
 20
160.8352857659057
 30
0.0
 40
5.0
  0
LINE
  5
C4E2
330
C481
100
AcDbEntity
  8
02製品
100
AcDbLine
 10
36.10003129983056
 20
170.835285765905
 30
0.0
 11
36.10003129983056
 21
150.8352857659062
 31
0.0
  0
CIRCLE
  5
C4E3
330
C481
100
AcDbEntity
  8
02製品
100
AcDbCircle
 10
36.10003129983056
 20
160.8352857659057
 30
0.0
 40
5.0
  0
LINE
  5
C4E4
330
C481
100
AcDbEntity
  8
02製品
100
AcDbLine
 10
26.10003129983284
 20
160.8352857659057
 30
0.0
 11
46.1000312998317
 21
160.8352857659057
 31
0.0
  0
LINE
  5
C4E5
330
C481
100
AcDbEntity
  8
02製品
100
AcDbLine
 10
41.10003129983284
 20
220.8352857659057
 30
0.0
 11
41.10003129983284
 21
200.835285765905
 31
0.0
  0
CIRCLE
  5
C4E6
330
C481
100
AcDbEntity
  8
02製品
100
AcDbCircle
 10
41.10003129983284
 20
210.8352857659062
 30
0.0
 40
5.0
  0
CIRCLE
  5
C4E7
330
C481
100
AcDbEntity
  8
02製品
100
AcDbCircle
 10
41.10003129983284
 20
210.8352857659062
 30
0.0
 40
5.0
  0
LINE
  5
C4E8
330
C481
100
AcDbEntity
  8
02製品
100
AcDbLine
 10
41.10003129983284
 20
220.8352857659057
 30
0.0
 11
41.10003129983284
 21
200.835285765905
 31
0.0
  0
CIRCLE
  5
C4E9
330
C481
100
AcDbEntity
  8
02製品
100
AcDbCircle
 10
36.10003129983056
 20
100.8352857659057
 30
0.0
 40
5.0
  0
LINE
  5
C4EA
330
C481
100
AcDbEntity
  8
02製品
100
AcDbLine
 10
46.1000312998317
 20
100.8352857659057
 30
0.0
 11
26.10003129983284
 21
100.8352857659057
 31
0.0
  0
LINE
  5
C4EB
330
C481
100
AcDbEntity
  8
02製品
100
AcDbLine
 10
26.10003129983284
 20
100.8352857659057
 30
0.0
 11
46.1000312998317
 21
100.8352857659057
 31
0.0
  0
CIRCLE
  5
C4EC
330
C481
100
AcDbEntity
  8
02製品
100
AcDbCircle
 10
36.10003129983056
 20
100.8352857659057
 30
0.0
 40
5.0
  0
LINE
  5
C4ED
330
C481
100
AcDbEntity
  8
02製品
100
AcDbLine
 10
7.100031299833063
 20
80.83528576590504
 30
0.0
 11
47.10003129983079
 21
80.83528576590504
 31
0.0
  0
LINE
  5
C4EE
330
C481
100
AcDbEntity
  8
02製品
100
AcDbLine
 10
36.10003129983056
 20
110.835285765905
 30
0.0
 11
36.10003129983056
 21
90.83528576590618
 31
0.0
  0
LINE
  5
C4EF
330
C481
100
AcDbEntity
  8
02製品
100
AcDbLine
 10
36.10003129983056
 20
110.835285765905
 30
0.0
 11
36.10003129983056
 21
90.83528576590618
 31
0.0
  0
LINE
  5
C4F0
330
C481
100
AcDbEntity
  8
02製品
100
AcDbLine
 10
7.100031299833063
 20
230.835285765905
 30
0.0
 11
7.100031299833063
 21
80.83528576590504
 31
0.0
  0
LINE
  5
C4F1
330
C481
100
AcDbEntity
  8
02製品
100
AcDbLine
 10
51.10003129982726
 20
0.0
 30
0.0
 11
51.10003129982715
 21
84.83528576589981
 31
0.0
  0
LINE
  5
C4F2
330
C481
100
AcDbEntity
  8
02製品
100
AcDbLine
 10
157.1000312998331
 20
190.8352857659039
 30
0.0
 11
214.6413143738971
 21
190.8352857659041
 31
0.0
  0
LINE
  5
C4F3
330
C481
100
AcDbEntity
  8
02製品
100
AcDbLine
 10
146.1000312998328
 20
210.8352857659062
 30
0.0
 11
126.1000312998306
 21
210.8352857659062
 31
0.0
  0
LINE
  5
C4F4
330
C481
100
AcDbEntity
  8
02製品
100
AcDbLine
 10
126.1000312998306
 20
210.8352857659062
 30
0.0
 11
146.1000312998328
 21
210.8352857659062
 31
0.0
  0
LINE
  5
C4F5
330
C481
100
AcDbEntity
  8
02製品
100
AcDbLine
 10
157.1000312998331
 20
230.835285765905
 30
0.0
 11
157.1000312998331
 21
190.8352857659057
 31
0.0
  0
LINE
  5
C4F6
330
C481
100
AcDbEntity
  8
02製品
100
AcDbLine
 10
136.1000312998317
 20
220.8352857659057
 30
0.0
 11
136.1000312998317
 21
200.835285765905
 31
0.0
  0
CIRCLE
  5
C4F7
330
C481
100
AcDbEntity
  8
02製品
100
AcDbCircle
 10
136.1000312998317
 20
210.8352857659062
 30
0.0
 40
5.0
  0
CIRCLE
  5
C4F8
330
C481
100
AcDbEntity
  8
02製品
100
AcDbCircle
 10
136.1000312998317
 20
210.8352857659062
 30
0.0
 40
5.0
  0
LINE
  5
C4F9
330
C481
100
AcDbEntity
  8
02製品
100
AcDbLine
 10
136.1000312998317
 20
220.8352857659057
 30
0.0
 11
136.1000312998317
 21
200.835285765905
 31
0.0
  0
LINE
  5
C4FA
330
C481
100
AcDbEntity
  8
02製品
100
AcDbLine
 10
214.6413143738971
 20
230.835285765905
 30
0.0
 11
11.10003129983284
 21
230.835285765905
 31
0.0
  0
LINE
  5
C4FB
330
C481
100
AcDbEntity
  8
02製品
  6
HIDDEN
100
AcDbLine
 10
214.6413143738971
 20
227.8352857659062
 30
0.0
 11
157.1000312998331
 21
227.8352857659062
 31
0.0
  0
ENDBLK
  5
C4FD
330
C481
100
AcDbEntity
  8
0
100
AcDbBlockEnd
  0
BLOCK
  5
125EB
330
125EA
100
AcDbEntity
  8
0
100
AcDbBlockBegin
  2
A$C19363
 70
     0
 10
0.0
 20
0.0
 30
0.0
  3
A$C19363
  1

  0
LINE
  5
125EC
330
125EA
100
AcDbEntity
  8
01注記寸法
100
AcDbLine
 10
149.9999999999999
 20
200.0
 30
0.0
 11
0.0
 21
200.0
 31
0.0
  0
LINE
  5
125ED
330
125EA
100
AcDbEntity
  8
01注記寸法
100
AcDbLine
 10
0.0
 20
200.0
 30
0.0
 11
0.0
 21
0.0
 31
0.0
  0
LINE
  5
125EE
330
125EA
100
AcDbEntity
  8
01注記寸法
100
AcDbLine
 10
149.9999999999999
 20
194.0
 30
0.0
 11
0.0
 21
194.0
 31
0.0
  0
LINE
  5
125EF
330
125EA
100
AcDbEntity
  8
01注記寸法
100
AcDbLine
 10
149.9999999999998
 20
0.0
 30
0.0
 11
149.9999999999999
 21
200.0
 31
0.0
  0
LINE
  5
125F0
330
125EA
100
AcDbEntity
  8
01注記寸法
100
AcDbLine
 10
149.9999999999998
 20
0.0
 30
0.0
 11
0.0
 21
0.0
 31
0.0
  0
ENDBLK
  5
125F1
330
125EA
100
AcDbEntity
  8
0
100
AcDbBlockEnd
  0
BLOCK
  5
1275E
330
125FF
100
AcDbEntity
  8
0
100
AcDbBlockBegin
  2
A$C1592
 70
     0
 10
0.0
 20
0.0
 30
0.0
  3
A$C1592
  1

  0
LINE
  5
1262B
330
125FF
100
AcDbEntity
  8
02製品
  6
Continuous
100
AcDbLine
 10
782.3000201418436
 20
1.5
 30
0.0
 11
785.2999815180337
 21
1.5
 31
0.0
  0
LINE
  5
1262C
330
125FF
100
AcDbEntity
  8
02製品
  6
Continuous
100
AcDbLine
 10
785.2999815180337
 20
1.5
 30
0.0
 11
785.2999815180337
 21
4.499991178512573
 31
0.0
  0
LINE
  5
1262D
330
125FF
100
AcDbEntity
  8
02製品
  6
Continuous
100
AcDbLine
 10
785.2999815180337
 20
101.5
 30
0.0
 11
785.2999815180337
 21
1.5
 31
0.0
  0
LINE
  5
1262E
330
125FF
100
AcDbEntity
  8
02製品
  6
Continuous
100
AcDbLine
 10
788.4999760820901
 20
1.5
 30
0.0
 11
788.4999760820901
 21
101.5
 31
0.0
  0
LINE
  5
1262F
330
125FF
100
AcDbEntity
  8
02製品
  6
Continuous
100
AcDbLine
 10
745.3000196650064
 20
1001.499993801115
 30
0.0
 11
745.3000196650064
 21
1.5
 31
0.0
  0
LINE
  5
12630
330
125FF
100
AcDbEntity
  8
02製品
  6
Continuous
100
AcDbLine
 10
785.2999815180337
 20
961.5000021457654
 30
0.0
 11
785.2999815180337
 21
41.49999165534791
 31
0.0
  0
LINE
  5
12631
330
125FF
100
AcDbEntity
  8
02製品
  6
Continuous
100
AcDbLine
 10
50.2999877169168
 20
1.5
 30
0.0
 11
50.2999877169168
 21
1001.499993801115
 31
0.0
  0
LINE
  5
12632
330
125FF
100
AcDbEntity
  8
02製品
  6
Continuous
100
AcDbLine
 10
10.29999606156707
 20
41.49999165534791
 30
0.0
 11
10.29999606156707
 21
961.5000021457654
 31
0.0
  0
LINE
  5
12633
330
125FF
100
AcDbEntity
  8
02製品
  6
Continuous
100
AcDbLine
 10
745.3000196650064
 20
41.49999165534791
 30
0.0
 11
50.2999877169168
 21
41.49999165534791
 31
0.0
  0
LINE
  5
12634
330
125FF
100
AcDbEntity
  8
02製品
  6
Continuous
100
AcDbLine
 10
785.2999815180337
 20
4.499991178512573
 30
0.0
 11
785.2999815180337
 21
41.49999165534791
 31
0.0
  0
LINE
  5
12635
330
125FF
100
AcDbEntity
  8
02製品
  6
Continuous
100
AcDbLine
 10
782.3000201418436
 20
1.5
 30
0.0
 11
785.2999815180337
 21
4.499991178512573
 31
0.0
  0
LINE
  5
12636
330
125FF
100
AcDbEntity
  8
02製品
  6
Continuous
100
AcDbLine
 10
782.3000201418436
 20
1.5
 30
0.0
 11
13.29998724007964
 21
1.5
 31
0.0
  0
LINE
  5
12637
330
125FF
100
AcDbEntity
  8
02製品
  6
Continuous
100
AcDbLine
 10
50.2999877169168
 20
961.5000021457654
 30
0.0
 11
745.3000196650064
 21
961.5000021457654
 31
0.0
  0
LINE
  5
12638
330
125FF
100
AcDbEntity
  8
02製品
  6
Continuous
100
AcDbLine
 10
13.29998724007964
 20
1001.499993801115
 30
0.0
 11
782.3000201418436
 21
1001.499993801115
 31
0.0
  0
INSERT
  5
12639
330
125FF
100
AcDbEntity
  8
02製品
100
AcDbBlockReference
  2
A$C3C7277DA
 10
253.4999889884821
 20
961.5000021454816
 30
0.0
 41
0.6666666666666666
 42
0.6666666666666666
 43
0.6666666666666666
 50
179.9999999999175
  0
INSERT
  5
12661
330
125FF
100
AcDbEntity
  8
02製品
100
AcDbBlockReference
  2
A$C3C7277DA
 10
542.100019665002
 20
41.49999984133865
 30
0.0
 41
0.6666666666666666
 42
0.6666666666666666
 43
0.6666666666666666
 50
359.9999999999175
  0
LINE
  5
12662
330
125FF
100
AcDbEntity
  8
02製品
  6
Continuous
100
AcDbLine
 10
745.3000196650064
 20
490.2908534628896
 30
0.0
 11
50.2999877169168
 21
490.2908534628896
 31
0.0
  0
LINE
  5
12663
330
125FF
100
AcDbEntity
  8
02製品
  6
Continuous
100
AcDbLine
 10
745.3000196650064
 20
520.2908472044019
 30
0.0
 11
50.2999877169168
 21
520.2908472044019
 31
0.0
  0
LINE
  5
12664
330
125FF
100
AcDbEntity
  8
02製品
100
AcDbLine
 10
423.1999960615685
 20
456.1210504939281
 30
0.0
 11
397.7999960615671
 21
467.4543838272602
 31
0.0
  0
LINE
  5
12665
330
125FF
100
AcDbEntity
  8
02製品
100
AcDbLine
 10
372.3999960615656
 20
456.1210504939281
 30
0.0
 11
397.7999960615671
 21
467.4543838272602
 31
0.0
  0
LINE
  5
12666
330
125FF
100
AcDbEntity
  8
02製品
100
AcDbLine
 10
372.3999960615656
 20
524.1210504939281
 30
0.0
 11
346.999996061566
 21
535.4543838272602
 31
0.0
  0
LINE
  5
12667
330
125FF
100
AcDbEntity
  8
02製品
100
AcDbLine
 10
372.3999960615656
 20
501.4543838272602
 30
0.0
 11
346.999996061566
 21
512.7877171605924
 31
0.0
  0
LINE
  5
12668
330
125FF
100
AcDbEntity
  8
02製品
100
AcDbLine
 10
346.999996061566
 20
490.1210504939281
 30
0.0
 11
372.3999960615656
 21
478.7877171605924
 31
0.0
  0
LINE
  5
12669
330
125FF
100
AcDbEntity
  8
02製品
100
AcDbLine
 10
372.3999960615656
 20
501.4543838272602
 30
0.0
 11
346.999996061566
 21
490.1210504939281
 31
0.0
  0
LINE
  5
1266A
330
125FF
100
AcDbEntity
  8
02製品
100
AcDbLine
 10
372.3999960615656
 20
478.7877171605924
 30
0.0
 11
346.999996061566
 21
467.4543838272602
 31
0.0
  0
LINE
  5
1266B
330
125FF
100
AcDbEntity
  8
02製品
100
AcDbLine
 10
346.999996061566
 20
512.7877171605924
 30
0.0
 11
372.3999960615656
 21
524.1210504939281
 31
0.0
  0
LINE
  5
1266C
330
125FF
100
AcDbEntity
  8
02製品
100
AcDbLine
 10
321.5999960615645
 20
501.4543838272602
 30
0.0
 11
296.1999960615649
 21
512.7877171605924
 31
0.0
  0
LINE
  5
1266D
330
125FF
100
AcDbEntity
  8
02製品
100
AcDbLine
 10
321.5999960615645
 20
501.4543838272602
 30
0.0
 11
296.1999960615649
 21
490.1210504939281
 31
0.0
  0
LINE
  5
1266E
330
125FF
100
AcDbEntity
  8
02製品
100
AcDbLine
 10
346.999996061566
 20
490.1210504939281
 30
0.0
 11
321.5999960615645
 21
501.4543838272602
 31
0.0
  0
LINE
  5
1266F
330
125FF
100
AcDbEntity
  8
02製品
100
AcDbLine
 10
321.5999960615645
 20
478.7877171605924
 30
0.0
 11
346.999996061566
 21
490.1210504939281
 31
0.0
  0
LINE
  5
12670
330
125FF
100
AcDbEntity
  8
02製品
100
AcDbLine
 10
321.5999960615645
 20
524.1210504939281
 30
0.0
 11
346.999996061566
 21
512.7877171605924
 31
0.0
  0
LINE
  5
12671
330
125FF
100
AcDbEntity
  8
02製品
100
AcDbLine
 10
346.999996061566
 20
512.7877171605924
 30
0.0
 11
321.5999960615645
 21
501.4543838272602
 31
0.0
  0
LINE
  5
12672
330
125FF
100
AcDbEntity
  8
02製品
100
AcDbLine
 10
397.7999960615671
 20
535.4543838272602
 30
0.0
 11
423.1999960615685
 21
524.1210504939281
 31
0.0
  0
LINE
  5
12673
330
125FF
100
AcDbEntity
  8
02製品
100
AcDbLine
 10
397.7999960615671
 20
535.4543838272602
 30
0.0
 11
372.3999960615656
 21
524.1210504939281
 31
0.0
  0
LINE
  5
12674
330
125FF
100
AcDbEntity
  8
02製品
100
AcDbLine
 10
423.1999960615685
 20
524.1210504939281
 30
0.0
 11
448.5999960615663
 21
535.4543838272602
 31
0.0
  0
LINE
  5
12675
330
125FF
100
AcDbEntity
  8
02製品
100
AcDbLine
 10
423.1999960615685
 20
501.4543838272602
 30
0.0
 11
448.5999960615663
 21
512.7877171605924
 31
0.0
  0
LINE
  5
12676
330
125FF
100
AcDbEntity
  8
02製品
100
AcDbLine
 10
423.1999960615685
 20
478.7877171605924
 30
0.0
 11
448.5999960615663
 21
467.4543838272602
 31
0.0
  0
LINE
  5
12677
330
125FF
100
AcDbEntity
  8
02製品
100
AcDbLine
 10
448.5999960615663
 20
490.1210504939281
 30
0.0
 11
423.1999960615685
 21
478.7877171605924
 31
0.0
  0
LINE
  5
12678
330
125FF
100
AcDbEntity
  8
02製品
100
AcDbLine
 10
423.1999960615685
 20
501.4543838272602
 30
0.0
 11
448.5999960615663
 21
490.1210504939281
 31
0.0
  0
LINE
  5
12679
330
125FF
100
AcDbEntity
  8
02製品
100
AcDbLine
 10
448.5999960615663
 20
512.7877171605924
 30
0.0
 11
423.1999960615685
 21
524.1210504939281
 31
0.0
  0
LINE
  5
1267A
330
125FF
100
AcDbEntity
  8
02製品
100
AcDbLine
 10
397.7999960615671
 20
512.7877171605924
 30
0.0
 11
423.1999960615685
 21
501.4543838272602
 31
0.0
  0
LINE
  5
1267B
330
125FF
100
AcDbEntity
  8
02製品
100
AcDbLine
 10
423.1999960615685
 20
478.7877171605924
 30
0.0
 11
397.7999960615671
 21
490.1210504939281
 31
0.0
  0
LINE
  5
1267C
330
125FF
100
AcDbEntity
  8
02製品
100
AcDbLine
 10
397.7999960615671
 20
490.1210504939281
 30
0.0
 11
423.1999960615685
 21
501.4543838272602
 31
0.0
  0
LINE
  5
1267D
330
125FF
100
AcDbEntity
  8
02製品
100
AcDbLine
 10
397.7999960615671
 20
512.7877171605924
 30
0.0
 11
372.3999960615656
 21
501.4543838272602
 31
0.0
  0
LINE
  5
1267E
330
125FF
100
AcDbEntity
  8
02製品
100
AcDbLine
 10
372.3999960615656
 20
478.7877171605924
 30
0.0
 11
397.7999960615671
 21
490.1210504939281
 31
0.0
  0
LINE
  5
1267F
330
125FF
100
AcDbEntity
  8
02製品
100
AcDbLine
 10
397.7999960615671
 20
490.1210504939281
 30
0.0
 11
372.3999960615656
 21
501.4543838272602
 31
0.0
  0
LINE
  5
12680
330
125FF
100
AcDbEntity
  8
02製品
100
AcDbLine
 10
397.7999960615671
 20
467.4543838272602
 30
0.0
 11
372.3999960615656
 21
478.7877171605924
 31
0.0
  0
LINE
  5
12681
330
125FF
100
AcDbEntity
  8
02製品
100
AcDbLine
 10
397.7999960615671
 20
467.4543838272602
 30
0.0
 11
423.1999960615685
 21
478.7877171605924
 31
0.0
  0
LINE
  5
12682
330
125FF
100
AcDbEntity
  8
02製品
100
AcDbLine
 10
372.3999960615656
 20
524.1210504939281
 30
0.0
 11
397.7999960615671
 21
512.7877171605924
 31
0.0
  0
LINE
  5
12683
330
125FF
100
AcDbEntity
  8
02製品
100
AcDbLine
 10
423.1999960615685
 20
524.1210504939281
 30
0.0
 11
397.7999960615671
 21
512.7877171605924
 31
0.0
  0
LINE
  5
12684
330
125FF
100
AcDbEntity
  8
02製品
100
AcDbLine
 10
448.5999960615663
 20
512.7877171605924
 30
0.0
 11
473.9999960615678
 21
501.4543838272602
 31
0.0
  0
LINE
  5
12685
330
125FF
100
AcDbEntity
  8
02製品
100
AcDbLine
 10
473.9999960615678
 20
478.7877171605924
 30
0.0
 11
448.5999960615663
 21
490.1210504939281
 31
0.0
  0
LINE
  5
12686
330
125FF
100
AcDbEntity
  8
02製品
100
AcDbLine
 10
448.5999960615663
 20
490.1210504939281
 30
0.0
 11
473.9999960615678
 21
501.4543838272602
 31
0.0
  0
LINE
  5
12687
330
125FF
100
AcDbEntity
  8
02製品
100
AcDbLine
 10
473.9999960615678
 20
501.4543838272602
 30
0.0
 11
499.3999960615674
 21
512.7877171605924
 31
0.0
  0
LINE
  5
12688
330
125FF
100
AcDbEntity
  8
02製品
100
AcDbLine
 10
473.9999960615678
 20
501.4543838272602
 30
0.0
 11
499.3999960615674
 21
490.1210504939281
 31
0.0
  0
LINE
  5
12689
330
125FF
100
AcDbEntity
  8
02製品
100
AcDbLine
 10
473.9999960615678
 20
524.1210504939281
 30
0.0
 11
448.5999960615663
 21
512.7877171605924
 31
0.0
  0
LINE
  5
1268A
330
125FF
100
AcDbEntity
  8
02製品
100
AcDbLine
 10
423.1999960615685
 20
546.7877171605924
 30
0.0
 11
397.7999960615671
 21
535.4543838272602
 31
0.0
  0
LINE
  5
1268B
330
125FF
100
AcDbEntity
  8
02製品
100
AcDbLine
 10
372.3999960615656
 20
546.7877171605924
 30
0.0
 11
397.7999960615671
 21
535.4543838272602
 31
0.0
  0
LINE
  5
1268C
330
125FF
100
AcDbEntity
  8
02製品
100
AcDbLine
 10
705.2999815180337
 20
1.5
 30
0.0
 11
755.2999815180337
 21
1.5
 31
0.0
  0
LINE
  5
1268D
330
125FF
100
AcDbEntity
  8
02製品
  6
Continuous
100
AcDbLine
 10
705.2999815180337
 20
0.0
 30
0.0
 11
755.9213018615919
 21
0.0
 31
0.0
  0
LINE
  5
1268E
330
125FF
100
AcDbEntity
  8
02製品
  6
Continuous
100
AcDbLine
 10
705.2999815180337
 20
1.5
 30
0.0
 11
705.2999815180337
 21
0.0
 31
0.0
  0
LINE
  5
1268F
330
125FF
100
AcDbEntity
  8
02製品
  6
Continuous
100
AcDbLine
 10
755.9213018615919
 20
0.0
 30
0.0
 11
757.4213018615919
 21
1.5
 31
0.0
  0
LINE
  5
12690
330
125FF
100
AcDbEntity
  8
02製品
100
AcDbLine
 10
785.2999815180337
 20
1.5
 30
0.0
 11
788.4999760820901
 21
1.5
 31
0.0
  0
LINE
  5
12691
330
125FF
100
AcDbEntity
  8
02製品
100
AcDbLine
 10
785.2999815180337
 20
101.5
 30
0.0
 11
788.4999760820901
 21
101.5
 31
0.0
  0
LINE
  5
12692
330
125FF
100
AcDbEntity
  8
02製品
  6
Continuous
100
AcDbLine
 10
13.29995743775726
 20
1.5
 30
0.0
 11
10.29999606156707
 21
1.5
 31
0.0
  0
LINE
  5
12693
330
125FF
100
AcDbEntity
  8
02製品
  6
Continuous
100
AcDbLine
 10
10.29999606156707
 20
1.5
 30
0.0
 11
10.29999606156707
 21
4.499991178512573
 31
0.0
  0
LINE
  5
12694
330
125FF
100
AcDbEntity
  8
02製品
  6
Continuous
100
AcDbLine
 10
10.29999606156707
 20
101.5
 30
0.0
 11
10.29999606156707
 21
1.5
 31
0.0
  0
LINE
  5
12695
330
125FF
100
AcDbEntity
  8
02製品
  6
Continuous
100
AcDbLine
 10
7.100001497510675
 20
1.5
 30
0.0
 11
7.100001497510675
 21
101.5
 31
0.0
  0
LINE
  5
12696
330
125FF
100
AcDbEntity
  8
02製品
  6
Continuous
100
AcDbLine
 10
10.29999606156707
 20
4.499991178512573
 30
0.0
 11
10.29999606156707
 21
41.49999165534791
 31
0.0
  0
LINE
  5
12697
330
125FF
100
AcDbEntity
  8
02製品
  6
Continuous
100
AcDbLine
 10
13.29995743775726
 20
1.5
 30
0.0
 11
10.29999606156707
 21
4.499991178512573
 31
0.0
  0
LINE
  5
12698
330
125FF
100
AcDbEntity
  8
02製品
100
AcDbLine
 10
10.29999606156707
 20
1.5
 30
0.0
 11
7.100001497510675
 21
1.5
 31
0.0
  0
LINE
  5
12699
330
125FF
100
AcDbEntity
  8
02製品
100
AcDbLine
 10
10.29999606156707
 20
101.5
 30
0.0
 11
7.100001497510675
 21
101.5
 31
0.0
  0
LINE
  5
1269A
330
125FF
100
AcDbEntity
  8
02製品
100
AcDbLine
 10
90.29999606156343
 20
1.5
 30
0.0
 11
40.29999606156707
 21
1.5
 31
0.0
  0
LINE
  5
1269B
330
125FF
100
AcDbEntity
  8
02製品
  6
Continuous
100
AcDbLine
 10
90.29999606156707
 20
0.0
 30
0.0
 11
39.67867571800525
 21
0.0
 31
0.0
  0
LINE
  5
1269C
330
125FF
100
AcDbEntity
  8
02製品
  6
Continuous
100
AcDbLine
 10
90.29999606156343
 20
1.5
 30
0.0
 11
90.29999606156707
 21
0.0
 31
0.0
  0
LINE
  5
1269D
330
125FF
100
AcDbEntity
  8
02製品
  6
Continuous
100
AcDbLine
 10
13.29995743775726
 20
1001.499993801115
 30
0.0
 11
10.29999606156707
 21
1001.499993801115
 31
0.0
  0
LINE
  5
1269E
330
125FF
100
AcDbEntity
  8
02製品
  6
Continuous
100
AcDbLine
 10
10.29999606156707
 20
1001.499993801115
 30
0.0
 11
10.29999606156707
 21
998.5000026226026
 31
0.0
  0
LINE
  5
1269F
330
125FF
100
AcDbEntity
  8
02製品
  6
Continuous
100
AcDbLine
 10
10.29999606156707
 20
901.4999938011151
 30
0.0
 11
10.29999606156707
 21
1001.499993801115
 31
0.0
  0
LINE
  5
126A0
330
125FF
100
AcDbEntity
  8
02製品
  6
Continuous
100
AcDbLine
 10
7.100001497510675
 20
1001.499993801115
 30
0.0
 11
7.100001497510675
 21
901.4999938011151
 31
0.0
  0
LINE
  5
126A1
330
125FF
100
AcDbEntity
  8
02製品
  6
Continuous
100
AcDbLine
 10
10.29999606156707
 20
998.5000026226026
 30
0.0
 11
10.29999606156707
 21
961.5000021457654
 31
0.0
  0
LINE
  5
126A2
330
125FF
100
AcDbEntity
  8
02製品
  6
Continuous
100
AcDbLine
 10
13.29995743775726
 20
1001.499993801115
 30
0.0
 11
10.29999606156707
 21
998.5000026226026
 31
0.0
  0
LINE
  5
126A3
330
125FF
100
AcDbEntity
  8
02製品
  6
Continuous
100
AcDbLine
 10
39.67867571800525
 20
1002.999993801115
 30
0.0
 11
38.17867571800525
 21
1001.499993801115
 31
0.0
  0
LINE
  5
126A4
330
125FF
100
AcDbEntity
  8
02製品
100
AcDbLine
 10
10.29999606156707
 20
1001.499993801115
 30
0.0
 11
7.100001497510675
 21
1001.499993801115
 31
0.0
  0
LINE
  5
126A5
330
125FF
100
AcDbEntity
  8
02製品
100
AcDbLine
 10
10.29999606156707
 20
901.4999938011151
 30
0.0
 11
7.100001497510675
 21
901.4999938011151
 31
0.0
  0
LINE
  5
126A6
330
125FF
100
AcDbEntity
  8
02製品
100
AcDbLine
 10
90.29999606156343
 20
1001.499993801115
 30
0.0
 11
40.29999606156707
 21
1001.499993801115
 31
0.0
  0
LINE
  5
126A7
330
125FF
100
AcDbEntity
  8
02製品
  6
Continuous
100
AcDbLine
 10
90.29999606156707
 20
1002.999993801115
 30
0.0
 11
39.67867571800525
 21
1002.999993801115
 31
0.0
  0
LINE
  5
126A8
330
125FF
100
AcDbEntity
  8
02製品
  6
Continuous
100
AcDbLine
 10
90.29999606156343
 20
1001.499993801115
 30
0.0
 11
90.29999606156707
 21
1002.999993801115
 31
0.0
  0
LINE
  5
126A9
330
125FF
100
AcDbEntity
  8
02製品
  6
Continuous
100
AcDbLine
 10
782.3000201418436
 20
1001.499993801115
 30
0.0
 11
785.2999815180337
 21
1001.499993801115
 31
0.0
  0
LINE
  5
126AA
330
125FF
100
AcDbEntity
  8
02製品
  6
Continuous
100
AcDbLine
 10
785.2999815180337
 20
1001.499993801115
 30
0.0
 11
785.2999815180337
 21
998.5000026226026
 31
0.0
  0
LINE
  5
126AB
330
125FF
100
AcDbEntity
  8
02製品
  6
Continuous
100
AcDbLine
 10
785.2999815180337
 20
901.4999938011151
 30
0.0
 11
785.2999815180337
 21
1001.499993801115
 31
0.0
  0
LINE
  5
126AC
330
125FF
100
AcDbEntity
  8
02製品
  6
Continuous
100
AcDbLine
 10
788.4999760820901
 20
1001.499993801115
 30
0.0
 11
788.4999760820901
 21
901.4999938011151
 31
0.0
  0
LINE
  5
126AD
330
125FF
100
AcDbEntity
  8
02製品
  6
Continuous
100
AcDbLine
 10
785.2999815180337
 20
998.5000026226026
 30
0.0
 11
785.2999815180337
 21
961.5000021457654
 31
0.0
  0
LINE
  5
126AE
330
125FF
100
AcDbEntity
  8
02製品
  6
Continuous
100
AcDbLine
 10
782.3000201418436
 20
1001.499993801115
 30
0.0
 11
785.2999815180337
 21
998.5000026226026
 31
0.0
  0
LINE
  5
126AF
330
125FF
100
AcDbEntity
  8
02製品
100
AcDbLine
 10
785.2999815180337
 20
1001.499993801115
 30
0.0
 11
788.4999760820901
 21
1001.499993801115
 31
0.0
  0
LINE
  5
126B0
330
125FF
100
AcDbEntity
  8
02製品
100
AcDbLine
 10
785.2999815180337
 20
901.4999938011151
 30
0.0
 11
788.4999760820901
 21
901.4999938011151
 31
0.0
  0
LINE
  5
126B1
330
125FF
100
AcDbEntity
  8
02製品
100
AcDbLine
 10
705.2999815180337
 20
1001.499993801115
 30
0.0
 11
755.2999815180337
 21
1001.499993801115
 31
0.0
  0
LINE
  5
126B2
330
125FF
100
AcDbEntity
  8
02製品
  6
Continuous
100
AcDbLine
 10
705.2999815180337
 20
1002.999993801115
 30
0.0
 11
755.9213018615919
 21
1002.999993801115
 31
0.0
  0
LINE
  5
126B3
330
125FF
100
AcDbEntity
  8
02製品
  6
Continuous
100
AcDbLine
 10
705.2999815180337
 20
1001.499993801115
 30
0.0
 11
705.2999815180337
 21
1002.999993801115
 31
0.0
  0
LINE
  5
126B4
330
125FF
100
AcDbEntity
  8
02製品
  6
Continuous
100
AcDbLine
 10
755.9213018615919
 20
1002.999993801115
 30
0.0
 11
757.4213018615919
 21
1001.499993801115
 31
0.0
  0
LINE
  5
126B5
330
125FF
100
AcDbEntity
  8
02製品
  6
Continuous
100
AcDbLine
 10
39.67867571800525
 20
0.0
 30
0.0
 11
38.17867571800525
 21
1.5
 31
0.0
  0
LINE
  5
126B6
330
125FF
100
AcDbEntity
  8
02製品
  6
ByBlock
100
AcDbLine
 10
794.9980839922464
 20
982.7472472190857
 30
0.0
 11
790.0999821856058
 21
982.7472472190857
 31
0.0
  0
LINE
  5
126B7
330
125FF
100
AcDbEntity
  8
02製品
  6
ByBlock
100
AcDbLine
 10
795.5999821856058
 20
992.8000121116638
 30
0.0
 11
795.5999821856058
 21
980.2000060081482
 31
0.0
  0
LINE
  5
126B8
330
125FF
100
AcDbEntity
  8
02製品
  6
ByBlock
100
AcDbLine
 10
795.6000073819232
 20
980.2000402330777
 30
0.0
 11
794.9981061521576
 21
982.7472943524263
 31
0.0
  0
ARC
  5
126B9
330
125FF
100
AcDbEntity
  8
02製品
  6
ByBlock
100
AcDbCircle
 10
783.5999821856058
 20
986.499993801117
 30
0.0
 40
12.0
100
AcDbArc
 50
341.7762176856119
 51
18.22401954976297
  0
LINE
  5
126BA
330
125FF
100
AcDbEntity
  8
02製品
  6
ByBlock
100
AcDbLine
 10
795.6000061532286
 20
980.2000244932715
 30
0.0
 11
794.9039845944426
 21
978.9944796570999
 31
0.0
  0
LINE
  5
126BB
330
125FF
100
AcDbEntity
  8
02製品
  6
ByBlock
100
AcDbLine
 10
794.9039525225198
 20
978.9944548606873
 30
0.0
 11
790.0999821856058
 21
978.9944548606873
 31
0.0
  0
LINE
  5
126BC
330
125FF
100
AcDbEntity
  8
02製品
  6
ByBlock
100
AcDbLine
 10
794.9980687334573
 20
990.2528014183044
 30
0.0
 11
790.0999821856058
 21
990.2528014183044
 31
0.0
  0
LINE
  5
126BD
330
125FF
100
AcDbEntity
  8
02製品
  6
ByBlock
100
AcDbLine
 10
794.9039525225198
 20
994.0055632591248
 30
0.0
 11
790.0999821856058
 21
994.0055632591248
 31
0.0
  0
LINE
  5
126BE
330
125FF
100
AcDbEntity
  8
02製品
  6
ByBlock
100
AcDbLine
 10
794.998080422658
 20
990.2528250734249
 30
0.0
 11
795.5999958467983
 21
992.800044480653
 31
0.0
  0
LINE
  5
126BF
330
125FF
100
AcDbEntity
  8
02製品
  6
ByBlock
100
AcDbLine
 10
794.9039633990287
 20
994.005619043277
 30
0.0
 11
795.5999927660232
 21
992.8000606828937
 31
0.0
  0
LINE
  5
126C0
330
125FF
100
AcDbEntity
  8
02製品
  6
ByBlock
100
AcDbLine
 10
790.0999821856058
 20
994.9999938011133
 30
0.0
 11
790.0999821856058
 21
977.999993801117
 31
0.0
  0
LINE
  5
126C1
330
125FF
100
AcDbEntity
  8
02製品
  6
ByBlock
100
AcDbLine
 10
788.4999760820901
 20
994.9999938011133
 30
0.0
 11
788.4999760820901
 21
977.999993801117
 31
0.0
  0
LINE
  5
126C2
330
125FF
100
AcDbEntity
  8
02製品
  6
ByBlock
100
AcDbLine
 10
790.0999821856058
 20
994.9999938011133
 30
0.0
 11
788.4999760820901
 21
994.9999938011133
 31
0.0
  0
LINE
  5
126C3
330
125FF
100
AcDbEntity
  8
02製品
  6
ByBlock
100
AcDbLine
 10
790.0999821856058
 20
977.999993801117
 30
0.0
 11
788.4999760820901
 21
977.999993801117
 31
0.0
  0
LINE
  5
126C4
330
125FF
100
AcDbEntity
  8
02製品
  6
ByBlock
100
AcDbLine
 10
794.9980839922464
 20
947.7472472190857
 30
0.0
 11
790.0999821856058
 21
947.7472472190857
 31
0.0
  0
LINE
  5
126C5
330
125FF
100
AcDbEntity
  8
02製品
  6
ByBlock
100
AcDbLine
 10
795.5999821856058
 20
957.8000121116638
 30
0.0
 11
795.5999821856058
 21
945.2000060081482
 31
0.0
  0
LINE
  5
126C6
330
125FF
100
AcDbEntity
  8
02製品
  6
ByBlock
100
AcDbLine
 10
795.6000073819232
 20
945.2000402330777
 30
0.0
 11
794.9981061521576
 21
947.7472943524263
 31
0.0
  0
ARC
  5
126C7
330
125FF
100
AcDbEntity
  8
02製品
  6
ByBlock
100
AcDbCircle
 10
783.5999821856058
 20
951.499993801117
 30
0.0
 40
12.0
100
AcDbArc
 50
341.7762176856119
 51
18.22401954976297
  0
LINE
  5
126C8
330
125FF
100
AcDbEntity
  8
02製品
  6
ByBlock
100
AcDbLine
 10
795.6000061532286
 20
945.2000244932715
 30
0.0
 11
794.9039845944426
 21
943.9944796570999
 31
0.0
  0
LINE
  5
126C9
330
125FF
100
AcDbEntity
  8
02製品
  6
ByBlock
100
AcDbLine
 10
794.9039525225198
 20
943.9944548606873
 30
0.0
 11
790.0999821856058
 21
943.9944548606873
 31
0.0
  0
LINE
  5
126CA
330
125FF
100
AcDbEntity
  8
02製品
  6
ByBlock
100
AcDbLine
 10
794.9980687334573
 20
955.2528014183044
 30
0.0
 11
790.0999821856058
 21
955.2528014183044
 31
0.0
  0
LINE
  5
126CB
330
125FF
100
AcDbEntity
  8
02製品
  6
ByBlock
100
AcDbLine
 10
794.9039525225198
 20
959.0055632591248
 30
0.0
 11
790.0999821856058
 21
959.0055632591248
 31
0.0
  0
LINE
  5
126CC
330
125FF
100
AcDbEntity
  8
02製品
  6
ByBlock
100
AcDbLine
 10
794.998080422658
 20
955.2528250734249
 30
0.0
 11
795.5999958467983
 21
957.800044480653
 31
0.0
  0
LINE
  5
126CD
330
125FF
100
AcDbEntity
  8
02製品
  6
ByBlock
100
AcDbLine
 10
794.9039633990287
 20
959.005619043277
 30
0.0
 11
795.5999927660232
 21
957.8000606828937
 31
0.0
  0
LINE
  5
126CE
330
125FF
100
AcDbEntity
  8
02製品
  6
ByBlock
100
AcDbLine
 10
790.0999821856058
 20
959.9999938011133
 30
0.0
 11
790.0999821856058
 21
942.999993801117
 31
0.0
  0
LINE
  5
126CF
330
125FF
100
AcDbEntity
  8
02製品
  6
ByBlock
100
AcDbLine
 10
788.4999760820901
 20
959.9999938011133
 30
0.0
 11
788.4999760820901
 21
942.999993801117
 31
0.0
  0
LINE
  5
126D0
330
125FF
100
AcDbEntity
  8
02製品
  6
ByBlock
100
AcDbLine
 10
790.0999821856058
 20
959.9999938011133
 30
0.0
 11
788.4999760820901
 21
959.9999938011133
 31
0.0
  0
LINE
  5
126D1
330
125FF
100
AcDbEntity
  8
02製品
  6
ByBlock
100
AcDbLine
 10
790.0999821856058
 20
942.999993801117
 30
0.0
 11
788.4999760820901
 21
942.999993801117
 31
0.0
  0
LINE
  5
126D2
330
125FF
100
AcDbEntity
  8
02製品
  6
ByBlock
100
AcDbLine
 10
794.9980839922464
 20
912.7472472190857
 30
0.0
 11
790.0999821856058
 21
912.7472472190857
 31
0.0
  0
LINE
  5
126D3
330
125FF
100
AcDbEntity
  8
02製品
  6
ByBlock
100
AcDbLine
 10
795.5999821856058
 20
922.8000121116638
 30
0.0
 11
795.5999821856058
 21
910.2000060081482
 31
0.0
  0
LINE
  5
126D4
330
125FF
100
AcDbEntity
  8
02製品
  6
ByBlock
100
AcDbLine
 10
795.6000073819232
 20
910.2000402330777
 30
0.0
 11
794.9981061521576
 21
912.7472943524263
 31
0.0
  0
ARC
  5
126D5
330
125FF
100
AcDbEntity
  8
02製品
  6
ByBlock
100
AcDbCircle
 10
783.5999821856058
 20
916.499993801117
 30
0.0
 40
12.0
100
AcDbArc
 50
341.7762176856119
 51
18.22401954976297
  0
LINE
  5
126D6
330
125FF
100
AcDbEntity
  8
02製品
  6
ByBlock
100
AcDbLine
 10
795.6000061532286
 20
910.2000244932715
 30
0.0
 11
794.9039845944426
 21
908.9944796570999
 31
0.0
  0
LINE
  5
126D7
330
125FF
100
AcDbEntity
  8
02製品
  6
ByBlock
100
AcDbLine
 10
794.9039525225198
 20
908.9944548606873
 30
0.0
 11
790.0999821856058
 21
908.9944548606873
 31
0.0
  0
LINE
  5
126D8
330
125FF
100
AcDbEntity
  8
02製品
  6
ByBlock
100
AcDbLine
 10
794.9980687334573
 20
920.2528014183044
 30
0.0
 11
790.0999821856058
 21
920.2528014183044
 31
0.0
  0
LINE
  5
126D9
330
125FF
100
AcDbEntity
  8
02製品
  6
ByBlock
100
AcDbLine
 10
794.9039525225198
 20
924.0055632591248
 30
0.0
 11
790.0999821856058
 21
924.0055632591248
 31
0.0
  0
LINE
  5
126DA
330
125FF
100
AcDbEntity
  8
02製品
  6
ByBlock
100
AcDbLine
 10
794.998080422658
 20
920.2528250734249
 30
0.0
 11
795.5999958467983
 21
922.800044480653
 31
0.0
  0
LINE
  5
126DB
330
125FF
100
AcDbEntity
  8
02製品
  6
ByBlock
100
AcDbLine
 10
794.9039633990287
 20
924.005619043277
 30
0.0
 11
795.5999927660232
 21
922.8000606828937
 31
0.0
  0
LINE
  5
126DC
330
125FF
100
AcDbEntity
  8
02製品
  6
ByBlock
100
AcDbLine
 10
790.0999821856058
 20
924.9999938011133
 30
0.0
 11
790.0999821856058
 21
907.999993801117
 31
0.0
  0
LINE
  5
126DD
330
125FF
100
AcDbEntity
  8
02製品
  6
ByBlock
100
AcDbLine
 10
788.4999760820901
 20
924.9999938011133
 30
0.0
 11
788.4999760820901
 21
907.999993801117
 31
0.0
  0
LINE
  5
126DE
330
125FF
100
AcDbEntity
  8
02製品
  6
ByBlock
100
AcDbLine
 10
790.0999821856058
 20
924.9999938011133
 30
0.0
 11
788.4999760820901
 21
924.9999938011133
 31
0.0
  0
LINE
  5
126DF
330
125FF
100
AcDbEntity
  8
02製品
  6
ByBlock
100
AcDbLine
 10
790.0999821856058
 20
907.999993801117
 30
0.0
 11
788.4999760820901
 21
907.999993801117
 31
0.0
  0
LINE
  5
126E0
330
125FF
100
AcDbEntity
  8
02製品
  6
ByBlock
100
AcDbLine
 10
794.9980839922464
 20
82.74725341797057
 30
0.0
 11
790.0999821856058
 21
82.74725341797057
 31
0.0
  0
LINE
  5
126E1
330
125FF
100
AcDbEntity
  8
02製品
  6
ByBlock
100
AcDbLine
 10
795.5999821856058
 20
92.8000183105487
 30
0.0
 11
795.5999821856058
 21
80.20001220703307
 31
0.0
  0
LINE
  5
126E2
330
125FF
100
AcDbEntity
  8
02製品
  6
ByBlock
100
AcDbLine
 10
795.6000073819232
 20
80.20004643196262
 30
0.0
 11
794.9981061521576
 21
82.74730055131113
 31
0.0
  0
ARC
  5
126E3
330
125FF
100
AcDbEntity
  8
02製品
  6
ByBlock
100
AcDbCircle
 10
783.5999821856058
 20
86.50000000000182
 30
0.0
 40
12.0
100
AcDbArc
 50
341.7762176856119
 51
18.22401954976297
  0
LINE
  5
126E4
330
125FF
100
AcDbEntity
  8
02製品
  6
ByBlock
100
AcDbLine
 10
795.6000061532286
 20
80.20003069215636
 30
0.0
 11
794.9039845944426
 21
78.99448585598475
 31
0.0
  0
LINE
  5
126E5
330
125FF
100
AcDbEntity
  8
02製品
  6
ByBlock
100
AcDbLine
 10
794.9039525225198
 20
78.99446105957213
 30
0.0
 11
790.0999821856058
 21
78.99446105957213
 31
0.0
  0
LINE
  5
126E6
330
125FF
100
AcDbEntity
  8
02製品
  6
ByBlock
100
AcDbLine
 10
794.9980687334573
 20
90.25280761718932
 30
0.0
 11
790.0999821856058
 21
90.25280761718932
 31
0.0
  0
LINE
  5
126E7
330
125FF
100
AcDbEntity
  8
02製品
  6
ByBlock
100
AcDbLine
 10
794.9039525225198
 20
94.00556945800963
 30
0.0
 11
790.0999821856058
 21
94.00556945800963
 31
0.0
  0
LINE
  5
126E8
330
125FF
100
AcDbEntity
  8
02製品
  6
ByBlock
100
AcDbLine
 10
794.998080422658
 20
90.25283127230978
 30
0.0
 11
795.5999958467983
 21
92.80005067953789
 31
0.0
  0
LINE
  5
126E9
330
125FF
100
AcDbEntity
  8
02製品
  6
ByBlock
100
AcDbLine
 10
794.9039633990287
 20
94.00562524216184
 30
0.0
 11
795.5999927660232
 21
92.80006688177855
 31
0.0
  0
LINE
  5
126EA
330
125FF
100
AcDbEntity
  8
02製品
  6
ByBlock
100
AcDbLine
 10
790.0999821856058
 20
94.99999999999818
 30
0.0
 11
790.0999821856058
 21
78.00000000000182
 31
0.0
  0
LINE
  5
126EB
330
125FF
100
AcDbEntity
  8
02製品
  6
ByBlock
100
AcDbLine
 10
788.4999760820901
 20
94.99999999999818
 30
0.0
 11
788.4999760820901
 21
78.00000000000182
 31
0.0
  0
LINE
  5
126EC
330
125FF
100
AcDbEntity
  8
02製品
  6
ByBlock
100
AcDbLine
 10
790.0999821856058
 20
94.99999999999818
 30
0.0
 11
788.4999760820901
 21
94.99999999999818
 31
0.0
  0
LINE
  5
126ED
330
125FF
100
AcDbEntity
  8
02製品
  6
ByBlock
100
AcDbLine
 10
790.0999821856058
 20
78.00000000000182
 30
0.0
 11
788.4999760820901
 21
78.00000000000182
 31
0.0
  0
LINE
  5
126EE
330
125FF
100
AcDbEntity
  8
02製品
  6
ByBlock
100
AcDbLine
 10
794.9980839922464
 20
47.74725341797057
 30
0.0
 11
790.0999821856058
 21
47.74725341797057
 31
0.0
  0
LINE
  5
126EF
330
125FF
100
AcDbEntity
  8
02製品
  6
ByBlock
100
AcDbLine
 10
795.5999821856058
 20
57.80001831054869
 30
0.0
 11
795.5999821856058
 21
45.20001220703307
 31
0.0
  0
LINE
  5
126F0
330
125FF
100
AcDbEntity
  8
02製品
  6
ByBlock
100
AcDbLine
 10
795.6000073819232
 20
45.20004643196262
 30
0.0
 11
794.9981061521576
 21
47.74730055131113
 31
0.0
  0
ARC
  5
126F1
330
125FF
100
AcDbEntity
  8
02製品
  6
ByBlock
100
AcDbCircle
 10
783.5999821856058
 20
51.50000000000182
 30
0.0
 40
12.0
100
AcDbArc
 50
341.7762176856119
 51
18.22401954976297
  0
LINE
  5
126F2
330
125FF
100
AcDbEntity
  8
02製品
  6
ByBlock
100
AcDbLine
 10
795.6000061532286
 20
45.20003069215636
 30
0.0
 11
794.9039845944426
 21
43.99448585598475
 31
0.0
  0
LINE
  5
126F3
330
125FF
100
AcDbEntity
  8
02製品
  6
ByBlock
100
AcDbLine
 10
794.9039525225198
 20
43.99446105957213
 30
0.0
 11
790.0999821856058
 21
43.99446105957213
 31
0.0
  0
LINE
  5
126F4
330
125FF
100
AcDbEntity
  8
02製品
  6
ByBlock
100
AcDbLine
 10
794.9980687334573
 20
55.25280761718932
 30
0.0
 11
790.0999821856058
 21
55.25280761718932
 31
0.0
  0
LINE
  5
126F5
330
125FF
100
AcDbEntity
  8
02製品
  6
ByBlock
100
AcDbLine
 10
794.9039525225198
 20
59.00556945800963
 30
0.0
 11
790.0999821856058
 21
59.00556945800963
 31
0.0
  0
LINE
  5
126F6
330
125FF
100
AcDbEntity
  8
02製品
  6
ByBlock
100
AcDbLine
 10
794.998080422658
 20
55.25283127230978
 30
0.0
 11
795.5999958467983
 21
57.80005067953789
 31
0.0
  0
LINE
  5
126F7
330
125FF
100
AcDbEntity
  8
02製品
  6
ByBlock
100
AcDbLine
 10
794.9039633990287
 20
59.00562524216184
 30
0.0
 11
795.5999927660232
 21
57.80006688177855
 31
0.0
  0
LINE
  5
126F8
330
125FF
100
AcDbEntity
  8
02製品
  6
ByBlock
100
AcDbLine
 10
790.0999821856058
 20
59.99999999999818
 30
0.0
 11
790.0999821856058
 21
43.00000000000182
 31
0.0
  0
LINE
  5
126F9
330
125FF
100
AcDbEntity
  8
02製品
  6
ByBlock
100
AcDbLine
 10
788.4999760820901
 20
59.99999999999818
 30
0.0
 11
788.4999760820901
 21
43.00000000000182
 31
0.0
  0
LINE
  5
126FA
330
125FF
100
AcDbEntity
  8
02製品
  6
ByBlock
100
AcDbLine
 10
790.0999821856058
 20
59.99999999999818
 30
0.0
 11
788.4999760820901
 21
59.99999999999818
 31
0.0
  0
LINE
  5
126FB
330
125FF
100
AcDbEntity
  8
02製品
  6
ByBlock
100
AcDbLine
 10
790.0999821856058
 20
43.00000000000182
 30
0.0
 11
788.4999760820901
 21
43.00000000000182
 31
0.0
  0
LINE
  5
126FC
330
125FF
100
AcDbEntity
  8
02製品
  6
ByBlock
100
AcDbLine
 10
794.9980839922464
 20
12.74725341797057
 30
0.0
 11
790.0999821856058
 21
12.74725341797057
 31
0.0
  0
LINE
  5
126FD
330
125FF
100
AcDbEntity
  8
02製品
  6
ByBlock
100
AcDbLine
 10
795.5999821856058
 20
22.80001831054869
 30
0.0
 11
795.5999821856058
 21
10.20001220703307
 31
0.0
  0
LINE
  5
126FE
330
125FF
100
AcDbEntity
  8
02製品
  6
ByBlock
100
AcDbLine
 10
795.6000073819232
 20
10.20004643196262
 30
0.0
 11
794.9981061521576
 21
12.74730055131113
 31
0.0
  0
ARC
  5
126FF
330
125FF
100
AcDbEntity
  8
02製品
  6
ByBlock
100
AcDbCircle
 10
783.5999821856058
 20
16.50000000000182
 30
0.0
 40
12.0
100
AcDbArc
 50
341.7762176856119
 51
18.22401954976297
  0
LINE
  5
12700
330
125FF
100
AcDbEntity
  8
02製品
  6
ByBlock
100
AcDbLine
 10
795.6000061532286
 20
10.20003069215636
 30
0.0
 11
794.9039845944426
 21
8.994485855984749
 31
0.0
  0
LINE
  5
12701
330
125FF
100
AcDbEntity
  8
02製品
  6
ByBlock
100
AcDbLine
 10
794.9039525225198
 20
8.994461059572131
 30
0.0
 11
790.0999821856058
 21
8.994461059572131
 31
0.0
  0
LINE
  5
12702
330
125FF
100
AcDbEntity
  8
02製品
  6
ByBlock
100
AcDbLine
 10
794.9980687334573
 20
20.25280761718932
 30
0.0
 11
790.0999821856058
 21
20.25280761718932
 31
0.0
  0
LINE
  5
12703
330
125FF
100
AcDbEntity
  8
02製品
  6
ByBlock
100
AcDbLine
 10
794.9039525225198
 20
24.00556945800963
 30
0.0
 11
790.0999821856058
 21
24.00556945800963
 31
0.0
  0
LINE
  5
12704
330
125FF
100
AcDbEntity
  8
02製品
  6
ByBlock
100
AcDbLine
 10
794.998080422658
 20
20.25283127230978
 30
0.0
 11
795.5999958467983
 21
22.80005067953789
 31
0.0
  0
LINE
  5
12705
330
125FF
100
AcDbEntity
  8
02製品
  6
ByBlock
100
AcDbLine
 10
794.9039633990287
 20
24.00562524216184
 30
0.0
 11
795.5999927660232
 21
22.80006688177855
 31
0.0
  0
LINE
  5
12706
330
125FF
100
AcDbEntity
  8
02製品
  6
ByBlock
100
AcDbLine
 10
790.0999821856058
 20
24.99999999999818
 30
0.0
 11
790.0999821856058
 21
8.000000000001819
 31
0.0
  0
LINE
  5
12707
330
125FF
100
AcDbEntity
  8
02製品
  6
ByBlock
100
AcDbLine
 10
788.4999760820901
 20
24.99999999999818
 30
0.0
 11
788.4999760820901
 21
8.000000000001819
 31
0.0
  0
LINE
  5
12708
330
125FF
100
AcDbEntity
  8
02製品
  6
ByBlock
100
AcDbLine
 10
790.0999821856058
 20
24.99999999999818
 30
0.0
 11
788.4999760820901
 21
24.99999999999818
 31
0.0
  0
LINE
  5
12709
330
125FF
100
AcDbEntity
  8
02製品
  6
ByBlock
100
AcDbLine
 10
790.0999821856058
 20
8.000000000001819
 30
0.0
 11
788.4999760820901
 21
8.000000000001819
 31
0.0
  0
LINE
  5
1270A
330
125FF
100
AcDbEntity
  8
02製品
  6
ByBlock
100
AcDbLine
 10
0.6019233896768128
 20
982.7472472190857
 30
0.0
 11
5.500025196317438
 21
982.7472472190857
 31
0.0
  0
LINE
  5
1270B
330
125FF
100
AcDbEntity
  8
02製品
  6
ByBlock
100
AcDbLine
 10
0.0000251963174378
 20
992.8000121116638
 30
0.0
 11
0.0000251963174378
 21
980.2000060081482
 31
0.0
  0
LINE
  5
1270C
330
125FF
100
AcDbEntity
  8
02製品
  6
ByBlock
100
AcDbLine
 10
0.0
 20
980.2000402330777
 30
0.0
 11
0.6019012297656445
 21
982.7472943524263
 31
0.0
  0
ARC
  5
1270D
330
125FF
100
AcDbEntity
  8
02製品
  6
ByBlock
100
AcDbCircle
 10
12.00002519631744
 20
986.499993801117
 30
0.0
 40
12.0
100
AcDbArc
 50
161.775980450237
 51
198.2237823143882
  0
LINE
  5
1270E
330
125FF
100
AcDbEntity
  8
02製品
  6
ByBlock
100
AcDbLine
 10
0.0000012286946003
 20
980.2000244932715
 30
0.0
 11
0.6960227874806151
 21
978.9944796570999
 31
0.0
  0
LINE
  5
1270F
330
125FF
100
AcDbEntity
  8
02製品
  6
ByBlock
100
AcDbLine
 10
0.6960548594033753
 20
978.9944548606873
 30
0.0
 11
5.500025196317438
 21
978.9944548606873
 31
0.0
  0
LINE
  5
12710
330
125FF
100
AcDbEntity
  8
02製品
  6
ByBlock
100
AcDbLine
 10
0.6019386484658753
 20
990.2528014183044
 30
0.0
 11
5.500025196317438
 21
990.2528014183044
 31
0.0
  0
LINE
  5
12711
330
125FF
100
AcDbEntity
  8
02製品
  6
ByBlock
100
AcDbLine
 10
0.6960548594033753
 20
994.0055632591248
 30
0.0
 11
5.500025196317438
 21
994.0055632591248
 31
0.0
  0
LINE
  5
12712
330
125FF
100
AcDbEntity
  8
02製品
  6
ByBlock
100
AcDbLine
 10
0.6019269592652563
 20
990.2528250734249
 30
0.0
 11
0.0000115351249406
 21
992.800044480653
 31
0.0
  0
LINE
  5
12713
330
125FF
100
AcDbEntity
  8
02製品
  6
ByBlock
100
AcDbLine
 10
0.69604398289448
 20
994.005619043277
 30
0.0
 11
0.0000146158999996
 21
992.8000606828937
 31
0.0
  0
LINE
  5
12714
330
125FF
100
AcDbEntity
  8
02製品
  6
ByBlock
100
AcDbLine
 10
5.500025196317438
 20
994.9999938011133
 30
0.0
 11
5.500025196317438
 21
977.999993801117
 31
0.0
  0
LINE
  5
12715
330
125FF
100
AcDbEntity
  8
02製品
  6
ByBlock
100
AcDbLine
 10
7.100031299833063
 20
994.9999938011133
 30
0.0
 11
7.100031299833063
 21
977.999993801117
 31
0.0
  0
LINE
  5
12716
330
125FF
100
AcDbEntity
  8
02製品
  6
ByBlock
100
AcDbLine
 10
5.500025196317438
 20
994.9999938011133
 30
0.0
 11
7.100031299833063
 21
994.9999938011133
 31
0.0
  0
LINE
  5
12717
330
125FF
100
AcDbEntity
  8
02製品
  6
ByBlock
100
AcDbLine
 10
5.500025196317438
 20
977.999993801117
 30
0.0
 11
7.100031299833063
 21
977.999993801117
 31
0.0
  0
LINE
  5
12718
330
125FF
100
AcDbEntity
  8
02製品
  6
ByBlock
100
AcDbLine
 10
0.6019233896768128
 20
947.7472472190857
 30
0.0
 11
5.500025196317438
 21
947.7472472190857
 31
0.0
  0
LINE
  5
12719
330
125FF
100
AcDbEntity
  8
02製品
  6
ByBlock
100
AcDbLine
 10
0.0000251963174378
 20
957.8000121116638
 30
0.0
 11
0.0000251963174378
 21
945.2000060081482
 31
0.0
  0
LINE
  5
1271A
330
125FF
100
AcDbEntity
  8
02製品
  6
ByBlock
100
AcDbLine
 10
0.0
 20
945.2000402330777
 30
0.0
 11
0.6019012297656445
 21
947.7472943524263
 31
0.0
  0
ARC
  5
1271B
330
125FF
100
AcDbEntity
  8
02製品
  6
ByBlock
100
AcDbCircle
 10
12.00002519631744
 20
951.499993801117
 30
0.0
 40
12.0
100
AcDbArc
 50
161.775980450237
 51
198.2237823143882
  0
LINE
  5
1271C
330
125FF
100
AcDbEntity
  8
02製品
  6
ByBlock
100
AcDbLine
 10
0.0000012286946003
 20
945.2000244932715
 30
0.0
 11
0.6960227874806151
 21
943.9944796570999
 31
0.0
  0
LINE
  5
1271D
330
125FF
100
AcDbEntity
  8
02製品
  6
ByBlock
100
AcDbLine
 10
0.6960548594033753
 20
943.9944548606873
 30
0.0
 11
5.500025196317438
 21
943.9944548606873
 31
0.0
  0
LINE
  5
1271E
330
125FF
100
AcDbEntity
  8
02製品
  6
ByBlock
100
AcDbLine
 10
0.6019386484658753
 20
955.2528014183044
 30
0.0
 11
5.500025196317438
 21
955.2528014183044
 31
0.0
  0
LINE
  5
1271F
330
125FF
100
AcDbEntity
  8
02製品
  6
ByBlock
100
AcDbLine
 10
0.6960548594033753
 20
959.0055632591248
 30
0.0
 11
5.500025196317438
 21
959.0055632591248
 31
0.0
  0
LINE
  5
12720
330
125FF
100
AcDbEntity
  8
02製品
  6
ByBlock
100
AcDbLine
 10
0.6019269592652563
 20
955.2528250734249
 30
0.0
 11
0.0000115351249406
 21
957.800044480653
 31
0.0
  0
LINE
  5
12721
330
125FF
100
AcDbEntity
  8
02製品
  6
ByBlock
100
AcDbLine
 10
0.69604398289448
 20
959.005619043277
 30
0.0
 11
0.0000146158999996
 21
957.8000606828937
 31
0.0
  0
LINE
  5
12722
330
125FF
100
AcDbEntity
  8
02製品
  6
ByBlock
100
AcDbLine
 10
5.500025196317438
 20
959.9999938011133
 30
0.0
 11
5.500025196317438
 21
942.999993801117
 31
0.0
  0
LINE
  5
12723
330
125FF
100
AcDbEntity
  8
02製品
  6
ByBlock
100
AcDbLine
 10
7.100031299833063
 20
959.9999938011133
 30
0.0
 11
7.100031299833063
 21
942.999993801117
 31
0.0
  0
LINE
  5
12724
330
125FF
100
AcDbEntity
  8
02製品
  6
ByBlock
100
AcDbLine
 10
5.500025196317438
 20
959.9999938011133
 30
0.0
 11
7.100031299833063
 21
959.9999938011133
 31
0.0
  0
LINE
  5
12725
330
125FF
100
AcDbEntity
  8
02製品
  6
ByBlock
100
AcDbLine
 10
5.500025196317438
 20
942.999993801117
 30
0.0
 11
7.100031299833063
 21
942.999993801117
 31
0.0
  0
LINE
  5
12726
330
125FF
100
AcDbEntity
  8
02製品
  6
ByBlock
100
AcDbLine
 10
0.6019233896768128
 20
912.7472472190857
 30
0.0
 11
5.500025196317438
 21
912.7472472190857
 31
0.0
  0
LINE
  5
12727
330
125FF
100
AcDbEntity
  8
02製品
  6
ByBlock
100
AcDbLine
 10
0.0000251963174378
 20
922.8000121116638
 30
0.0
 11
0.0000251963174378
 21
910.2000060081482
 31
0.0
  0
LINE
  5
12728
330
125FF
100
AcDbEntity
  8
02製品
  6
ByBlock
100
AcDbLine
 10
0.0
 20
910.2000402330777
 30
0.0
 11
0.6019012297656445
 21
912.7472943524263
 31
0.0
  0
ARC
  5
12729
330
125FF
100
AcDbEntity
  8
02製品
  6
ByBlock
100
AcDbCircle
 10
12.00002519631744
 20
916.499993801117
 30
0.0
 40
12.0
100
AcDbArc
 50
161.775980450237
 51
198.2237823143882
  0
LINE
  5
1272A
330
125FF
100
AcDbEntity
  8
02製品
  6
ByBlock
100
AcDbLine
 10
0.0000012286946003
 20
910.2000244932715
 30
0.0
 11
0.6960227874806151
 21
908.9944796570999
 31
0.0
  0
LINE
  5
1272B
330
125FF
100
AcDbEntity
  8
02製品
  6
ByBlock
100
AcDbLine
 10
0.6960548594033753
 20
908.9944548606873
 30
0.0
 11
5.500025196317438
 21
908.9944548606873
 31
0.0
  0
LINE
  5
1272C
330
125FF
100
AcDbEntity
  8
02製品
  6
ByBlock
100
AcDbLine
 10
0.6019386484658753
 20
920.2528014183044
 30
0.0
 11
5.500025196317438
 21
920.2528014183044
 31
0.0
  0
LINE
  5
1272D
330
125FF
100
AcDbEntity
  8
02製品
  6
ByBlock
100
AcDbLine
 10
0.6960548594033753
 20
924.0055632591248
 30
0.0
 11
5.500025196317438
 21
924.0055632591248
 31
0.0
  0
LINE
  5
1272E
330
125FF
100
AcDbEntity
  8
02製品
  6
ByBlock
100
AcDbLine
 10
0.6019269592652563
 20
920.2528250734249
 30
0.0
 11
0.0000115351249406
 21
922.800044480653
 31
0.0
  0
LINE
  5
1272F
330
125FF
100
AcDbEntity
  8
02製品
  6
ByBlock
100
AcDbLine
 10
0.69604398289448
 20
924.005619043277
 30
0.0
 11
0.0000146158999996
 21
922.8000606828937
 31
0.0
  0
LINE
  5
12730
330
125FF
100
AcDbEntity
  8
02製品
  6
ByBlock
100
AcDbLine
 10
5.500025196317438
 20
924.9999938011133
 30
0.0
 11
5.500025196317438
 21
907.999993801117
 31
0.0
  0
LINE
  5
12731
330
125FF
100
AcDbEntity
  8
02製品
  6
ByBlock
100
AcDbLine
 10
7.100031299833063
 20
924.9999938011133
 30
0.0
 11
7.100031299833063
 21
907.999993801117
 31
0.0
  0
LINE
  5
12732
330
125FF
100
AcDbEntity
  8
02製品
  6
ByBlock
100
AcDbLine
 10
5.500025196317438
 20
924.9999938011133
 30
0.0
 11
7.100031299833063
 21
924.9999938011133
 31
0.0
  0
LINE
  5
12733
330
125FF
100
AcDbEntity
  8
02製品
  6
ByBlock
100
AcDbLine
 10
5.500025196317438
 20
907.999993801117
 30
0.0
 11
7.100031299833063
 21
907.999993801117
 31
0.0
  0
LINE
  5
12734
330
125FF
100
AcDbEntity
  8
02製品
  6
ByBlock
100
AcDbLine
 10
0.6019233896768128
 20
82.74725341797057
 30
0.0
 11
5.500025196317438
 21
82.74725341797057
 31
0.0
  0
LINE
  5
12735
330
125FF
100
AcDbEntity
  8
02製品
  6
ByBlock
100
AcDbLine
 10
0.0000251963174378
 20
92.8000183105487
 30
0.0
 11
0.0000251963174378
 21
80.20001220703307
 31
0.0
  0
LINE
  5
12736
330
125FF
100
AcDbEntity
  8
02製品
  6
ByBlock
100
AcDbLine
 10
0.0
 20
80.20004643196262
 30
0.0
 11
0.6019012297656445
 21
82.74730055131113
 31
0.0
  0
ARC
  5
12737
330
125FF
100
AcDbEntity
  8
02製品
  6
ByBlock
100
AcDbCircle
 10
12.00002519631744
 20
86.50000000000182
 30
0.0
 40
12.0
100
AcDbArc
 50
161.775980450237
 51
198.2237823143882
  0
LINE
  5
12738
330
125FF
100
AcDbEntity
  8
02製品
  6
ByBlock
100
AcDbLine
 10
0.0000012286946003
 20
80.20003069215636
 30
0.0
 11
0.6960227874806151
 21
78.99448585598475
 31
0.0
  0
LINE
  5
12739
330
125FF
100
AcDbEntity
  8
02製品
  6
ByBlock
100
AcDbLine
 10
0.6960548594033753
 20
78.99446105957213
 30
0.0
 11
5.500025196317438
 21
78.99446105957213
 31
0.0
  0
LINE
  5
1273A
330
125FF
100
AcDbEntity
  8
02製品
  6
ByBlock
100
AcDbLine
 10
0.6019386484658753
 20
90.25280761718932
 30
0.0
 11
5.500025196317438
 21
90.25280761718932
 31
0.0
  0
LINE
  5
1273B
330
125FF
100
AcDbEntity
  8
02製品
  6
ByBlock
100
AcDbLine
 10
0.6960548594033753
 20
94.00556945800963
 30
0.0
 11
5.500025196317438
 21
94.00556945800963
 31
0.0
  0
LINE
  5
1273C
330
125FF
100
AcDbEntity
  8
02製品
  6
ByBlock
100
AcDbLine
 10
0.6019269592652563
 20
90.25283127230978
 30
0.0
 11
0.0000115351249406
 21
92.80005067953789
 31
0.0
  0
LINE
  5
1273D
330
125FF
100
AcDbEntity
  8
02製品
  6
ByBlock
100
AcDbLine
 10
0.69604398289448
 20
94.00562524216184
 30
0.0
 11
0.0000146158999996
 21
92.80006688177855
 31
0.0
  0
LINE
  5
1273E
330
125FF
100
AcDbEntity
  8
02製品
  6
ByBlock
100
AcDbLine
 10
5.500025196317438
 20
94.99999999999818
 30
0.0
 11
5.500025196317438
 21
78.00000000000182
 31
0.0
  0
LINE
  5
1273F
330
125FF
100
AcDbEntity
  8
02製品
  6
ByBlock
100
AcDbLine
 10
7.100031299833063
 20
94.99999999999818
 30
0.0
 11
7.100031299833063
 21
78.00000000000182
 31
0.0
  0
LINE
  5
12740
330
125FF
100
AcDbEntity
  8
02製品
  6
ByBlock
100
AcDbLine
 10
5.500025196317438
 20
94.99999999999818
 30
0.0
 11
7.100031299833063
 21
94.99999999999818
 31
0.0
  0
LINE
  5
12741
330
125FF
100
AcDbEntity
  8
02製品
  6
ByBlock
100
AcDbLine
 10
5.500025196317438
 20
78.00000000000182
 30
0.0
 11
7.100031299833063
 21
78.00000000000182
 31
0.0
  0
LINE
  5
12742
330
125FF
100
AcDbEntity
  8
02製品
  6
ByBlock
100
AcDbLine
 10
0.6019233896768128
 20
47.74725341797057
 30
0.0
 11
5.500025196317438
 21
47.74725341797057
 31
0.0
  0
LINE
  5
12743
330
125FF
100
AcDbEntity
  8
02製品
  6
ByBlock
100
AcDbLine
 10
0.0000251963174378
 20
57.80001831054869
 30
0.0
 11
0.0000251963174378
 21
45.20001220703307
 31
0.0
  0
LINE
  5
12744
330
125FF
100
AcDbEntity
  8
02製品
  6
ByBlock
100
AcDbLine
 10
0.0
 20
45.20004643196262
 30
0.0
 11
0.6019012297656445
 21
47.74730055131113
 31
0.0
  0
ARC
  5
12745
330
125FF
100
AcDbEntity
  8
02製品
  6
ByBlock
100
AcDbCircle
 10
12.00002519631744
 20
51.50000000000182
 30
0.0
 40
12.0
100
AcDbArc
 50
161.775980450237
 51
198.2237823143882
  0
LINE
  5
12746
330
125FF
100
AcDbEntity
  8
02製品
  6
ByBlock
100
AcDbLine
 10
0.0000012286946003
 20
45.20003069215636
 30
0.0
 11
0.6960227874806151
 21
43.99448585598475
 31
0.0
  0
LINE
  5
12747
330
125FF
100
AcDbEntity
  8
02製品
  6
ByBlock
100
AcDbLine
 10
0.6960548594033753
 20
43.99446105957213
 30
0.0
 11
5.500025196317438
 21
43.99446105957213
 31
0.0
  0
LINE
  5
12748
330
125FF
100
AcDbEntity
  8
02製品
  6
ByBlock
100
AcDbLine
 10
0.6019386484658753
 20
55.25280761718932
 30
0.0
 11
5.500025196317438
 21
55.25280761718932
 31
0.0
  0
LINE
  5
12749
330
125FF
100
AcDbEntity
  8
02製品
  6
ByBlock
100
AcDbLine
 10
0.6960548594033753
 20
59.00556945800963
 30
0.0
 11
5.500025196317438
 21
59.00556945800963
 31
0.0
  0
LINE
  5
1274A
330
125FF
100
AcDbEntity
  8
02製品
  6
ByBlock
100
AcDbLine
 10
0.6019269592652563
 20
55.25283127230978
 30
0.0
 11
0.0000115351249406
 21
57.80005067953789
 31
0.0
  0
LINE
  5
1274B
330
125FF
100
AcDbEntity
  8
02製品
  6
ByBlock
100
AcDbLine
 10
0.69604398289448
 20
59.00562524216184
 30
0.0
 11
0.0000146158999996
 21
57.80006688177855
 31
0.0
  0
LINE
  5
1274C
330
125FF
100
AcDbEntity
  8
02製品
  6
ByBlock
100
AcDbLine
 10
5.500025196317438
 20
59.99999999999818
 30
0.0
 11
5.500025196317438
 21
43.00000000000182
 31
0.0
  0
LINE
  5
1274D
330
125FF
100
AcDbEntity
  8
02製品
  6
ByBlock
100
AcDbLine
 10
7.100031299833063
 20
59.99999999999818
 30
0.0
 11
7.100031299833063
 21
43.00000000000182
 31
0.0
  0
LINE
  5
1274E
330
125FF
100
AcDbEntity
  8
02製品
  6
ByBlock
100
AcDbLine
 10
5.500025196317438
 20
59.99999999999818
 30
0.0
 11
7.100031299833063
 21
59.99999999999818
 31
0.0
  0
LINE
  5
1274F
330
125FF
100
AcDbEntity
  8
02製品
  6
ByBlock
100
AcDbLine
 10
5.500025196317438
 20
43.00000000000182
 30
0.0
 11
7.100031299833063
 21
43.00000000000182
 31
0.0
  0
LINE
  5
12750
330
125FF
100
AcDbEntity
  8
02製品
  6
ByBlock
100
AcDbLine
 10
0.6019233896768128
 20
12.74725341797057
 30
0.0
 11
5.500025196317438
 21
12.74725341797057
 31
0.0
  0
LINE
  5
12751
330
125FF
100
AcDbEntity
  8
02製品
  6
ByBlock
100
AcDbLine
 10
0.0000251963174378
 20
22.80001831054869
 30
0.0
 11
0.0000251963174378
 21
10.20001220703307
 31
0.0
  0
LINE
  5
12752
330
125FF
100
AcDbEntity
  8
02製品
  6
ByBlock
100
AcDbLine
 10
0.0
 20
10.20004643196262
 30
0.0
 11
0.6019012297656445
 21
12.74730055131113
 31
0.0
  0
ARC
  5
12753
330
125FF
100
AcDbEntity
  8
02製品
  6
ByBlock
100
AcDbCircle
 10
12.00002519631744
 20
16.50000000000182
 30
0.0
 40
12.0
100
AcDbArc
 50
161.775980450237
 51
198.2237823143882
  0
LINE
  5
12754
330
125FF
100
AcDbEntity
  8
02製品
  6
ByBlock
100
AcDbLine
 10
0.0000012286946003
 20
10.20003069215636
 30
0.0
 11
0.6960227874806151
 21
8.994485855984749
 31
0.0
  0
LINE
  5
12755
330
125FF
100
AcDbEntity
  8
02製品
  6
ByBlock
100
AcDbLine
 10
0.6960548594033753
 20
8.994461059572131
 30
0.0
 11
5.500025196317438
 21
8.994461059572131
 31
0.0
  0
LINE
  5
12756
330
125FF
100
AcDbEntity
  8
02製品
  6
ByBlock
100
AcDbLine
 10
0.6019386484658753
 20
20.25280761718932
 30
0.0
 11
5.500025196317438
 21
20.25280761718932
 31
0.0
  0
LINE
  5
12757
330
125FF
100
AcDbEntity
  8
02製品
  6
ByBlock
100
AcDbLine
 10
0.6960548594033753
 20
24.00556945800963
 30
0.0
 11
5.500025196317438
 21
24.00556945800963
 31
0.0
  0
LINE
  5
12758
330
125FF
100
AcDbEntity
  8
02製品
  6
ByBlock
100
AcDbLine
 10
0.6019269592652563
 20
20.25283127230978
 30
0.0
 11
0.0000115351249406
 21
22.80005067953789
 31
0.0
  0
LINE
  5
12759
330
125FF
100
AcDbEntity
  8
02製品
  6
ByBlock
100
AcDbLine
 10
0.69604398289448
 20
24.00562524216184
 30
0.0
 11
0.0000146158999996
 21
22.80006688177855
 31
0.0
  0
LINE
  5
1275A
330
125FF
100
AcDbEntity
  8
02製品
  6
ByBlock
100
AcDbLine
 10
5.500025196317438
 20
24.99999999999818
 30
0.0
 11
5.500025196317438
 21
8.000000000001819
 31
0.0
  0
LINE
  5
1275B
330
125FF
100
AcDbEntity
  8
02製品
  6
ByBlock
100
AcDbLine
 10
7.100031299833063
 20
24.99999999999818
 30
0.0
 11
7.100031299833063
 21
8.000000000001819
 31
0.0
  0
LINE
  5
1275C
330
125FF
100
AcDbEntity
  8
02製品
  6
ByBlock
100
AcDbLine
 10
5.500025196317438
 20
24.99999999999818
 30
0.0
 11
7.100031299833063
 21
24.99999999999818
 31
0.0
  0
LINE
  5
1275D
330
125FF
100
AcDbEntity
  8
02製品
  6
ByBlock
100
AcDbLine
 10
5.500025196317438
 20
8.000000000001819
 30
0.0
 11
7.100031299833063
 21
8.000000000001819
 31
0.0
  0
ENDBLK
  5
1275F
330
125FF
100
AcDbEntity
  8
0
100
AcDbBlockEnd
  0
BLOCK
  5
128EA
330
12761
100
AcDbEntity
  8
0
100
AcDbBlockBegin
  2
A$C11744
 70
     0
 10
0.0
 20
0.0
 30
0.0
  3
A$C11744
  1

  0
LINE
  5
1278F
330
12761
100
AcDbEntity
  8
02製品
  6
Continuous
100
AcDbLine
 10
50.30001751923919
 20
60.0
 30
0.0
 11
50.30001751923919
 21
520.0000074133277
 31
0.0
  0
LINE
  5
12790
330
12761
100
AcDbEntity
  8
02製品
  6
Continuous
100
AcDbLine
 10
10.30002586388946
 20
140.0
 30
0.0
 11
10.30002586388946
 21
520.0000074133277
 31
0.0
  0
LINE
  5
12791
330
12761
100
AcDbEntity
  8
02製品
  6
Continuous
100
AcDbLine
 10
785.3000113203561
 20
140.0000000000018
 30
0.0
 11
785.3000113203561
 21
520.0000074133277
 31
0.0
  0
LINE
  5
12792
330
12761
100
AcDbEntity
  8
02製品
  6
Continuous
100
AcDbLine
 10
745.3000494673288
 20
60.0
 30
0.0
 11
745.3000494673288
 21
520.0000074133277
 31
0.0
  0
LINE
  5
12793
330
12761
100
AcDbEntity
  8
02製品
  6
Continuous
100
AcDbLine
 10
785.3000113203561
 20
560.0000074505806
 30
0.0
 11
785.3000113203561
 21
410.0000089406967
 31
0.0
  0
LINE
  5
12794
330
12761
100
AcDbEntity
  8
02製品
  6
Continuous
100
AcDbLine
 10
788.5000058844125
 20
560.0000074505806
 30
0.0
 11
788.5000058844125
 21
410.0000089406967
 31
0.0
  0
LINE
  5
12795
330
12761
100
AcDbEntity
  8
02製品
  6
Continuous
100
AcDbLine
 10
785.3000113203561
 20
410.0000089406967
 30
0.0
 11
788.5000058844125
 21
410.0000089406967
 31
0.0
  0
LINE
  5
12796
330
12761
100
AcDbEntity
  8
02製品
  6
Continuous
100
AcDbLine
 10
785.3000113203561
 20
560.0000074505806
 30
0.0
 11
788.5000058844125
 21
560.0000074505806
 31
0.0
  0
LINE
  5
12797
330
12761
100
AcDbEntity
  8
02製品
  6
Continuous
100
AcDbLine
 10
639.3000134661233
 20
560.0000074505806
 30
0.0
 11
785.3000113203561
 21
560.0000074505806
 31
0.0
  0
LINE
  5
12798
330
12761
100
AcDbEntity
  8
02製品
  6
Continuous
100
AcDbLine
 10
785.3000113203561
 20
520.0000074133277
 30
0.0
 11
10.30002586388946
 21
520.0000074133277
 31
0.0
  0
LINE
  5
12799
330
12761
100
AcDbEntity
  8
02製品
  6
Continuous
100
AcDbLine
 10
639.3000134661233
 20
560.0000074505806
 30
0.0
 11
10.30002586388946
 21
560.0000074505806
 31
0.0
  0
LINE
  5
1279A
330
12761
100
AcDbEntity
  8
02製品
  6
HIDDEN
100
AcDbLine
 10
50.30001751923919
 20
60.0
 30
0.0
 11
50.30001751923919
 21
63.00002098083496
 31
0.0
  0
LINE
  5
1279B
330
12761
100
AcDbEntity
  8
02製品
100
AcDbLine
 10
785.3000113203561
 20
560.0000074505806
 30
0.0
 11
785.3000113203561
 21
520.0000074133277
 31
0.0
  0
LINE
  5
1279C
330
12761
100
AcDbEntity
  8
02製品
  6
Continuous
100
AcDbLine
 10
755.9213316639161
 20
0.0
 30
0.0
 11
786.8000113203561
 21
0.0
 31
0.0
  0
LINE
  5
1279D
330
12761
100
AcDbEntity
  8
02製品
  6
Continuous
100
AcDbLine
 10
786.8000113203561
 20
140.0000000000018
 30
0.0
 11
786.8000113203561
 21
0.0
 31
0.0
  0
LINE
  5
1279E
330
12761
100
AcDbEntity
  8
02製品
  6
CENTERX2
100
AcDbLine
 10
766.5322443673904
 20
13.40000000000327
 30
0.0
 11
775.1284384451028
 21
13.40000000000327
 31
0.0
  0
LWPOLYLINE
  5
1279F
330
12761
100
AcDbEntity
  8
02製品
  6
Continuous
100
AcDbPolyline
 90
       16
 70
   128
 43
0.0
 10
772.0677782733237
 20
9.899999999999636
 10
772.5823334559518
 20
9.976483397431366
 10
773.0744001079893
 20
10.20259089825049
 10
773.5224725555454
 20
10.56844051968801
 10
773.906967882569
 20
11.05804287774481
 10
774.2110817982593
 20
11.64999999999964
 10
774.4215230651971
 20
12.31844051968801
 10
774.529094390211
 20
13.03415037856394
 10
774.529094390211
 20
13.76584962143716
 10
774.4215230651971
 20
14.48155948031308
 10
774.2110817982593
 20
15.14999999999964
 10
773.906967882569
 20
15.74195712225628
 10
773.5224725555436
 20
16.23155948031308
 10
773.0744001079893
 20
16.59740910174878
 10
772.5823334559518
 20
16.82351660256791
 10
772.0677782733237
 20
16.89999999999964
  0
LINE
  5
127A0
330
12761
100
AcDbEntity
  8
02製品
  6
Continuous
100
AcDbLine
 10
771.78049288271
 20
16.89999999999964
 30
0.0
 11
770.9408501015623
 21
16.89999999999964
 31
0.0
  0
LINE
  5
127A1
330
12761
100
AcDbEntity
  8
02製品
  6
Continuous
100
AcDbLine
 10
771.78049288275
 20
9.899999999999636
 30
0.0
 11
770.9408501015205
 21
9.899999999999636
 31
0.0
  0
LINE
  5
127A2
330
12761
100
AcDbEntity
  8
02製品
  6
Continuous
100
AcDbLine
 10
770.9408501015223
 20
9.899999999999636
 30
0.0
 11
769.5929045391695
 21
9.899999999999636
 31
0.0
  0
LWPOLYLINE
  5
127A3
330
12761
100
AcDbEntity
  8
02製品
  6
Continuous
100
AcDbPolyline
 90
       16
 70
   128
 43
0.0
 10
769.5929045391695
 20
16.89999999999964
 10
769.0783493565414
 20
16.82351660256791
 10
768.5862827045039
 20
16.59740910174878
 10
768.1382102569496
 20
16.23155948031308
 10
767.7537149299242
 20
15.74195712225628
 10
767.4496010142357
 20
15.14999999999964
 10
767.2391597472961
 20
14.48155948031308
 10
767.131588422284
 20
13.76584962143716
 10
767.131588422284
 20
13.03415037856394
 10
767.2391597472961
 20
12.31844051968801
 10
767.4496010142357
 20
11.64999999999964
 10
767.7537149299242
 20
11.05804287774481
 10
768.1382102569496
 20
10.56844051968801
 10
768.5862827045039
 20
10.20259089825049
 10
769.0783493565414
 20
9.976483397431366
 10
769.5929045391695
 20
9.899999999999636
  0
LINE
  5
127A4
330
12761
100
AcDbEntity
  8
02製品
  6
Continuous
100
AcDbLine
 10
770.9408501015623
 20
16.89999999999964
 30
0.0
 11
769.5929045391695
 21
16.89999999999964
 31
0.0
  0
ARC
  5
127A5
330
12761
100
AcDbEntity
  8
02製品
  6
Continuous
100
AcDbCircle
 10
771.3606714921352
 20
15.16041298585151
 30
0.0
 40
1.789528703254752
100
AcDbArc
 50
76.43202197232118
 51
103.5679780276788
  0
LINE
  5
127A6
330
12761
100
AcDbEntity
  8
02製品
  6
Continuous
100
AcDbLine
 10
773.1284384451028
 20
16.89999999999964
 30
0.0
 11
771.78049288271
 21
16.89999999999964
 31
0.0
  0
LWPOLYLINE
  5
127A7
330
12761
100
AcDbEntity
  8
02製品
  6
Continuous
100
AcDbPolyline
 90
       16
 70
   128
 43
0.0
 10
773.1284384451028
 20
9.899999999999636
 10
773.6429936277309
 20
9.976483397431366
 10
774.1350602797684
 20
10.20259089825049
 10
774.5831327273245
 20
10.56844051968801
 10
774.9676280543481
 20
11.05804287774481
 10
775.2717419700384
 20
11.64999999999964
 10
775.4821832369762
 20
12.31844051968801
 10
775.58975456199
 20
13.03415037856394
 10
775.58975456199
 20
13.76584962143716
 10
775.4821832369762
 20
14.48155948031308
 10
775.2717419700384
 20
15.14999999999964
 10
774.9676280543481
 20
15.74195712225628
 10
774.5831327273245
 20
16.23155948031308
 10
774.1350602797684
 20
16.59740910174878
 10
773.6429936277309
 20
16.82351660256791
 10
773.1284384451028
 20
16.89999999999964
  0
LINE
  5
127A8
330
12761
100
AcDbEntity
  8
02製品
  6
Continuous
100
AcDbLine
 10
773.1284384451028
 20
9.899999999999636
 30
0.0
 11
771.78049288275
 21
9.899999999999636
 31
0.0
  0
ARC
  5
127A9
330
12761
100
AcDbEntity
  8
02製品
  6
Continuous
100
AcDbCircle
 10
771.3606714921352
 20
11.63958701414231
 30
0.0
 40
1.789528703259284
100
AcDbArc
 50
256.4320219709782
 51
283.5679780290218
  0
LWPOLYLINE
  5
127AA
330
12761
100
AcDbEntity
  8
02製品
  6
Continuous
100
AcDbPolyline
 90
       16
 70
   128
 43
0.0
 10
772.0677782733237
 20
39.89999999999964
 10
772.5823334559518
 20
39.97648339743137
 10
773.0744001079893
 20
40.20259089825049
 10
773.5224725555436
 20
40.56844051968801
 10
773.906967882569
 20
41.05804287774481
 10
774.2110817982593
 20
41.64999999999964
 10
774.4215230651971
 20
42.31844051968801
 10
774.529094390211
 20
43.03415037856394
 10
774.529094390211
 20
43.76584962143716
 10
774.4215230651971
 20
44.48155948031308
 10
774.2110817982593
 20
45.14999999999964
 10
773.906967882569
 20
45.74195712225628
 10
773.5224725555436
 20
46.23155948031308
 10
773.0744001079893
 20
46.59740910174878
 10
772.5823334559518
 20
46.82351660256791
 10
772.0677782733237
 20
46.89999999999964
  0
LWPOLYLINE
  5
127AB
330
12761
100
AcDbEntity
  8
02製品
  6
Continuous
100
AcDbPolyline
 90
       16
 70
   128
 43
0.0
 10
773.1284384451028
 20
39.89999999999964
 10
773.6429936277309
 20
39.97648339743137
 10
774.1350602797684
 20
40.20259089825049
 10
774.5831327273245
 20
40.56844051968801
 10
774.9676280543481
 20
41.05804287774481
 10
775.2717419700384
 20
41.64999999999964
 10
775.4821832369762
 20
42.31844051968801
 10
775.58975456199
 20
43.03415037856394
 10
775.58975456199
 20
43.76584962143716
 10
775.4821832369762
 20
44.48155948031308
 10
775.2717419700384
 20
45.14999999999964
 10
774.9676280543481
 20
45.74195712225628
 10
774.5831327273245
 20
46.23155948031308
 10
774.1350602797684
 20
46.59740910174878
 10
773.6429936277309
 20
46.82351660256791
 10
773.1284384451028
 20
46.89999999999964
  0
LWPOLYLINE
  5
127AC
330
12761
100
AcDbEntity
  8
02製品
  6
Continuous
100
AcDbPolyline
 90
       16
 70
   128
 43
0.0
 10
769.5929045391713
 20
46.89999999999964
 10
769.0783493565414
 20
46.82351660256791
 10
768.5862827045039
 20
46.59740910174878
 10
768.1382102569496
 20
46.23155948031308
 10
767.7537149299242
 20
45.74195712225628
 10
767.4496010142357
 20
45.14999999999964
 10
767.2391597472961
 20
44.48155948031308
 10
767.131588422284
 20
43.76584962143716
 10
767.131588422284
 20
43.03415037856394
 10
767.2391597472961
 20
42.31844051968801
 10
767.4496010142357
 20
41.64999999999964
 10
767.7537149299242
 20
41.05804287774481
 10
768.1382102569496
 20
40.56844051968801
 10
768.5862827045039
 20
40.20259089825049
 10
769.0783493565414
 20
39.97648339743137
 10
769.5929045391713
 20
39.89999999999964
  0
LINE
  5
127AD
330
12761
100
AcDbEntity
  8
02製品
  6
CENTERX2
100
AcDbLine
 10
766.5322443673904
 20
43.40000000000327
 30
0.0
 11
775.1284384451028
 21
43.40000000000327
 31
0.0
  0
LINE
  5
127AE
330
12761
100
AcDbEntity
  8
02製品
  6
Continuous
100
AcDbLine
 10
771.78049288275
 20
39.89999999999964
 30
0.0
 11
770.9408501015223
 21
39.89999999999964
 31
0.0
  0
LINE
  5
127AF
330
12761
100
AcDbEntity
  8
02製品
  6
Continuous
100
AcDbLine
 10
773.1284384451028
 20
39.89999999999964
 30
0.0
 11
771.78049288275
 21
39.89999999999964
 31
0.0
  0
ARC
  5
127B0
330
12761
100
AcDbEntity
  8
02製品
  6
Continuous
100
AcDbCircle
 10
771.3606714921352
 20
41.63958701414231
 30
0.0
 40
1.789528703260913
100
AcDbArc
 50
256.4320219710507
 51
283.5679780290092
  0
LINE
  5
127B1
330
12761
100
AcDbEntity
  8
02製品
  6
Continuous
100
AcDbLine
 10
770.9408501015205
 20
39.89999999999964
 30
0.0
 11
769.5929045391713
 21
39.89999999999964
 31
0.0
  0
LINE
  5
127B2
330
12761
100
AcDbEntity
  8
02製品
  6
Continuous
100
AcDbLine
 10
771.7804928827081
 20
46.89999999999964
 30
0.0
 11
770.9408501015623
 21
46.89999999999964
 31
0.0
  0
LINE
  5
127B3
330
12761
100
AcDbEntity
  8
02製品
  6
Continuous
100
AcDbLine
 10
770.9408501015623
 20
46.89999999999964
 30
0.0
 11
769.5929045391713
 21
46.89999999999964
 31
0.0
  0
ARC
  5
127B4
330
12761
100
AcDbEntity
  8
02製品
  6
Continuous
100
AcDbCircle
 10
771.3606714921352
 20
45.16041298584969
 30
0.0
 40
1.789528703256606
100
AcDbArc
 50
76.43202197233548
 51
103.5679780276645
  0
LINE
  5
127B5
330
12761
100
AcDbEntity
  8
02製品
  6
Continuous
100
AcDbLine
 10
773.1284384451028
 20
46.89999999999964
 30
0.0
 11
771.7804928827081
 21
46.89999999999964
 31
0.0
  0
LINE
  5
127B6
330
12761
100
AcDbEntity
  8
02製品
100
AcDbLine
 10
755.9213316639161
 20
60.0
 30
0.0
 11
755.9213316639161
 21
0.0
 31
0.0
  0
LINE
  5
127B7
330
12761
100
AcDbEntity
  8
02製品
  6
Continuous
100
AcDbLine
 10
705.300011320358
 20
60.0
 30
0.0
 11
705.300011320358
 21
0.0
 31
0.0
  0
LINE
  5
127B8
330
12761
100
AcDbEntity
  8
02製品
  6
Continuous
100
AcDbLine
 10
705.300011320358
 20
0.0
 30
0.0
 11
755.9213316639161
 21
0.0
 31
0.0
  0
INSERT
  5
127B9
330
12761
100
AcDbEntity
  8
02製品
  6
Continuous
100
AcDbBlockReference
  2
SW_CENTERMARKSYMBOL_8
 10
741.8000113203598
 20
13.39999999999782
 30
0.0
 50
90.0
  0
LINE
  5
127C5
330
12761
100
AcDbEntity
  8
02製品
  6
Continuous
100
AcDbLine
 10
741.2062942159791
 20
9.899999999999636
 30
0.0
 11
739.300011320358
 21
9.899999999999636
 31
0.0
  0
ARC
  5
127C6
330
12761
100
AcDbEntity
  8
02製品
  6
Continuous
100
AcDbCircle
 10
739.300011320358
 20
13.39999999999964
 30
0.0
 40
3.5
100
AcDbArc
 50
90.0
 51
270.0
  0
LINE
  5
127C7
330
12761
100
AcDbEntity
  8
02製品
  6
Continuous
100
AcDbLine
 10
741.2062942160373
 20
16.89999999999964
 30
0.0
 11
739.300011320358
 21
16.89999999999964
 31
0.0
  0
ARC
  5
127C8
330
12761
100
AcDbEntity
  8
02製品
  6
Continuous
100
AcDbCircle
 10
741.8000113203598
 20
13.39999999999418
 30
0.0
 40
3.55000000000005
100
AcDbArc
 50
80.37236731782643
 51
99.6276326821438
  0
LINE
  5
127C9
330
12761
100
AcDbEntity
  8
02製品
  6
Continuous
100
AcDbLine
 10
744.300011320358
 20
16.89999999999964
 30
0.0
 11
742.3937284246822
 21
16.89999999999964
 31
0.0
  0
ARC
  5
127CA
330
12761
100
AcDbEntity
  8
02製品
  6
Continuous
100
AcDbCircle
 10
744.300011320358
 20
13.39999999999964
 30
0.0
 40
3.5
100
AcDbArc
 50
270.0
 51
90.0
  0
LINE
  5
127CB
330
12761
100
AcDbEntity
  8
02製品
  6
Continuous
100
AcDbLine
 10
744.300011320358
 20
9.899999999999636
 30
0.0
 11
742.3937284247404
 21
9.899999999999636
 31
0.0
  0
ARC
  5
127CC
330
12761
100
AcDbEntity
  8
02製品
  6
Continuous
100
AcDbCircle
 10
741.8000113203598
 20
13.39999999999418
 30
0.0
 40
3.54999999999995
100
AcDbArc
 50
260.3723673168733
 51
279.6276326831267
  0
INSERT
  5
127CD
330
12761
100
AcDbEntity
  8
02製品
  6
Continuous
100
AcDbBlockReference
  2
SW_CENTERMARKSYMBOL_7
 10
745.3000113203634
 20
49.0
 30
0.0
 50
44.99999999999539
  0
ARC
  5
127D9
330
12761
100
AcDbEntity
  8
02製品
  6
Continuous
100
AcDbCircle
 10
747.8000113203616
 20
49.00000000000364
 30
0.0
 40
3.5
100
AcDbArc
 50
270.0
 51
90.0
  0
LINE
  5
127DA
330
12761
100
AcDbEntity
  8
02製品
  6
Continuous
100
AcDbLine
 10
744.7062942160428
 20
52.50000000000364
 30
0.0
 11
742.8000113203616
 21
52.50000000000364
 31
0.0
  0
ARC
  5
127DB
330
12761
100
AcDbEntity
  8
02製品
  6
Continuous
100
AcDbCircle
 10
745.3000113203652
 20
48.99999999999818
 30
0.0
 40
3.550000000000031
100
AcDbArc
 50
80.37236731782639
 51
99.62763268220341
  0
LINE
  5
127DC
330
12761
100
AcDbEntity
  8
02製品
  6
Continuous
100
AcDbLine
 10
747.8000113203634
 20
52.50000000000364
 30
0.0
 11
745.8937284246877
 21
52.50000000000364
 31
0.0
  0
LINE
  5
127DD
330
12761
100
AcDbEntity
  8
02製品
  6
Continuous
100
AcDbLine
 10
747.8000113203634
 20
45.50000000000364
 30
0.0
 11
745.8937284247459
 21
45.50000000000364
 31
0.0
  0
ARC
  5
127DE
330
12761
100
AcDbEntity
  8
02製品
  6
Continuous
100
AcDbCircle
 10
745.3000113203652
 20
48.99999999999818
 30
0.0
 40
3.549999999999969
100
AcDbArc
 50
260.3723673168733
 51
279.6276326831266
  0
LINE
  5
127DF
330
12761
100
AcDbEntity
  8
02製品
  6
Continuous
100
AcDbLine
 10
744.7062942159828
 20
45.50000000000364
 30
0.0
 11
742.8000113203616
 21
45.50000000000364
 31
0.0
  0
ARC
  5
127E0
330
12761
100
AcDbEntity
  8
02製品
  6
Continuous
100
AcDbCircle
 10
742.8000113203616
 20
49.00000000000364
 30
0.0
 40
3.5
100
AcDbArc
 50
90.0
 51
270.0
  0
ARC
  5
127E1
330
12761
100
AcDbEntity
  8
02製品
  6
Continuous
100
AcDbCircle
 10
716.800011320358
 20
48.99999999999818
 30
0.0
 40
3.5
100
AcDbArc
 50
90.0
 51
270.0
  0
INSERT
  5
127E2
330
12761
100
AcDbEntity
  8
02製品
  6
Continuous
100
AcDbBlockReference
  2
SW_CENTERMARKSYMBOL_9
 10
722.300011320358
 20
49.00000000000182
 30
0.0
 50
90.0
  0
LINE
  5
127EE
330
12761
100
AcDbEntity
  8
02製品
  6
Continuous
100
AcDbLine
 10
721.7062942160064
 20
45.5
 30
0.0
 11
716.800011320358
 21
45.5
 31
0.0
  0
LINE
  5
127EF
330
12761
100
AcDbEntity
  8
02製品
  6
Continuous
100
AcDbLine
 10
721.7062942160046
 20
52.5
 30
0.0
 11
716.8000113203561
 21
52.5
 31
0.0
  0
ARC
  5
127F0
330
12761
100
AcDbEntity
  8
02製品
  6
Continuous
100
AcDbCircle
 10
722.300011320358
 20
48.99999999999818
 30
0.0
 40
3.550000000000269
100
AcDbArc
 50
80.37236731735062
 51
99.62763268264939
  0
LINE
  5
127F1
330
12761
100
AcDbEntity
  8
02製品
  6
Continuous
100
AcDbLine
 10
727.800011320358
 20
52.5
 30
0.0
 11
722.8937284247077
 21
52.5
 31
0.0
  0
ARC
  5
127F2
330
12761
100
AcDbEntity
  8
02製品
  6
Continuous
100
AcDbCircle
 10
727.800011320358
 20
49.0
 30
0.0
 40
3.500000000000028
100
AcDbArc
 50
270.0
 51
90.0
  0
LINE
  5
127F3
330
12761
100
AcDbEntity
  8
02製品
  6
Continuous
100
AcDbLine
 10
727.800011320358
 20
45.5
 30
0.0
 11
722.8937284247095
 21
45.5
 31
0.0
  0
ARC
  5
127F4
330
12761
100
AcDbEntity
  8
02製品
  6
Continuous
100
AcDbCircle
 10
722.300011320358
 20
48.99999999999818
 30
0.0
 40
3.549999999999969
100
AcDbArc
 50
260.3723673173498
 51
279.6276326826502
  0
LINE
  5
127F5
330
12761
100
AcDbEntity
  8
02製品
100
AcDbLine
 10
785.3000113203561
 20
140.0000000000018
 30
0.0
 11
786.8000113203561
 21
140.0000000000018
 31
0.0
  0
LINE
  5
127F6
330
12761
100
AcDbEntity
  8
02製品
  6
CENTERX2
100
AcDbLine
 10
29.06779281685704
 20
43.39999999999964
 30
0.0
 11
20.47159873914461
 21
43.39999999999964
 31
0.0
  0
LINE
  5
127F7
330
12761
100
AcDbEntity
  8
02製品
  6
CENTERX2
100
AcDbLine
 10
29.06779281685704
 20
13.39999999999964
 30
0.0
 11
20.47159873914461
 21
13.39999999999964
 31
0.0
  0
LINE
  5
127F8
330
12761
100
AcDbEntity
  8
02製品
100
AcDbLine
 10
8.80002586388946
 20
140.0
 30
0.0
 11
10.30002586388946
 21
140.0
 31
0.0
  0
LINE
  5
127F9
330
12761
100
AcDbEntity
  8
02製品
  6
Continuous
100
AcDbLine
 10
8.80002586388946
 20
0.0
 30
0.0
 11
39.67870552032946
 21
0.0
 31
0.0
  0
LWPOLYLINE
  5
127FA
330
12761
100
AcDbEntity
  8
02製品
  6
Continuous
100
AcDbPolyline
 90
       16
 70
   128
 43
0.0
 10
26.00713264507613
 20
39.89999999999964
 10
26.52168782770423
 20
39.97648339743137
 10
27.01375447974169
 20
40.20259089825049
 10
27.46182692729781
 20
40.56844051968801
 10
27.84632225432324
 20
41.05804287774481
 10
28.15043617001174
 20
41.64999999999964
 10
28.36087743695134
 20
42.31844051968801
 10
28.46844876196337
 20
43.03415037856394
 10
28.46844876196337
 20
43.76584962143716
 10
28.36087743695134
 20
44.48155948031308
 10
28.15043617001174
 20
45.14999999999964
 10
27.84632225432324
 20
45.74195712225628
 10
27.46182692729781
 20
46.23155948031308
 10
27.01375447974169
 20
46.59740910174878
 10
26.52168782770423
 20
46.82351660256791
 10
26.00713264507613
 20
46.89999999999964
  0
LWPOLYLINE
  5
127FB
330
12761
100
AcDbEntity
  8
02製品
  6
Continuous
100
AcDbPolyline
 90
       16
 70
   128
 43
0.0
 10
26.00713264507613
 20
9.899999999999636
 10
26.52168782770423
 20
9.976483397431366
 10
27.01375447974169
 20
10.20259089825049
 10
27.46182692729781
 20
10.56844051968801
 10
27.84632225432324
 20
11.05804287774481
 10
28.15043617001174
 20
11.64999999999964
 10
28.36087743695134
 20
12.31844051968801
 10
28.46844876196337
 20
13.03415037856394
 10
28.46844876196337
 20
13.76584962143716
 10
28.36087743695134
 20
14.48155948031308
 10
28.15043617001174
 20
15.14999999999964
 10
27.84632225432324
 20
15.74195712225628
 10
27.46182692729781
 20
16.23155948031308
 10
27.01375447974169
 20
16.59740910174878
 10
26.52168782770423
 20
16.82351660256791
 10
26.00713264507613
 20
16.89999999999964
  0
LINE
  5
127FC
330
12761
100
AcDbEntity
  8
02製品
  6
Continuous
100
AcDbLine
 10
8.80002586388946
 20
140.0
 30
0.0
 11
8.80002586388946
 21
0.0
 31
0.0
  0
LWPOLYLINE
  5
127FD
330
12761
100
AcDbEntity
  8
02製品
  6
Continuous
100
AcDbPolyline
 90
       16
 70
   128
 43
0.0
 10
23.5322589109237
 20
16.89999999999964
 10
23.0177037282956
 20
16.82351660256791
 10
22.52563707625814
 20
16.59740910174878
 10
22.07756462870202
 20
16.23155948031308
 10
21.69306930167841
 20
15.74195712225628
 10
21.38895538598808
 20
15.14999999999964
 10
21.17851411905031
 20
14.48155948031308
 10
21.07094279403645
 20
13.76584962143716
 10
21.07094279403645
 20
13.03415037856394
 10
21.17851411905031
 20
12.31844051968801
 10
21.38895538598808
 20
11.64999999999964
 10
21.69306930167841
 20
11.05804287774481
 10
22.07756462870202
 20
10.56844051968801
 10
22.52563707625814
 20
10.20259089825049
 10
23.0177037282956
 20
9.976483397431366
 10
23.5322589109237
 20
9.899999999999636
  0
LINE
  5
127FE
330
12761
100
AcDbEntity
  8
02製品
  6
Continuous
100
AcDbLine
 10
24.65918708268146
 20
16.89999999999964
 30
0.0
 11
23.81954430153564
 21
16.89999999999964
 31
0.0
  0
LINE
  5
127FF
330
12761
100
AcDbEntity
  8
02製品
  6
Continuous
100
AcDbLine
 10
24.65918708272329
 20
9.899999999999636
 30
0.0
 11
23.81954430149381
 21
9.899999999999636
 31
0.0
  0
LINE
  5
12800
330
12761
100
AcDbEntity
  8
02製品
  6
Continuous
100
AcDbLine
 10
23.81954430149381
 20
9.899999999999636
 30
0.0
 11
22.47159873914461
 21
9.899999999999636
 31
0.0
  0
LWPOLYLINE
  5
12801
330
12761
100
AcDbEntity
  8
02製品
  6
Continuous
100
AcDbPolyline
 90
       16
 70
   128
 43
0.0
 10
22.47159873914461
 20
16.89999999999964
 10
21.95704355651651
 20
16.82351660256791
 10
21.46497690447904
 20
16.59740910174878
 10
21.01690445692293
 20
16.23155948031308
 10
20.6324091298975
 20
15.74195712225628
 10
20.32829521420899
 20
15.14999999999964
 10
20.1178539472694
 20
14.48155948031308
 10
20.01028262225736
 20
13.76584962143716
 10
20.01028262225736
 20
13.03415037856394
 10
20.1178539472694
 20
12.31844051968801
 10
20.32829521420899
 20
11.64999999999964
 10
20.6324091298975
 20
11.05804287774481
 10
21.01690445692293
 20
10.56844051968801
 10
21.46497690447904
 20
10.20259089825049
 10
21.95704355651651
 20
9.976483397431366
 10
22.47159873914461
 20
9.899999999999636
  0
LINE
  5
12802
330
12761
100
AcDbEntity
  8
02製品
  6
Continuous
100
AcDbLine
 10
23.81954430153564
 20
16.89999999999964
 30
0.0
 11
22.47159873914461
 21
16.89999999999964
 31
0.0
  0
ARC
  5
12803
330
12761
100
AcDbEntity
  8
02製品
  6
Continuous
100
AcDbCircle
 10
24.23936569210855
 20
15.16041298585696
 30
0.0
 40
1.789528703251949
100
AcDbArc
 50
76.43202197229951
 51
103.5679780277005
  0
LINE
  5
12804
330
12761
100
AcDbEntity
  8
02製品
  6
Continuous
100
AcDbLine
 10
26.00713264507613
 20
16.89999999999964
 30
0.0
 11
24.65918708268146
 21
16.89999999999964
 31
0.0
  0
LINE
  5
12805
330
12761
100
AcDbEntity
  8
02製品
  6
Continuous
100
AcDbLine
 10
26.00713264507613
 20
9.899999999999636
 30
0.0
 11
24.65918708272329
 21
9.899999999999636
 31
0.0
  0
ARC
  5
12806
330
12761
100
AcDbEntity
  8
02製品
  6
Continuous
100
AcDbCircle
 10
24.23936569210855
 20
11.63958701414595
 30
0.0
 40
1.789528703261202
100
AcDbArc
 50
256.432021970993
 51
283.567978029007
  0
LWPOLYLINE
  5
12807
330
12761
100
AcDbEntity
  8
02製品
  6
Continuous
100
AcDbPolyline
 90
       16
 70
   128
 43
0.0
 10
23.5322589109237
 20
46.89999999999964
 10
23.0177037282956
 20
46.82351660256791
 10
22.52563707625814
 20
46.59740910174878
 10
22.07756462870202
 20
46.23155948031308
 10
21.69306930167841
 20
45.74195712225628
 10
21.38895538598808
 20
45.14999999999964
 10
21.17851411905031
 20
44.48155948031308
 10
21.07094279403645
 20
43.76584962143716
 10
21.07094279403645
 20
43.03415037856394
 10
21.17851411905031
 20
42.31844051968801
 10
21.38895538598808
 20
41.64999999999964
 10
21.69306930167841
 20
41.05804287774481
 10
22.07756462870202
 20
40.56844051968801
 10
22.52563707625814
 20
40.20259089825049
 10
23.0177037282956
 20
39.97648339743137
 10
23.5322589109237
 20
39.89999999999964
  0
LINE
  5
12808
330
12761
100
AcDbEntity
  8
02製品
  6
Continuous
100
AcDbLine
 10
24.65918708268146
 20
46.89999999999964
 30
0.0
 11
23.81954430153564
 21
46.89999999999964
 31
0.0
  0
LINE
  5
12809
330
12761
100
AcDbEntity
  8
02製品
  6
Continuous
100
AcDbLine
 10
24.65918708272329
 20
39.89999999999964
 30
0.0
 11
23.81954430149381
 21
39.89999999999964
 31
0.0
  0
LINE
  5
1280A
330
12761
100
AcDbEntity
  8
02製品
  6
Continuous
100
AcDbLine
 10
23.81954430153564
 20
46.89999999999964
 30
0.0
 11
22.47159873914461
 21
46.89999999999964
 31
0.0
  0
ARC
  5
1280B
330
12761
100
AcDbEntity
  8
02製品
  6
Continuous
100
AcDbCircle
 10
24.23936569210855
 20
45.16041298585151
 30
0.0
 40
1.789528703257061
100
AcDbArc
 50
76.43202197233902
 51
103.5679780276011
  0
LINE
  5
1280C
330
12761
100
AcDbEntity
  8
02製品
  6
Continuous
100
AcDbLine
 10
26.00713264507613
 20
46.89999999999964
 30
0.0
 11
24.65918708268146
 21
46.89999999999964
 31
0.0
  0
LINE
  5
1280D
330
12761
100
AcDbEntity
  8
02製品
  6
Continuous
100
AcDbLine
 10
26.00713264507613
 20
39.89999999999964
 30
0.0
 11
24.65918708272329
 21
39.89999999999964
 31
0.0
  0
ARC
  5
1280E
330
12761
100
AcDbEntity
  8
02製品
  6
Continuous
100
AcDbCircle
 10
24.23936569210855
 20
41.63958701414231
 30
0.0
 40
1.789528703259063
100
AcDbArc
 50
256.4320219709765
 51
283.5679780290235
  0
LINE
  5
1280F
330
12761
100
AcDbEntity
  8
02製品
  6
Continuous
100
AcDbLine
 10
23.81954430149381
 20
39.89999999999964
 30
0.0
 11
22.47159873914461
 21
39.89999999999964
 31
0.0
  0
LWPOLYLINE
  5
12810
330
12761
100
AcDbEntity
  8
02製品
  6
Continuous
100
AcDbPolyline
 90
       16
 70
   128
 43
0.0
 10
22.47159873914461
 20
46.89999999999964
 10
21.95704355651651
 20
46.82351660256791
 10
21.46497690447904
 20
46.59740910174878
 10
21.01690445692293
 20
46.23155948031308
 10
20.6324091298975
 20
45.74195712225628
 10
20.32829521420899
 20
45.14999999999964
 10
20.1178539472694
 20
44.48155948031308
 10
20.01028262225736
 20
43.76584962143716
 10
20.01028262225736
 20
43.03415037856394
 10
20.1178539472694
 20
42.31844051968801
 10
20.32829521420899
 20
41.64999999999964
 10
20.6324091298975
 20
41.05804287774481
 10
21.01690445692293
 20
40.56844051968801
 10
21.46497690447904
 20
40.20259089825049
 10
21.95704355651651
 20
39.97648339743137
 10
22.47159873914461
 20
39.89999999999964
  0
LINE
  5
12811
330
12761
100
AcDbEntity
  8
02製品
  6
Continuous
100
AcDbLine
 10
90.30002586389128
 20
60.0
 30
0.0
 11
90.30002586389128
 21
0.0
 31
0.0
  0
LINE
  5
12812
330
12761
100
AcDbEntity
  8
02製品
  6
Continuous
100
AcDbLine
 10
39.67870552032946
 20
60.0
 30
0.0
 11
39.67870552032946
 21
0.0
 31
0.0
  0
LINE
  5
12813
330
12761
100
AcDbEntity
  8
02製品
  6
Continuous
100
AcDbLine
 10
39.67870552032946
 20
0.0
 30
0.0
 11
90.30002586389128
 21
0.0
 31
0.0
  0
INSERT
  5
12814
330
12761
100
AcDbEntity
  8
02製品
  6
Continuous
100
AcDbBlockReference
  2
SW_CENTERMARKSYMBOL_4
 10
53.80002586388218
 20
13.39999999999964
 30
0.0
 50
360.0
  0
ARC
  5
12820
330
12761
100
AcDbEntity
  8
02製品
  6
Continuous
100
AcDbCircle
 10
51.30002586388764
 20
13.399999999996
 30
0.0
 40
3.500000000000057
100
AcDbArc
 50
90.0
 51
270.0
  0
LINE
  5
12821
330
12761
100
AcDbEntity
  8
02製品
  6
Continuous
100
AcDbLine
 10
53.20630875951247
 20
16.899999999996
 30
0.0
 11
51.30002586388764
 21
16.899999999996
 31
0.0
  0
ARC
  5
12822
330
12761
100
AcDbEntity
  8
02製品
  6
Continuous
100
AcDbCircle
 10
53.800025863884
 20
13.39999999999964
 30
0.0
 40
3.550000000000024
100
AcDbArc
 50
80.37236731705215
 51
99.62763268297765
  0
LINE
  5
12823
330
12761
100
AcDbEntity
  8
02製品
  6
Continuous
100
AcDbLine
 10
56.30002586388764
 20
16.899999999996
 30
0.0
 11
54.39374296825372
 21
16.899999999996
 31
0.0
  0
ARC
  5
12824
330
12761
100
AcDbEntity
  8
02製品
  6
Continuous
100
AcDbCircle
 10
56.30002586388764
 20
13.399999999996
 30
0.0
 40
3.500000000000782
100
AcDbArc
 50
270.0
 51
90.0
  0
LINE
  5
12825
330
12761
100
AcDbEntity
  8
02製品
  6
Continuous
100
AcDbLine
 10
56.30002586388764
 20
9.89999999999418
 30
0.0
 11
54.39374296821552
 21
9.89999999999418
 31
0.0
  0
ARC
  5
12826
330
12761
100
AcDbEntity
  8
02製品
  6
Continuous
100
AcDbCircle
 10
53.800025863884
 20
13.39999999999964
 30
0.0
 40
3.550000000000718
100
AcDbArc
 50
260.3723673176495
 51
279.6276326823207
  0
LINE
  5
12827
330
12761
100
AcDbEntity
  8
02製品
  6
Continuous
100
AcDbLine
 10
53.20630875955067
 20
9.899999999995998
 30
0.0
 11
51.30002586388764
 21
9.899999999995998
 31
0.0
  0
INSERT
  5
12828
330
12761
100
AcDbEntity
  8
02製品
  6
Continuous
100
AcDbBlockReference
  2
SW_CENTERMARKSYMBOL_2
 10
73.300025863884
 20
49.00000000000364
 30
0.0
 50
360.0
  0
ARC
  5
12834
330
12761
100
AcDbEntity
  8
02製品
  6
Continuous
100
AcDbCircle
 10
73.300025863884
 20
49.00000000000364
 30
0.0
 40
3.550000000000024
100
AcDbArc
 50
80.37236731705212
 51
99.62763268294789
  0
ARC
  5
12835
330
12761
100
AcDbEntity
  8
02製品
  6
Continuous
100
AcDbCircle
 10
73.300025863884
 20
49.00000000000364
 30
0.0
 40
3.550000000000789
100
AcDbArc
 50
260.3723673176498
 51
279.6276326823502
  0
INSERT
  5
12836
330
12761
100
AcDbEntity
  8
02製品
  6
Continuous
100
AcDbBlockReference
  2
SW_CENTERMARKSYMBOL_3
 10
50.30002586388582
 20
49.00000000000364
 30
0.0
 50
360.0
  0
ARC
  5
12842
330
12761
100
AcDbEntity
  8
02製品
  6
Continuous
100
AcDbCircle
 10
50.30002586388582
 20
49.00000000000364
 30
0.0
 40
3.550000000000043
100
AcDbArc
 50
80.37236731702241
 51
99.6276326829776
  0
ARC
  5
12843
330
12761
100
AcDbEntity
  8
02製品
  6
Continuous
100
AcDbCircle
 10
50.30002586388582
 20
49.00000000000364
 30
0.0
 40
3.54999999999998
100
AcDbArc
 50
260.3723673176774
 51
279.6276326823226
  0
LINE
  5
12844
330
12761
100
AcDbEntity
  8
02製品
  6
Continuous
100
AcDbLine
 10
49.7063087595543
 20
45.5
 30
0.0
 11
47.80002586388946
 21
45.5
 31
0.0
  0
ARC
  5
12845
330
12761
100
AcDbEntity
  8
02製品
  6
Continuous
100
AcDbCircle
 10
47.80002586388946
 20
49.00000000000182
 30
0.0
 40
3.500000000000057
100
AcDbArc
 50
90.0
 51
270.0
  0
LINE
  5
12846
330
12761
100
AcDbEntity
  8
02製品
  6
Continuous
100
AcDbLine
 10
49.70630875951429
 20
52.5
 30
0.0
 11
47.80002586389128
 21
52.5
 31
0.0
  0
LINE
  5
12847
330
12761
100
AcDbEntity
  8
02製品
  6
Continuous
100
AcDbLine
 10
52.80002586388946
 20
52.5
 30
0.0
 11
50.89374296825736
 21
52.5
 31
0.0
  0
ARC
  5
12848
330
12761
100
AcDbEntity
  8
02製品
  6
Continuous
100
AcDbCircle
 10
52.80002586388946
 20
49.00000000000182
 30
0.0
 40
3.500000000000057
100
AcDbArc
 50
270.0
 51
90.0
  0
LINE
  5
12849
330
12761
100
AcDbEntity
  8
02製品
  6
Continuous
100
AcDbLine
 10
52.80002586388946
 20
45.5
 30
0.0
 11
50.89374296821734
 21
45.5
 31
0.0
  0
LINE
  5
1284A
330
12761
100
AcDbEntity
  8
02製品
  6
Continuous
100
AcDbLine
 10
67.80002586388946
 20
45.5
 30
0.0
 11
72.70630875955248
 21
45.5
 31
0.0
  0
ARC
  5
1284B
330
12761
100
AcDbEntity
  8
02製品
  6
Continuous
100
AcDbCircle
 10
67.80002586388946
 20
49.00000000000182
 30
0.0
 40
3.500000000000057
100
AcDbArc
 50
90.0
 51
270.0
  0
LINE
  5
1284C
330
12761
100
AcDbEntity
  8
02製品
  6
Continuous
100
AcDbLine
 10
67.80002586388946
 20
52.5
 30
0.0
 11
72.70630875951247
 21
52.5
 31
0.0
  0
LINE
  5
1284D
330
12761
100
AcDbEntity
  8
02製品
  6
Continuous
100
AcDbLine
 10
73.89374296825554
 20
52.5
 30
0.0
 11
78.80002586388946
 21
52.5
 31
0.0
  0
ARC
  5
1284E
330
12761
100
AcDbEntity
  8
02製品
  6
Continuous
100
AcDbCircle
 10
78.80002586388946
 20
49.0
 30
0.0
 40
3.500000000000014
100
AcDbArc
 50
270.0
 51
90.0
  0
LINE
  5
1284F
330
12761
100
AcDbEntity
  8
02製品
  6
Continuous
100
AcDbLine
 10
73.89374296821734
 20
45.5
 30
0.0
 11
78.80002586388946
 21
45.5
 31
0.0
  0
LINE
  5
12850
330
12761
100
AcDbEntity
  8
02製品
  6
Continuous
100
AcDbLine
 10
705.300011320358
 20
60.0
 30
0.0
 11
755.9213316639161
 21
60.0
 31
0.0
  0
LINE
  5
12851
330
12761
100
AcDbEntity
  8
02製品
100
AcDbLine
 10
786.8000113203561
 20
140.0000000000018
 30
0.0
 11
755.9213316639161
 21
60.0
 31
0.0
  0
LINE
  5
12852
330
12761
100
AcDbEntity
  8
02製品
100
AcDbLine
 10
785.3000113203561
 20
140.0
 30
0.0
 11
755.3000113203561
 21
60.0
 31
0.0
  0
LINE
  5
12853
330
12761
100
AcDbEntity
  8
02製品
100
AcDbLine
 10
8.80002586388946
 20
140.0
 30
0.0
 11
39.67870552032946
 21
60.0
 31
0.0
  0
LINE
  5
12854
330
12761
100
AcDbEntity
  8
02製品
100
AcDbLine
 10
40.30002586388946
 20
60.0
 30
0.0
 11
10.30002586388946
 21
140.0
 31
0.0
  0
LINE
  5
12855
330
12761
100
AcDbEntity
  8
02製品
100
AcDbLine
 10
39.67870552032946
 20
60.0
 30
0.0
 11
90.30002586389128
 21
60.0
 31
0.0
  0
LINE
  5
12856
330
12761
100
AcDbEntity
  8
02製品
100
AcDbLine
 10
756.446508135643
 20
63.0
 30
0.0
 11
745.3000494673288
 21
63.0
 31
0.0
  0
LINE
  5
12857
330
12761
100
AcDbEntity
  8
02製品
100
AcDbLine
 10
39.15352904860265
 20
63.0
 30
0.0
 11
50.30001751923919
 21
63.00002098083496
 31
0.0
  0
LINE
  5
12858
330
12761
100
AcDbEntity
  8
02製品
  6
Continuous
100
AcDbLine
 10
10.30002586388946
 20
560.0000074505806
 30
0.0
 11
10.30002586388946
 21
410.0000089406967
 31
0.0
  0
LINE
  5
12859
330
12761
100
AcDbEntity
  8
02製品
  6
Continuous
100
AcDbLine
 10
7.100031299833063
 20
560.0000074505806
 30
0.0
 11
7.100031299833063
 21
410.0000089406967
 31
0.0
  0
LINE
  5
1285A
330
12761
100
AcDbEntity
  8
02製品
  6
Continuous
100
AcDbLine
 10
10.30002586388946
 20
410.0000089406967
 30
0.0
 11
7.100031299833063
 21
410.0000089406967
 31
0.0
  0
LINE
  5
1285B
330
12761
100
AcDbEntity
  8
02製品
  6
Continuous
100
AcDbLine
 10
10.30002586388946
 20
560.0000074505806
 30
0.0
 11
7.100031299833063
 21
560.0000074505806
 31
0.0
  0
LINE
  5
1285C
330
12761
100
AcDbEntity
  8
02製品
100
AcDbLine
 10
10.30002586388946
 20
560.0000074505806
 30
0.0
 11
10.30002586388946
 21
410.0000089406967
 31
0.0
  0
LINE
  5
1285D
330
12761
100
AcDbEntity
  8
02製品
100
AcDbLine
 10
10.30002586388946
 20
560.0000074505806
 30
0.0
 11
10.30002586388946
 21
520.0000074133277
 31
0.0
  0
LINE
  5
1285E
330
12761
100
AcDbEntity
  8
02製品
  6
ByBlock
100
AcDbLine
 10
794.9981137945688
 20
536.2472608685548
 30
0.0
 11
790.1000119879282
 21
536.2472608685548
 31
0.0
  0
LINE
  5
1285F
330
12761
100
AcDbEntity
  8
02製品
  6
ByBlock
100
AcDbLine
 10
795.6000119879282
 20
546.3000257611329
 30
0.0
 11
795.6000119879282
 21
533.7000196576173
 31
0.0
  0
LINE
  5
12860
330
12761
100
AcDbEntity
  8
02製品
  6
ByBlock
100
AcDbLine
 10
795.6000371842456
 20
533.7000538825469
 30
0.0
 11
794.99813595448
 21
536.2473080018954
 31
0.0
  0
ARC
  5
12861
330
12761
100
AcDbEntity
  8
02製品
  6
ByBlock
100
AcDbCircle
 10
783.6000119879282
 20
540.000007450586
 30
0.0
 40
12.0
100
AcDbArc
 50
341.7762176856119
 51
18.22401954976297
  0
LINE
  5
12862
330
12761
100
AcDbEntity
  8
02製品
  6
ByBlock
100
AcDbLine
 10
795.600035955551
 20
533.7000381427406
 30
0.0
 11
794.904014396765
 21
532.494493306569
 31
0.0
  0
LINE
  5
12863
330
12761
100
AcDbEntity
  8
02製品
  6
ByBlock
100
AcDbLine
 10
794.9039823248422
 20
532.4944685101564
 30
0.0
 11
790.1000119879282
 21
532.4944685101564
 31
0.0
  0
LINE
  5
12864
330
12761
100
AcDbEntity
  8
02製品
  6
ByBlock
100
AcDbLine
 10
794.9980985357797
 20
543.7528150677736
 30
0.0
 11
790.1000119879282
 21
543.7528150677736
 31
0.0
  0
LINE
  5
12865
330
12761
100
AcDbEntity
  8
02製品
  6
ByBlock
100
AcDbLine
 10
794.9039823248422
 20
547.5055769085939
 30
0.0
 11
790.1000119879282
 21
547.5055769085939
 31
0.0
  0
LINE
  5
12866
330
12761
100
AcDbEntity
  8
02製品
  6
ByBlock
100
AcDbLine
 10
794.9981102249803
 20
543.752838722894
 30
0.0
 11
795.6000256491207
 21
546.3000581301221
 31
0.0
  0
LINE
  5
12867
330
12761
100
AcDbEntity
  8
02製品
  6
ByBlock
100
AcDbLine
 10
794.9039932013511
 20
547.5056326927461
 30
0.0
 11
795.6000225683456
 21
546.3000743323628
 31
0.0
  0
LINE
  5
12868
330
12761
100
AcDbEntity
  8
02製品
  6
ByBlock
100
AcDbLine
 10
790.1000119879282
 20
548.5000074505824
 30
0.0
 11
790.1000119879282
 21
531.500007450586
 31
0.0
  0
LINE
  5
12869
330
12761
100
AcDbEntity
  8
02製品
  6
ByBlock
100
AcDbLine
 10
788.5000058844125
 20
548.5000074505824
 30
0.0
 11
788.5000058844125
 21
531.500007450586
 31
0.0
  0
LINE
  5
1286A
330
12761
100
AcDbEntity
  8
02製品
  6
ByBlock
100
AcDbLine
 10
790.1000119879282
 20
548.5000074505824
 30
0.0
 11
788.5000058844125
 21
548.5000074505824
 31
0.0
  0
LINE
  5
1286B
330
12761
100
AcDbEntity
  8
02製品
  6
ByBlock
100
AcDbLine
 10
790.1000119879282
 20
531.500007450586
 30
0.0
 11
788.5000058844125
 21
531.500007450586
 31
0.0
  0
LINE
  5
1286C
330
12761
100
AcDbEntity
  8
02製品
  6
ByBlock
100
AcDbLine
 10
794.9981137945688
 20
486.2472608685512
 30
0.0
 11
790.1000119879282
 21
486.2472608685512
 31
0.0
  0
LINE
  5
1286D
330
12761
100
AcDbEntity
  8
02製品
  6
ByBlock
100
AcDbLine
 10
795.6000119879282
 20
496.3000257611293
 30
0.0
 11
795.6000119879282
 21
483.7000196576137
 31
0.0
  0
LINE
  5
1286E
330
12761
100
AcDbEntity
  8
02製品
  6
ByBlock
100
AcDbLine
 10
795.6000371842456
 20
483.7000538825432
 30
0.0
 11
794.99813595448
 21
486.2473080018917
 31
0.0
  0
ARC
  5
1286F
330
12761
100
AcDbEntity
  8
02製品
  6
ByBlock
100
AcDbCircle
 10
783.6000119879282
 20
490.0000074505824
 30
0.0
 40
12.0
100
AcDbArc
 50
341.7762176856119
 51
18.22401954975833
  0
LINE
  5
12870
330
12761
100
AcDbEntity
  8
02製品
  6
ByBlock
100
AcDbLine
 10
795.600035955551
 20
483.700038142737
 30
0.0
 11
794.904014396765
 21
482.4944933065653
 31
0.0
  0
LINE
  5
12871
330
12761
100
AcDbEntity
  8
02製品
  6
ByBlock
100
AcDbLine
 10
794.9039823248422
 20
482.4944685101527
 30
0.0
 11
790.1000119879282
 21
482.4944685101527
 31
0.0
  0
LINE
  5
12872
330
12761
100
AcDbEntity
  8
02製品
  6
ByBlock
100
AcDbLine
 10
794.9980985357797
 20
493.7528150677699
 30
0.0
 11
790.1000119879282
 21
493.7528150677699
 31
0.0
  0
LINE
  5
12873
330
12761
100
AcDbEntity
  8
02製品
  6
ByBlock
100
AcDbLine
 10
794.9039823248422
 20
497.5055769085902
 30
0.0
 11
790.1000119879282
 21
497.5055769085902
 31
0.0
  0
LINE
  5
12874
330
12761
100
AcDbEntity
  8
02製品
  6
ByBlock
100
AcDbLine
 10
794.9981102249803
 20
493.7528387228904
 30
0.0
 11
795.6000256491207
 21
496.3000581301185
 31
0.0
  0
LINE
  5
12875
330
12761
100
AcDbEntity
  8
02製品
  6
ByBlock
100
AcDbLine
 10
794.9039932013511
 20
497.5056326927424
 30
0.0
 11
795.6000225683456
 21
496.3000743323591
 31
0.0
  0
LINE
  5
12876
330
12761
100
AcDbEntity
  8
02製品
  6
ByBlock
100
AcDbLine
 10
790.1000119879282
 20
498.5000074505788
 30
0.0
 11
790.1000119879282
 21
481.5000074505824
 31
0.0
  0
LINE
  5
12877
330
12761
100
AcDbEntity
  8
02製品
  6
ByBlock
100
AcDbLine
 10
788.5000058844125
 20
498.5000074505788
 30
0.0
 11
788.5000058844125
 21
481.5000074505824
 31
0.0
  0
LINE
  5
12878
330
12761
100
AcDbEntity
  8
02製品
  6
ByBlock
100
AcDbLine
 10
790.1000119879282
 20
498.5000074505788
 30
0.0
 11
788.5000058844125
 21
498.5000074505788
 31
0.0
  0
LINE
  5
12879
330
12761
100
AcDbEntity
  8
02製品
  6
ByBlock
100
AcDbLine
 10
790.1000119879282
 20
481.5000074505824
 30
0.0
 11
788.5000058844125
 21
481.5000074505824
 31
0.0
  0
LINE
  5
1287A
330
12761
100
AcDbEntity
  8
02製品
  6
ByBlock
100
AcDbLine
 10
794.9981137945688
 20
426.2472608685512
 30
0.0
 11
790.1000119879282
 21
426.2472608685512
 31
0.0
  0
LINE
  5
1287B
330
12761
100
AcDbEntity
  8
02製品
  6
ByBlock
100
AcDbLine
 10
795.6000119879282
 20
436.3000257611293
 30
0.0
 11
795.6000119879282
 21
423.7000196576137
 31
0.0
  0
LINE
  5
1287C
330
12761
100
AcDbEntity
  8
02製品
  6
ByBlock
100
AcDbLine
 10
795.6000371842456
 20
423.7000538825432
 30
0.0
 11
794.99813595448
 21
426.2473080018917
 31
0.0
  0
ARC
  5
1287D
330
12761
100
AcDbEntity
  8
02製品
  6
ByBlock
100
AcDbCircle
 10
783.6000119879282
 20
430.0000074505824
 30
0.0
 40
12.0
100
AcDbArc
 50
341.7762176856114
 51
18.22401954975808
  0
LINE
  5
1287E
330
12761
100
AcDbEntity
  8
02製品
  6
ByBlock
100
AcDbLine
 10
795.600035955551
 20
423.700038142737
 30
0.0
 11
794.904014396765
 21
422.4944933065653
 31
0.0
  0
LINE
  5
1287F
330
12761
100
AcDbEntity
  8
02製品
  6
ByBlock
100
AcDbLine
 10
794.9039823248422
 20
422.4944685101527
 30
0.0
 11
790.1000119879282
 21
422.4944685101527
 31
0.0
  0
LINE
  5
12880
330
12761
100
AcDbEntity
  8
02製品
  6
ByBlock
100
AcDbLine
 10
794.9980985357797
 20
433.7528150677699
 30
0.0
 11
790.1000119879282
 21
433.7528150677699
 31
0.0
  0
LINE
  5
12881
330
12761
100
AcDbEntity
  8
02製品
  6
ByBlock
100
AcDbLine
 10
794.9039823248422
 20
437.5055769085902
 30
0.0
 11
790.1000119879282
 21
437.5055769085902
 31
0.0
  0
LINE
  5
12882
330
12761
100
AcDbEntity
  8
02製品
  6
ByBlock
100
AcDbLine
 10
794.9981102249803
 20
433.7528387228904
 30
0.0
 11
795.6000256491207
 21
436.3000581301185
 31
0.0
  0
LINE
  5
12883
330
12761
100
AcDbEntity
  8
02製品
  6
ByBlock
100
AcDbLine
 10
794.9039932013511
 20
437.5056326927424
 30
0.0
 11
795.6000225683456
 21
436.3000743323591
 31
0.0
  0
LINE
  5
12884
330
12761
100
AcDbEntity
  8
02製品
  6
ByBlock
100
AcDbLine
 10
790.1000119879282
 20
438.5000074505788
 30
0.0
 11
790.1000119879282
 21
421.5000074505824
 31
0.0
  0
LINE
  5
12885
330
12761
100
AcDbEntity
  8
02製品
  6
ByBlock
100
AcDbLine
 10
788.5000058844125
 20
438.5000074505788
 30
0.0
 11
788.5000058844125
 21
421.5000074505824
 31
0.0
  0
LINE
  5
12886
330
12761
100
AcDbEntity
  8
02製品
  6
ByBlock
100
AcDbLine
 10
790.1000119879282
 20
438.5000074505788
 30
0.0
 11
788.5000058844125
 21
438.5000074505788
 31
0.0
  0
LINE
  5
12887
330
12761
100
AcDbEntity
  8
02製品
  6
ByBlock
100
AcDbLine
 10
790.1000119879282
 20
421.5000074505824
 30
0.0
 11
788.5000058844125
 21
421.5000074505824
 31
0.0
  0
LINE
  5
12888
330
12761
100
AcDbEntity
  8
02製品
  6
ByBlock
100
AcDbLine
 10
793.2981192305124
 20
116.2472534179724
 30
0.0
 11
788.4000174238718
 21
116.2472534179724
 31
0.0
  0
LINE
  5
12889
330
12761
100
AcDbEntity
  8
02製品
  6
ByBlock
100
AcDbLine
 10
793.9000174238718
 20
126.3000183105505
 30
0.0
 11
793.9000174238718
 21
113.7000122070349
 31
0.0
  0
LINE
  5
1288A
330
12761
100
AcDbEntity
  8
02製品
  6
ByBlock
100
AcDbLine
 10
793.9000426201892
 20
113.7000464319644
 30
0.0
 11
793.2981413904236
 21
116.2473005513129
 31
0.0
  0
ARC
  5
1288B
330
12761
100
AcDbEntity
  8
02製品
  6
ByBlock
100
AcDbCircle
 10
781.9000174238718
 20
120.0000000000036
 30
0.0
 40
12.0
100
AcDbArc
 50
341.7762176856116
 51
18.22401954975808
  0
LINE
  5
1288C
330
12761
100
AcDbEntity
  8
02製品
  6
ByBlock
100
AcDbLine
 10
793.9000413914946
 20
113.7000306921582
 30
0.0
 11
793.2040198327086
 21
112.4944858559866
 31
0.0
  0
LINE
  5
1288D
330
12761
100
AcDbEntity
  8
02製品
  6
ByBlock
100
AcDbLine
 10
793.2039877607858
 20
112.494461059574
 30
0.0
 11
788.4000174238718
 21
112.494461059574
 31
0.0
  0
LINE
  5
1288E
330
12761
100
AcDbEntity
  8
02製品
  6
ByBlock
100
AcDbLine
 10
793.2981039717233
 20
123.7528076171911
 30
0.0
 11
788.4000174238718
 21
123.7528076171911
 31
0.0
  0
LINE
  5
1288F
330
12761
100
AcDbEntity
  8
02製品
  6
ByBlock
100
AcDbLine
 10
793.2039877607858
 20
127.5055694580115
 30
0.0
 11
788.4000174238718
 21
127.5055694580115
 31
0.0
  0
LINE
  5
12890
330
12761
100
AcDbEntity
  8
02製品
  6
ByBlock
100
AcDbLine
 10
793.2981156609239
 20
123.7528312723116
 30
0.0
 11
793.9000310850643
 21
126.3000506795397
 31
0.0
  0
LINE
  5
12891
330
12761
100
AcDbEntity
  8
02製品
  6
ByBlock
100
AcDbLine
 10
793.2039986372947
 20
127.5056252421637
 30
0.0
 11
793.9000280042892
 21
126.3000668817804
 31
0.0
  0
LINE
  5
12892
330
12761
100
AcDbEntity
  8
02製品
  6
ByBlock
100
AcDbLine
 10
788.4000174238718
 20
128.5
 30
0.0
 11
788.4000174238718
 21
111.5000000000036
 31
0.0
  0
LINE
  5
12893
330
12761
100
AcDbEntity
  8
02製品
  6
ByBlock
100
AcDbLine
 10
786.8000113203561
 20
128.5
 30
0.0
 11
786.8000113203561
 21
111.5000000000036
 31
0.0
  0
LINE
  5
12894
330
12761
100
AcDbEntity
  8
02製品
  6
ByBlock
100
AcDbLine
 10
788.4000174238718
 20
128.5
 30
0.0
 11
786.8000113203561
 21
128.5
 31
0.0
  0
LINE
  5
12895
330
12761
100
AcDbEntity
  8
02製品
  6
ByBlock
100
AcDbLine
 10
788.4000174238718
 20
111.5000000000036
 30
0.0
 11
786.8000113203561
 21
111.5000000000036
 31
0.0
  0
LINE
  5
12896
330
12761
100
AcDbEntity
  8
02製品
  6
ByBlock
100
AcDbLine
 10
793.2981192305124
 20
76.24725341797239
 30
0.0
 11
788.4000174238718
 21
76.24725341797239
 31
0.0
  0
LINE
  5
12897
330
12761
100
AcDbEntity
  8
02製品
  6
ByBlock
100
AcDbLine
 10
793.9000174238718
 20
86.30001831055051
 30
0.0
 11
793.9000174238718
 21
73.70001220703489
 31
0.0
  0
LINE
  5
12898
330
12761
100
AcDbEntity
  8
02製品
  6
ByBlock
100
AcDbLine
 10
793.9000426201892
 20
73.70004643196444
 30
0.0
 11
793.2981413904236
 21
76.24730055131295
 31
0.0
  0
ARC
  5
12899
330
12761
100
AcDbEntity
  8
02製品
  6
ByBlock
100
AcDbCircle
 10
781.9000174238718
 20
80.00000000000364
 30
0.0
 40
12.0
100
AcDbArc
 50
341.7762176856116
 51
18.22401954975808
  0
LINE
  5
1289A
330
12761
100
AcDbEntity
  8
02製品
  6
ByBlock
100
AcDbLine
 10
793.9000413914946
 20
73.70003069215818
 30
0.0
 11
793.2040198327086
 21
72.49448585598657
 31
0.0
  0
LINE
  5
1289B
330
12761
100
AcDbEntity
  8
02製品
  6
ByBlock
100
AcDbLine
 10
793.2039877607858
 20
72.49446105957395
 30
0.0
 11
788.4000174238718
 21
72.49446105957395
 31
0.0
  0
LINE
  5
1289C
330
12761
100
AcDbEntity
  8
02製品
  6
ByBlock
100
AcDbLine
 10
793.2981039717233
 20
83.75280761719114
 30
0.0
 11
788.4000174238718
 21
83.75280761719114
 31
0.0
  0
LINE
  5
1289D
330
12761
100
AcDbEntity
  8
02製品
  6
ByBlock
100
AcDbLine
 10
793.2039877607858
 20
87.50556945801145
 30
0.0
 11
788.4000174238718
 21
87.50556945801145
 31
0.0
  0
LINE
  5
1289E
330
12761
100
AcDbEntity
  8
02製品
  6
ByBlock
100
AcDbLine
 10
793.2981156609239
 20
83.7528312723116
 30
0.0
 11
793.9000310850643
 21
86.30005067953971
 31
0.0
  0
LINE
  5
1289F
330
12761
100
AcDbEntity
  8
02製品
  6
ByBlock
100
AcDbLine
 10
793.2039986372947
 20
87.50562524216366
 30
0.0
 11
793.9000280042892
 21
86.30006688178037
 31
0.0
  0
LINE
  5
128A0
330
12761
100
AcDbEntity
  8
02製品
  6
ByBlock
100
AcDbLine
 10
788.4000174238718
 20
88.5
 30
0.0
 11
788.4000174238718
 21
71.50000000000364
 31
0.0
  0
LINE
  5
128A1
330
12761
100
AcDbEntity
  8
02製品
  6
ByBlock
100
AcDbLine
 10
786.8000113203561
 20
88.5
 30
0.0
 11
786.8000113203561
 21
71.50000000000364
 31
0.0
  0
LINE
  5
128A2
330
12761
100
AcDbEntity
  8
02製品
  6
ByBlock
100
AcDbLine
 10
788.4000174238718
 20
88.5
 30
0.0
 11
786.8000113203561
 21
88.5
 31
0.0
  0
LINE
  5
128A3
330
12761
100
AcDbEntity
  8
02製品
  6
ByBlock
100
AcDbLine
 10
788.4000174238718
 20
71.50000000000364
 30
0.0
 11
786.8000113203561
 21
71.50000000000364
 31
0.0
  0
LINE
  5
128A4
330
12761
100
AcDbEntity
  8
02製品
  6
ByBlock
100
AcDbLine
 10
0.6019233896768128
 20
536.2472608685548
 30
0.0
 11
5.500025196317438
 21
536.2472608685548
 31
0.0
  0
LINE
  5
128A5
330
12761
100
AcDbEntity
  8
02製品
  6
ByBlock
100
AcDbLine
 10
0.0000251963174378
 20
546.3000257611329
 30
0.0
 11
0.0000251963174378
 21
533.7000196576173
 31
0.0
  0
LINE
  5
128A6
330
12761
100
AcDbEntity
  8
02製品
  6
ByBlock
100
AcDbLine
 10
0.0
 20
533.7000538825469
 30
0.0
 11
0.6019012297656445
 21
536.2473080018954
 31
0.0
  0
ARC
  5
128A7
330
12761
100
AcDbEntity
  8
02製品
  6
ByBlock
100
AcDbCircle
 10
12.00002519631744
 20
540.000007450586
 30
0.0
 40
12.0
100
AcDbArc
 50
161.775980450237
 51
198.2237823143854
  0
LINE
  5
128A8
330
12761
100
AcDbEntity
  8
02製品
  6
ByBlock
100
AcDbLine
 10
0.0000012286946003
 20
533.7000381427406
 30
0.0
 11
0.6960227874806151
 21
532.494493306569
 31
0.0
  0
LINE
  5
128A9
330
12761
100
AcDbEntity
  8
02製品
  6
ByBlock
100
AcDbLine
 10
0.6960548594033753
 20
532.4944685101564
 30
0.0
 11
5.500025196317438
 21
532.4944685101564
 31
0.0
  0
LINE
  5
128AA
330
12761
100
AcDbEntity
  8
02製品
  6
ByBlock
100
AcDbLine
 10
0.6019386484658753
 20
543.7528150677736
 30
0.0
 11
5.500025196317438
 21
543.7528150677736
 31
0.0
  0
LINE
  5
128AB
330
12761
100
AcDbEntity
  8
02製品
  6
ByBlock
100
AcDbLine
 10
0.6960548594033753
 20
547.5055769085939
 30
0.0
 11
5.500025196317438
 21
547.5055769085939
 31
0.0
  0
LINE
  5
128AC
330
12761
100
AcDbEntity
  8
02製品
  6
ByBlock
100
AcDbLine
 10
0.6019269592652563
 20
543.752838722894
 30
0.0
 11
0.0000115351249406
 21
546.3000581301221
 31
0.0
  0
LINE
  5
128AD
330
12761
100
AcDbEntity
  8
02製品
  6
ByBlock
100
AcDbLine
 10
0.69604398289448
 20
547.5056326927461
 30
0.0
 11
0.0000146158999996
 21
546.3000743323628
 31
0.0
  0
LINE
  5
128AE
330
12761
100
AcDbEntity
  8
02製品
  6
ByBlock
100
AcDbLine
 10
5.500025196317438
 20
548.5000074505824
 30
0.0
 11
5.500025196317438
 21
531.500007450586
 31
0.0
  0
LINE
  5
128AF
330
12761
100
AcDbEntity
  8
02製品
  6
ByBlock
100
AcDbLine
 10
7.100031299833063
 20
548.5000074505824
 30
0.0
 11
7.100031299833063
 21
531.500007450586
 31
0.0
  0
LINE
  5
128B0
330
12761
100
AcDbEntity
  8
02製品
  6
ByBlock
100
AcDbLine
 10
5.500025196317438
 20
548.5000074505824
 30
0.0
 11
7.100031299833063
 21
548.5000074505824
 31
0.0
  0
LINE
  5
128B1
330
12761
100
AcDbEntity
  8
02製品
  6
ByBlock
100
AcDbLine
 10
5.500025196317438
 20
531.500007450586
 30
0.0
 11
7.100031299833063
 21
531.500007450586
 31
0.0
  0
LINE
  5
128B2
330
12761
100
AcDbEntity
  8
02製品
  6
ByBlock
100
AcDbLine
 10
0.6019233896768128
 20
486.2472608685512
 30
0.0
 11
5.500025196317438
 21
486.2472608685512
 31
0.0
  0
LINE
  5
128B3
330
12761
100
AcDbEntity
  8
02製品
  6
ByBlock
100
AcDbLine
 10
0.0000251963174378
 20
496.3000257611293
 30
0.0
 11
0.0000251963174378
 21
483.7000196576137
 31
0.0
  0
LINE
  5
128B4
330
12761
100
AcDbEntity
  8
02製品
  6
ByBlock
100
AcDbLine
 10
0.0
 20
483.7000538825432
 30
0.0
 11
0.6019012297656445
 21
486.2473080018917
 31
0.0
  0
ARC
  5
128B5
330
12761
100
AcDbEntity
  8
02製品
  6
ByBlock
100
AcDbCircle
 10
12.00002519631744
 20
490.0000074505824
 30
0.0
 40
12.0
100
AcDbArc
 50
161.7759804502418
 51
198.2237823143854
  0
LINE
  5
128B6
330
12761
100
AcDbEntity
  8
02製品
  6
ByBlock
100
AcDbLine
 10
0.0000012286946003
 20
483.700038142737
 30
0.0
 11
0.6960227874806151
 21
482.4944933065653
 31
0.0
  0
LINE
  5
128B7
330
12761
100
AcDbEntity
  8
02製品
  6
ByBlock
100
AcDbLine
 10
0.6960548594033753
 20
482.4944685101527
 30
0.0
 11
5.500025196317438
 21
482.4944685101527
 31
0.0
  0
LINE
  5
128B8
330
12761
100
AcDbEntity
  8
02製品
  6
ByBlock
100
AcDbLine
 10
0.6019386484658753
 20
493.7528150677699
 30
0.0
 11
5.500025196317438
 21
493.7528150677699
 31
0.0
  0
LINE
  5
128B9
330
12761
100
AcDbEntity
  8
02製品
  6
ByBlock
100
AcDbLine
 10
0.6960548594033753
 20
497.5055769085902
 30
0.0
 11
5.500025196317438
 21
497.5055769085902
 31
0.0
  0
LINE
  5
128BA
330
12761
100
AcDbEntity
  8
02製品
  6
ByBlock
100
AcDbLine
 10
0.6019269592652563
 20
493.7528387228904
 30
0.0
 11
0.0000115351249406
 21
496.3000581301185
 31
0.0
  0
LINE
  5
128BB
330
12761
100
AcDbEntity
  8
02製品
  6
ByBlock
100
AcDbLine
 10
0.69604398289448
 20
497.5056326927424
 30
0.0
 11
0.0000146158999996
 21
496.3000743323591
 31
0.0
  0
LINE
  5
128BC
330
12761
100
AcDbEntity
  8
02製品
  6
ByBlock
100
AcDbLine
 10
5.500025196317438
 20
498.5000074505788
 30
0.0
 11
5.500025196317438
 21
481.5000074505824
 31
0.0
  0
LINE
  5
128BD
330
12761
100
AcDbEntity
  8
02製品
  6
ByBlock
100
AcDbLine
 10
7.100031299833063
 20
498.5000074505788
 30
0.0
 11
7.100031299833063
 21
481.5000074505824
 31
0.0
  0
LINE
  5
128BE
330
12761
100
AcDbEntity
  8
02製品
  6
ByBlock
100
AcDbLine
 10
5.500025196317438
 20
498.5000074505788
 30
0.0
 11
7.100031299833063
 21
498.5000074505788
 31
0.0
  0
LINE
  5
128BF
330
12761
100
AcDbEntity
  8
02製品
  6
ByBlock
100
AcDbLine
 10
5.500025196317438
 20
481.5000074505824
 30
0.0
 11
7.100031299833063
 21
481.5000074505824
 31
0.0
  0
LINE
  5
128C0
330
12761
100
AcDbEntity
  8
02製品
  6
ByBlock
100
AcDbLine
 10
0.6019233896768128
 20
426.2472608685512
 30
0.0
 11
5.500025196317438
 21
426.2472608685512
 31
0.0
  0
LINE
  5
128C1
330
12761
100
AcDbEntity
  8
02製品
  6
ByBlock
100
AcDbLine
 10
0.0000251963174378
 20
436.3000257611293
 30
0.0
 11
0.0000251963174378
 21
423.7000196576137
 31
0.0
  0
LINE
  5
128C2
330
12761
100
AcDbEntity
  8
02製品
  6
ByBlock
100
AcDbLine
 10
0.0
 20
423.7000538825432
 30
0.0
 11
0.6019012297656445
 21
426.2473080018917
 31
0.0
  0
ARC
  5
128C3
330
12761
100
AcDbEntity
  8
02製品
  6
ByBlock
100
AcDbCircle
 10
12.00002519631744
 20
430.0000074505824
 30
0.0
 40
12.0
100
AcDbArc
 50
161.7759804502418
 51
198.2237823143851
  0
LINE
  5
128C4
330
12761
100
AcDbEntity
  8
02製品
  6
ByBlock
100
AcDbLine
 10
0.0000012286946003
 20
423.700038142737
 30
0.0
 11
0.6960227874806151
 21
422.4944933065653
 31
0.0
  0
LINE
  5
128C5
330
12761
100
AcDbEntity
  8
02製品
  6
ByBlock
100
AcDbLine
 10
0.6960548594033753
 20
422.4944685101527
 30
0.0
 11
5.500025196317438
 21
422.4944685101527
 31
0.0
  0
LINE
  5
128C6
330
12761
100
AcDbEntity
  8
02製品
  6
ByBlock
100
AcDbLine
 10
0.6019386484658753
 20
433.7528150677699
 30
0.0
 11
5.500025196317438
 21
433.7528150677699
 31
0.0
  0
LINE
  5
128C7
330
12761
100
AcDbEntity
  8
02製品
  6
ByBlock
100
AcDbLine
 10
0.6960548594033753
 20
437.5055769085902
 30
0.0
 11
5.500025196317438
 21
437.5055769085902
 31
0.0
  0
LINE
  5
128C8
330
12761
100
AcDbEntity
  8
02製品
  6
ByBlock
100
AcDbLine
 10
0.6019269592652563
 20
433.7528387228904
 30
0.0
 11
0.0000115351249406
 21
436.3000581301185
 31
0.0
  0
LINE
  5
128C9
330
12761
100
AcDbEntity
  8
02製品
  6
ByBlock
100
AcDbLine
 10
0.69604398289448
 20
437.5056326927424
 30
0.0
 11
0.0000146158999996
 21
436.3000743323591
 31
0.0
  0
LINE
  5
128CA
330
12761
100
AcDbEntity
  8
02製品
  6
ByBlock
100
AcDbLine
 10
5.500025196317438
 20
438.5000074505788
 30
0.0
 11
5.500025196317438
 21
421.5000074505824
 31
0.0
  0
LINE
  5
128CB
330
12761
100
AcDbEntity
  8
02製品
  6
ByBlock
100
AcDbLine
 10
7.100031299833063
 20
438.5000074505788
 30
0.0
 11
7.100031299833063
 21
421.5000074505824
 31
0.0
  0
LINE
  5
128CC
330
12761
100
AcDbEntity
  8
02製品
  6
ByBlock
100
AcDbLine
 10
5.500025196317438
 20
438.5000074505788
 30
0.0
 11
7.100031299833063
 21
438.5000074505788
 31
0.0
  0
LINE
  5
128CD
330
12761
100
AcDbEntity
  8
02製品
  6
ByBlock
100
AcDbLine
 10
5.500025196317438
 20
421.5000074505824
 30
0.0
 11
7.100031299833063
 21
421.5000074505824
 31
0.0
  0
LINE
  5
128CE
330
12761
100
AcDbEntity
  8
02製品
  6
ByBlock
100
AcDbLine
 10
2.301917953733209
 20
116.2472534179724
 30
0.0
 11
7.200019760373834
 21
116.2472534179724
 31
0.0
  0
LINE
  5
128CF
330
12761
100
AcDbEntity
  8
02製品
  6
ByBlock
100
AcDbLine
 10
1.700019760373834
 20
126.3000183105505
 30
0.0
 11
1.700019760373834
 21
113.7000122070349
 31
0.0
  0
LINE
  5
128D0
330
12761
100
AcDbEntity
  8
02製品
  6
ByBlock
100
AcDbLine
 10
1.699994564056396
 20
113.7000464319644
 30
0.0
 11
2.301895793822041
 21
116.2473005513129
 31
0.0
  0
ARC
  5
128D1
330
12761
100
AcDbEntity
  8
02製品
  6
ByBlock
100
AcDbCircle
 10
13.70001976037383
 20
120.0000000000036
 30
0.0
 40
12.0
100
AcDbArc
 50
161.7759804502421
 51
198.2237823143855
  0
LINE
  5
128D2
330
12761
100
AcDbEntity
  8
02製品
  6
ByBlock
100
AcDbLine
 10
1.699995792750997
 20
113.7000306921582
 30
0.0
 11
2.396017351537012
 21
112.4944858559866
 31
0.0
  0
LINE
  5
128D3
330
12761
100
AcDbEntity
  8
02製品
  6
ByBlock
100
AcDbLine
 10
2.396049423459772
 20
112.494461059574
 30
0.0
 11
7.200019760373834
 21
112.494461059574
 31
0.0
  0
LINE
  5
128D4
330
12761
100
AcDbEntity
  8
02製品
  6
ByBlock
100
AcDbLine
 10
2.301933212522272
 20
123.7528076171911
 30
0.0
 11
7.200019760373834
 21
123.7528076171911
 31
0.0
  0
LINE
  5
128D5
330
12761
100
AcDbEntity
  8
02製品
  6
ByBlock
100
AcDbLine
 10
2.396049423459772
 20
127.5055694580115
 30
0.0
 11
7.200019760373834
 21
127.5055694580115
 31
0.0
  0
LINE
  5
128D6
330
12761
100
AcDbEntity
  8
02製品
  6
ByBlock
100
AcDbLine
 10
2.301921523321653
 20
123.7528312723116
 30
0.0
 11
1.700006099181337
 21
126.3000506795397
 31
0.0
  0
LINE
  5
128D7
330
12761
100
AcDbEntity
  8
02製品
  6
ByBlock
100
AcDbLine
 10
2.396038546950876
 20
127.5056252421637
 30
0.0
 11
1.700009179956396
 21
126.3000668817804
 31
0.0
  0
LINE
  5
128D8
330
12761
100
AcDbEntity
  8
02製品
  6
ByBlock
100
AcDbLine
 10
7.200019760373834
 20
128.5
 30
0.0
 11
7.200019760373834
 21
111.5000000000036
 31
0.0
  0
LINE
  5
128D9
330
12761
100
AcDbEntity
  8
02製品
  6
ByBlock
100
AcDbLine
 10
8.80002586388946
 20
128.5
 30
0.0
 11
8.80002586388946
 21
111.5000000000036
 31
0.0
  0
LINE
  5
128DA
330
12761
100
AcDbEntity
  8
02製品
  6
ByBlock
100
AcDbLine
 10
7.200019760373834
 20
128.5
 30
0.0
 11
8.80002586388946
 21
128.5
 31
0.0
  0
LINE
  5
128DB
330
12761
100
AcDbEntity
  8
02製品
  6
ByBlock
100
AcDbLine
 10
7.200019760373834
 20
111.5000000000036
 30
0.0
 11
8.80002586388946
 21
111.5000000000036
 31
0.0
  0
LINE
  5
128DC
330
12761
100
AcDbEntity
  8
02製品
  6
ByBlock
100
AcDbLine
 10
2.301917953733209
 20
76.24725341797239
 30
0.0
 11
7.200019760373834
 21
76.24725341797239
 31
0.0
  0
LINE
  5
128DD
330
12761
100
AcDbEntity
  8
02製品
  6
ByBlock
100
AcDbLine
 10
1.700019760373834
 20
86.30001831055051
 30
0.0
 11
1.700019760373834
 21
73.70001220703489
 31
0.0
  0
LINE
  5
128DE
330
12761
100
AcDbEntity
  8
02製品
  6
ByBlock
100
AcDbLine
 10
1.699994564056396
 20
73.70004643196444
 30
0.0
 11
2.301895793822041
 21
76.24730055131295
 31
0.0
  0
ARC
  5
128DF
330
12761
100
AcDbEntity
  8
02製品
  6
ByBlock
100
AcDbCircle
 10
13.70001976037383
 20
80.00000000000364
 30
0.0
 40
12.0
100
AcDbArc
 50
161.7759804502421
 51
198.2237823143855
  0
LINE
  5
128E0
330
12761
100
AcDbEntity
  8
02製品
  6
ByBlock
100
AcDbLine
 10
1.699995792750997
 20
73.70003069215818
 30
0.0
 11
2.396017351537012
 21
72.49448585598657
 31
0.0
  0
LINE
  5
128E1
330
12761
100
AcDbEntity
  8
02製品
  6
ByBlock
100
AcDbLine
 10
2.396049423459772
 20
72.49446105957395
 30
0.0
 11
7.200019760373834
 21
72.49446105957395
 31
0.0
  0
LINE
  5
128E2
330
12761
100
AcDbEntity
  8
02製品
  6
ByBlock
100
AcDbLine
 10
2.301933212522272
 20
83.75280761719114
 30
0.0
 11
7.200019760373834
 21
83.75280761719114
 31
0.0
  0
LINE
  5
128E3
330
12761
100
AcDbEntity
  8
02製品
  6
ByBlock
100
AcDbLine
 10
2.396049423459772
 20
87.50556945801145
 30
0.0
 11
7.200019760373834
 21
87.50556945801145
 31
0.0
  0
LINE
  5
128E4
330
12761
100
AcDbEntity
  8
02製品
  6
ByBlock
100
AcDbLine
 10
2.301921523321653
 20
83.7528312723116
 30
0.0
 11
1.700006099181337
 21
86.30005067953971
 31
0.0
  0
LINE
  5
128E5
330
12761
100
AcDbEntity
  8
02製品
  6
ByBlock
100
AcDbLine
 10
2.396038546950876
 20
87.50562524216366
 30
0.0
 11
1.700009179956396
 21
86.30006688178037
 31
0.0
  0
LINE
  5
128E6
330
12761
100
AcDbEntity
  8
02製品
  6
ByBlock
100
AcDbLine
 10
7.200019760373834
 20
88.5
 30
0.0
 11
7.200019760373834
 21
71.50000000000364
 31
0.0
  0
LINE
  5
128E7
330
12761
100
AcDbEntity
  8
02製品
  6
ByBlock
100
AcDbLine
 10
8.80002586388946
 20
88.5
 30
0.0
 11
8.80002586388946
 21
71.50000000000364
 31
0.0
  0
LINE
  5
128E8
330
12761
100
AcDbEntity
  8
02製品
  6
ByBlock
100
AcDbLine
 10
7.200019760373834
 20
88.5
 30
0.0
 11
8.80002586388946
 21
88.5
 31
0.0
  0
LINE
  5
128E9
330
12761
100
AcDbEntity
  8
02製品
  6
ByBlock
100
AcDbLine
 10
7.200019760373834
 20
71.50000000000364
 30
0.0
 11
8.80002586388946
 21
71.50000000000364
 31
0.0
  0
ENDBLK
  5
128EB
330
12761
100
AcDbEntity
  8
0
100
AcDbBlockEnd
  0
BLOCK
  5
129EF
330
128ED
100
AcDbEntity
  8
0
100
AcDbBlockBegin
  2
A$C20521
 70
     0
 10
0.0
 20
0.0
 30
0.0
  3
A$C20521
  1

  0
LINE
  5
1291B
330
128ED
100
AcDbEntity
  8
02製品
  6
Continuous
100
AcDbLine
 10
971.4999639987946
 20
140.0000000000018
 30
0.0
 11
971.4999639987946
 21
410.0000074505806
 31
0.0
  0
LINE
  5
1291C
330
128ED
100
AcDbEntity
  8
02製品
  6
Continuous
100
AcDbLine
 10
931.4999728991534
 20
140.0
 30
0.0
 11
931.4999723434448
 21
410.0000089406967
 31
0.0
  0
LINE
  5
1291D
330
128ED
100
AcDbEntity
  8
02製品
  6
Continuous
100
AcDbLine
 10
71.49996185302734
 20
140.0000000000018
 30
0.0
 11
71.49996185302734
 21
410.0000089406967
 31
0.0
  0
LINE
  5
1291E
330
128ED
100
AcDbEntity
  8
02製品
  6
Continuous
100
AcDbLine
 10
31.49999983226007
 20
140.0000000000018
 30
0.0
 11
31.49997019767761
 21
410.0000074505806
 31
0.0
  0
LINE
  5
1291F
330
128ED
100
AcDbEntity
  8
02製品
  6
Continuous
100
AcDbLine
 10
901.4999639987946
 20
560.0000074505806
 30
0.0
 11
77.49997401237488
 21
560.0000074505806
 31
0.0
  0
LINE
  5
12920
330
128ED
100
AcDbEntity
  8
02製品
  6
Continuous
100
AcDbLine
 10
901.4999639987946
 20
520.0000074505806
 30
0.0
 11
101.4999701976776
 21
520.0000074505806
 31
0.0
  0
LINE
  5
12921
330
128ED
100
AcDbEntity
  8
02製品
100
AcDbLine
 10
921.4999639987946
 20
140.0
 30
0.0
 11
972.1212843423564
 21
140.0000000000018
 31
0.0
  0
LINE
  5
12922
330
128ED
100
AcDbEntity
  8
02製品
  6
Continuous
100
AcDbLine
 10
972.1212843423564
 20
0.0
 30
0.0
 11
1002.999963998795
 21
0.0
 31
0.0
  0
LINE
  5
12923
330
128ED
100
AcDbEntity
  8
02製品
  6
Continuous
100
AcDbLine
 10
1002.999963998795
 20
60.0
 30
0.0
 11
1002.999963998795
 21
0.0
 31
0.0
  0
LINE
  5
12924
330
128ED
100
AcDbEntity
  8
02製品
  6
CENTERX2
100
AcDbLine
 10
982.7321970458288
 20
13.40000000000327
 30
0.0
 11
991.3283911235412
 21
13.40000000000327
 31
0.0
  0
LWPOLYLINE
  5
12925
330
128ED
100
AcDbEntity
  8
02製品
  6
Continuous
100
AcDbPolyline
 90
       16
 70
   128
 43
0.0
 10
988.267730951764
 20
9.899999999999636
 10
988.782286134392
 20
9.976483397431366
 10
989.2743527864295
 20
10.20259089825049
 10
989.7224252339838
 20
10.56844051968801
 10
990.1069205610074
 20
11.05804287774481
 10
990.4110344766996
 20
11.64999999999964
 10
990.6214757436355
 20
12.31844051968801
 10
990.7290470686494
 20
13.03415037856212
 10
990.7290470686494
 20
13.76584962143716
 10
990.6214757436355
 20
14.48155948031308
 10
990.4110344766996
 20
15.14999999999964
 10
990.1069205610074
 20
15.74195712225628
 10
989.7224252339838
 20
16.23155948031308
 10
989.2743527864295
 20
16.59740910174878
 10
988.782286134392
 20
16.82351660256791
 10
988.267730951764
 20
16.89999999999964
  0
LINE
  5
12926
330
128ED
100
AcDbEntity
  8
02製品
  6
Continuous
100
AcDbLine
 10
987.9804455611484
 20
16.89999999999964
 30
0.0
 11
987.1408027800026
 21
16.89999999999964
 31
0.0
  0
LINE
  5
12927
330
128ED
100
AcDbEntity
  8
02製品
  6
Continuous
100
AcDbLine
 10
987.9804455611884
 20
9.899999999999636
 30
0.0
 11
987.1408027799589
 21
9.899999999999636
 31
0.0
  0
LINE
  5
12928
330
128ED
100
AcDbEntity
  8
02製品
  6
Continuous
100
AcDbLine
 10
987.1408027799625
 20
9.899999999999636
 30
0.0
 11
985.7928572176097
 21
9.899999999999636
 31
0.0
  0
LWPOLYLINE
  5
12929
330
128ED
100
AcDbEntity
  8
02製品
  6
Continuous
100
AcDbPolyline
 90
       16
 70
   128
 43
0.0
 10
985.7928572176097
 20
16.89999999999964
 10
985.2783020349816
 20
16.82351660256791
 10
984.7862353829441
 20
16.59740910174878
 10
984.3381629353898
 20
16.23155948031308
 10
983.9536676083626
 20
15.74195712225628
 10
983.6495536926741
 20
15.14999999999964
 10
983.4391124257345
 20
14.48155948031308
 10
983.3315411007243
 20
13.76584962143716
 10
983.3315411007243
 20
13.03415037856212
 10
983.4391124257345
 20
12.31844051968801
 10
983.6495536926741
 20
11.64999999999964
 10
983.9536676083626
 20
11.05804287774481
 10
984.3381629353898
 20
10.56844051968801
 10
984.7862353829441
 20
10.20259089825049
 10
985.2783020349816
 20
9.976483397431366
 10
985.7928572176097
 20
9.899999999999636
  0
LINE
  5
1292A
330
128ED
100
AcDbEntity
  8
02製品
  6
Continuous
100
AcDbLine
 10
987.1408027800026
 20
16.89999999999964
 30
0.0
 11
985.7928572176097
 21
16.89999999999964
 31
0.0
  0
ARC
  5
1292B
330
128ED
100
AcDbEntity
  8
02製品
  6
Continuous
100
AcDbCircle
 10
987.5606241705755
 20
15.16041298585151
 30
0.0
 40
1.789528703254752
100
AcDbArc
 50
76.43202197232107
 51
103.5679780276789
  0
LINE
  5
1292C
330
128ED
100
AcDbEntity
  8
02製品
  6
Continuous
100
AcDbLine
 10
989.3283911235412
 20
16.89999999999964
 30
0.0
 11
987.9804455611484
 21
16.89999999999964
 31
0.0
  0
LWPOLYLINE
  5
1292D
330
128ED
100
AcDbEntity
  8
02製品
  6
Continuous
100
AcDbPolyline
 90
       16
 70
   128
 43
0.0
 10
989.3283911235412
 20
9.899999999999636
 10
989.8429463061693
 20
9.976483397431366
 10
990.3350129582068
 20
10.20259089825049
 10
990.7830854057647
 20
10.56844051968801
 10
991.1675807327883
 20
11.05804287774481
 10
991.4716946484768
 20
11.64999999999964
 10
991.6821359154164
 20
12.31844051968801
 10
991.7897072404303
 20
13.03415037856212
 10
991.7897072404303
 20
13.76584962143716
 10
991.6821359154164
 20
14.48155948031308
 10
991.4716946484768
 20
15.14999999999964
 10
991.1675807327883
 20
15.74195712225628
 10
990.7830854057647
 20
16.23155948031308
 10
990.3350129582068
 20
16.59740910174878
 10
989.8429463061693
 20
16.82351660256791
 10
989.3283911235412
 20
16.89999999999964
  0
LINE
  5
1292E
330
128ED
100
AcDbEntity
  8
02製品
  6
Continuous
100
AcDbLine
 10
989.3283911235412
 20
9.899999999999636
 30
0.0
 11
987.9804455611884
 21
9.899999999999636
 31
0.0
  0
ARC
  5
1292F
330
128ED
100
AcDbEntity
  8
02製品
  6
Continuous
100
AcDbCircle
 10
987.5606241705755
 20
11.63958701414049
 30
0.0
 40
1.789528703259284
100
AcDbArc
 50
256.4320219709182
 51
283.5679780289619
  0
LWPOLYLINE
  5
12930
330
128ED
100
AcDbEntity
  8
02製品
  6
Continuous
100
AcDbPolyline
 90
       16
 70
   128
 43
0.0
 10
988.267730951764
 20
39.89999999999964
 10
988.782286134392
 20
39.97648339743137
 10
989.2743527864295
 20
40.20259089825049
 10
989.7224252339838
 20
40.56844051968801
 10
990.1069205610074
 20
41.05804287774481
 10
990.4110344766996
 20
41.64999999999964
 10
990.6214757436355
 20
42.31844051968801
 10
990.7290470686494
 20
43.03415037856212
 10
990.7290470686494
 20
43.76584962143716
 10
990.6214757436355
 20
44.48155948031308
 10
990.4110344766996
 20
45.14999999999964
 10
990.1069205610074
 20
45.74195712225628
 10
989.7224252339838
 20
46.23155948031308
 10
989.2743527864295
 20
46.59740910174878
 10
988.782286134392
 20
46.82351660256791
 10
988.267730951764
 20
46.89999999999964
  0
LWPOLYLINE
  5
12931
330
128ED
100
AcDbEntity
  8
02製品
  6
Continuous
100
AcDbPolyline
 90
       16
 70
   128
 43
0.0
 10
989.3283911235412
 20
39.89999999999964
 10
989.8429463061693
 20
39.97648339743137
 10
990.3350129582068
 20
40.20259089825049
 10
990.7830854057647
 20
40.56844051968801
 10
991.1675807327883
 20
41.05804287774481
 10
991.4716946484768
 20
41.64999999999964
 10
991.6821359154164
 20
42.31844051968801
 10
991.7897072404303
 20
43.03415037856212
 10
991.7897072404303
 20
43.76584962143716
 10
991.6821359154164
 20
44.48155948031308
 10
991.4716946484768
 20
45.14999999999964
 10
991.1675807327883
 20
45.74195712225628
 10
990.7830854057647
 20
46.23155948031308
 10
990.3350129582068
 20
46.59740910174878
 10
989.8429463061693
 20
46.82351660256791
 10
989.3283911235412
 20
46.89999999999964
  0
LWPOLYLINE
  5
12932
330
128ED
100
AcDbEntity
  8
02製品
  6
Continuous
100
AcDbPolyline
 90
       16
 70
   128
 43
0.0
 10
985.7928572176097
 20
46.89999999999964
 10
985.2783020349816
 20
46.82351660256791
 10
984.7862353829441
 20
46.59740910174878
 10
984.3381629353898
 20
46.23155948031308
 10
983.9536676083626
 20
45.74195712225628
 10
983.6495536926741
 20
45.14999999999964
 10
983.4391124257345
 20
44.48155948031308
 10
983.3315411007243
 20
43.76584962143716
 10
983.3315411007243
 20
43.03415037856212
 10
983.4391124257345
 20
42.31844051968801
 10
983.6495536926741
 20
41.64999999999964
 10
983.9536676083626
 20
41.05804287774481
 10
984.3381629353898
 20
40.56844051968801
 10
984.7862353829441
 20
40.20259089825049
 10
985.2783020349816
 20
39.97648339743137
 10
985.7928572176097
 20
39.89999999999964
  0
LINE
  5
12933
330
128ED
100
AcDbEntity
  8
02製品
  6
CENTERX2
100
AcDbLine
 10
982.7321970458288
 20
43.40000000000327
 30
0.0
 11
991.3283911235412
 21
43.40000000000327
 31
0.0
  0
LINE
  5
12934
330
128ED
100
AcDbEntity
  8
02製品
  6
Continuous
100
AcDbLine
 10
987.9804455611884
 20
39.89999999999964
 30
0.0
 11
987.1408027799625
 21
39.89999999999964
 31
0.0
  0
LINE
  5
12935
330
128ED
100
AcDbEntity
  8
02製品
  6
Continuous
100
AcDbLine
 10
989.3283911235412
 20
39.89999999999964
 30
0.0
 11
987.9804455611884
 21
39.89999999999964
 31
0.0
  0
ARC
  5
12936
330
128ED
100
AcDbEntity
  8
02製品
  6
Continuous
100
AcDbCircle
 10
987.5606241705755
 20
41.63958701414231
 30
0.0
 40
1.789528703260913
100
AcDbArc
 50
256.4320219710507
 51
283.5679780290691
  0
LINE
  5
12937
330
128ED
100
AcDbEntity
  8
02製品
  6
Continuous
100
AcDbLine
 10
987.1408027799589
 20
39.89999999999964
 30
0.0
 11
985.7928572176097
 21
39.89999999999964
 31
0.0
  0
LINE
  5
12938
330
128ED
100
AcDbEntity
  8
02製品
  6
Continuous
100
AcDbLine
 10
987.9804455611484
 20
46.89999999999964
 30
0.0
 11
987.1408027800026
 21
46.89999999999964
 31
0.0
  0
LINE
  5
12939
330
128ED
100
AcDbEntity
  8
02製品
  6
Continuous
100
AcDbLine
 10
987.1408027800026
 20
46.89999999999964
 30
0.0
 11
985.7928572176097
 21
46.89999999999964
 31
0.0
  0
ARC
  5
1293A
330
128ED
100
AcDbEntity
  8
02製品
  6
Continuous
100
AcDbCircle
 10
987.5606241705755
 20
45.16041298584969
 30
0.0
 40
1.789528703256606
100
AcDbArc
 50
76.43202197233538
 51
103.5679780276646
  0
LINE
  5
1293B
330
128ED
100
AcDbEntity
  8
02製品
  6
Continuous
100
AcDbLine
 10
989.3283911235412
 20
46.89999999999964
 30
0.0
 11
987.9804455611484
 21
46.89999999999964
 31
0.0
  0
LINE
  5
1293C
330
128ED
100
AcDbEntity
  8
02製品
  6
Continuous
100
AcDbLine
 10
972.1212843423564
 20
140.0000000000018
 30
0.0
 11
972.1212843423564
 21
0.0
 31
0.0
  0
LINE
  5
1293D
330
128ED
100
AcDbEntity
  8
02製品
  6
Continuous
100
AcDbLine
 10
921.4999639987946
 20
140.0
 30
0.0
 11
921.4999639987982
 21
0.0
 31
0.0
  0
LINE
  5
1293E
330
128ED
100
AcDbEntity
  8
02製品
  6
Continuous
100
AcDbLine
 10
921.4999639987982
 20
0.0
 30
0.0
 11
972.1212843423564
 21
0.0
 31
0.0
  0
INSERT
  5
1293F
330
128ED
100
AcDbEntity
  8
02製品
  6
Continuous
100
AcDbBlockReference
  2
SW_CENTERMARKSYMBOL_8
 10
957.9999639987982
 20
13.399999999996
 30
0.0
 50
90.0
  0
LINE
  5
1294B
330
128ED
100
AcDbEntity
  8
02製品
  6
Continuous
100
AcDbLine
 10
957.4062468944176
 20
9.899999999999636
 30
0.0
 11
955.4999639987982
 21
9.899999999999636
 31
0.0
  0
ARC
  5
1294C
330
128ED
100
AcDbEntity
  8
02製品
  6
Continuous
100
AcDbCircle
 10
955.4999639987982
 20
13.39999999999964
 30
0.0
 40
3.5
100
AcDbArc
 50
90.0
 51
270.0
  0
LINE
  5
1294D
330
128ED
100
AcDbEntity
  8
02製品
  6
Continuous
100
AcDbLine
 10
957.4062468944758
 20
16.89999999999964
 30
0.0
 11
955.4999639987982
 21
16.89999999999964
 31
0.0
  0
ARC
  5
1294E
330
128ED
100
AcDbEntity
  8
02製品
  6
Continuous
100
AcDbCircle
 10
957.9999639987982
 20
13.39999999999418
 30
0.0
 40
3.55000000000005
100
AcDbArc
 50
80.37236731782643
 51
99.62763268211404
  0
LINE
  5
1294F
330
128ED
100
AcDbEntity
  8
02製品
  6
Continuous
100
AcDbLine
 10
960.4999639987982
 20
16.89999999999964
 30
0.0
 11
958.5936811031206
 21
16.89999999999964
 31
0.0
  0
ARC
  5
12950
330
128ED
100
AcDbEntity
  8
02製品
  6
Continuous
100
AcDbCircle
 10
960.4999639987982
 20
13.39999999999964
 30
0.0
 40
3.5
100
AcDbArc
 50
270.0
 51
90.0
  0
LINE
  5
12951
330
128ED
100
AcDbEntity
  8
02製品
  6
Continuous
100
AcDbLine
 10
960.4999639987982
 20
9.899999999999636
 30
0.0
 11
958.5936811031788
 21
9.899999999999636
 31
0.0
  0
ARC
  5
12952
330
128ED
100
AcDbEntity
  8
02製品
  6
Continuous
100
AcDbCircle
 10
957.9999639987982
 20
13.39999999999418
 30
0.0
 40
3.54999999999995
100
AcDbArc
 50
260.3723673168733
 51
279.6276326831267
  0
ARC
  5
12953
330
128ED
100
AcDbEntity
  8
02製品
  6
Continuous
100
AcDbCircle
 10
932.9999639987982
 20
48.99999999999818
 30
0.0
 40
3.5
100
AcDbArc
 50
90.0
 51
270.0
  0
INSERT
  5
12954
330
128ED
100
AcDbEntity
  8
02製品
  6
Continuous
100
AcDbBlockReference
  2
SW_CENTERMARKSYMBOL_9
 10
938.4999639987982
 20
49.00000000000182
 30
0.0
 50
90.0
  0
LINE
  5
12960
330
128ED
100
AcDbEntity
  8
02製品
  6
Continuous
100
AcDbLine
 10
937.9062468944467
 20
45.49999999999818
 30
0.0
 11
932.9999639987982
 21
45.49999999999818
 31
0.0
  0
LINE
  5
12961
330
128ED
100
AcDbEntity
  8
02製品
  6
Continuous
100
AcDbLine
 10
937.906246894443
 20
52.49999999999818
 30
0.0
 11
932.9999639987946
 21
52.49999999999818
 31
0.0
  0
ARC
  5
12962
330
128ED
100
AcDbEntity
  8
02製品
  6
Continuous
100
AcDbCircle
 10
938.4999639987982
 20
48.99999999999818
 30
0.0
 40
3.550000000000269
100
AcDbArc
 50
80.37236731735062
 51
99.62763268264939
  0
LINE
  5
12963
330
128ED
100
AcDbEntity
  8
02製品
  6
Continuous
100
AcDbLine
 10
943.9999639987982
 20
52.5
 30
0.0
 11
939.0936811031461
 21
52.49999999999818
 31
0.0
  0
ARC
  5
12964
330
128ED
100
AcDbEntity
  8
02製品
  6
Continuous
100
AcDbCircle
 10
943.9999639987982
 20
49.0
 30
0.0
 40
3.500000000000028
100
AcDbArc
 50
270.0
 51
90.0
  0
LINE
  5
12965
330
128ED
100
AcDbEntity
  8
02製品
  6
Continuous
100
AcDbLine
 10
943.9999639987982
 20
45.5
 30
0.0
 11
939.0936811031497
 21
45.49999999999818
 31
0.0
  0
ARC
  5
12966
330
128ED
100
AcDbEntity
  8
02製品
  6
Continuous
100
AcDbCircle
 10
938.4999639987982
 20
48.99999999999818
 30
0.0
 40
3.549999999999969
100
AcDbArc
 50
260.3723673173498
 51
279.6276326826502
  0
LINE
  5
12967
330
128ED
100
AcDbEntity
  8
02製品
  6
CENTERX2
100
AcDbLine
 10
20.2677669529694
 20
43.40000000000146
 30
0.0
 11
11.67157287525697
 21
43.40000000000146
 31
0.0
  0
LINE
  5
12968
330
128ED
100
AcDbEntity
  8
02製品
  6
CENTERX2
100
AcDbLine
 10
20.2677669529694
 20
13.40000000000146
 30
0.0
 11
11.67157287525697
 21
13.40000000000146
 31
0.0
  0
LINE
  5
12969
330
128ED
100
AcDbEntity
  8
02製品
100
AcDbLine
 10
30.87867965644182
 20
140.0000000000018
 30
0.0
 11
81.50000000000364
 21
140.0000000000018
 31
0.0
  0
LINE
  5
1296A
330
128ED
100
AcDbEntity
  8
02製品
  6
Continuous
100
AcDbLine
 10
0.0
 20
0.000000000001819
 30
0.0
 11
30.87867965644182
 21
0.000000000001819
 31
0.0
  0
LWPOLYLINE
  5
1296B
330
128ED
100
AcDbEntity
  8
02製品
  6
Continuous
100
AcDbPolyline
 90
       16
 70
   128
 43
0.0
 10
17.20710678118849
 20
39.90000000000146
 10
17.72166196381659
 20
39.97648339743319
 10
18.21372861585405
 20
40.20259089825231
 10
18.66180106340835
 20
40.56844051968983
 10
19.0462963904356
 20
41.05804287774663
 10
19.3504103061241
 20
41.65000000000146
 10
19.5608515730637
 20
42.31844051968983
 10
19.66842289807391
 20
43.03415037856576
 10
19.66842289807391
 20
43.76584962143897
 10
19.5608515730637
 20
44.4815594803149
 10
19.3504103061241
 20
45.15000000000146
 10
19.0462963904356
 20
45.7419571222581
 10
18.66180106340835
 20
46.2315594803149
 10
18.21372861585405
 20
46.5974091017506
 10
17.72166196381659
 20
46.82351660256973
 10
17.20710678118849
 20
46.90000000000146
  0
LWPOLYLINE
  5
1296C
330
128ED
100
AcDbEntity
  8
02製品
  6
Continuous
100
AcDbPolyline
 90
       16
 70
   128
 43
0.0
 10
17.20710678118849
 20
9.900000000001455
 10
17.72166196381659
 20
9.976483397433185
 10
18.21372861585405
 20
10.20259089825231
 10
18.66180106340835
 20
10.56844051968983
 10
19.0462963904356
 20
11.05804287774663
 10
19.3504103061241
 20
11.65000000000146
 10
19.5608515730637
 20
12.31844051968983
 10
19.66842289807391
 20
13.03415037856576
 10
19.66842289807391
 20
13.76584962143897
 10
19.5608515730637
 20
14.4815594803149
 10
19.3504103061241
 20
15.15000000000146
 10
19.0462963904356
 20
15.7419571222581
 10
18.66180106340835
 20
16.2315594803149
 10
18.21372861585405
 20
16.5974091017506
 10
17.72166196381659
 20
16.82351660256973
 10
17.20710678118849
 20
16.90000000000146
  0
LINE
  5
1296D
330
128ED
100
AcDbEntity
  8
02製品
  6
Continuous
100
AcDbLine
 10
0.0
 20
60.00000000000182
 30
0.0
 11
0.0
 21
0.000000000001819
 31
0.0
  0
LWPOLYLINE
  5
1296E
330
128ED
100
AcDbEntity
  8
02製品
  6
Continuous
100
AcDbPolyline
 90
       16
 70
   128
 43
0.0
 10
14.73223304703424
 20
16.90000000000146
 10
14.21767786440614
 20
16.82351660256973
 10
13.72561121236868
 20
16.5974091017506
 10
13.27753876481438
 20
16.2315594803149
 10
12.89304343779077
 20
15.7419571222581
 10
12.58892952209862
 20
15.15000000000146
 10
12.37848825516267
 20
14.4815594803149
 10
12.27091693014881
 20
13.76584962143897
 10
12.27091693014881
 20
13.03415037856576
 10
12.37848825516267
 20
12.31844051968983
 10
12.58892952209862
 20
11.65000000000146
 10
12.89304343779077
 20
11.05804287774663
 10
13.27753876481438
 20
10.56844051968983
 10
13.72561121236868
 20
10.20259089825231
 10
14.21767786440614
 20
9.976483397433185
 10
14.73223304703424
 20
9.900000000001455
  0
LINE
  5
1296F
330
128ED
100
AcDbEntity
  8
02製品
  6
Continuous
100
AcDbLine
 10
15.859161218792
 20
16.90000000000146
 30
0.0
 11
15.01951843764618
 21
16.90000000000146
 31
0.0
  0
LINE
  5
12970
330
128ED
100
AcDbEntity
  8
02製品
  6
Continuous
100
AcDbLine
 10
15.85916121883565
 20
9.900000000001455
 30
0.0
 11
15.01951843760617
 21
9.900000000001455
 31
0.0
  0
LINE
  5
12971
330
128ED
100
AcDbEntity
  8
02製品
  6
Continuous
100
AcDbLine
 10
15.01951843760617
 20
9.900000000001455
 30
0.0
 11
13.67157287525697
 21
9.900000000001455
 31
0.0
  0
LWPOLYLINE
  5
12972
330
128ED
100
AcDbEntity
  8
02製品
  6
Continuous
100
AcDbPolyline
 90
       16
 70
   128
 43
0.0
 10
13.67157287525697
 20
16.90000000000146
 10
13.15701769262887
 20
16.82351660256973
 10
12.6649510405914
 20
16.5974091017506
 10
12.21687859303347
 20
16.2315594803149
 10
11.83238326600986
 20
15.7419571222581
 10
11.52826935032135
 20
15.15000000000146
 10
11.31782808338176
 20
14.4815594803149
 10
11.2102567583679
 20
13.76584962143897
 10
11.2102567583679
 20
13.03415037856576
 10
11.31782808338176
 20
12.31844051968983
 10
11.52826935032135
 20
11.65000000000146
 10
11.83238326600986
 20
11.05804287774663
 10
12.21687859303347
 20
10.56844051968983
 10
12.6649510405914
 20
10.20259089825231
 10
13.15701769262887
 20
9.976483397433185
 10
13.67157287525697
 20
9.900000000001455
  0
LINE
  5
12973
330
128ED
100
AcDbEntity
  8
02製品
  6
Continuous
100
AcDbLine
 10
15.01951843764618
 20
16.90000000000146
 30
0.0
 11
13.67157287525697
 21
16.90000000000146
 31
0.0
  0
ARC
  5
12974
330
128ED
100
AcDbEntity
  8
02製品
  6
Continuous
100
AcDbCircle
 10
15.43933982821909
 20
15.16041298585696
 30
0.0
 40
1.789528703251949
100
AcDbArc
 50
76.43202197229951
 51
103.5679780277005
  0
LINE
  5
12975
330
128ED
100
AcDbEntity
  8
02製品
  6
Continuous
100
AcDbLine
 10
17.20710678118849
 20
16.90000000000146
 30
0.0
 11
15.859161218792
 21
16.90000000000146
 31
0.0
  0
LINE
  5
12976
330
128ED
100
AcDbEntity
  8
02製品
  6
Continuous
100
AcDbLine
 10
17.20710678118849
 20
9.900000000001455
 30
0.0
 11
15.85916121883565
 21
9.900000000001455
 31
0.0
  0
ARC
  5
12977
330
128ED
100
AcDbEntity
  8
02製品
  6
Continuous
100
AcDbCircle
 10
15.43933982821909
 20
11.63958701414595
 30
0.0
 40
1.789528703261202
100
AcDbArc
 50
256.4320219711728
 51
283.5679780290668
  0
LWPOLYLINE
  5
12978
330
128ED
100
AcDbEntity
  8
02製品
  6
Continuous
100
AcDbPolyline
 90
       16
 70
   128
 43
0.0
 10
14.73223304703424
 20
46.90000000000146
 10
14.21767786440614
 20
46.82351660256973
 10
13.72561121236868
 20
46.5974091017506
 10
13.27753876481438
 20
46.2315594803149
 10
12.89304343779077
 20
45.7419571222581
 10
12.58892952209862
 20
45.15000000000146
 10
12.37848825516267
 20
44.4815594803149
 10
12.27091693014881
 20
43.76584962143897
 10
12.27091693014881
 20
43.03415037856576
 10
12.37848825516267
 20
42.31844051968983
 10
12.58892952209862
 20
41.65000000000146
 10
12.89304343779077
 20
41.05804287774663
 10
13.27753876481438
 20
40.56844051968983
 10
13.72561121236868
 20
40.20259089825231
 10
14.21767786440614
 20
39.97648339743319
 10
14.73223304703424
 20
39.90000000000146
  0
LINE
  5
12979
330
128ED
100
AcDbEntity
  8
02製品
  6
Continuous
100
AcDbLine
 10
15.859161218792
 20
46.90000000000146
 30
0.0
 11
15.01951843764618
 21
46.90000000000146
 31
0.0
  0
LINE
  5
1297A
330
128ED
100
AcDbEntity
  8
02製品
  6
Continuous
100
AcDbLine
 10
15.85916121883565
 20
39.90000000000146
 30
0.0
 11
15.01951843760617
 21
39.90000000000146
 31
0.0
  0
LINE
  5
1297B
330
128ED
100
AcDbEntity
  8
02製品
  6
Continuous
100
AcDbLine
 10
15.01951843764618
 20
46.90000000000146
 30
0.0
 11
13.67157287525697
 21
46.90000000000146
 31
0.0
  0
ARC
  5
1297C
330
128ED
100
AcDbEntity
  8
02製品
  6
Continuous
100
AcDbCircle
 10
15.43933982821909
 20
45.16041298585151
 30
0.0
 40
1.789528703257061
100
AcDbArc
 50
76.43202197233911
 51
103.5679780275413
  0
LINE
  5
1297D
330
128ED
100
AcDbEntity
  8
02製品
  6
Continuous
100
AcDbLine
 10
17.20710678118849
 20
46.90000000000146
 30
0.0
 11
15.859161218792
 21
46.90000000000146
 31
0.0
  0
LINE
  5
1297E
330
128ED
100
AcDbEntity
  8
02製品
  6
Continuous
100
AcDbLine
 10
17.20710678118849
 20
39.90000000000146
 30
0.0
 11
15.85916121883565
 21
39.90000000000146
 31
0.0
  0
ARC
  5
1297F
330
128ED
100
AcDbEntity
  8
02製品
  6
Continuous
100
AcDbCircle
 10
15.43933982821909
 20
41.63958701414413
 30
0.0
 40
1.789528703259063
100
AcDbArc
 50
256.4320219710365
 51
283.5679780292032
  0
LINE
  5
12980
330
128ED
100
AcDbEntity
  8
02製品
  6
Continuous
100
AcDbLine
 10
15.01951843760617
 20
39.90000000000146
 30
0.0
 11
13.67157287525697
 21
39.90000000000146
 31
0.0
  0
LWPOLYLINE
  5
12981
330
128ED
100
AcDbEntity
  8
02製品
  6
Continuous
100
AcDbPolyline
 90
       16
 70
   128
 43
0.0
 10
13.67157287525697
 20
46.90000000000146
 10
13.15701769262887
 20
46.82351660256973
 10
12.6649510405914
 20
46.5974091017506
 10
12.21687859303347
 20
46.2315594803149
 10
11.83238326600986
 20
45.7419571222581
 10
11.52826935032135
 20
45.15000000000146
 10
11.31782808338176
 20
44.4815594803149
 10
11.2102567583679
 20
43.76584962143897
 10
11.2102567583679
 20
43.03415037856576
 10
11.31782808338176
 20
42.31844051968983
 10
11.52826935032135
 20
41.65000000000146
 10
11.83238326600986
 20
41.05804287774663
 10
12.21687859303347
 20
40.56844051968983
 10
12.6649510405914
 20
40.20259089825231
 10
13.15701769262887
 20
39.97648339743319
 10
13.67157287525697
 20
39.90000000000146
  0
LINE
  5
12982
330
128ED
100
AcDbEntity
  8
02製品
  6
Continuous
100
AcDbLine
 10
81.50000000000364
 20
140.0000000000018
 30
0.0
 11
81.50000000000364
 21
0.000000000001819
 31
0.0
  0
LINE
  5
12983
330
128ED
100
AcDbEntity
  8
02製品
  6
Continuous
100
AcDbLine
 10
30.87867965644182
 20
140.0000000000018
 30
0.0
 11
30.87867965644182
 21
0.000000000001819
 31
0.0
  0
LINE
  5
12984
330
128ED
100
AcDbEntity
  8
02製品
  6
Continuous
100
AcDbLine
 10
30.87867965644182
 20
0.000000000001819
 30
0.0
 11
81.50000000000364
 21
0.000000000001819
 31
0.0
  0
INSERT
  5
12985
330
128ED
100
AcDbEntity
  8
02製品
  6
Continuous
100
AcDbBlockReference
  2
SW_CENTERMARKSYMBOL_4
 10
44.99999999999272
 20
13.39999999999964
 30
0.0
 50
360.0
  0
ARC
  5
12991
330
128ED
100
AcDbEntity
  8
02製品
  6
Continuous
100
AcDbCircle
 10
42.5
 20
13.39999999999782
 30
0.0
 40
3.500000000000057
100
AcDbArc
 50
90.0
 51
270.0
  0
LINE
  5
12992
330
128ED
100
AcDbEntity
  8
02製品
  6
Continuous
100
AcDbLine
 10
44.40628289562301
 20
16.89999999999782
 30
0.0
 11
42.5
 21
16.89999999999782
 31
0.0
  0
ARC
  5
12993
330
128ED
100
AcDbEntity
  8
02製品
  6
Continuous
100
AcDbCircle
 10
44.99999999999636
 20
13.39999999999964
 30
0.0
 40
3.550000000000024
100
AcDbArc
 50
80.37236731705215
 51
99.62763268300738
  0
LINE
  5
12994
330
128ED
100
AcDbEntity
  8
02製品
  6
Continuous
100
AcDbLine
 10
47.5
 20
16.89999999999782
 30
0.0
 11
45.59371710436608
 21
16.89999999999782
 31
0.0
  0
ARC
  5
12995
330
128ED
100
AcDbEntity
  8
02製品
  6
Continuous
100
AcDbCircle
 10
47.5
 20
13.399999999996
 30
0.0
 40
3.500000000000782
100
AcDbArc
 50
270.0
 51
90.0
  0
LINE
  5
12996
330
128ED
100
AcDbEntity
  8
02製品
  6
Continuous
100
AcDbLine
 10
47.5
 20
9.899999999995998
 30
0.0
 11
45.59371710432606
 21
9.899999999995998
 31
0.0
  0
ARC
  5
12997
330
128ED
100
AcDbEntity
  8
02製品
  6
Continuous
100
AcDbCircle
 10
44.99999999999636
 20
13.39999999999964
 30
0.0
 40
3.550000000000718
100
AcDbArc
 50
260.3723673176495
 51
279.6276326822908
  0
LINE
  5
12998
330
128ED
100
AcDbEntity
  8
02製品
  6
Continuous
100
AcDbLine
 10
44.40628289566303
 20
9.899999999997817
 30
0.0
 11
42.5
 21
9.899999999997817
 31
0.0
  0
CIRCLE
  5
12999
330
128ED
100
AcDbEntity
  8
02製品
  6
Continuous
100
AcDbCircle
 10
51.5
 20
120.0000000000018
 30
0.0
 40
5.0
  0
INSERT
  5
1299A
330
128ED
100
AcDbEntity
  8
02製品
  6
Continuous
100
AcDbBlockReference
  2
SW_CENTERMARKSYMBOL_10
 10
51.5
 20
120.0000000000018
 30
0.0
 41
10.0
 42
10.0
 43
10.0
  0
CIRCLE
  5
129A6
330
128ED
100
AcDbEntity
  8
02製品
  6
Continuous
100
AcDbCircle
 10
51.5
 20
80.00000000000182
 30
0.0
 40
5.0
  0
INSERT
  5
129A7
330
128ED
100
AcDbEntity
  8
02製品
  6
Continuous
100
AcDbBlockReference
  2
SW_CENTERMARKSYMBOL_10
 10
51.5
 20
80.00000000000182
 30
0.0
 41
10.0
 42
10.0
 43
10.0
  0
CIRCLE
  5
129A8
330
128ED
100
AcDbEntity
  8
02製品
  6
Continuous
100
AcDbCircle
 10
951.4999639987982
 20
120.0000000000018
 30
0.0
 40
5.0
  0
INSERT
  5
129A9
330
128ED
100
AcDbEntity
  8
02製品
  6
Continuous
100
AcDbBlockReference
  2
SW_CENTERMARKSYMBOL_10
 10
951.4999639987982
 20
120.0000000000018
 30
0.0
 41
10.0
 42
10.0
 43
10.0
  0
CIRCLE
  5
129AA
330
128ED
100
AcDbEntity
  8
02製品
  6
Continuous
100
AcDbCircle
 10
951.4999639987982
 20
80.00000000000182
 30
0.0
 40
5.0
  0
INSERT
  5
129AB
330
128ED
100
AcDbEntity
  8
02製品
  6
Continuous
100
AcDbBlockReference
  2
SW_CENTERMARKSYMBOL_10
 10
951.4999639987982
 20
80.00000000000182
 30
0.0
 41
10.0
 42
10.0
 43
10.0
  0
LINE
  5
129AC
330
128ED
100
AcDbEntity
  8
02製品
100
AcDbLine
 10
50.75
 20
120.0000000000018
 30
0.0
 11
52.25
 21
120.0000000000018
 31
0.0
  0
LINE
  5
129AD
330
128ED
100
AcDbEntity
  8
02製品
100
AcDbLine
 10
51.5
 20
119.2500000000018
 30
0.0
 11
51.5
 21
120.7500000000018
 31
0.0
  0
LINE
  5
129AE
330
128ED
100
AcDbEntity
  8
02製品
  6
Continuous
100
AcDbLine
 10
0.0
 20
60.00000000000182
 30
0.0
 11
1.5
 21
60.00000000000182
 31
0.0
  0
LINE
  5
129AF
330
128ED
100
AcDbEntity
  8
02製品
100
AcDbLine
 10
30.87867965644182
 20
140.0000000000018
 30
0.0
 11
1.5
 21
60.00000000000182
 31
0.0
  0
LINE
  5
129B0
330
128ED
100
AcDbEntity
  8
02製品
  6
Continuous
100
AcDbLine
 10
1001.499963998795
 20
60.0
 30
0.0
 11
1002.999963998795
 21
60.0
 31
0.0
  0
LINE
  5
129B1
330
128ED
100
AcDbEntity
  8
02製品
100
AcDbLine
 10
972.1212843423564
 20
140.0000000000018
 30
0.0
 11
1001.499963998795
 21
60.0
 31
0.0
  0
LINE
  5
129B2
330
128ED
100
AcDbEntity
  8
02製品
100
AcDbLine
 10
971.4999639987946
 20
410.0000074505806
 30
0.0
 11
931.4999639987946
 21
410.0000074505806
 31
0.0
  0
LINE
  5
129B3
330
128ED
100
AcDbEntity
  8
02製品
100
AcDbLine
 10
901.4999639987946
 20
560.0000074505806
 30
0.0
 11
1001.499963998798
 21
560.0000074505806
 31
0.0
  0
LINE
  5
129B4
330
128ED
100
AcDbEntity
  8
02製品
100
AcDbLine
 10
951.4999639987946
 20
440.0000074505806
 30
0.0
 11
951.4999639987946
 21
420.0000074505806
 31
0.0
  0
CIRCLE
  5
129B5
330
128ED
100
AcDbEntity
  8
02製品
100
AcDbCircle
 10
951.4999639987946
 20
430.0000074505806
 30
0.0
 40
5.0
  0
LINE
  5
129B6
330
128ED
100
AcDbEntity
  8
02製品
100
AcDbLine
 10
961.4999639987946
 20
430.0000074505806
 30
0.0
 11
941.4999639987946
 21
430.0000074505806
 31
0.0
  0
LINE
  5
129B7
330
128ED
100
AcDbEntity
  8
02製品
100
AcDbLine
 10
926.4999639987946
 20
540.0000074505842
 30
0.0
 11
906.4999639987946
 21
540.0000074505842
 31
0.0
  0
CIRCLE
  5
129B8
330
128ED
100
AcDbEntity
  8
02製品
100
AcDbCircle
 10
916.4999639987946
 20
540.0000074505842
 30
0.0
 40
5.0
  0
LINE
  5
129B9
330
128ED
100
AcDbEntity
  8
02製品
100
AcDbLine
 10
916.4999639987946
 20
550.0000074505842
 30
0.0
 11
916.4999639987946
 21
530.0000074505842
 31
0.0
  0
LINE
  5
129BA
330
128ED
100
AcDbEntity
  8
02製品
100
AcDbLine
 10
951.4999639987946
 20
500.0000074505806
 30
0.0
 11
951.4999639987946
 21
480.0000074505806
 31
0.0
  0
CIRCLE
  5
129BB
330
128ED
100
AcDbEntity
  8
02製品
100
AcDbCircle
 10
951.4999639987946
 20
490.0000074505806
 30
0.0
 40
5.0
  0
LINE
  5
129BC
330
128ED
100
AcDbEntity
  8
02製品
100
AcDbLine
 10
961.4999639987946
 20
490.0000074505806
 30
0.0
 11
941.4999639987946
 21
490.0000074505806
 31
0.0
  0
CIRCLE
  5
129BD
330
128ED
100
AcDbEntity
  8
02製品
100
AcDbCircle
 10
916.4999639987946
 20
540.0000074505806
 30
0.0
 40
4.999999999999999
  0
LINE
  5
129BE
330
128ED
100
AcDbEntity
  8
02製品
100
AcDbLine
 10
916.4999639987946
 20
550.0000074505806
 30
0.0
 11
916.4999639987946
 21
530.0000074505806
 31
0.0
  0
LINE
  5
129BF
330
128ED
100
AcDbEntity
  8
02製品
100
AcDbLine
 10
901.4999639987946
 20
560.0000074505806
 30
0.0
 11
901.4999639987946
 21
520.0000074505806
 31
0.0
  0
LINE
  5
129C0
330
128ED
100
AcDbEntity
  8
02製品
100
AcDbLine
 10
941.4999639987946
 20
430.0000074505806
 30
0.0
 11
961.4999639987946
 21
430.0000074505806
 31
0.0
  0
LINE
  5
129C1
330
128ED
100
AcDbEntity
  8
02製品
100
AcDbLine
 10
951.4999639987946
 20
440.0000074505806
 30
0.0
 11
951.4999639987946
 21
420.0000074505806
 31
0.0
  0
CIRCLE
  5
129C2
330
128ED
100
AcDbEntity
  8
02製品
100
AcDbCircle
 10
951.4999639987946
 20
430.0000074505806
 30
0.0
 40
5.0
  0
LINE
  5
129C3
330
128ED
100
AcDbEntity
  8
02製品
100
AcDbLine
 10
951.4999639987946
 20
500.0000074505806
 30
0.0
 11
951.4999639987946
 21
480.0000074505806
 31
0.0
  0
CIRCLE
  5
129C4
330
128ED
100
AcDbEntity
  8
02製品
100
AcDbCircle
 10
951.4999639987946
 20
490.0000074505806
 30
0.0
 40
5.0
  0
LINE
  5
129C5
330
128ED
100
AcDbEntity
  8
02製品
100
AcDbLine
 10
941.4999639987946
 20
490.0000074505806
 30
0.0
 11
961.4999639987946
 21
490.0000074505806
 31
0.0
  0
LINE
  5
129C6
330
128ED
100
AcDbEntity
  8
02製品
100
AcDbLine
 10
906.4999639987946
 20
540.0000074505806
 30
0.0
 11
926.4999639987946
 21
540.0000074505806
 31
0.0
  0
LINE
  5
129C7
330
128ED
100
AcDbEntity
  8
02製品
100
AcDbLine
 10
986.4999639987982
 20
550.0000074505824
 30
0.0
 11
986.4999639987982
 21
530.0000074505824
 31
0.0
  0
LINE
  5
129C8
330
128ED
100
AcDbEntity
  8
02製品
100
AcDbLine
 10
996.4999639987982
 20
540.0000074505824
 30
0.0
 11
976.4999639987982
 21
540.0000074505824
 31
0.0
  0
CIRCLE
  5
129C9
330
128ED
100
AcDbEntity
  8
02製品
100
AcDbCircle
 10
986.4999639987982
 20
540.0000074505824
 30
0.0
 40
5.0
  0
LINE
  5
129CA
330
128ED
100
AcDbEntity
  8
02製品
100
AcDbLine
 10
1001.499963998798
 20
560.0000074505806
 30
0.0
 11
1001.499963998798
 21
520.0000074505806
 31
0.0
  0
LINE
  5
129CB
330
128ED
100
AcDbEntity
  8
02製品
100
AcDbLine
 10
986.4999639987982
 20
550.0000074505806
 30
0.0
 11
986.4999639987982
 21
530.0000074505806
 31
0.0
  0
CIRCLE
  5
129CC
330
128ED
100
AcDbEntity
  8
02製品
100
AcDbCircle
 10
986.4999639987982
 20
540.0000074505806
 30
0.0
 40
5.0
  0
LINE
  5
129CD
330
128ED
100
AcDbEntity
  8
02製品
100
AcDbLine
 10
1001.499963998798
 20
520.0000074505806
 30
0.0
 11
971.4999639987946
 21
410.0000074505806
 31
0.0
  0
LINE
  5
129CE
330
128ED
100
AcDbEntity
  8
02製品
100
AcDbLine
 10
976.4999639987982
 20
540.0000074505806
 30
0.0
 11
996.4999639987982
 21
540.0000074505806
 31
0.0
  0
LINE
  5
129CF
330
128ED
100
AcDbEntity
  8
02製品
100
AcDbLine
 10
901.4999639987946
 20
520.0000074505806
 30
0.0
 11
931.4999639987946
 21
410.0000074505806
 31
0.0
  0
LINE
  5
129D0
330
128ED
100
AcDbEntity
  8
02製品
100
AcDbLine
 10
71.49997019767761
 20
410.0000074505806
 30
0.0
 11
31.49997019767761
 21
410.0000074505806
 31
0.0
  0
LINE
  5
129D1
330
128ED
100
AcDbEntity
  8
02製品
100
AcDbLine
 10
1.499970197677612
 20
560.0000074505806
 30
0.0
 11
101.4999701976776
 21
560.0000074505806
 31
0.0
  0
LINE
  5
129D2
330
128ED
100
AcDbEntity
  8
02製品
100
AcDbLine
 10
51.49997019767761
 20
440.0000074505806
 30
0.0
 11
51.49997019767761
 21
420.0000074505806
 31
0.0
  0
CIRCLE
  5
129D3
330
128ED
100
AcDbEntity
  8
02製品
100
AcDbCircle
 10
51.49997019767761
 20
430.0000074505806
 30
0.0
 40
5.0
  0
LINE
  5
129D4
330
128ED
100
AcDbEntity
  8
02製品
100
AcDbLine
 10
61.49997019767761
 20
430.0000074505806
 30
0.0
 11
41.49997019767761
 21
430.0000074505806
 31
0.0
  0
LINE
  5
129D5
330
128ED
100
AcDbEntity
  8
02製品
100
AcDbLine
 10
26.49997019767761
 20
540.0000074505842
 30
0.0
 11
6.499970197677612
 21
540.0000074505842
 31
0.0
  0
CIRCLE
  5
129D6
330
128ED
100
AcDbEntity
  8
02製品
100
AcDbCircle
 10
16.49997019767761
 20
540.0000074505842
 30
0.0
 40
5.0
  0
LINE
  5
129D7
330
128ED
100
AcDbEntity
  8
02製品
100
AcDbLine
 10
16.49997019767761
 20
550.0000074505842
 30
0.0
 11
16.49997019767761
 21
530.0000074505842
 31
0.0
  0
LINE
  5
129D8
330
128ED
100
AcDbEntity
  8
02製品
100
AcDbLine
 10
51.49997019767761
 20
500.0000074505806
 30
0.0
 11
51.49997019767761
 21
480.0000074505806
 31
0.0
  0
CIRCLE
  5
129D9
330
128ED
100
AcDbEntity
  8
02製品
100
AcDbCircle
 10
51.49997019767761
 20
490.0000074505806
 30
0.0
 40
5.0
  0
LINE
  5
129DA
330
128ED
100
AcDbEntity
  8
02製品
100
AcDbLine
 10
61.49997019767761
 20
490.0000074505806
 30
0.0
 11
41.49997019767761
 21
490.0000074505806
 31
0.0
  0
CIRCLE
  5
129DB
330
128ED
100
AcDbEntity
  8
02製品
100
AcDbCircle
 10
16.49997019767761
 20
540.0000074505806
 30
0.0
 40
4.999999999999999
  0
LINE
  5
129DC
330
128ED
100
AcDbEntity
  8
02製品
100
AcDbLine
 10
16.49997019767761
 20
550.0000074505806
 30
0.0
 11
16.49997019767761
 21
530.0000074505806
 31
0.0
  0
LINE
  5
129DD
330
128ED
100
AcDbEntity
  8
02製品
100
AcDbLine
 10
1.499970197677612
 20
560.0000074505806
 30
0.0
 11
1.499970197677612
 21
520.0000074505806
 31
0.0
  0
LINE
  5
129DE
330
128ED
100
AcDbEntity
  8
02製品
100
AcDbLine
 10
31.49997019767761
 20
410.0000074505806
 30
0.0
 11
1.499970197677612
 21
520.0000074505806
 31
0.0
  0
LINE
  5
129DF
330
128ED
100
AcDbEntity
  8
02製品
100
AcDbLine
 10
41.49997019767761
 20
430.0000074505806
 30
0.0
 11
61.49997019767761
 21
430.0000074505806
 31
0.0
  0
LINE
  5
129E0
330
128ED
100
AcDbEntity
  8
02製品
100
AcDbLine
 10
51.49997019767761
 20
440.0000074505806
 30
0.0
 11
51.49997019767761
 21
420.0000074505806
 31
0.0
  0
CIRCLE
  5
129E1
330
128ED
100
AcDbEntity
  8
02製品
100
AcDbCircle
 10
51.49997019767761
 20
430.0000074505806
 30
0.0
 40
5.0
  0
LINE
  5
129E2
330
128ED
100
AcDbEntity
  8
02製品
100
AcDbLine
 10
51.49997019767761
 20
500.0000074505806
 30
0.0
 11
51.49997019767761
 21
480.0000074505806
 31
0.0
  0
CIRCLE
  5
129E3
330
128ED
100
AcDbEntity
  8
02製品
100
AcDbCircle
 10
51.49997019767761
 20
490.0000074505806
 30
0.0
 40
5.0
  0
LINE
  5
129E4
330
128ED
100
AcDbEntity
  8
02製品
100
AcDbLine
 10
41.49997019767761
 20
490.0000074505806
 30
0.0
 11
61.49997019767761
 21
490.0000074505806
 31
0.0
  0
LINE
  5
129E5
330
128ED
100
AcDbEntity
  8
02製品
100
AcDbLine
 10
6.499970197677612
 20
540.0000074505806
 30
0.0
 11
26.49997019767761
 21
540.0000074505806
 31
0.0
  0
LINE
  5
129E6
330
128ED
100
AcDbEntity
  8
02製品
100
AcDbLine
 10
86.49997019767761
 20
550.0000074505824
 30
0.0
 11
86.49997019767761
 21
530.0000074505824
 31
0.0
  0
LINE
  5
129E7
330
128ED
100
AcDbEntity
  8
02製品
100
AcDbLine
 10
96.49997019767761
 20
540.0000074505824
 30
0.0
 11
76.49997019767761
 21
540.0000074505824
 31
0.0
  0
CIRCLE
  5
129E8
330
128ED
100
AcDbEntity
  8
02製品
100
AcDbCircle
 10
86.49997019767761
 20
540.0000074505824
 30
0.0
 40
5.0
  0
LINE
  5
129E9
330
128ED
100
AcDbEntity
  8
02製品
100
AcDbLine
 10
101.4999701976776
 20
560.0000074505806
 30
0.0
 11
101.4999701976776
 21
520.0000074505806
 31
0.0
  0
LINE
  5
129EA
330
128ED
100
AcDbEntity
  8
02製品
100
AcDbLine
 10
86.49997019767761
 20
550.0000074505806
 30
0.0
 11
86.49997019767761
 21
530.0000074505806
 31
0.0
  0
CIRCLE
  5
129EB
330
128ED
100
AcDbEntity
  8
02製品
100
AcDbCircle
 10
86.49997019767761
 20
540.0000074505806
 30
0.0
 40
5.0
  0
LINE
  5
129EC
330
128ED
100
AcDbEntity
  8
02製品
100
AcDbLine
 10
76.49997019767761
 20
540.0000074505806
 30
0.0
 11
96.49997019767761
 21
540.0000074505806
 31
0.0
  0
LINE
  5
129ED
330
128ED
100
AcDbEntity
  8
02製品
  6
HIDDEN
100
AcDbLine
 10
1.499970197677612
 20
520.0000074133277
 30
0.0
 11
1.499970197677612
 21
560.0000074505806
 31
0.0
  0
LINE
  5
129EE
330
128ED
100
AcDbEntity
  8
02製品
100
AcDbLine
 10
71.49997019767761
 20
410.0000074505806
 30
0.0
 11
101.4999701976776
 21
520.0000074505806
 31
0.0
  0
ENDBLK
  5
129F0
330
128ED
100
AcDbEntity
  8
0
100
AcDbBlockEnd
  0
ENDSEC
  0
SECTION
  2
ENTITIES
  0
INSERT
  5
12760
330
1F
100
AcDbEntity
  8
02製品
100
AcDbBlockReference
  2
A$C1592
 10
3450.11172446072
 20
1089.645950142854
 30
0.0
  0
INSERT
  5
128EC
330
1F
100
AcDbEntity
  8
02製品
100
AcDbBlockReference
  2
A$C11744
 10
3450.111703003039
 20
76.22045891064454
 30
0.0
  0
INSERT
  5
129F1
330
1F
100
AcDbEntity
  8
02製品
100
AcDbBlockReference
  2
A$C20521
 10
4836.200943203115
 20
76.22045891064454
 30
0.0
  0
ENDSEC
  0
SECTION
  2
OBJECTS
  0
DICTIONARY
  5
C
330
0
100
AcDbDictionary
281
     1
  3
ACAD_DETAILVIEWSTYLE
350
F29E
  3
ACAD_GROUP
350
D
  3
ACAD_IMAGE_VARS
350
6A88
  3
ACAD_LAYOUT
350
1A
  3
ACAD_MLINESTYLE
350
17
  3
ACAD_PLOTSETTINGS
350
19
  3
ACAD_PLOTSTYLENAME
350
E
  3
ACAD_SCALELIST
350
6A4E
  3
ACAD_SECTIONVIEWSTYLE
350
F29F
  3
AcadDim
350
813A
  3
AcDbVariableDictionary
350
79E
  3
AEC_DISP_REPS
350
8259
  3
AEC_DISPLAY_PROPS_DEFAULTS
350
825B
  3
AEC_VARS
350
8257
  3
APPDATA
350
6A87
  3
DWGPROPS
350
12C04
  0
DICTIONARY
  5
7A6F
330
2
100
AcDbDictionary
280
     1
281
     1
  3
ACAD_LAYERFILTERS
360
A22F
  3
ACAD_LAYERSTATES
360
7A70
  3
ACLYDICTIONARY
360
DFAD
  0
DICTIONARY
  5
F29E
102
{ACAD_REACTORS
330
C
102
}
330
C
100
AcDbDictionary
281
     1
  0
DICTIONARY
  5
D
102
{ACAD_REACTORS
330
C
102
}
330
C
100
AcDbDictionary
281
     1
  0
RASTERVARIABLES
  5
6A88
102
{ACAD_REACTORS
330
C
102
}
330
C
100
AcDbRasterVariables
 90
        0
 70
     1
 71
     1
 72
     1
  0
DICTIONARY
  5
1A
102
{ACAD_REACTORS
330
C
102
}
330
C
100
AcDbDictionary
281
     1
  3
Layout1
350
1E
  3
Layout2
350
26
  3
Model
350
22
  0
DICTIONARY
  5
17
102
{ACAD_REACTORS
330
C
102
}
330
C
100
AcDbDictionary
281
     1
  3
Standard
350
18
  0
DICTIONARY
  5
19
102
{ACAD_REACTORS
330
C
102
}
330
C
100
AcDbDictionary
281
     1
  0
ACDBDICTIONARYWDFLT
  5
E
102
{ACAD_REACTORS
330
C
102
}
330
C
100
AcDbDictionary
281
     1
  3
Normal
350
F
100
AcDbDictionaryWithDefault
340
F
  0
DICTIONARY
  5
6A4E
102
{ACAD_REACTORS
330
C
102
}
330
C
100
AcDbDictionary
281
     1
  3
A0
350
6A4F
  3
A1
350
6A50
  3
A2
350
6A51
  3
A3
350
6A52
  3
A4
350
6A53
  3
A5
350
6A54
  3
A6
350
6A55
  3
A7
350
6A56
  3
A8
350
6A57
  3
A9
350
6A58
  3
B0
350
6A59
  3
B1
350
6A5A
  3
B2
350
6A5B
  3
B3
350
6A5C
  3
B4
350
6A5D
  3
B5
350
6A5E
  3
B6
350
6A5F
  3
B7
350
6A60
  3
B8
350
6A61
  3
B9
350
6A62
  3
C0
350
6A63
  3
C1
350
6A64
  3
C2
350
6A65
  3
C3
350
6A66
  3
C4
350
6A67
  3
C5
350
6A68
  3
C6
350
6A69
  3
C7
350
6A6A
  3
C8
350
6A6B
  3
C9
350
6A6C
  3
D0
350
6A6D
  3
D1
350
6A6E
  3
D2
350
6A6F
  0
DICTIONARY
  5
F29F
102
{ACAD_REACTORS
330
C
102
}
330
C
100
AcDbDictionary
281
     1
  0
XRECORD
  5
813A
102
{ACAD_REACTORS
330
C
102
}
330
C
100
AcDbXrecord
280
     1
340
0
 72
     0
 71
     0
 70
     0
 69
     0
 68
     1
 67
     3
 66
     0
 65
     0
 64
     0
 63
     3
 62
     1
 61
     0
 60
     0
 40
0.0
  0
DICTIONARY
  5
79E
102
{ACAD_REACTORS
330
C
102
}
330
C
100
AcDbDictionary
281
     1
  3
DIMASSOC
350
79F
  3
SORTENTS
350
264F
  0
DICTIONARY
  5
8259
102
{ACAD_REACTORS
330
C
102
}
330
C
100
AcDbDictionary
281
     1
  3
AecDbDispRep2dSection
350
825A
  3
AecDbDispRepAnchor
350
8294
  3
AecDbDispRepAnchorEntToNode
350
8295
  3
AecDbDispRepClipVolModel
350
8261
  3
AecDbDispRepClipVolPlan
350
8263
  3
AecDbDispRepClipVolResSubDiv
350
8266
  3
AecDbDispRepClipVolResult
350
8265
  3
AecDbDispRepDisplayTheme
350
8268
  3
AecDbDispRepEditInPlaceProfile
350
8299
  3
AecDbDispRepEntRef
350
826A
  3
AecDbDispRepLayoutCurve
350
826C
  3
AecDbDispRepLayoutGrid2d
350
826E
  3
AecDbDispRepLayoutGrid3d
350
8270
  3
AecDbDispRepMaskBlockRef
350
8272
  3
AecDbDispRepMaskBlockRefRcp
350
8274
  3
AecDbDispRepMassElemModel
350
8276
  3
AecDbDispRepMassElemPlan100
350
827C
  3
AecDbDispRepMassElemPlan50
350
827A
  3
AecDbDispRepMassElemRcp
350
827E
  3
AecDbDispRepMassElemSchem
350
8278
  3
AecDbDispRepMassGroupModel
350
8280
  3
AecDbDispRepMassGroupPlan
350
8282
  3
AecDbDispRepMassGroupPlan100
350
8286
  3
AecDbDispRepMassGroupPlan50
350
8284
  3
AecDbDispRepMassGroupRcp
350
8288
  3
AecDbDispRepMaterial
350
8297
  3
AecDbDispRepMvBlockRef
350
828A
  3
AecDbDispRepMvBlockRefModel
350
828B
  3
AecDbDispRepMvBlockRefPlan100
350
828C
  3
AecDbDispRepMvBlockRefPlan50
350
828D
  3
AecDbDispRepPolygonModel
350
828E
  3
AecDbDispRepPolygonTrueColour
350
8290
  3
AecDbDispRepSlice
350
8292
  0
DICTIONARY
  5
825B
102
{ACAD_REACTORS
330
C
102
}
330
C
100
AcDbDictionary
281
     1
  3
*A1
350
825C
  3
*A10
350
827D
  3
*A11
350
827F
  3
*A12
350
8296
  3
*A13
350
8281
  3
*A14
350
8285
  3
*A15
350
8262
  3
*A16
350
8287
  3
*A17
350
8289
  3
*A18
350
828F
  3
*A19
350
8291
  3
*A2
350
826D
  3
*A20
350
8293
  3
*A21
350
8298
  3
*A22
350
8273
  3
*A23
350
829A
  3
*A24
350
8264
  3
*A25
350
8267
  3
*A26
350
8269
  3
*A27
350
826B
  3
*A3
350
826F
  3
*A4
350
8283
  3
*A5
350
8271
  3
*A6
350
8275
  3
*A7
350
8277
  3
*A8
350
8279
  3
*A9
350
827B
  0
DICTIONARY
  5
8257
102
{ACAD_REACTORS
330
C
102
}
330
C
100
AcDbDictionary
281
     1
  3
AEC_VARS_DWG_SETUP
350
8258
  0
DICTIONARY
  5
6A87
102
{ACAD_REACTORS
330
C
102
}
330
C
100
AcDbDictionary
281
     1
  0
XRECORD
  5
12C04
102
{ACAD_REACTORS
330
C
102
}
330
C
100
AcDbXrecord
280
     1
  1
DWGPROPS COOKIE
  2

  3

  4

  6

  7

  8
Sales
  9

300
=
301
=
302
=
303
=
304
=
305
=
306
=
307
=
308
=
309
=
 40
0.0
 41
2455859.030048461
 42
2458968.229808576
  1

 90
        0
  0
DICTIONARY
  5
A22F
102
{ACAD_REACTORS
330
7A6F
102
}
330
7A6F
100
AcDbDictionary
280
     1
281
     1
  0
DICTIONARY
  5
7A70
102
{ACAD_REACTORS
330
7A6F
102
}
330
7A6F
100
AcDbDictionary
281
     1
  0
DICTIONARY
  5
DFAD
102
{ACAD_REACTORS
330
7A6F
102
}
330
7A6F
100
AcDbDictionary
281
     1
1001
ACAD
1000
<All
  0
LAYOUT
  5
1E
102
{ACAD_REACTORS
330
1A
102
}
330
1A
100
AcDbPlotSettings
  1

  2

  4

  6

 40
0.0
 41
0.0
 42
0.0
 43
0.0
 44
0.0
 45
0.0
 46
0.0
 47
0.0
 48
0.0
 49
0.0
140
0.0
141
0.0
142
1.0
143
1.0
 70
   688
 72
     0
 73
     0
 74
     5
  7
monochrome.ctb
 75
    16
147
1.0
148
0.0
149
0.0
100
AcDbLayout
  1
Layout1
 70
     1
 71
     1
 10
0.0
 20
0.0
 11
420.0
 21
297.0
 12
0.0
 22
0.0
 32
0.0
 14
1.000000000000000E+20
 24
1.000000000000000E+20
 34
1.000000000000000E+20
 15
-1.000000000000000E+20
 25
-1.000000000000000E+20
 35
-1.000000000000000E+20
146
0.0
 13
0.0
 23
0.0
 33
0.0
 16
1.0
 26
0.0
 36
0.0
 17
0.0
 27
1.0
 37
0.0
 76
     0
330
1B
  0
LAYOUT
  5
26
102
{ACAD_REACTORS
330
1A
102
}
330
1A
100
AcDbPlotSettings
  1

  2

  4

  6

 40
0.0
 41
0.0
 42
0.0
 43
0.0
 44
0.0
 45
0.0
 46
0.0
 47
0.0
 48
0.0
 49
0.0
140
0.0
141
0.0
142
1.0
143
1.0
 70
   688
 72
     0
 73
     0
 74
     5
  7
monochrome.ctb
 75
    16
147
1.0
148
0.0
149
0.0
100
AcDbLayout
  1
Layout2
 70
     1
 71
     2
 10
0.0
 20
0.0
 11
12.0
 21
9.0
 12
0.0
 22
0.0
 32
0.0
 14
0.0
 24
0.0
 34
0.0
 15
0.0
 25
0.0
 35
0.0
146
0.0
 13
0.0
 23
0.0
 33
0.0
 16
1.0
 26
0.0
 36
0.0
 17
0.0
 27
1.0
 37
0.0
 76
     0
330
23
  0
LAYOUT
  5
22
102
{ACAD_REACTORS
330
1A
102
}
330
1A
100
AcDbPlotSettings
  1

  2
none_device
  4
A3
  6

 40
3.174999952316284
 41
3.174999952316284
 42
3.17498779296875
 43
3.17498779296875
 44
297.0318298339844
 45
420.1583251953125
 46
-3.16
 47
-3.1
 48
-90.0
 49
-90.0
140
329.9999999999998
141
207.0
142
1.0
143
1.0
 70
 11940
 72
     1
 73
     1
 74
     4
  7
monochrome.ctb
 75
     0
147
1.0
148
90.0
149
90.0
100
AcDbLayout
  1
Model
 70
     1
 71
     0
 10
2868.813824592569
 20
-443.7331444327924
 11
7068.813824592569
 21
2526.266855567208
 12
0.0
 22
0.0
 32
0.0
 14
3450.111703003039
 24
76.22045891064454
 34
0.0
 15
5839.20090720191
 25
2092.64594394397
 35
0.0
146
0.0
 13
0.0
 23
0.0
 33
0.0
 16
1.0
 26
0.0
 36
0.0
 17
0.0
 27
1.0
 37
0.0
 76
     0
330
1F
331
A2A1
  0
MLINESTYLE
  5
18
102
{ACAD_REACTORS
330
17
102
}
330
17
100
AcDbMlineStyle
  2
STANDARD
 70
     0
  3

 62
   256
 51
90.0
 52
90.0
 71
     2
 49
0.5
 62
   256
  6
BYLAYER
 49
-0.5
 62
   256
  6
BYLAYER
  0
ACDBPLACEHOLDER
  5
F
102
{ACAD_REACTORS
330
E
102
}
330
E
  0
SCALE
  5
6A4F
102
{ACAD_REACTORS
330
6A4E
102
}
330
6A4E
100
AcDbScale
 70
     0
300
1:1
140
1.0
141
1.0
290
     1
  0
SCALE
  5
6A50
102
{ACAD_REACTORS
330
6A4E
102
}
330
6A4E
100
AcDbScale
 70
     0
300
1:2
140
1.0
141
2.0
290
     0
  0
SCALE
  5
6A51
102
{ACAD_REACTORS
330
6A4E
102
}
330
6A4E
100
AcDbScale
 70
     0
300
1:4
140
1.0
141
4.0
290
     0
  0
SCALE
  5
6A52
102
{ACAD_REACTORS
330
6A4E
102
}
330
6A4E
100
AcDbScale
 70
     0
300
1:5
140
1.0
141
5.0
290
     0
  0
SCALE
  5
6A53
102
{ACAD_REACTORS
330
6A4E
102
}
330
6A4E
100
AcDbScale
 70
     0
300
1:8
140
1.0
141
8.0
290
     0
  0
SCALE
  5
6A54
102
{ACAD_REACTORS
330
6A4E
102
}
330
6A4E
100
AcDbScale
 70
     0
300
1:10
140
1.0
141
10.0
290
     0
  0
SCALE
  5
6A55
102
{ACAD_REACTORS
330
6A4E
102
}
330
6A4E
100
AcDbScale
 70
     0
300
1:16
140
1.0
141
16.0
290
     0
  0
SCALE
  5
6A56
102
{ACAD_REACTORS
330
6A4E
102
}
330
6A4E
100
AcDbScale
 70
     0
300
1:20
140
1.0
141
20.0
290
     0
  0
SCALE
  5
6A57
102
{ACAD_REACTORS
330
6A4E
102
}
330
6A4E
100
AcDbScale
 70
     0
300
1:30
140
1.0
141
30.0
290
     0
  0
SCALE
  5
6A58
102
{ACAD_REACTORS
330
6A4E
102
}
330
6A4E
100
AcDbScale
 70
     0
300
1:40
140
1.0
141
40.0
290
     0
  0
SCALE
  5
6A59
102
{ACAD_REACTORS
330
6A4E
102
}
330
6A4E
100
AcDbScale
 70
     0
300
1:50
140
1.0
141
50.0
290
     0
  0
SCALE
  5
6A5A
102
{ACAD_REACTORS
330
6A4E
102
}
330
6A4E
100
AcDbScale
 70
     0
300
1:100
140
1.0
141
100.0
290
     0
  0
SCALE
  5
6A5B
102
{ACAD_REACTORS
330
6A4E
102
}
330
6A4E
100
AcDbScale
 70
     0
300
2:1
140
2.0
141
1.0
290
     0
  0
SCALE
  5
6A5C
102
{ACAD_REACTORS
330
6A4E
102
}
330
6A4E
100
AcDbScale
 70
     0
300
4:1
140
4.0
141
1.0
290
     0
  0
SCALE
  5
6A5D
102
{ACAD_REACTORS
330
6A4E
102
}
330
6A4E
100
AcDbScale
 70
     0
300
8:1
140
8.0
141
1.0
290
     0
  0
SCALE
  5
6A5E
102
{ACAD_REACTORS
330
6A4E
102
}
330
6A4E
100
AcDbScale
 70
     0
300
10:1
140
10.0
141
1.0
290
     0
  0
SCALE
  5
6A5F
102
{ACAD_REACTORS
330
6A4E
102
}
330
6A4E
100
AcDbScale
 70
     0
300
100:1
140
100.0
141
1.0
290
     0
  0
SCALE
  5
6A60
102
{ACAD_REACTORS
330
6A4E
102
}
330
6A4E
100
AcDbScale
 70
     0
300
1/128" = 1'-0"
140
0.0078125
141
12.0
290
     0
  0
SCALE
  5
6A61
102
{ACAD_REACTORS
330
6A4E
102
}
330
6A4E
100
AcDbScale
 70
     0
300
1/64" = 1'-0"
140
0.015625
141
12.0
290
     0
  0
SCALE
  5
6A62
102
{ACAD_REACTORS
330
6A4E
102
}
330
6A4E
100
AcDbScale
 70
     0
300
1/32" = 1'-0"
140
0.03125
141
12.0
290
     0
  0
SCALE
  5
6A63
102
{ACAD_REACTORS
330
6A4E
102
}
330
6A4E
100
AcDbScale
 70
     0
300
1/16" = 1'-0"
140
0.0625
141
12.0
290
     0
  0
SCALE
  5
6A64
102
{ACAD_REACTORS
330
6A4E
102
}
330
6A4E
100
AcDbScale
 70
     0
300
3/32" = 1'-0"
140
0.09375
141
12.0
290
     0
  0
SCALE
  5
6A65
102
{ACAD_REACTORS
330
6A4E
102
}
330
6A4E
100
AcDbScale
 70
     0
300
1/8" = 1'-0"
140
0.125
141
12.0
290
     0
  0
SCALE
  5
6A66
102
{ACAD_REACTORS
330
6A4E
102
}
330
6A4E
100
AcDbScale
 70
     0
300
3/16" = 1'-0"
140
0.1875
141
12.0
290
     0
  0
SCALE
  5
6A67
102
{ACAD_REACTORS
330
6A4E
102
}
330
6A4E
100
AcDbScale
 70
     0
300
1/4" = 1'-0"
140
0.25
141
12.0
290
     0
  0
SCALE
  5
6A68
102
{ACAD_REACTORS
330
6A4E
102
}
330
6A4E
100
AcDbScale
 70
     0
300
3/8" = 1'-0"
140
0.375
141
12.0
290
     0
  0
SCALE
  5
6A69
102
{ACAD_REACTORS
330
6A4E
102
}
330
6A4E
100
AcDbScale
 70
     0
300
1/2" = 1'-0"
140
0.5
141
12.0
290
     0
  0
SCALE
  5
6A6A
102
{ACAD_REACTORS
330
6A4E
102
}
330
6A4E
100
AcDbScale
 70
     0
300
3/4" = 1'-0"
140
0.75
141
12.0
290
     0
  0
SCALE
  5
6A6B
102
{ACAD_REACTORS
330
6A4E
102
}
330
6A4E
100
AcDbScale
 70
     0
300
1" = 1'-0"
140
1.0
141
12.0
290
     0
  0
SCALE
  5
6A6C
102
{ACAD_REACTORS
330
6A4E
102
}
330
6A4E
100
AcDbScale
 70
     0
300
1-1/2" = 1'-0"
140
1.5
141
12.0
290
     0
  0
SCALE
  5
6A6D
102
{ACAD_REACTORS
330
6A4E
102
}
330
6A4E
100
AcDbScale
 70
     0
300
3" = 1'-0"
140
3.0
141
12.0
290
     0
  0
SCALE
  5
6A6E
102
{ACAD_REACTORS
330
6A4E
102
}
330
6A4E
100
AcDbScale
 70
     0
300
6" = 1'-0"
140
6.0
141
12.0
290
     0
  0
SCALE
  5
6A6F
102
{ACAD_REACTORS
330
6A4E
102
}
330
6A4E
100
AcDbScale
 70
     0
300
1'-0" = 1'-0"
140
12.0
141
12.0
290
     0
  0
DICTIONARYVAR
  5
79F
102
{ACAD_REACTORS
330
79E
102
}
330
79E
100
DictionaryVariables
280
     0
  1
1
  0
DICTIONARYVAR
  5
264F
102
{ACAD_REACTORS
330
79E
102
}
330
79E
100
DictionaryVariables
280
     0
  1
96
  0
ACAD_PROXY_OBJECT
  5
8258
102
{ACAD_REACTORS
330
8257
102
}
330
8257
100
AcDbProxyObject
 90
      499
 91
      509
 95
   262177
 70
     0
 93
     1864
310
5434D15054000541505428FC812095550000000000000B08000000000000008200000000000001807E8F2048F205000200001204000000000000581F8000000000000B0807EC3FA6DEBC0E99F8000000000001C07FE8FCC029594224E2D20CA600E2005C008C00E8005C008321803A80170023003A00170020898006200640
310
06001202DA008C2080248020801000140019001A801B00100021803780360037803900148010001000100010002080220019001A801B0021082008600820088008200A4008600900087A08032803180260030803C803280390029803A003200170032003B80338049C09
330
0
 94
        0
  0
ENDSEC
  0
EOF
