  0
SECTION
  2
HEADER
  9
$ACADVER
  1
AC1015
  9
$ACADMAINTVER
 70
     6
  9
$DWGCODEPAGE
  3
ANSI_932
  9
$INSBASE
 10
0.0
 20
0.0
 30
0.0
  9
$EXTMIN
 10
9550.474120947332
 20
68.10780543681403
 30
0.0
  9
$EXTMAX
 10
12145.47807326135
 20
2051.350433137178
 30
0.0
  9
$LIMMIN
 10
9170.550522560283
 20
-443.8001926893305
  9
$LIMMAX
 10
13370.55052256028
 20
2526.199807310669
  9
$ORTHOMODE
 70
     1
  9
$REGENMODE
 70
     1
  9
$FILLMODE
 70
     1
  9
$QTEXTMODE
 70
     0
  9
$MIRRTEXT
 70
     1
  9
$LTSCALE
 40
3.0
  9
$ATTMODE
 70
     1
  9
$TEXTSIZE
 40
3.0
  9
$TRACEWID
 40
1.0
  9
$TEXTSTYLE
  7
Standard
  9
$CLAYER
  8
02製品
  9
$CELTYPE
  6
ByLayer
  9
$CECOLOR
 62
   256
  9
$CELTSCALE
 40
1.0
  9
$DISPSILH
 70
     0
  9
$DIMSCALE
 40
15.0
  9
$DIMASZ
 40
3.0
  9
$DIMEXO
 40
1.5
  9
$DIMDLI
 40
10.0
  9
$DIMRND
 40
0.0
  9
$DIMDLE
 40
0.0
  9
$DIMEXE
 40
1.0
  9
$DIMTP
 40
0.0
  9
$DIMTM
 40
0.0
  9
$DIMTXT
 40
3.0
  9
$DIMCEN
 40
1.5
  9
$DIMTSZ
 40
0.0
  9
$DIMTOL
 70
     0
  9
$DIMLIM
 70
     0
  9
$DIMTIH
 70
     0
  9
$DIMTOH
 70
     0
  9
$DIMSE1
 70
     0
  9
$DIMSE2
 70
     0
  9
$DIMTAD
 70
     1
  9
$DIMZIN
 70
     8
  9
$DIMBLK
  1
Open
  9
$DIMASO
 70
     1
  9
$DIMSHO
 70
     1
  9
$DIMPOST
  1

  9
$DIMAPOST
  1

  9
$DIMALT
 70
     0
  9
$DIMALTD
 70
     3
  9
$DIMALTF
 40
0.03937007874016
  9
$DIMLFAC
 40
1.0
  9
$DIMTOFL
 70
     1
  9
$DIMTVP
 40
0.0
  9
$DIMTIX
 70
     0
  9
$DIMSOXD
 70
     0
  9
$DIMSAH
 70
     0
  9
$DIMBLK1
  1

  9
$DIMBLK2
  1

  9
$DIMSTYLE
  2
NEMY-15
  9
$DIMCLRD
 70
     0
  9
$DIMCLRE
 70
     0
  9
$DIMCLRT
 70
     0
  9
$DIMTFAC
 40
1.0
  9
$DIMGAP
 40
1.0
  9
$DIMJUST
 70
     0
  9
$DIMSD1
 70
     0
  9
$DIMSD2
 70
     0
  9
$DIMTOLJ
 70
     0
  9
$DIMTZIN
 70
     8
  9
$DIMALTZ
 70
     0
  9
$DIMALTTZ
 70
     0
  9
$DIMUPT
 70
     0
  9
$DIMDEC
 70
     1
  9
$DIMTDEC
 70
     1
  9
$DIMALTU
 70
     2
  9
$DIMALTTD
 70
     3
  9
$DIMTXSTY
  7
Standard
  9
$DIMAUNIT
 70
     0
  9
$DIMADEC
 70
     0
  9
$DIMALTRND
 40
0.0
  9
$DIMAZIN
 70
     0
  9
$DIMDSEP
 70
    46
  9
$DIMATFIT
 70
     3
  9
$DIMFRAC
 70
     0
  9
$DIMLDRBLK
  1
Open
  9
$DIMLUNIT
 70
     2
  9
$DIMLWD
 70
    -2
  9
$DIMLWE
 70
    -2
  9
$DIMTMOVE
 70
     0
  9
$LUNITS
 70
     2
  9
$LUPREC
 70
     4
  9
$SKETCHINC
 40
1.0
  9
$FILLETRAD
 40
0.0
  9
$AUNITS
 70
     0
  9
$AUPREC
 70
     0
  9
$MENU
  1
.
  9
$ELEVATION
 40
0.0
  9
$PELEVATION
 40
0.0
  9
$THICKNESS
 40
0.0
  9
$LIMCHECK
 70
     0
  9
$CHAMFERA
 40
10.0
  9
$CHAMFERB
 40
10.0
  9
$CHAMFERC
 40
20.0
  9
$CHAMFERD
 40
0.0
  9
$SKPOLY
 70
     0
  9
$TDCREATE
 40
2455859.405048461
  9
$TDUCREATE
 40
2455859.030048461
  9
$TDUPDATE
 40
2458968.605097766
  9
$TDUUPDATE
 40
2458968.230097766
  9
$TDINDWG
 40
0.604663669
  9
$TDUSRTIMER
 40
0.0001206366
  9
$USRTIMER
 70
     1
  9
$ANGBASE
 50
0.0
  9
$ANGDIR
 70
     0
  9
$PDMODE
 70
     0
  9
$PDSIZE
 40
0.0
  9
$PLINEWID
 40
0.0
  9
$SPLFRAME
 70
     0
  9
$SPLINETYPE
 70
     6
  9
$SPLINESEGS
 70
     8
  9
$HANDSEED
  5
159DC
  9
$SURFTAB1
 70
     6
  9
$SURFTAB2
 70
     6
  9
$SURFTYPE
 70
     6
  9
$SURFU
 70
     6
  9
$SURFV
 70
     6
  9
$UCSBASE
  2

  9
$UCSNAME
  2

  9
$UCSORG
 10
0.0
 20
0.0
 30
0.0
  9
$UCSXDIR
 10
1.0
 20
0.0
 30
0.0
  9
$UCSYDIR
 10
0.0
 20
1.0
 30
0.0
  9
$UCSORTHOREF
  2

  9
$UCSORTHOVIEW
 70
     0
  9
$UCSORGTOP
 10
0.0
 20
0.0
 30
0.0
  9
$UCSORGBOTTOM
 10
0.0
 20
0.0
 30
0.0
  9
$UCSORGLEFT
 10
0.0
 20
0.0
 30
0.0
  9
$UCSORGRIGHT
 10
0.0
 20
0.0
 30
0.0
  9
$UCSORGFRONT
 10
0.0
 20
0.0
 30
0.0
  9
$UCSORGBACK
 10
0.0
 20
0.0
 30
0.0
  9
$PUCSBASE
  2

  9
$PUCSNAME
  2

  9
$PUCSORG
 10
0.0
 20
0.0
 30
0.0
  9
$PUCSXDIR
 10
1.0
 20
0.0
 30
0.0
  9
$PUCSYDIR
 10
0.0
 20
1.0
 30
0.0
  9
$PUCSORTHOREF
  2

  9
$PUCSORTHOVIEW
 70
     0
  9
$PUCSORGTOP
 10
0.0
 20
0.0
 30
0.0
  9
$PUCSORGBOTTOM
 10
0.0
 20
0.0
 30
0.0
  9
$PUCSORGLEFT
 10
0.0
 20
0.0
 30
0.0
  9
$PUCSORGRIGHT
 10
0.0
 20
0.0
 30
0.0
  9
$PUCSORGFRONT
 10
0.0
 20
0.0
 30
0.0
  9
$PUCSORGBACK
 10
0.0
 20
0.0
 30
0.0
  9
$USERI1
 70
     0
  9
$USERI2
 70
     0
  9
$USERI3
 70
     0
  9
$USERI4
 70
     0
  9
$USERI5
 70
     0
  9
$USERR1
 40
0.0
  9
$USERR2
 40
0.0
  9
$USERR3
 40
0.0
  9
$USERR4
 40
0.0
  9
$USERR5
 40
0.0
  9
$WORLDVIEW
 70
     1
  9
$SHADEDGE
 70
     3
  9
$SHADEDIF
 70
    70
  9
$TILEMODE
 70
     1
  9
$MAXACTVP
 70
    64
  9
$PINSBASE
 10
0.0
 20
0.0
 30
0.0
  9
$PLIMCHECK
 70
     0
  9
$PEXTMIN
 10
1.000000000000000E+20
 20
1.000000000000000E+20
 30
1.000000000000000E+20
  9
$PEXTMAX
 10
-1.000000000000000E+20
 20
-1.000000000000000E+20
 30
-1.000000000000000E+20
  9
$PLIMMIN
 10
0.0
 20
0.0
  9
$PLIMMAX
 10
0.0
 20
0.0
  9
$UNITMODE
 70
     0
  9
$VISRETAIN
 70
     1
  9
$PLINEGEN
 70
     0
  9
$PSLTSCALE
 70
     1
  9
$TREEDEPTH
 70
  3020
  9
$CMLSTYLE
  2
Standard
  9
$CMLJUST
 70
     0
  9
$CMLSCALE
 40
20.0
  9
$PROXYGRAPHICS
 70
     1
  9
$MEASUREMENT
 70
     1
  9
$CELWEIGHT
370
    -1
  9
$ENDCAPS
280
     0
  9
$JOINSTYLE
280
     0
  9
$LWDISPLAY
290
     0
  9
$INSUNITS
 70
     4
  9
$HYPERLINKBASE
  1

  9
$STYLESHEET
  1
monochrome.ctb
  9
$XEDIT
290
     1
  9
$CEPSNTYPE
380
     0
  9
$PSTYLEMODE
290
     1
  9
$FINGERPRINTGUID
  2
{FDEAD578-A652-11D2-9A35-0060089B3A3F}
  9
$VERSIONGUID
  2
{FF53CD4B-1AF9-4F2F-ABC0-CA7DF949A403}
  9
$EXTNAMES
290
     1
  9
$PSVPSCALE
 40
0.0
  9
$OLESTARTUP
290
     0
  0
ENDSEC
  0
SECTION
  2
CLASSES
  0
CLASS
  1
ACDBDICTIONARYWDFLT
  2
AcDbDictionaryWithDefault
  3
ObjectDBX Classes
 90
        0
280
     0
281
     0
  0
CLASS
  1
ACDBPLACEHOLDER
  2
AcDbPlaceHolder
  3
ObjectDBX Classes
 90
        0
280
     0
281
     0
  0
CLASS
  1
LAYOUT
  2
AcDbLayout
  3
ObjectDBX Classes
 90
        0
280
     0
281
     0
  0
CLASS
  1
DICTIONARYVAR
  2
AcDbDictionaryVar
  3
ObjectDBX Classes
 90
        0
280
     0
281
     0
  0
CLASS
  1
SCALE
  2
AcDbScale
  3
ObjectDBX Classes
 90
     1153
280
     0
281
     0
  0
CLASS
  1
MATERIAL
  2
AcDbMaterial
  3
ObjectDBX Classes
 90
     1153
280
     0
281
     0
  0
CLASS
  1
VISUALSTYLE
  2
AcDbVisualStyle
  3
ObjectDBX Classes
 90
     4095
280
     0
281
     0
  0
CLASS
  1
TABLESTYLE
  2
AcDbTableStyle
  3
ObjectDBX Classes
 90
     4095
280
     0
281
     0
  0
CLASS
  1
RASTERVARIABLES
  2
AcDbRasterVariables
  3
ISM
 90
        0
280
     0
281
     0
  0
CLASS
  1
AEC_VARS_DWG_SETUP
  2
AecDbVarsDwgSetup
  3
AecBase60
 90
      129
280
     0
281
     0
  0
CLASS
  1
AEC_DISP_REP_2D_SECTION
  2
AecDbDispRep2dSection
  3
AecBase60
 90
      129
280
     0
281
     0
  0
CLASS
  1
AEC_DISP_PROPS_2D_SECTION
  2
AecDbDispProps2dSection
  3
AecBase60
 90
      129
280
     0
281
     0
  0
CLASS
  1
AEC_DISP_REP_CLIP_VOLUME_MODEL
  2
AecDbDispRepClipVolModel
  3
AecBase60
 90
      129
280
     0
281
     0
  0
CLASS
  1
AEC_DISP_PROPS_CLIP_VOLUME
  2
AecDbDispPropsClipVol
  3
AecBase60
 90
      129
280
     0
281
     0
  0
CLASS
  1
AEC_DISP_REP_CLIP_VOLUME_PLAN
  2
AecDbDispRepClipVolPlan
  3
AecBase60
 90
      129
280
     0
281
     0
  0
CLASS
  1
AEC_DISP_REP_CLIP_VOLUME_RESULT
  2
AecDbDispRepClipVolResult
  3
AecBase60
 90
      129
280
     0
281
     0
  0
CLASS
  1
AEC_DISP_REP_CLIP_VOLUME_RESULT_SUBDIV
  2
AecDbDispRepClipVolResSubDiv
  3
AecBase60
 90
      129
280
     0
281
     0
  0
CLASS
  1
AEC_DISP_PROPS_CLIP_VOLUME_RESULT
  2
AecDbDispPropsClipVolResSubDiv
  3
AecBase60
 90
      129
280
     0
281
     0
  0
CLASS
  1
AEC_DISP_REP_DISPLAYTHEME
  2
AecDbDispRepDisplayTheme
  3
AecBase60
 90
      129
280
     0
281
     0
  0
CLASS
  1
AEC_DISP_PROPS_DISPLAYTHEME
  2
AecDbDispPropsDisplayTheme
  3
AecBase60
 90
      129
280
     0
281
     0
  0
CLASS
  1
AEC_DISP_REP_ENT_REF
  2
AecDbDispRepEntRef
  3
AecBase60
 90
      129
280
     0
281
     0
  0
CLASS
  1
AEC_DISP_PROPS_ENT_REF
  2
AecDbDispPropsEntRef
  3
AecBase60
 90
      129
280
     0
281
     0
  0
CLASS
  1
AEC_DISP_REP_LAYOUT_CURVE
  2
AecDbDispRepLayoutCurve
  3
AecBase60
 90
      129
280
     0
281
     0
  0
CLASS
  1
AEC_DISP_PROPS_LAYOUT_CURVE
  2
AecDbDispPropsLayoutCurve
  3
AecBase60
 90
      129
280
     0
281
     0
  0
CLASS
  1
AEC_DISP_REP_LAYOUT_GRID2D
  2
AecDbDispRepLayoutGrid2d
  3
AecBase60
 90
      129
280
     0
281
     0
  0
CLASS
  1
AEC_DISP_PROPS_LAYOUT_GRID2D
  2
AecDbDispPropsLayoutGrid2d
  3
AecBase60
 90
      129
280
     0
281
     0
  0
CLASS
  1
AEC_DISP_REP_LAYOUT_GRID3D
  2
AecDbDispRepLayoutGrid3d
  3
AecBase60
 90
      129
280
     0
281
     0
  0
CLASS
  1
AEC_DISP_PROPS_LAYOUT_GRID3D
  2
AecDbDispPropsLayoutGrid3d
  3
AecBase60
 90
      129
280
     0
281
     0
  0
CLASS
  1
AEC_DISP_REP_MASKBLOCK_REF
  2
AecDbDispRepMaskBlockRef
  3
AecBase60
 90
      129
280
     0
281
     0
  0
CLASS
  1
AEC_DISP_PROPS_MASKBLOCK
  2
AecDbDispPropsMaskBlock
  3
AecBase60
 90
      129
280
     0
281
     0
  0
CLASS
  1
AEC_DISP_REP_MASKBLOCK_REF_RCP
  2
AecDbDispRepMaskBlockRefRcp
  3
AecArchBase60
 90
      129
280
     0
281
     0
  0
CLASS
  1
AEC_DISP_REP_MASS_ELEM_MODEL
  2
AecDbDispRepMassElemModel
  3
AecBase60
 90
      129
280
     0
281
     0
  0
CLASS
  1
AEC_DISP_PROPS_MASS_ELEM_MODEL
  2
AecDbDispPropsMassElem
  3
AecBase60
 90
      129
280
     0
281
     0
  0
CLASS
  1
AEC_DISP_REP_MASS_ELEM_SCHEM
  2
AecDbDispRepMassElemSchem
  3
AecBase60
 90
      129
280
     0
281
     0
  0
CLASS
  1
AEC_DISPREPAECDBDISPREPMASSELEMPLAN50
  2
AecDbDispRepMassElemPlan50
  3
AecArchDACHBase60
 90
      129
280
     0
281
     0
  0
CLASS
  1
AEC_DISPROPSMASSELEMPLANCOMMON
  2
AecDbDispPropsMassElemPlanCommon
  3
AecArchDACHBase60
 90
      129
280
     0
281
     0
  0
CLASS
  1
AEC_DISPREPAECDBDISPREPMASSELEMPLAN100
  2
AecDbDispRepMassElemPlan100
  3
AecArchDACHBase60
 90
      129
280
     0
281
     0
  0
CLASS
  1
AEC_DISP_REP_MASS_ELEM_RCP
  2
AecDbDispRepMassElemRcp
  3
AecArchBase60
 90
      129
280
     0
281
     0
  0
CLASS
  1
AEC_DISP_REP_MASS_GROUP_MODEL
  2
AecDbDispRepMassGroupModel
  3
AecBase60
 90
      129
280
     0
281
     0
  0
CLASS
  1
AEC_DISP_PROPS_MASS_GROUP
  2
AecDbDispPropsMassGroup
  3
AecBase60
 90
      129
280
     0
281
     0
  0
CLASS
  1
AEC_DISP_REP_MASS_GROUP_PLAN
  2
AecDbDispRepMassGroupPlan
  3
AecBase60
 90
      129
280
     0
281
     0
  0
CLASS
  1
AEC_DISPREPAECDBDISPREPMASSGROUPPLAN50
  2
AecDbDispRepMassGroupPlan50
  3
AecArchDACHBase60
 90
      129
280
     0
281
     0
  0
CLASS
  1
AEC_DISPROPSMASSGROUPPLANCOMMON
  2
AecDbDispPropsMassGroupPlanCommon
  3
AecArchDACHBase60
 90
      129
280
     0
281
     0
  0
CLASS
  1
AEC_DISPREPAECDBDISPREPMASSGROUPPLAN100
  2
AecDbDispRepMassGroupPlan100
  3
AecArchDACHBase60
 90
      129
280
     0
281
     0
  0
CLASS
  1
AEC_DISP_REP_MASS_GROUP_RCP
  2
AecDbDispRepMassGroupRcp
  3
AecArchBase60
 90
      129
280
     0
281
     0
  0
CLASS
  1
AEC_DISP_REP_MVBLOCK_REF
  2
AecDbDispRepMvBlockRef
  3
AecBase60
 90
      129
280
     0
281
     0
  0
CLASS
  1
AEC_DISP_REP_MVBLOCK_REF_MODEL
  2
AecDbDispRepMvBlockRefModel
  3
AecBase60
 90
      129
280
     0
281
     0
  0
CLASS
  1
AEC_AECDBDISPREPMVBLOCKREFPLAN100
  2
AecDbDispRepMvBlockRefPlan100
  3
AecBase60
 90
      129
280
     0
281
     0
  0
CLASS
  1
AEC_AECDBDISPREPMVBLOCKREFPLAN50
  2
AecDbDispRepMvBlockRefPlan50
  3
AecBase60
 90
      129
280
     0
281
     0
  0
CLASS
  1
AEC_DISP_REP_POLYGON_MODEL
  2
AecDbDispRepPolygonModel
  3
AecBase60
 90
      129
280
     0
281
     0
  0
CLASS
  1
AEC_DISP_PROPS_POLYGON_MODEL
  2
AecDbDispPropsPolygonModel
  3
AecBase60
 90
      129
280
     0
281
     0
  0
CLASS
  1
AEC_DISP_REP_POLYGON_TRUECOLOUR
  2
AecDbDispRepPolygonTrueColour
  3
AecBase60
 90
      129
280
     0
281
     0
  0
CLASS
  1
AEC_DISP_PROPS_POLYGON_TRUECOLOUR
  2
AecDbDispPropsPolygonTrueColour
  3
AecBase60
 90
      129
280
     0
281
     0
  0
CLASS
  1
AEC_DISP_REP_SLICE
  2
AecDbDispRepSlice
  3
AecBase60
 90
      129
280
     0
281
     0
  0
CLASS
  1
AEC_DISP_PROPS_SLICE
  2
AecDbDispPropsSlice
  3
AecBase60
 90
      129
280
     0
281
     0
  0
CLASS
  1
AEC_DISP_REP_ANCHOR
  2
AecDbDispRepAnchor
  3
AecBase60
 90
      129
280
     0
281
     0
  0
CLASS
  1
AEC_DISP_REP_ANCHOR_ENT_TO_NODE
  2
AecDbDispRepAnchorEntToNode
  3
AecBase60
 90
      129
280
     0
281
     0
  0
CLASS
  1
AEC_DISP_PROPS_ENT
  2
AecDbDispPropsEnt
  3
AecBase60
 90
      129
280
     0
281
     0
  0
CLASS
  1
AEC_DISP_REP_MATERIAL
  2
AecDbDispRepMaterial
  3
AecBase60
 90
      129
280
     0
281
     0
  0
CLASS
  1
AEC_DISP_PROPS_MATERIAL
  2
AecDbDispPropsMaterial
  3
AecBase60
 90
      129
280
     0
281
     0
  0
CLASS
  1
AEC_DISP_REP_EDITINPLACEPROFILE
  2
AecDbDispRepEditInPlaceProfile
  3
AecBase60
 90
      129
280
     0
281
     0
  0
CLASS
  1
AEC_DISP_PROPS_EDITINPLACEPROFILE_MODEL
  2
AecDbDispPropsEditInPlaceProfile
  3
AecBase60
 90
      129
280
     0
281
     0
  0
CLASS
  1
SUN
  2
AcDbSun
  3
SCENEOE
 90
     1153
280
     0
281
     0
  0
CLASS
  1
MLEADERSTYLE
  2
AcDbMLeaderStyle
  3
ACDB_MLEADERSTYLE_CLASS
 90
     4095
280
     0
281
     0
  0
ENDSEC
  0
SECTION
  2
TABLES
  0
TABLE
  2
VPORT
  5
8
330
0
100
AcDbSymbolTable
 70
     1
  0
VPORT
  5
A2A1
330
8
100
AcDbSymbolTableRecord
100
AcDbViewportTableRecord
  2
*Active
 70
     0
 10
0.0
 20
0.0
 11
1.0
 21
1.0
 12
10917.28449899989
 22
1040.817106382876
 13
0.0
 23
0.0
 14
10.0
 24
10.0
 15
10.0
 25
10.0
 16
0.0
 26
0.0
 36
1.0
 17
0.0
 27
0.0
 37
0.0
 40
2097.47806216569
 41
1.479876160990712
 42
50.0
 43
0.0
 44
0.0
 50
0.0
 51
0.0
 71
    16
 72
   100
 73
     1
 74
     2
 75
     0
 76
     0
 77
     0
 78
     0
281
     0
 65
     1
110
0.0
120
0.0
130
0.0
111
1.0
121
0.0
131
0.0
112
0.0
122
1.0
132
0.0
 79
     0
146
0.0
  0
ENDTAB
  0
TABLE
  2
LTYPE
  5
5
330
0
100
AcDbSymbolTable
 70
     8
  0
LTYPE
  5
14
330
5
100
AcDbSymbolTableRecord
100
AcDbLinetypeTableRecord
  2
ByBlock
 70
     0
  3

 72
    65
 73
     0
 40
0.0
  0
LTYPE
  5
15
330
5
100
AcDbSymbolTableRecord
100
AcDbLinetypeTableRecord
  2
ByLayer
 70
     0
  3

 72
    65
 73
     0
 40
0.0
  0
LTYPE
  5
16
330
5
100
AcDbSymbolTableRecord
100
AcDbLinetypeTableRecord
  2
Continuous
 70
     0
  3
Solid line
 72
    65
 73
     0
 40
0.0
  0
LTYPE
  5
BA
330
5
100
AcDbSymbolTableRecord
100
AcDbLinetypeTableRecord
  2
HIDDEN
 70
     0
  3
Hidden __ __ __ __ __ __ __ __ __ __ __ __ __ _
 72
    65
 73
     2
 40
9.524999999999999
 49
6.35
 74
     0
 49
-3.175
 74
     0
  0
LTYPE
  5
BB
330
5
100
AcDbSymbolTableRecord
100
AcDbLinetypeTableRecord
  2
PHANTOM
 70
     0
  3
Phantom ______  __  __  ______  __  __  ______
 72
    65
 73
     6
 40
63.5
 49
31.75
 74
     0
 49
-6.35
 74
     0
 49
6.35
 74
     0
 49
-6.35
 74
     0
 49
6.35
 74
     0
 49
-6.35
 74
     0
  0
LTYPE
  5
BC
330
5
100
AcDbSymbolTableRecord
100
AcDbLinetypeTableRecord
  2
CENTER
 70
     0
  3
Center ____ _ ____ _ ____ _ ____ _ ____ _ ____
 72
    65
 73
     4
 40
50.8
 49
31.75
 74
     0
 49
-6.35
 74
     0
 49
6.35
 74
     0
 49
-6.35
 74
     0
  0
LTYPE
  5
47C
330
5
100
AcDbSymbolTableRecord
100
AcDbLinetypeTableRecord
  2
DOT
 70
     0
  3
Dot . . . . . . . . . . . . . . . . . . . . . .
 72
    65
 73
     2
 40
6.35
 49
0.0
 74
     0
 49
-6.35
 74
     0
  0
LTYPE
  5
20C6
330
5
100
AcDbSymbolTableRecord
100
AcDbLinetypeTableRecord
  2
CENTER2
 70
     0
  3
Center (.5x) ___ _ ___ _ ___ _ ___ _ ___ _ ___
 72
    65
 73
     4
 40
28.575
 49
19.05
 74
     0
 49
-3.175
 74
     0
 49
3.175
 74
     0
 49
-3.175
 74
     0
  0
LTYPE
  5
3BF0
330
5
100
AcDbSymbolTableRecord
100
AcDbLinetypeTableRecord
  2
CENTERX2
 70
     0
  3
Center (2x) ________  __  ________  __  _____
 72
    65
 73
     4
 40
20.32
 49
12.7
 74
     0
 49
-2.54
 74
     0
 49
2.54
 74
     0
 49
-2.54
 74
     0
  0
LTYPE
  5
82C6
330
5
100
AcDbSymbolTableRecord
100
AcDbLinetypeTableRecord
  2
HIDDEN2
 70
     0
  3
Hidden (.5x) _ _ _ _ _ _ _ _ _ _ _ _ _ _ _ _ _
 72
    65
 73
     2
 40
4.762499999999999
 49
3.175
 74
     0
 49
-1.5875
 74
     0
  0
ENDTAB
  0
TABLE
  2
LAYER
  5
2
102
{ACAD_XDICTIONARY
360
7A6F
102
}
330
0
100
AcDbSymbolTable
 70
     9
  0
LAYER
  5
10
330
2
100
AcDbSymbolTableRecord
100
AcDbLayerTableRecord
  2
0
 70
     0
 62
     7
  6
Continuous
370
    -3
390
F
  0
LAYER
  5
45
330
2
100
AcDbSymbolTableRecord
100
AcDbLayerTableRecord
  2
01注記寸法
 70
     0
 62
     7
  6
Continuous
370
     9
390
F
  0
LAYER
  5
5F
330
2
100
AcDbSymbolTableRecord
100
AcDbLayerTableRecord
  2
Defpoints
 70
     0
 62
     7
  6
Continuous
290
     0
370
    -3
390
F
  0
LAYER
  5
82BC
330
2
100
AcDbSymbolTableRecord
100
AcDbLayerTableRecord
  2
02製品
 70
     0
 62
     2
  6
Continuous
370
    15
390
F
  0
LAYER
  5
82BD
330
2
100
AcDbSymbolTableRecord
100
AcDbLayerTableRecord
  2
03境界
 70
     0
 62
     3
  6
HIDDEN
370
     9
390
F
  0
LAYER
  5
82BF
330
2
100
AcDbSymbolTableRecord
100
AcDbLayerTableRecord
  2
04筺体
 70
     0
 62
     6
  6
Continuous
370
     9
390
F
  0
LAYER
  5
82C0
330
2
100
AcDbSymbolTableRecord
100
AcDbLayerTableRecord
  2
05GL
 70
     0
 62
     2
  6
Continuous
370
     9
390
F
  0
LAYER
  5
82C1
330
2
100
AcDbSymbolTableRecord
100
AcDbLayerTableRecord
  2
06非表示
 70
     0
 62
     4
  6
Continuous
290
     0
370
     0
390
F
  0
LAYER
  5
82C2
330
2
100
AcDbSymbolTableRecord
100
AcDbLayerTableRecord
  2
07図枠
 70
     0
 62
     1
  6
Continuous
370
    30
390
F
  0
ENDTAB
  0
TABLE
  2
STYLE
  5
3
330
0
100
AcDbSymbolTable
 70
     5
  0
STYLE
  5
11
330
3
100
AcDbSymbolTableRecord
100
AcDbTextStyleTableRecord
  2
Standard
 70
     0
 40
0.0
 41
1.0
 50
0.0
 71
     0
 42
3.0
  3
MS Gothic.ttf
  4

1001
ACAD
1000
MS Gothic
1071
    32817
  0
STYLE
  5
19E
330
3
100
AcDbSymbolTableRecord
100
AcDbTextStyleTableRecord
  2
STYLE1
 70
     0
 40
0.0
 41
0.9
 50
0.0
 71
     0
 42
28.125
  3
TXT.shx
  4
extfont.shx
  0
STYLE
  5
47B
330
3
100
AcDbSymbolTableRecord
100
AcDbTextStyleTableRecord
  2

 70
     1
 40
0.0
 41
1.0
 50
0.0
 71
     0
 42
3.0
  3
ltypeshp.shx
  4

  0
STYLE
  5
25F6
330
3
100
AcDbSymbolTableRecord
100
AcDbTextStyleTableRecord
  2
ST_CUSTOM
 70
     0
 40
0.0
 41
0.8
 50
0.0
 71
     0
 42
4.2
  3
txt.shx
  4
extfont.shx
  0
STYLE
  5
25F7
330
3
100
AcDbSymbolTableRecord
100
AcDbTextStyleTableRecord
  2
StCustom
 70
     0
 40
0.0
 41
0.8
 50
0.0
 71
     0
 42
3.2
  3
txt.shx
  4
extfont.shx
  0
ENDTAB
  0
TABLE
  2
VIEW
  5
6
330
0
100
AcDbSymbolTable
 70
     0
  0
ENDTAB
  0
TABLE
  2
UCS
  5
7
330
0
100
AcDbSymbolTable
 70
     0
  0
ENDTAB
  0
TABLE
  2
APPID
  5
9
330
0
100
AcDbSymbolTable
 70
    14
  0
APPID
  5
12
330
9
100
AcDbSymbolTableRecord
100
AcDbRegAppTableRecord
  2
ACAD
 70
     0
  0
APPID
  5
6A9E
330
9
100
AcDbSymbolTableRecord
100
AcDbRegAppTableRecord
  2
ACAD_DSTYLE_DIMRADIAL_EXTENSION
 70
     0
  0
APPID
  5
742C
330
9
100
AcDbSymbolTableRecord
100
AcDbRegAppTableRecord
  2
ACAD_PSEXT
 70
     0
  0
APPID
  5
742D
330
9
100
AcDbSymbolTableRecord
100
AcDbRegAppTableRecord
  2
ACAD_DSTYLE_DIMJAG
 70
     0
  0
APPID
  5
742E
330
9
100
AcDbSymbolTableRecord
100
AcDbRegAppTableRecord
  2
ACAD_DSTYLE_DIMTALN
 70
     0
  0
APPID
  5
8254
330
9
100
AcDbSymbolTableRecord
100
AcDbRegAppTableRecord
  2
AECBASE
 70
     0
  0
APPID
  5
8255
330
9
100
AcDbSymbolTableRecord
100
AcDbRegAppTableRecord
  2
AEC_2DSECTION_XDATA
 70
     0
  0
APPID
  5
8256
330
9
100
AcDbSymbolTableRecord
100
AcDbRegAppTableRecord
  2
AEC_MASSGROUP_XDADA
 70
     0
  0
APPID
  5
CBC8
330
9
100
AcDbSymbolTableRecord
100
AcDbRegAppTableRecord
  2
ACAD_DSTYLE_DIMFLIPARROW_SYMBOL
 70
     0
  0
APPID
  5
CBC9
330
9
100
AcDbSymbolTableRecord
100
AcDbRegAppTableRecord
  2
ACAD_DSTYLE_DIMFLIPARROW_WHICH_SYMBOL
 70
     0
  0
APPID
  5
CBCA
330
9
100
AcDbSymbolTableRecord
100
AcDbRegAppTableRecord
  2
ACAD_DSTYLE_DIMARC_LENGTH_SYMBOL
 70
     0
  0
APPID
  5
CBCB
330
9
100
AcDbSymbolTableRecord
100
AcDbRegAppTableRecord
  2
ACAD_DSTYLE_DIM_LINETYPE
 70
     0
  0
APPID
  5
CBCC
330
9
100
AcDbSymbolTableRecord
100
AcDbRegAppTableRecord
  2
ACAD_DSTYLE_DIM_EXT1_LINETYPE
 70
     0
  0
APPID
  5
CBCD
330
9
100
AcDbSymbolTableRecord
100
AcDbRegAppTableRecord
  2
ACAD_DSTYLE_DIM_EXT2_LINETYPE
 70
     0
  0
ENDTAB
  0
TABLE
  2
DIMSTYLE
  5
A
330
0
100
AcDbSymbolTable
 70
    24
100
AcDbDimStyleTable
  0
DIMSTYLE
105
73
330
A
100
AcDbSymbolTableRecord
100
AcDbDimStyleTableRecord
  2
NEMY-1
 70
     0
 41
3.0
 42
1.5
 43
10.0
 44
1.0
 73
     0
 74
     0
 77
     1
 78
     8
140
3.0
141
1.5
143
0.03937007874016
147
1.0
171
     3
172
     1
178
     0
271
     1
272
     1
274
     3
283
     0
284
     8
340
11
341
8F
342
8F
  0
DIMSTYLE
105
4DCE
330
A
100
AcDbSymbolTableRecord
100
AcDbDimStyleTableRecord
  2
NEMY-2
 70
     0
 40
2.0
 41
3.0
 42
1.5
 43
10.0
 44
1.0
 73
     0
 74
     0
 77
     1
 78
     8
140
3.0
141
1.5
143
0.03937007874016
147
1.0
171
     3
172
     1
178
     0
271
     1
272
     1
274
     3
283
     0
284
     8
340
11
341
8F
342
8F
  0
DIMSTYLE
105
4DCF
330
A
100
AcDbSymbolTableRecord
100
AcDbDimStyleTableRecord
  2
NEMY-3
 70
     0
 40
3.0
 41
3.0
 42
1.5
 43
10.0
 44
1.0
 73
     0
 74
     0
 77
     1
 78
     8
140
3.0
141
1.5
143
0.03937007874016
147
1.0
171
     3
172
     1
178
     0
271
     1
272
     1
274
     3
283
     0
284
     8
340
11
341
8F
342
8F
  0
DIMSTYLE
105
4DD0
330
A
100
AcDbSymbolTableRecord
100
AcDbDimStyleTableRecord
  2
NEMY-5
 70
     0
 40
5.0
 41
3.0
 42
1.5
 43
10.0
 44
1.0
 73
     0
 74
     0
 77
     1
 78
     8
140
3.0
141
1.5
143
0.03937007874016
147
1.0
171
     3
172
     1
178
     0
271
     1
272
     1
274
     3
283
     0
284
     8
340
11
341
8F
342
8F
  0
DIMSTYLE
105
4DD1
330
A
100
AcDbSymbolTableRecord
100
AcDbDimStyleTableRecord
  2
NEMY-8
 70
     0
 40
8.0
 41
3.0
 42
1.5
 43
10.0
 44
1.0
 73
     0
 74
     0
 77
     1
 78
     8
140
3.0
141
1.5
143
0.03937007874016
147
1.0
171
     3
172
     1
178
     0
271
     1
272
     1
274
     3
283
     0
284
     8
340
11
341
8F
342
8F
  0
DIMSTYLE
105
4DD2
330
A
100
AcDbSymbolTableRecord
100
AcDbDimStyleTableRecord
  2
NEMY-15
 70
     0
 40
15.0
 41
3.0
 42
1.5
 43
10.0
 44
1.0
 73
     0
 74
     0
 77
     1
 78
     8
140
3.0
141
1.5
143
0.03937007874016
147
1.0
171
     3
172
     1
178
     0
271
     1
272
     1
274
     3
283
     0
284
     8
340
11
341
8F
342
8F
  0
DIMSTYLE
105
4DD3
330
A
100
AcDbSymbolTableRecord
100
AcDbDimStyleTableRecord
  2
NEMY-10
 70
     0
 40
10.0
 41
3.0
 42
1.5
 43
10.0
 44
1.0
 73
     0
 74
     0
 77
     1
 78
     8
140
3.0
141
1.5
143
0.03937007874016
147
1.0
171
     3
172
     1
178
     0
271
     1
272
     1
274
     3
283
     0
284
     8
340
11
341
8F
342
8F
  0
DIMSTYLE
105
4DD4
330
A
100
AcDbSymbolTableRecord
100
AcDbDimStyleTableRecord
  2
NEMY-25
 70
     0
 40
25.0
 41
3.0
 42
1.5
 43
10.0
 44
1.0
 73
     0
 74
     0
 77
     1
 78
     8
140
3.0
141
1.5
143
0.03937007874016
147
1.0
171
     3
172
     1
178
     0
271
     1
272
     1
274
     3
283
     0
284
     8
340
11
341
8F
342
8F
  0
DIMSTYLE
105
4DD5
330
A
100
AcDbSymbolTableRecord
100
AcDbDimStyleTableRecord
  2
NEMY-30
 70
     0
 40
30.0
 41
3.0
 42
1.5
 43
10.0
 44
1.0
 73
     0
 74
     0
 77
     1
 78
     8
140
3.0
141
1.5
143
0.03937007874016
147
1.0
171
     3
172
     1
178
     0
271
     1
272
     1
274
     3
283
     0
284
     8
340
11
341
8F
342
8F
  0
DIMSTYLE
105
4DD6
330
A
100
AcDbSymbolTableRecord
100
AcDbDimStyleTableRecord
  2
NEMY-50
 70
     0
 40
50.0
 41
3.0
 42
1.5
 43
10.0
 44
1.0
 73
     0
 74
     0
 77
     1
 78
     8
140
3.0
141
1.5
143
0.03937007874016
147
1.0
171
     3
172
     1
178
     0
271
     1
272
     1
274
     3
283
     0
284
     8
340
11
341
8F
342
8F
  0
DIMSTYLE
105
4E6F
330
A
100
AcDbSymbolTableRecord
100
AcDbDimStyleTableRecord
  2
NEMY-20
 70
     0
 40
20.0
 41
3.0
 42
1.5
 43
10.0
 44
1.0
 73
     0
 74
     0
 77
     1
 78
     8
140
3.0
141
1.5
143
0.03937007874016
147
1.0
171
     3
172
     1
178
     0
271
     1
272
     1
274
     3
283
     0
284
     8
340
11
341
8F
342
8F
  0
DIMSTYLE
105
4F44
330
A
100
AcDbSymbolTableRecord
100
AcDbDimStyleTableRecord
  2
NEMY-10$3
 70
     0
 40
10.0
 41
3.0
 42
1.5
 43
10.0
 44
1.0
 77
     1
 78
     8
140
3.0
141
1.5
143
0.03937007874016
147
1.0
171
     3
172
     1
178
     0
271
     1
272
     1
274
     3
283
     0
284
     8
340
11
341
8F
342
8F
  0
DIMSTYLE
105
4F45
330
A
100
AcDbSymbolTableRecord
100
AcDbDimStyleTableRecord
  2
NEMY-1$3
 70
     0
 41
3.0
 42
1.5
 43
10.0
 44
1.0
 77
     1
 78
     8
140
3.0
141
1.5
143
0.03937007874016
147
1.0
171
     3
172
     1
178
     0
271
     1
272
     1
274
     3
283
     0
284
     8
340
11
341
8F
342
8F
  0
DIMSTYLE
105
4F46
330
A
100
AcDbSymbolTableRecord
100
AcDbDimStyleTableRecord
  2
NEMY-12
 70
     0
 40
12.0
 41
3.0
 42
1.5
 43
10.0
 44
1.0
 73
     0
 74
     0
 77
     1
 78
     8
140
3.0
141
1.5
143
0.03937007874016
147
1.0
171
     3
172
     1
178
     0
271
     1
272
     1
274
     3
283
     0
284
     8
340
11
341
8F
342
8F
  0
DIMSTYLE
105
4F47
330
A
100
AcDbSymbolTableRecord
100
AcDbDimStyleTableRecord
  2
NEMY-12$3
 70
     0
 40
12.0
 41
3.0
 42
1.5
 43
10.0
 44
1.0
 77
     1
 78
     8
140
3.0
141
1.5
143
0.03937007874016
147
1.0
171
     3
172
     1
178
     0
271
     1
272
     1
274
     3
283
     0
284
     8
340
11
341
8F
342
8F
  0
DIMSTYLE
105
5E6E
330
A
100
AcDbSymbolTableRecord
100
AcDbDimStyleTableRecord
  2
NEMY-8$3
 70
     0
 40
8.0
 41
3.0
 42
1.5
 43
10.0
 44
1.0
 77
     1
 78
     8
140
3.0
141
1.5
143
0.03937007874016
147
1.0
171
     3
172
     1
178
     0
271
     1
272
     1
274
     3
283
     0
284
     8
340
11
341
8F
342
8F
  0
DIMSTYLE
105
5E6F
330
A
100
AcDbSymbolTableRecord
100
AcDbDimStyleTableRecord
  2
NEMY-50$3
 70
     0
 40
50.0
 41
3.0
 42
1.5
 43
10.0
 44
1.0
 77
     1
 78
     8
140
3.0
141
1.5
143
0.03937007874016
147
1.0
171
     3
172
     1
178
     0
271
     1
272
     1
274
     3
283
     0
284
     8
340
11
341
8F
342
8F
  0
DIMSTYLE
105
5E70
330
A
100
AcDbSymbolTableRecord
100
AcDbDimStyleTableRecord
  2
NEMY-5$3
 70
     0
 40
5.0
 41
3.0
 42
1.5
 43
10.0
 44
1.0
 77
     1
 78
     8
140
3.0
141
1.5
143
0.03937007874016
147
1.0
171
     3
172
     1
178
     0
271
     1
272
     1
274
     3
283
     0
284
     8
340
11
341
8F
342
8F
  0
DIMSTYLE
105
5E71
330
A
100
AcDbSymbolTableRecord
100
AcDbDimStyleTableRecord
  2
NEMY-30$3
 70
     0
 40
30.0
 41
3.0
 42
1.5
 43
10.0
 44
1.0
 77
     1
 78
     8
140
3.0
141
1.5
143
0.03937007874016
147
1.0
171
     3
172
     1
178
     0
271
     1
272
     1
274
     3
283
     0
284
     8
340
11
341
8F
342
8F
  0
DIMSTYLE
105
5E72
330
A
100
AcDbSymbolTableRecord
100
AcDbDimStyleTableRecord
  2
NEMY-3$3
 70
     0
 40
3.0
 41
3.0
 42
1.5
 43
10.0
 44
1.0
 77
     1
 78
     8
140
3.0
141
1.5
143
0.03937007874016
147
1.0
171
     3
172
     1
178
     0
271
     1
272
     1
274
     3
283
     0
284
     8
340
11
341
8F
342
8F
  0
DIMSTYLE
105
5E73
330
A
100
AcDbSymbolTableRecord
100
AcDbDimStyleTableRecord
  2
NEMY-25$3
 70
     0
 40
25.0
 41
3.0
 42
1.5
 43
10.0
 44
1.0
 77
     1
 78
     8
140
3.0
141
1.5
143
0.03937007874016
147
1.0
171
     3
172
     1
178
     0
271
     1
272
     1
274
     3
283
     0
284
     8
340
11
341
8F
342
8F
  0
DIMSTYLE
105
5E74
330
A
100
AcDbSymbolTableRecord
100
AcDbDimStyleTableRecord
  2
NEMY-20$3
 70
     0
 40
20.0
 41
3.0
 42
1.5
 43
10.0
 44
1.0
 77
     1
 78
     8
140
3.0
141
1.5
143
0.03937007874016
147
1.0
171
     3
172
     1
178
     0
271
     1
272
     1
274
     3
283
     0
284
     8
340
11
341
8F
342
8F
  0
DIMSTYLE
105
5E75
330
A
100
AcDbSymbolTableRecord
100
AcDbDimStyleTableRecord
  2
NEMY-2$3
 70
     0
 40
2.0
 41
3.0
 42
1.5
 43
10.0
 44
1.0
 77
     1
 78
     8
140
3.0
141
1.5
143
0.03937007874016
147
1.0
171
     3
172
     1
178
     0
271
     1
272
     1
274
     3
283
     0
284
     8
340
11
341
8F
342
8F
  0
DIMSTYLE
105
5E76
330
A
100
AcDbSymbolTableRecord
100
AcDbDimStyleTableRecord
  2
NEMY-15$3
 70
     0
 40
15.0
 41
3.0
 42
1.5
 43
10.0
 44
1.0
 77
     1
 78
     8
140
3.0
141
1.5
143
0.03937007874016
147
1.0
171
     3
172
     1
178
     0
271
     1
272
     1
274
     3
283
     0
284
     8
340
11
341
8F
342
8F
  0
ENDTAB
  0
TABLE
  2
BLOCK_RECORD
  5
1
330
0
100
AcDbSymbolTable
 70
    23
  0
BLOCK_RECORD
  5
1F
330
1
100
AcDbSymbolTableRecord
100
AcDbBlockTableRecord
  2
*Model_Space
340
22
  0
BLOCK_RECORD
  5
1B
330
1
100
AcDbSymbolTableRecord
100
AcDbBlockTableRecord
  2
*Paper_Space
340
1E
  0
BLOCK_RECORD
  5
23
330
1
100
AcDbSymbolTableRecord
100
AcDbBlockTableRecord
  2
*Paper_Space0
340
26
  0
BLOCK_RECORD
  5
8F
330
1
100
AcDbSymbolTableRecord
100
AcDbBlockTableRecord
  2
_Open
340
0
102
{BLKREFS
331
14FE3
331
14FE4
331
14FEF
331
14FF0
331
1503E
331
1503F
331
15087
331
15088
331
150D2
331
150D3
331
1515E
331
1515F
331
1516B
331
1516C
102
}
  0
BLOCK_RECORD
  5
626
330
1
100
AcDbSymbolTableRecord
100
AcDbBlockTableRecord
  2
_DotSmall
340
0
  0
BLOCK_RECORD
  5
6BC1
330
1
100
AcDbSymbolTableRecord
100
AcDbBlockTableRecord
  2
_None
340
0
  0
BLOCK_RECORD
  5
8D2C
330
1
100
AcDbSymbolTableRecord
100
AcDbBlockTableRecord
  2
A$C21067
340
0
  0
BLOCK_RECORD
  5
8D37
330
1
100
AcDbSymbolTableRecord
100
AcDbBlockTableRecord
  2
A$C19953
340
0
  0
BLOCK_RECORD
  5
8D42
330
1
100
AcDbSymbolTableRecord
100
AcDbBlockTableRecord
  2
A$C26388
340
0
  0
BLOCK_RECORD
  5
A626
330
1
100
AcDbSymbolTableRecord
100
AcDbBlockTableRecord
  2
A$C3C7277DA
340
0
102
{BLKREFS
331
15894
331
158CE
102
}
  0
BLOCK_RECORD
  5
A701
330
1
100
AcDbSymbolTableRecord
100
AcDbBlockTableRecord
  2
SW_CENTERMARKSYMBOL_0
340
0
  0
BLOCK_RECORD
  5
A70D
330
1
100
AcDbSymbolTableRecord
100
AcDbBlockTableRecord
  2
SW_CENTERMARKSYMBOL_1
340
0
  0
BLOCK_RECORD
  5
A719
330
1
100
AcDbSymbolTableRecord
100
AcDbBlockTableRecord
  2
SW_CENTERMARKSYMBOL_2
340
0
102
{BLKREFS
331
15659
102
}
  0
BLOCK_RECORD
  5
A725
330
1
100
AcDbSymbolTableRecord
100
AcDbBlockTableRecord
  2
SW_CENTERMARKSYMBOL_3
340
0
102
{BLKREFS
331
15667
102
}
  0
BLOCK_RECORD
  5
A7B0
330
1
100
AcDbSymbolTableRecord
100
AcDbBlockTableRecord
  2
SW_CENTERMARKSYMBOL_8
340
0
102
{BLKREFS
331
155EB
331
15779
102
}
  0
BLOCK_RECORD
  5
A7BC
330
1
100
AcDbSymbolTableRecord
100
AcDbBlockTableRecord
  2
SW_CENTERMARKSYMBOL_9
340
0
102
{BLKREFS
331
15600
331
1578E
102
}
  0
BLOCK_RECORD
  5
A7C8
330
1
100
AcDbSymbolTableRecord
100
AcDbBlockTableRecord
  2
SW_CENTERMARKSYMBOL_10
340
0
102
{BLKREFS
331
157D4
331
157E1
331
157E3
331
157E5
102
}
  0
BLOCK_RECORD
  5
A7D4
330
1
100
AcDbSymbolTableRecord
100
AcDbBlockTableRecord
  2
SW_CENTERMARKSYMBOL_11
340
0
  0
BLOCK_RECORD
  5
A848
330
1
100
AcDbSymbolTableRecord
100
AcDbBlockTableRecord
  2
SW_CENTERMARKSYMBOL_7
340
0
102
{BLKREFS
331
15681
102
}
  0
BLOCK_RECORD
  5
A89F
330
1
100
AcDbSymbolTableRecord
100
AcDbBlockTableRecord
  2
SW_CENTERMARKSYMBOL_4
340
0
102
{BLKREFS
331
15632
331
157BF
102
}
  0
BLOCK_RECORD
  5
C481
330
1
100
AcDbSymbolTableRecord
100
AcDbBlockTableRecord
  2
A$C28467
340
0
  0
BLOCK_RECORD
  5
15583
330
1
100
AcDbSymbolTableRecord
100
AcDbBlockTableRecord
  2
A$C19363
340
0
  0
BLOCK_RECORD
  5
1559B
330
1
100
AcDbSymbolTableRecord
100
AcDbBlockTableRecord
  2
A$C3830
340
0
102
{BLKREFS
331
15726
102
}
  0
BLOCK_RECORD
  5
15727
330
1
100
AcDbSymbolTableRecord
100
AcDbBlockTableRecord
  2
A$C13158
340
0
102
{BLKREFS
331
1582B
102
}
  0
BLOCK_RECORD
  5
1582C
330
1
100
AcDbSymbolTableRecord
100
AcDbBlockTableRecord
  2
A$C26301
340
0
102
{BLKREFS
331
15991
102
}
  0
ENDTAB
  0
ENDSEC
  0
SECTION
  2
BLOCKS
  0
BLOCK
  5
20
330
1F
100
AcDbEntity
  8
0
100
AcDbBlockBegin
  2
*Model_Space
 70
     0
 10
0.0
 20
0.0
 30
0.0
  3
*Model_Space
  1

  0
ENDBLK
  5
21
330
1F
100
AcDbEntity
  8
0
100
AcDbBlockEnd
  0
BLOCK
  5
1C
330
1B
100
AcDbEntity
 67
     1
  8
0
100
AcDbBlockBegin
  2
*Paper_Space
 70
     0
 10
0.0
 20
0.0
 30
0.0
  3
*Paper_Space
  1

  0
ENDBLK
  5
1D
330
1B
100
AcDbEntity
 67
     1
  8
0
100
AcDbBlockEnd
  0
BLOCK
  5
24
330
23
100
AcDbEntity
  8
0
100
AcDbBlockBegin
  2
*Paper_Space0
 70
     0
 10
0.0
 20
0.0
 30
0.0
  3
*Paper_Space0
  1

  0
ENDBLK
  5
25
330
23
100
AcDbEntity
  8
0
100
AcDbBlockEnd
  0
BLOCK
  5
93
330
8F
100
AcDbEntity
  8
0
100
AcDbBlockBegin
  2
_Open
 70
     0
 10
0.0
 20
0.0
 30
0.0
  3
_Open
  1

  0
LINE
  5
90
330
8F
100
AcDbEntity
  8
01注記寸法
 62
     0
370
    -2
100
AcDbLine
 10
-1.0
 20
0.1666666666666667
 30
0.0
 11
0.0
 21
0.0
 31
0.0
  0
LINE
  5
91
330
8F
100
AcDbEntity
  8
01注記寸法
 62
     0
370
    -2
100
AcDbLine
 10
-1.0
 20
-0.1666666666666667
 30
0.0
 11
0.0
 21
0.0
 31
0.0
  0
LINE
  5
92
330
8F
100
AcDbEntity
  8
01注記寸法
 62
     0
370
    -2
100
AcDbLine
 10
0.0
 20
0.0
 30
0.0
 11
-1.0
 21
0.0
 31
0.0
  0
ENDBLK
  5
94
330
8F
100
AcDbEntity
  8
0
100
AcDbBlockEnd
  0
BLOCK
  5
628
330
626
100
AcDbEntity
  8
0
100
AcDbBlockBegin
  2
_DotSmall
 70
     0
 10
0.0
 20
0.0
 30
0.0
  3
_DotSmall
  1

  0
LWPOLYLINE
  5
627
330
626
100
AcDbEntity
  8
01注記寸法
 62
     0
100
AcDbPolyline
 90
        2
 70
     1
 43
0.5
 10
-0.0625
 20
0.0
 42
1.0
 10
0.0625
 20
0.0
 42
1.0
  0
ENDBLK
  5
629
330
626
100
AcDbEntity
  8
0
100
AcDbBlockEnd
  0
BLOCK
  5
6BC2
330
6BC1
100
AcDbEntity
  8
0
100
AcDbBlockBegin
  2
_None
 70
     0
 10
0.0
 20
0.0
 30
0.0
  3
_None
  1

  0
ENDBLK
  5
6BC3
330
6BC1
100
AcDbEntity
  8
0
100
AcDbBlockEnd
  0
BLOCK
  5
8D2D
330
8D2C
100
AcDbEntity
  8
0
100
AcDbBlockBegin
  2
A$C21067
 70
     0
 10
0.0
 20
0.0
 30
0.0
  3
A$C21067
  1

  0
LINE
  5
8D2E
330
8D2C
100
AcDbEntity
  8
01注記寸法
100
AcDbLine
 10
0.0
 20
3.0
 30
0.0
 11
6.0
 21
6.000000000000057
 31
0.0
  0
LINE
  5
8D2F
330
8D2C
100
AcDbEntity
  8
01注記寸法
100
AcDbLine
 10
15.0
 20
4.200000000000045
 30
0.0
 11
6.0
 21
4.200000000000045
 31
0.0
  0
LINE
  5
8D30
330
8D2C
100
AcDbEntity
  8
01注記寸法
100
AcDbLine
 10
6.0
 20
4.200000000000045
 30
0.0
 11
6.0
 21
6.000000000000057
 31
0.0
  0
LINE
  5
8D31
330
8D2C
100
AcDbEntity
  8
01注記寸法
100
AcDbLine
 10
15.0
 20
1.800000000000011
 30
0.0
 11
15.0
 21
4.200000000000045
 31
0.0
  0
LINE
  5
8D32
330
8D2C
100
AcDbEntity
  8
01注記寸法
100
AcDbLine
 10
6.0
 20
0.0
 30
0.0
 11
0.0
 21
3.0
 31
0.0
  0
LINE
  5
8D33
330
8D2C
100
AcDbEntity
  8
01注記寸法
100
AcDbLine
 10
15.0
 20
1.800000000000011
 30
0.0
 11
6.0
 21
1.800000000000011
 31
0.0
  0
LINE
  5
8D34
330
8D2C
100
AcDbEntity
  8
01注記寸法
100
AcDbLine
 10
6.0
 20
0.0
 30
0.0
 11
6.0
 21
1.800000000000011
 31
0.0
  0
ENDBLK
  5
8D35
330
8D2C
100
AcDbEntity
  8
0
100
AcDbBlockEnd
  0
BLOCK
  5
8D38
330
8D37
100
AcDbEntity
  8
0
100
AcDbBlockBegin
  2
A$C19953
 70
     0
 10
0.0
 20
0.0
 30
0.0
  3
A$C19953
  1

  0
LINE
  5
8D39
330
8D37
100
AcDbEntity
  8
01注記寸法
100
AcDbLine
 10
6.0
 20
0.0
 30
0.0
 11
0.0
 21
3.0
 31
0.0
  0
LINE
  5
8D3A
330
8D37
100
AcDbEntity
  8
01注記寸法
100
AcDbLine
 10
0.0
 20
3.0
 30
0.0
 11
6.0
 21
6.000000000000057
 31
0.0
  0
LINE
  5
8D3B
330
8D37
100
AcDbEntity
  8
01注記寸法
100
AcDbLine
 10
15.0
 20
1.800000000000011
 30
0.0
 11
6.0
 21
1.800000000000011
 31
0.0
  0
LINE
  5
8D3C
330
8D37
100
AcDbEntity
  8
01注記寸法
100
AcDbLine
 10
15.0
 20
4.200000000000045
 30
0.0
 11
6.0
 21
4.200000000000045
 31
0.0
  0
LINE
  5
8D3D
330
8D37
100
AcDbEntity
  8
01注記寸法
100
AcDbLine
 10
6.0
 20
0.0
 30
0.0
 11
6.0
 21
1.800000000000011
 31
0.0
  0
LINE
  5
8D3E
330
8D37
100
AcDbEntity
  8
01注記寸法
100
AcDbLine
 10
6.0
 20
4.200000000000045
 30
0.0
 11
6.0
 21
6.000000000000057
 31
0.0
  0
LINE
  5
8D3F
330
8D37
100
AcDbEntity
  8
01注記寸法
100
AcDbLine
 10
15.0
 20
1.800000000000011
 30
0.0
 11
15.0
 21
4.200000000000045
 31
0.0
  0
ENDBLK
  5
8D40
330
8D37
100
AcDbEntity
  8
0
100
AcDbBlockEnd
  0
BLOCK
  5
8D43
330
8D42
100
AcDbEntity
  8
0
100
AcDbBlockBegin
  2
A$C26388
 70
     0
 10
0.0
 20
0.0
 30
0.0
  3
A$C26388
  1

  0
LINE
  5
8D44
330
8D42
100
AcDbEntity
  8
01注記寸法
100
AcDbLine
 10
0.401923788646684
 20
6.894228634059971
 30
0.0
 11
0.0
 21
13.5903810567666
 31
0.0
  0
LINE
  5
8D45
330
8D42
100
AcDbEntity
  8
01注記寸法
100
AcDbLine
 10
6.460769515458708
 20
0.0
 30
0.0
 11
1.960769515458708
 21
7.794228634059948
 31
0.0
  0
LINE
  5
8D46
330
8D42
100
AcDbEntity
  8
01注記寸法
100
AcDbLine
 10
0.401923788646684
 20
6.894228634059971
 30
0.0
 11
1.960769515458708
 21
7.794228634059948
 31
0.0
  0
LINE
  5
8D47
330
8D42
100
AcDbEntity
  8
01注記寸法
100
AcDbLine
 10
8.53923048454135
 20
1.200000000000045
 30
0.0
 11
4.039230484541349
 21
8.994228634059994
 31
0.0
  0
LINE
  5
8D48
330
8D42
100
AcDbEntity
  8
01注記寸法
100
AcDbLine
 10
6.460769515458708
 20
0.0
 30
0.0
 11
8.53923048454135
 21
1.200000000000045
 31
0.0
  0
LINE
  5
8D49
330
8D42
100
AcDbEntity
  8
01注記寸法
100
AcDbLine
 10
0.0
 20
13.5903810567666
 30
0.0
 11
5.598076211353373
 21
9.89422863405997
 31
0.0
  0
LINE
  5
8D4A
330
8D42
100
AcDbEntity
  8
01注記寸法
100
AcDbLine
 10
4.039230484541349
 20
8.994228634059994
 30
0.0
 11
5.598076211353373
 21
9.89422863405997
 31
0.0
  0
ENDBLK
  5
8D4B
330
8D42
100
AcDbEntity
  8
0
100
AcDbBlockEnd
  0
BLOCK
  5
A627
330
A626
100
AcDbEntity
  8
0
 48
20.0
100
AcDbBlockBegin
  2
A$C3C7277DA
 70
     0
 10
0.0
 20
0.0
 30
0.0
  3
A$C3C7277DA
  1

  0
LINE
  5
A628
330
A626
100
AcDbEntity
  8
0
100
AcDbLine
 10
266.7000199373761
 20
68.00000432218076
 30
0.0
 11
304.8000199373782
 21
51.00000432218076
 31
0.0
  0
LINE
  5
A629
330
A626
100
AcDbEntity
  8
0
100
AcDbLine
 10
228.6000199373775
 20
51.00000432218076
 30
0.0
 11
266.7000199373761
 21
68.00000432218076
 31
0.0
  0
LINE
  5
A62A
330
A626
100
AcDbEntity
  8
0
100
AcDbLine
 10
152.4000199373768
 20
51.00000432218076
 30
0.0
 11
190.5000199373753
 21
68.00000432218076
 31
0.0
  0
LINE
  5
A62B
330
A626
100
AcDbEntity
  8
0
100
AcDbLine
 10
114.3000199373746
 20
68.00000432218076
 30
0.0
 11
152.4000199373768
 21
51.00000432218076
 31
0.0
  0
LINE
  5
A62C
330
A626
100
AcDbEntity
  8
0
100
AcDbLine
 10
190.5000199373753
 20
68.00000432218076
 30
0.0
 11
228.6000199373775
 21
51.00000432218076
 31
0.0
  0
LINE
  5
A62D
330
A626
100
AcDbEntity
  8
0
100
AcDbLine
 10
228.6000199373775
 20
51.00000432218076
 30
0.0
 11
190.5000199373753
 21
34.00000432218076
 31
0.0
  0
LINE
  5
A62E
330
A626
100
AcDbEntity
  8
0
100
AcDbLine
 10
190.5000199373753
 20
34.00000432218076
 30
0.0
 11
228.6000199373775
 21
17.00000432218076
 31
0.0
  0
LINE
  5
A62F
330
A626
100
AcDbEntity
  8
0
100
AcDbLine
 10
228.6000199373775
 20
17.00000432218076
 30
0.0
 11
190.5000199373753
 21
0.0000043221807573
 31
0.0
  0
LINE
  5
A630
330
A626
100
AcDbEntity
  8
0
100
AcDbLine
 10
38.10001993737387
 20
34.00000432218076
 30
0.0
 11
76.20001993737606
 21
17.00000432218076
 31
0.0
  0
LINE
  5
A631
330
A626
100
AcDbEntity
  8
0
100
AcDbLine
 10
76.20001993737606
 20
17.00000432218076
 30
0.0
 11
38.10001993737387
 21
0.0000043221807573
 31
0.0
  0
LINE
  5
A632
330
A626
100
AcDbEntity
  8
0
100
AcDbLine
 10
38.10001993737387
 20
0.0000043221807573
 30
0.0
 11
0.0000199373753276
 21
17.00000432218076
 31
0.0
  0
LINE
  5
A633
330
A626
100
AcDbEntity
  8
0
100
AcDbLine
 10
114.3000199373746
 20
34.00000432218076
 30
0.0
 11
76.20001993737606
 21
51.00000432218076
 31
0.0
  0
LINE
  5
A634
330
A626
100
AcDbEntity
  8
0
100
AcDbLine
 10
190.5000199373753
 20
34.00000432218076
 30
0.0
 11
152.4000199373768
 21
51.00000432218076
 31
0.0
  0
LINE
  5
A635
330
A626
100
AcDbEntity
  8
0
100
AcDbLine
 10
152.4000199373768
 20
51.00000432218076
 30
0.0
 11
114.3000199373746
 21
34.00000432218076
 31
0.0
  0
LINE
  5
A636
330
A626
100
AcDbEntity
  8
0
100
AcDbLine
 10
114.3000199373746
 20
34.00000432218076
 30
0.0
 11
152.4000199373768
 21
17.00000432218076
 31
0.0
  0
LINE
  5
A637
330
A626
100
AcDbEntity
  8
0
100
AcDbLine
 10
76.20001993737606
 20
17.00000432218076
 30
0.0
 11
114.3000199373746
 21
34.00000432218076
 31
0.0
  0
LINE
  5
A638
330
A626
100
AcDbEntity
  8
0
100
AcDbLine
 10
114.3000199373746
 20
0.0000043221807573
 30
0.0
 11
76.20001993737606
 21
17.00000432218076
 31
0.0
  0
LINE
  5
A639
330
A626
100
AcDbEntity
  8
0
100
AcDbLine
 10
152.4000199373768
 20
17.00000432218076
 30
0.0
 11
114.3000199373746
 21
0.0000043221807573
 31
0.0
  0
LINE
  5
A63A
330
A626
100
AcDbEntity
  8
0
100
AcDbLine
 10
152.4000199373768
 20
17.00000432218076
 30
0.0
 11
190.5000199373753
 21
34.00000432218076
 31
0.0
  0
LINE
  5
A63B
330
A626
100
AcDbEntity
  8
0
100
AcDbLine
 10
190.5000199373753
 20
0.0000043221807573
 30
0.0
 11
152.4000199373768
 21
17.00000432218076
 31
0.0
  0
LINE
  5
A63C
330
A626
100
AcDbEntity
  8
0
100
AcDbLine
 10
304.8000199373782
 20
51.00000432218076
 30
0.0
 11
266.7000199373761
 21
34.00000432218076
 31
0.0
  0
LINE
  5
A63D
330
A626
100
AcDbEntity
  8
0
100
AcDbLine
 10
266.7000199373761
 20
34.00000432218076
 30
0.0
 11
228.6000199373775
 21
51.00000432218076
 31
0.0
  0
LINE
  5
A63E
330
A626
100
AcDbEntity
  8
0
100
AcDbLine
 10
304.8000199373782
 20
17.00000432218076
 30
0.0
 11
266.7000199373761
 21
0.0000043221807573
 31
0.0
  0
LINE
  5
A63F
330
A626
100
AcDbEntity
  8
0
100
AcDbLine
 10
266.7000199373761
 20
0.0000043221807573
 30
0.0
 11
228.6000199373775
 21
17.00000432218076
 31
0.0
  0
LINE
  5
A640
330
A626
100
AcDbEntity
  8
0
100
AcDbLine
 10
228.6000199373775
 20
17.00000432218076
 30
0.0
 11
266.7000199373761
 21
34.00000432218076
 31
0.0
  0
LINE
  5
A641
330
A626
100
AcDbEntity
  8
0
100
AcDbLine
 10
266.7000199373761
 20
34.00000432218076
 30
0.0
 11
304.8000199373782
 21
17.00000432218076
 31
0.0
  0
LINE
  5
A642
330
A626
100
AcDbEntity
  8
0
100
AcDbLine
 10
228.6000199373775
 20
85.00000432218076
 30
0.0
 11
190.5000199373753
 21
68.00000432218076
 31
0.0
  0
LINE
  5
A643
330
A626
100
AcDbEntity
  8
0
100
AcDbLine
 10
190.5000199373753
 20
102.0000043221808
 30
0.0
 11
228.6000199373775
 21
85.00000432218076
 31
0.0
  0
LINE
  5
A644
330
A626
100
AcDbEntity
  8
0
100
AcDbLine
 10
190.5000199373753
 20
68.00000432218076
 30
0.0
 11
152.4000199373768
 21
85.00000432218076
 31
0.0
  0
LINE
  5
A645
330
A626
100
AcDbEntity
  8
0
100
AcDbLine
 10
266.7000199373761
 20
136.0000043221808
 30
0.0
 11
304.8000199373782
 21
119.0000043221808
 31
0.0
  0
LINE
  5
A646
330
A626
100
AcDbEntity
  8
0
100
AcDbLine
 10
304.8000199373782
 20
119.0000043221808
 30
0.0
 11
266.7000199373761
 21
102.0000043221808
 31
0.0
  0
LINE
  5
A647
330
A626
100
AcDbEntity
  8
0
100
AcDbLine
 10
266.7000199373761
 20
102.0000043221808
 30
0.0
 11
228.6000199373775
 21
119.0000043221808
 31
0.0
  0
LINE
  5
A648
330
A626
100
AcDbEntity
  8
0
100
AcDbLine
 10
266.7000199373761
 20
102.0000043221808
 30
0.0
 11
304.8000199373782
 21
85.00000432218076
 31
0.0
  0
LINE
  5
A649
330
A626
100
AcDbEntity
  8
0
100
AcDbLine
 10
304.8000199373782
 20
85.00000432218076
 30
0.0
 11
266.7000199373761
 21
68.00000432218076
 31
0.0
  0
LINE
  5
A64A
330
A626
100
AcDbEntity
  8
0
100
AcDbLine
 10
228.6000199373775
 20
85.00000432218076
 30
0.0
 11
266.7000199373761
 21
102.0000043221808
 31
0.0
  0
LINE
  5
A64B
330
A626
100
AcDbEntity
  8
0
100
AcDbLine
 10
266.7000199373761
 20
68.00000432218076
 30
0.0
 11
228.6000199373775
 21
85.00000432218076
 31
0.0
  0
ENDBLK
  5
A64C
330
A626
100
AcDbEntity
  8
0
 48
20.0
100
AcDbBlockEnd
  0
BLOCK
  5
A702
330
A701
100
AcDbEntity
  8
0
100
AcDbBlockBegin
  2
SW_CENTERMARKSYMBOL_0
 70
     0
 10
0.0
 20
0.0
 30
0.0
  3
SW_CENTERMARKSYMBOL_0
  1

  0
LINE
  5
A703
330
A701
100
AcDbEntity
  8
0
  6
Continuous
 62
     0
370
     0
100
AcDbLine
 10
0.0
 20
0.0
 30
0.0
 11
0.0
 21
0.2500000000000002
 31
0.0
  0
LINE
  5
A704
330
A701
100
AcDbEntity
  8
0
  6
Continuous
 62
     0
370
     0
100
AcDbLine
 10
0.0
 20
0.0
 30
0.0
 11
-0.2500000000000002
 21
0.0
 31
0.0
  0
LINE
  5
A705
330
A701
100
AcDbEntity
  8
0
  6
Continuous
 62
     0
370
     0
100
AcDbLine
 10
0.0
 20
0.0
 30
0.0
 11
0.0
 21
-0.2500000000000002
 31
0.0
  0
LINE
  5
A706
330
A701
100
AcDbEntity
  8
0
  6
Continuous
 62
     0
370
     0
100
AcDbLine
 10
0.0
 20
0.0
 30
0.0
 11
0.2500000000000002
 21
0.0
 31
0.0
  0
LINE
  5
A707
330
A701
100
AcDbEntity
  8
0
  6
Continuous
 62
     0
370
     0
100
AcDbLine
 10
0.0
 20
0.5000000000000004
 30
0.0
 11
0.0
 21
0.7500000000000007
 31
0.0
  0
LINE
  5
A708
330
A701
100
AcDbEntity
  8
0
  6
Continuous
 62
     0
370
     0
100
AcDbLine
 10
-0.5000000000000004
 20
0.0
 30
0.0
 11
-0.7500000000000007
 21
0.0
 31
0.0
  0
LINE
  5
A709
330
A701
100
AcDbEntity
  8
0
  6
Continuous
 62
     0
370
     0
100
AcDbLine
 10
0.0
 20
-0.5000000000000004
 30
0.0
 11
0.0
 21
-0.7500000000000007
 31
0.0
  0
LINE
  5
A70A
330
A701
100
AcDbEntity
  8
0
  6
Continuous
 62
     0
370
     0
100
AcDbLine
 10
0.5000000000000004
 20
0.0
 30
0.0
 11
0.7500000000000007
 21
0.0
 31
0.0
  0
ENDBLK
  5
A70B
330
A701
100
AcDbEntity
  8
0
100
AcDbBlockEnd
  0
BLOCK
  5
A70E
330
A70D
100
AcDbEntity
  8
0
100
AcDbBlockBegin
  2
SW_CENTERMARKSYMBOL_1
 70
     0
 10
0.0
 20
0.0
 30
0.0
  3
SW_CENTERMARKSYMBOL_1
  1

  0
LINE
  5
A70F
330
A70D
100
AcDbEntity
  8
0
  6
Continuous
 62
     0
370
     0
100
AcDbLine
 10
0.0
 20
0.0
 30
0.0
 11
0.0
 21
0.2500000000000002
 31
0.0
  0
LINE
  5
A710
330
A70D
100
AcDbEntity
  8
0
  6
Continuous
 62
     0
370
     0
100
AcDbLine
 10
0.0
 20
0.0
 30
0.0
 11
-0.2500000000000002
 21
0.0
 31
0.0
  0
LINE
  5
A711
330
A70D
100
AcDbEntity
  8
0
  6
Continuous
 62
     0
370
     0
100
AcDbLine
 10
0.0
 20
0.0
 30
0.0
 11
0.0
 21
-0.2500000000000002
 31
0.0
  0
LINE
  5
A712
330
A70D
100
AcDbEntity
  8
0
  6
Continuous
 62
     0
370
     0
100
AcDbLine
 10
0.0
 20
0.0
 30
0.0
 11
0.2500000000000002
 21
0.0
 31
0.0
  0
LINE
  5
A713
330
A70D
100
AcDbEntity
  8
0
  6
Continuous
 62
     0
370
     0
100
AcDbLine
 10
0.0
 20
0.5000000000000004
 30
0.0
 11
0.0
 21
0.7500000000000007
 31
0.0
  0
LINE
  5
A714
330
A70D
100
AcDbEntity
  8
0
  6
Continuous
 62
     0
370
     0
100
AcDbLine
 10
-0.5000000000000004
 20
0.0
 30
0.0
 11
-0.7500000000000007
 21
0.0
 31
0.0
  0
LINE
  5
A715
330
A70D
100
AcDbEntity
  8
0
  6
Continuous
 62
     0
370
     0
100
AcDbLine
 10
0.0
 20
-0.5000000000000004
 30
0.0
 11
0.0
 21
-0.7500000000000007
 31
0.0
  0
LINE
  5
A716
330
A70D
100
AcDbEntity
  8
0
  6
Continuous
 62
     0
370
     0
100
AcDbLine
 10
0.5000000000000004
 20
0.0
 30
0.0
 11
0.7500000000000007
 21
0.0
 31
0.0
  0
ENDBLK
  5
A717
330
A70D
100
AcDbEntity
  8
0
100
AcDbBlockEnd
  0
BLOCK
  5
A71A
330
A719
100
AcDbEntity
  8
0
100
AcDbBlockBegin
  2
SW_CENTERMARKSYMBOL_2
 70
     0
 10
0.0
 20
0.0
 30
0.0
  3
SW_CENTERMARKSYMBOL_2
  1

  0
LINE
  5
A71B
330
A719
100
AcDbEntity
  8
0
  6
Continuous
 62
     0
370
     0
100
AcDbLine
 10
0.0
 20
0.0
 30
0.0
 11
0.0
 21
0.2500000000000002
 31
0.0
  0
LINE
  5
A71C
330
A719
100
AcDbEntity
  8
0
  6
Continuous
 62
     0
370
     0
100
AcDbLine
 10
0.0
 20
0.0
 30
0.0
 11
-0.2500000000000002
 21
0.0
 31
0.0
  0
LINE
  5
A71D
330
A719
100
AcDbEntity
  8
0
  6
Continuous
 62
     0
370
     0
100
AcDbLine
 10
0.0
 20
0.0
 30
0.0
 11
0.0
 21
-0.2500000000000002
 31
0.0
  0
LINE
  5
A71E
330
A719
100
AcDbEntity
  8
0
  6
Continuous
 62
     0
370
     0
100
AcDbLine
 10
0.0
 20
0.0
 30
0.0
 11
0.2500000000000002
 21
0.0
 31
0.0
  0
LINE
  5
A71F
330
A719
100
AcDbEntity
  8
0
  6
Continuous
 62
     0
370
     0
100
AcDbLine
 10
0.0
 20
0.5000000000000004
 30
0.0
 11
0.0
 21
0.7500000000000007
 31
0.0
  0
LINE
  5
A720
330
A719
100
AcDbEntity
  8
0
  6
Continuous
 62
     0
370
     0
100
AcDbLine
 10
-0.5000000000000004
 20
0.0
 30
0.0
 11
-0.7500000000000007
 21
0.0
 31
0.0
  0
LINE
  5
A721
330
A719
100
AcDbEntity
  8
0
  6
Continuous
 62
     0
370
     0
100
AcDbLine
 10
0.0
 20
-0.5000000000000004
 30
0.0
 11
0.0
 21
-0.7500000000000007
 31
0.0
  0
LINE
  5
A722
330
A719
100
AcDbEntity
  8
0
  6
Continuous
 62
     0
370
     0
100
AcDbLine
 10
0.5000000000000004
 20
0.0
 30
0.0
 11
0.7500000000000007
 21
0.0
 31
0.0
  0
ENDBLK
  5
A723
330
A719
100
AcDbEntity
  8
0
100
AcDbBlockEnd
  0
BLOCK
  5
A726
330
A725
100
AcDbEntity
  8
0
100
AcDbBlockBegin
  2
SW_CENTERMARKSYMBOL_3
 70
     0
 10
0.0
 20
0.0
 30
0.0
  3
SW_CENTERMARKSYMBOL_3
  1

  0
LINE
  5
A727
330
A725
100
AcDbEntity
  8
0
  6
Continuous
 62
     0
370
     0
100
AcDbLine
 10
0.0
 20
0.0
 30
0.0
 11
0.0
 21
0.2500000000000002
 31
0.0
  0
LINE
  5
A728
330
A725
100
AcDbEntity
  8
0
  6
Continuous
 62
     0
370
     0
100
AcDbLine
 10
0.0
 20
0.0
 30
0.0
 11
-0.2500000000000002
 21
0.0
 31
0.0
  0
LINE
  5
A729
330
A725
100
AcDbEntity
  8
0
  6
Continuous
 62
     0
370
     0
100
AcDbLine
 10
0.0
 20
0.0
 30
0.0
 11
0.0
 21
-0.2500000000000002
 31
0.0
  0
LINE
  5
A72A
330
A725
100
AcDbEntity
  8
0
  6
Continuous
 62
     0
370
     0
100
AcDbLine
 10
0.0
 20
0.0
 30
0.0
 11
0.2500000000000002
 21
0.0
 31
0.0
  0
LINE
  5
A72B
330
A725
100
AcDbEntity
  8
0
  6
Continuous
 62
     0
370
     0
100
AcDbLine
 10
0.0
 20
0.5000000000000004
 30
0.0
 11
0.0
 21
0.7500000000000007
 31
0.0
  0
LINE
  5
A72C
330
A725
100
AcDbEntity
  8
0
  6
Continuous
 62
     0
370
     0
100
AcDbLine
 10
-0.5000000000000004
 20
0.0
 30
0.0
 11
-0.7500000000000007
 21
0.0
 31
0.0
  0
LINE
  5
A72D
330
A725
100
AcDbEntity
  8
0
  6
Continuous
 62
     0
370
     0
100
AcDbLine
 10
0.0
 20
-0.5000000000000004
 30
0.0
 11
0.0
 21
-0.7500000000000007
 31
0.0
  0
LINE
  5
A72E
330
A725
100
AcDbEntity
  8
0
  6
Continuous
 62
     0
370
     0
100
AcDbLine
 10
0.5000000000000004
 20
0.0
 30
0.0
 11
0.7500000000000007
 21
0.0
 31
0.0
  0
ENDBLK
  5
A72F
330
A725
100
AcDbEntity
  8
0
100
AcDbBlockEnd
  0
BLOCK
  5
A7B1
330
A7B0
100
AcDbEntity
  8
0
100
AcDbBlockBegin
  2
SW_CENTERMARKSYMBOL_8
 70
     0
 10
0.0
 20
0.0
 30
0.0
  3
SW_CENTERMARKSYMBOL_8
  1

  0
LINE
  5
A7B2
330
A7B0
100
AcDbEntity
  8
0
  6
Continuous
 62
     0
370
     0
100
AcDbLine
 10
0.0
 20
0.0
 30
0.0
 11
0.0
 21
0.2500000000000002
 31
0.0
  0
LINE
  5
A7B3
330
A7B0
100
AcDbEntity
  8
0
  6
Continuous
 62
     0
370
     0
100
AcDbLine
 10
0.0
 20
0.0
 30
0.0
 11
-0.250000000000028
 21
0.0
 31
0.0
  0
LINE
  5
A7B4
330
A7B0
100
AcDbEntity
  8
0
  6
Continuous
 62
     0
370
     0
100
AcDbLine
 10
0.0
 20
0.0
 30
0.0
 11
0.0
 21
-0.2500000000000002
 31
0.0
  0
LINE
  5
A7B5
330
A7B0
100
AcDbEntity
  8
0
  6
Continuous
 62
     0
370
     0
100
AcDbLine
 10
0.0
 20
0.0
 30
0.0
 11
0.2499999999999725
 21
0.0
 31
0.0
  0
LINE
  5
A7B6
330
A7B0
100
AcDbEntity
  8
0
  6
Continuous
 62
     0
370
     0
100
AcDbLine
 10
0.0
 20
0.5000000000000004
 30
0.0
 11
0.0
 21
0.7500000000000007
 31
0.0
  0
LINE
  5
A7B7
330
A7B0
100
AcDbEntity
  8
0
  6
Continuous
 62
     0
370
     0
100
AcDbLine
 10
-0.5000000000000004
 20
0.0
 30
0.0
 11
-0.7500000000000007
 21
0.0
 31
0.0
  0
LINE
  5
A7B8
330
A7B0
100
AcDbEntity
  8
0
  6
Continuous
 62
     0
370
     0
100
AcDbLine
 10
0.0
 20
-0.5000000000000004
 30
0.0
 11
0.0
 21
-0.7500000000000007
 31
0.0
  0
LINE
  5
A7B9
330
A7B0
100
AcDbEntity
  8
0
  6
Continuous
 62
     0
370
     0
100
AcDbLine
 10
0.5000000000000004
 20
0.0
 30
0.0
 11
0.7499999999999729
 21
0.0
 31
0.0
  0
ENDBLK
  5
A7BA
330
A7B0
100
AcDbEntity
  8
0
100
AcDbBlockEnd
  0
BLOCK
  5
A7BD
330
A7BC
100
AcDbEntity
  8
0
100
AcDbBlockBegin
  2
SW_CENTERMARKSYMBOL_9
 70
     0
 10
0.0
 20
0.0
 30
0.0
  3
SW_CENTERMARKSYMBOL_9
  1

  0
LINE
  5
A7BE
330
A7BC
100
AcDbEntity
  8
0
  6
Continuous
 62
     0
370
     0
100
AcDbLine
 10
0.0
 20
0.0
 30
0.0
 11
0.0
 21
0.2500000000000002
 31
0.0
  0
LINE
  5
A7BF
330
A7BC
100
AcDbEntity
  8
0
  6
Continuous
 62
     0
370
     0
100
AcDbLine
 10
0.0
 20
0.0
 30
0.0
 11
-0.250000000000028
 21
0.0
 31
0.0
  0
LINE
  5
A7C0
330
A7BC
100
AcDbEntity
  8
0
  6
Continuous
 62
     0
370
     0
100
AcDbLine
 10
0.0
 20
0.0
 30
0.0
 11
0.0
 21
-0.2500000000000002
 31
0.0
  0
LINE
  5
A7C1
330
A7BC
100
AcDbEntity
  8
0
  6
Continuous
 62
     0
370
     0
100
AcDbLine
 10
0.0
 20
0.0
 30
0.0
 11
0.2499999999999725
 21
0.0
 31
0.0
  0
LINE
  5
A7C2
330
A7BC
100
AcDbEntity
  8
0
  6
Continuous
 62
     0
370
     0
100
AcDbLine
 10
0.0
 20
0.5000000000000004
 30
0.0
 11
0.0
 21
0.7499999999999729
 31
0.0
  0
LINE
  5
A7C3
330
A7BC
100
AcDbEntity
  8
0
  6
Continuous
 62
     0
370
     0
100
AcDbLine
 10
-0.5000000000000004
 20
0.0
 30
0.0
 11
-0.7500000000000007
 21
0.0
 31
0.0
  0
LINE
  5
A7C4
330
A7BC
100
AcDbEntity
  8
0
  6
Continuous
 62
     0
370
     0
100
AcDbLine
 10
0.0
 20
-0.5000000000000004
 30
0.0
 11
0.0
 21
-0.7500000000000007
 31
0.0
  0
LINE
  5
A7C5
330
A7BC
100
AcDbEntity
  8
0
  6
Continuous
 62
     0
370
     0
100
AcDbLine
 10
0.5000000000000004
 20
0.0
 30
0.0
 11
0.7499999999999729
 21
0.0
 31
0.0
  0
ENDBLK
  5
A7C6
330
A7BC
100
AcDbEntity
  8
0
100
AcDbBlockEnd
  0
BLOCK
  5
A7C9
330
A7C8
100
AcDbEntity
  8
0
100
AcDbBlockBegin
  2
SW_CENTERMARKSYMBOL_10
 70
     0
 10
0.0
 20
0.0
 30
0.0
  3
SW_CENTERMARKSYMBOL_10
  1

  0
LINE
  5
A7CA
330
A7C8
100
AcDbEntity
  8
0
  6
Continuous
 62
     0
370
     0
100
AcDbLine
 10
0.0
 20
0.0
 30
0.0
 11
0.0
 21
0.2500000000000002
 31
0.0
  0
LINE
  5
A7CB
330
A7C8
100
AcDbEntity
  8
0
  6
Continuous
 62
     0
370
     0
100
AcDbLine
 10
0.0
 20
0.0
 30
0.0
 11
-0.2499999999999725
 21
0.0
 31
0.0
  0
LINE
  5
A7CC
330
A7C8
100
AcDbEntity
  8
0
  6
Continuous
 62
     0
370
     0
100
AcDbLine
 10
0.0
 20
0.0
 30
0.0
 11
0.0
 21
-0.2500000000000002
 31
0.0
  0
LINE
  5
A7CD
330
A7C8
100
AcDbEntity
  8
0
  6
Continuous
 62
     0
370
     0
100
AcDbLine
 10
0.0
 20
0.0
 30
0.0
 11
0.250000000000028
 21
0.0
 31
0.0
  0
LINE
  5
A7CE
330
A7C8
100
AcDbEntity
  8
0
  6
Continuous
 62
     0
370
     0
100
AcDbLine
 10
0.0
 20
0.5000000000000004
 30
0.0
 11
0.0
 21
0.7500000000000007
 31
0.0
  0
LINE
  5
A7CF
330
A7C8
100
AcDbEntity
  8
0
  6
Continuous
 62
     0
370
     0
100
AcDbLine
 10
-0.5000000000000004
 20
0.0
 30
0.0
 11
-0.7499999999999729
 21
0.0
 31
0.0
  0
LINE
  5
A7D0
330
A7C8
100
AcDbEntity
  8
0
  6
Continuous
 62
     0
370
     0
100
AcDbLine
 10
0.0
 20
-0.5000000000000004
 30
0.0
 11
0.0
 21
-0.7500000000000007
 31
0.0
  0
LINE
  5
A7D1
330
A7C8
100
AcDbEntity
  8
0
  6
Continuous
 62
     0
370
     0
100
AcDbLine
 10
0.5000000000000004
 20
0.0
 30
0.0
 11
0.7500000000000284
 21
0.0
 31
0.0
  0
ENDBLK
  5
A7D2
330
A7C8
100
AcDbEntity
  8
0
100
AcDbBlockEnd
  0
BLOCK
  5
A7D5
330
A7D4
100
AcDbEntity
  8
0
100
AcDbBlockBegin
  2
SW_CENTERMARKSYMBOL_11
 70
     0
 10
0.0
 20
0.0
 30
0.0
  3
SW_CENTERMARKSYMBOL_11
  1

  0
LINE
  5
A7D6
330
A7D4
100
AcDbEntity
  8
0
  6
Continuous
 62
     0
370
     0
100
AcDbLine
 10
0.0
 20
0.0
 30
0.0
 11
0.0
 21
0.2500000000000002
 31
0.0
  0
LINE
  5
A7D7
330
A7D4
100
AcDbEntity
  8
0
  6
Continuous
 62
     0
370
     0
100
AcDbLine
 10
0.0
 20
0.0
 30
0.0
 11
-0.2499999999999725
 21
0.0
 31
0.0
  0
LINE
  5
A7D8
330
A7D4
100
AcDbEntity
  8
0
  6
Continuous
 62
     0
370
     0
100
AcDbLine
 10
0.0
 20
0.0
 30
0.0
 11
0.0
 21
-0.2500000000000002
 31
0.0
  0
LINE
  5
A7D9
330
A7D4
100
AcDbEntity
  8
0
  6
Continuous
 62
     0
370
     0
100
AcDbLine
 10
0.0
 20
0.0
 30
0.0
 11
0.250000000000028
 21
0.0
 31
0.0
  0
LINE
  5
A7DA
330
A7D4
100
AcDbEntity
  8
0
  6
Continuous
 62
     0
370
     0
100
AcDbLine
 10
0.0
 20
0.5000000000000004
 30
0.0
 11
0.0
 21
0.7500000000000007
 31
0.0
  0
LINE
  5
A7DB
330
A7D4
100
AcDbEntity
  8
0
  6
Continuous
 62
     0
370
     0
100
AcDbLine
 10
-0.5000000000000004
 20
0.0
 30
0.0
 11
-0.7499999999999729
 21
0.0
 31
0.0
  0
LINE
  5
A7DC
330
A7D4
100
AcDbEntity
  8
0
  6
Continuous
 62
     0
370
     0
100
AcDbLine
 10
0.0
 20
-0.5000000000000004
 30
0.0
 11
0.0
 21
-0.7500000000000007
 31
0.0
  0
LINE
  5
A7DD
330
A7D4
100
AcDbEntity
  8
0
  6
Continuous
 62
     0
370
     0
100
AcDbLine
 10
0.5000000000000004
 20
0.0
 30
0.0
 11
0.7500000000000284
 21
0.0
 31
0.0
  0
ENDBLK
  5
A7DE
330
A7D4
100
AcDbEntity
  8
0
100
AcDbBlockEnd
  0
BLOCK
  5
A849
330
A848
100
AcDbEntity
  8
0
100
AcDbBlockBegin
  2
SW_CENTERMARKSYMBOL_7
 70
     0
 10
0.0
 20
0.0
 30
0.0
  3
SW_CENTERMARKSYMBOL_7
  1

  0
LINE
  5
A84A
330
A848
100
AcDbEntity
  8
0
  6
Continuous
 62
     0
370
     0
100
AcDbLine
 10
0.0
 20
0.0
 30
0.0
 11
0.0
 21
0.5000000000000004
 31
0.0
  0
LINE
  5
A84B
330
A848
100
AcDbEntity
  8
0
  6
Continuous
 62
     0
370
     0
100
AcDbLine
 10
0.0
 20
0.0
 30
0.0
 11
-0.500000000000056
 21
0.0
 31
0.0
  0
LINE
  5
A84C
330
A848
100
AcDbEntity
  8
0
  6
Continuous
 62
     0
370
     0
100
AcDbLine
 10
0.0
 20
0.0
 30
0.0
 11
0.0
 21
-0.5000000000000004
 31
0.0
  0
LINE
  5
A84D
330
A848
100
AcDbEntity
  8
0
  6
Continuous
 62
     0
370
     0
100
AcDbLine
 10
0.0
 20
0.0
 30
0.0
 11
0.4999999999999449
 21
0.0
 31
0.0
  0
LINE
  5
A84E
330
A848
100
AcDbEntity
  8
0
  6
Continuous
 62
     0
370
     0
100
AcDbLine
 10
0.0
 20
1.000000000000001
 30
0.0
 11
0.0
 21
1.09999999999999
 31
0.0
  0
LINE
  5
A84F
330
A848
100
AcDbEntity
  8
0
  6
Continuous
 62
     0
370
     0
100
AcDbLine
 10
-1.000000000000001
 20
0.0
 30
0.0
 11
-1.09999999999999
 21
0.0
 31
0.0
  0
LINE
  5
A850
330
A848
100
AcDbEntity
  8
0
  6
Continuous
 62
     0
370
     0
100
AcDbLine
 10
0.0
 20
-1.000000000000001
 30
0.0
 11
0.0
 21
-1.09999999999999
 31
0.0
  0
LINE
  5
A851
330
A848
100
AcDbEntity
  8
0
  6
Continuous
 62
     0
370
     0
100
AcDbLine
 10
1.000000000000001
 20
0.0
 30
0.0
 11
1.09999999999999
 21
0.0
 31
0.0
  0
ENDBLK
  5
A852
330
A848
100
AcDbEntity
  8
0
100
AcDbBlockEnd
  0
BLOCK
  5
A8A0
330
A89F
100
AcDbEntity
  8
0
100
AcDbBlockBegin
  2
SW_CENTERMARKSYMBOL_4
 70
     0
 10
0.0
 20
0.0
 30
0.0
  3
SW_CENTERMARKSYMBOL_4
  1

  0
LINE
  5
A8A1
330
A89F
100
AcDbEntity
  8
0
  6
Continuous
 62
     0
370
     0
100
AcDbLine
 10
0.0
 20
0.0
 30
0.0
 11
0.0
 21
0.5000000000000004
 31
0.0
  0
LINE
  5
A8A2
330
A89F
100
AcDbEntity
  8
0
  6
Continuous
 62
     0
370
     0
100
AcDbLine
 10
0.0
 20
0.0
 30
0.0
 11
-0.4999999999999449
 21
0.0
 31
0.0
  0
LINE
  5
A8A3
330
A89F
100
AcDbEntity
  8
0
  6
Continuous
 62
     0
370
     0
100
AcDbLine
 10
0.0
 20
0.0
 30
0.0
 11
0.0
 21
-0.5000000000000004
 31
0.0
  0
LINE
  5
A8A4
330
A89F
100
AcDbEntity
  8
0
  6
Continuous
 62
     0
370
     0
100
AcDbLine
 10
0.0
 20
0.0
 30
0.0
 11
0.500000000000056
 21
0.0
 31
0.0
  0
LINE
  5
A8A5
330
A89F
100
AcDbEntity
  8
0
  6
Continuous
 62
     0
370
     0
100
AcDbLine
 10
0.0
 20
1.000000000000001
 30
0.0
 11
0.0
 21
1.299999999999968
 31
0.0
  0
LINE
  5
A8A6
330
A89F
100
AcDbEntity
  8
0
  6
Continuous
 62
     0
370
     0
100
AcDbLine
 10
-1.000000000000001
 20
0.0
 30
0.0
 11
-1.299999999999968
 21
0.0
 31
0.0
  0
LINE
  5
A8A7
330
A89F
100
AcDbEntity
  8
0
  6
Continuous
 62
     0
370
     0
100
AcDbLine
 10
0.0
 20
-1.000000000000001
 30
0.0
 11
0.0
 21
-1.300000000000023
 31
0.0
  0
LINE
  5
A8A8
330
A89F
100
AcDbEntity
  8
0
  6
Continuous
 62
     0
370
     0
100
AcDbLine
 10
1.000000000000001
 20
0.0
 30
0.0
 11
1.300000000000079
 21
0.0
 31
0.0
  0
ENDBLK
  5
A8A9
330
A89F
100
AcDbEntity
  8
0
100
AcDbBlockEnd
  0
BLOCK
  5
C4FC
330
C481
100
AcDbEntity
  8
0
100
AcDbBlockBegin
  2
A$C28467
 70
     0
 10
0.0
 20
0.0
 30
0.0
  3
A$C28467
  1

  0
LINE
  5
C4AE
330
C481
100
AcDbEntity
  8
02製品
100
AcDbLine
 10
51.10003129983056
 20
210.8352857659062
 30
0.0
 11
31.1000312998317
 21
210.8352857659062
 31
0.0
  0
LINE
  5
C4AF
330
C481
100
AcDbEntity
  8
02製品
100
AcDbLine
 10
31.1000312998317
 20
210.8352857659062
 30
0.0
 11
51.10003129983056
 21
210.8352857659062
 31
0.0
  0
LINE
  5
C4B0
330
C481
100
AcDbEntity
  8
02製品
100
AcDbLine
 10
7.100031299833063
 20
230.835285765905
 30
0.0
 11
157.1000312998331
 21
230.835285765905
 31
0.0
  0
LINE
  5
C4B1
330
C481
100
AcDbEntity
  8
02製品
100
AcDbLine
 10
47.10003129983079
 20
80.83528576590504
 30
0.0
 11
157.1000312998331
 21
190.8352857659057
 31
0.0
  0
LINE
  5
C4B2
330
C481
100
AcDbEntity
  8
02製品
100
AcDbLine
 10
11.10003129983284
 20
0.0000000000003411
 30
0.0
 11
11.10003129983284
 21
80.83528576590504
 31
0.0
  0
LINE
  5
C4B3
330
C481
100
AcDbEntity
  8
02製品
  6
HIDDEN
100
AcDbLine
 10
14.10003129983022
 20
0.0000000000001137
 30
0.0
 11
14.10003129983011
 21
80.83528576590504
 31
0.0
  0
LINE
  5
C4B4
330
C481
100
AcDbEntity
  8
02製品
  6
ByBlock
100
AcDbLine
 10
5.500025196317893
 20
202.3352857659071
 30
0.0
 11
7.100031299833063
 21
202.3352857659071
 31
0.0
  0
LINE
  5
C4B5
330
C481
100
AcDbEntity
  8
02製品
  6
ByBlock
100
AcDbLine
 10
5.500025196317893
 20
219.3352857659071
 30
0.0
 11
7.100031299833063
 21
219.3352857659071
 31
0.0
  0
LINE
  5
C4B6
330
C481
100
AcDbEntity
  8
02製品
  6
ByBlock
100
AcDbLine
 10
7.100031299833063
 20
219.3352857659071
 30
0.0
 11
7.100031299833063
 21
202.3352857659071
 31
0.0
  0
LINE
  5
C4B7
330
C481
100
AcDbEntity
  8
02製品
  6
ByBlock
100
AcDbLine
 10
5.500025196317893
 20
219.3352857659071
 30
0.0
 11
5.500025196317893
 21
202.3352857659071
 31
0.0
  0
LINE
  5
C4B8
330
C481
100
AcDbEntity
  8
02製品
  6
ByBlock
100
AcDbLine
 10
0.6960439828935705
 20
218.3409110080655
 30
0.0
 11
0.0000146158993175
 21
217.1353526476813
 31
0.0
  0
LINE
  5
C4B9
330
C481
100
AcDbEntity
  8
02製品
  6
ByBlock
100
AcDbLine
 10
0.6019269592661658
 20
214.5881170382169
 30
0.0
 11
0.0000115351235763
 21
217.1353364454429
 31
0.0
  0
LINE
  5
C4BA
330
C481
100
AcDbEntity
  8
02製品
  6
ByBlock
100
AcDbLine
 10
0.6960548594020111
 20
218.3408552239147
 30
0.0
 11
5.500025196317893
 21
218.3408552239147
 31
0.0
  0
LINE
  5
C4BB
330
C481
100
AcDbEntity
  8
02製品
  6
ByBlock
100
AcDbLine
 10
0.6019386484672395
 20
214.5880933830953
 30
0.0
 11
5.500025196317893
 21
214.5880933830953
 31
0.0
  0
LINE
  5
C4BC
330
C481
100
AcDbEntity
  8
02製品
  6
ByBlock
100
AcDbLine
 10
5.500025196317893
 20
92.33528576590822
 30
0.0
 11
7.100031299833063
 21
92.33528576590822
 31
0.0
  0
LINE
  5
C4BD
330
C481
100
AcDbEntity
  8
02製品
  6
ByBlock
100
AcDbLine
 10
5.500025196317893
 20
109.3352857659082
 30
0.0
 11
7.100031299833063
 21
109.3352857659082
 31
0.0
  0
LINE
  5
C4BE
330
C481
100
AcDbEntity
  8
02製品
  6
ByBlock
100
AcDbLine
 10
7.100031299833063
 20
109.3352857659082
 30
0.0
 11
7.100031299833063
 21
92.33528576590822
 31
0.0
  0
LINE
  5
C4BF
330
C481
100
AcDbEntity
  8
02製品
  6
ByBlock
100
AcDbLine
 10
5.500025196317893
 20
109.3352857659082
 30
0.0
 11
5.500025196317893
 21
92.33528576590822
 31
0.0
  0
LINE
  5
C4C0
330
C481
100
AcDbEntity
  8
02製品
  6
ByBlock
100
AcDbLine
 10
5.500025196317893
 20
152.3352857659082
 30
0.0
 11
7.100031299833063
 21
152.3352857659082
 31
0.0
  0
LINE
  5
C4C1
330
C481
100
AcDbEntity
  8
02製品
  6
ByBlock
100
AcDbLine
 10
5.500025196317893
 20
169.3352857659082
 30
0.0
 11
7.100031299833063
 21
169.3352857659082
 31
0.0
  0
LINE
  5
C4C2
330
C481
100
AcDbEntity
  8
02製品
  6
ByBlock
100
AcDbLine
 10
7.100031299833063
 20
169.3352857659082
 30
0.0
 11
7.100031299833063
 21
152.3352857659082
 31
0.0
  0
LINE
  5
C4C3
330
C481
100
AcDbEntity
  8
02製品
  6
ByBlock
100
AcDbLine
 10
5.500025196317893
 20
169.3352857659082
 30
0.0
 11
5.500025196317893
 21
152.3352857659082
 31
0.0
  0
LINE
  5
C4C4
330
C481
100
AcDbEntity
  8
02製品
  6
ByBlock
100
AcDbLine
 10
0.6960548594020111
 20
203.3297468254776
 30
0.0
 11
5.500025196317893
 21
203.3297468254776
 31
0.0
  0
LINE
  5
C4C5
330
C481
100
AcDbEntity
  8
02製品
  6
ByBlock
100
AcDbLine
 10
0.0000012286943729
 20
204.5353164580619
 30
0.0
 11
0.696022787479933
 21
203.3297716218916
 31
0.0
  0
ARC
  5
C4C6
330
C481
100
AcDbEntity
  8
02製品
  6
ByBlock
100
AcDbCircle
 10
12.0000251963188
 20
210.835285765908
 30
0.0
 40
12.0
100
AcDbArc
 50
161.7759804502357
 51
198.2237823143836
  0
LINE
  5
C4C7
330
C481
100
AcDbEntity
  8
02製品
  6
ByBlock
100
AcDbLine
 10
0.0
 20
204.5353321978697
 30
0.0
 11
0.6019012297667814
 21
207.0825863172187
 31
0.0
  0
LINE
  5
C4C8
330
C481
100
AcDbEntity
  8
02製品
  6
ByBlock
100
AcDbLine
 10
0.0000251963160736
 20
217.1353040764537
 30
0.0
 11
0.0000251963160736
 21
204.5352979729383
 31
0.0
  0
LINE
  5
C4C9
330
C481
100
AcDbEntity
  8
02製品
  6
ByBlock
100
AcDbLine
 10
0.6019233896756759
 20
207.0825391838767
 30
0.0
 11
5.500025196317893
 21
207.0825391838767
 31
0.0
  0
LINE
  5
C4CA
330
C481
100
AcDbEntity
  8
02製品
  6
ByBlock
100
AcDbLine
 10
0.6960439828935705
 20
108.3409110080667
 30
0.0
 11
0.0000146158993175
 21
107.1353526476825
 31
0.0
  0
LINE
  5
C4CB
330
C481
100
AcDbEntity
  8
02製品
  6
ByBlock
100
AcDbLine
 10
0.6019269592661658
 20
104.588117038218
 30
0.0
 11
0.0000115351235763
 21
107.1353364454441
 31
0.0
  0
LINE
  5
C4CC
330
C481
100
AcDbEntity
  8
02製品
  6
ByBlock
100
AcDbLine
 10
0.6960548594020111
 20
108.3408552239158
 30
0.0
 11
5.500025196317893
 21
108.3408552239158
 31
0.0
  0
LINE
  5
C4CD
330
C481
100
AcDbEntity
  8
02製品
  6
ByBlock
100
AcDbLine
 10
0.6019386484672395
 20
104.5880933830964
 30
0.0
 11
5.500025196317893
 21
104.5880933830964
 31
0.0
  0
LINE
  5
C4CE
330
C481
100
AcDbEntity
  8
02製品
  6
ByBlock
100
AcDbLine
 10
0.6960548594020111
 20
93.32974682547876
 30
0.0
 11
5.500025196317893
 21
93.32974682547876
 31
0.0
  0
LINE
  5
C4CF
330
C481
100
AcDbEntity
  8
02製品
  6
ByBlock
100
AcDbLine
 10
0.0000012286943729
 20
94.535316458063
 30
0.0
 11
0.696022787479933
 21
93.32977162189275
 31
0.0
  0
ARC
  5
C4D0
330
C481
100
AcDbEntity
  8
02製品
  6
ByBlock
100
AcDbCircle
 10
12.0000251963188
 20
100.8352857659091
 30
0.0
 40
12.0
100
AcDbArc
 50
161.7759804502357
 51
198.2237823143833
  0
LINE
  5
C4D1
330
C481
100
AcDbEntity
  8
02製品
  6
ByBlock
100
AcDbLine
 10
0.0
 20
94.53533219787084
 30
0.0
 11
0.6019012297667814
 21
97.0825863172198
 31
0.0
  0
LINE
  5
C4D2
330
C481
100
AcDbEntity
  8
02製品
  6
ByBlock
100
AcDbLine
 10
0.0000251963160736
 20
107.1353040764549
 30
0.0
 11
0.0000251963160736
 21
94.53529797293947
 31
0.0
  0
LINE
  5
C4D3
330
C481
100
AcDbEntity
  8
02製品
  6
ByBlock
100
AcDbLine
 10
0.6019233896756759
 20
97.08253918387788
 30
0.0
 11
5.500025196317893
 21
97.08253918387788
 31
0.0
  0
LINE
  5
C4D4
330
C481
100
AcDbEntity
  8
02製品
  6
ByBlock
100
AcDbLine
 10
0.6960439828935705
 20
168.3409110080667
 30
0.0
 11
0.0000146158993175
 21
167.1353526476825
 31
0.0
  0
LINE
  5
C4D5
330
C481
100
AcDbEntity
  8
02製品
  6
ByBlock
100
AcDbLine
 10
0.6019269592661658
 20
164.588117038218
 30
0.0
 11
0.0000115351235763
 21
167.1353364454441
 31
0.0
  0
LINE
  5
C4D6
330
C481
100
AcDbEntity
  8
02製品
  6
ByBlock
100
AcDbLine
 10
0.6960548594020111
 20
168.3408552239158
 30
0.0
 11
5.500025196317893
 21
168.3408552239158
 31
0.0
  0
LINE
  5
C4D7
330
C481
100
AcDbEntity
  8
02製品
  6
ByBlock
100
AcDbLine
 10
0.6019386484672395
 20
164.5880933830964
 30
0.0
 11
5.500025196317893
 21
164.5880933830964
 31
0.0
  0
LINE
  5
C4D8
330
C481
100
AcDbEntity
  8
02製品
  6
ByBlock
100
AcDbLine
 10
0.6960548594020111
 20
153.3297468254788
 30
0.0
 11
5.500025196317893
 21
153.3297468254788
 31
0.0
  0
LINE
  5
C4D9
330
C481
100
AcDbEntity
  8
02製品
  6
ByBlock
100
AcDbLine
 10
0.0000012286943729
 20
154.535316458063
 30
0.0
 11
0.696022787479933
 21
153.3297716218927
 31
0.0
  0
ARC
  5
C4DA
330
C481
100
AcDbEntity
  8
02製品
  6
ByBlock
100
AcDbCircle
 10
12.0000251963188
 20
160.8352857659091
 30
0.0
 40
12.0
100
AcDbArc
 50
161.7759804502357
 51
198.2237823143836
  0
LINE
  5
C4DB
330
C481
100
AcDbEntity
  8
02製品
  6
ByBlock
100
AcDbLine
 10
0.0
 20
154.5353321978708
 30
0.0
 11
0.6019012297667814
 21
157.0825863172198
 31
0.0
  0
LINE
  5
C4DC
330
C481
100
AcDbEntity
  8
02製品
  6
ByBlock
100
AcDbLine
 10
0.0000251963160736
 20
167.1353040764549
 30
0.0
 11
0.0000251963160736
 21
154.5352979729395
 31
0.0
  0
LINE
  5
C4DD
330
C481
100
AcDbEntity
  8
02製品
  6
ByBlock
100
AcDbLine
 10
0.6019233896756759
 20
157.0825391838779
 30
0.0
 11
5.500025196317893
 21
157.0825391838779
 31
0.0
  0
LINE
  5
C4DE
330
C481
100
AcDbEntity
  8
02製品
  6
HIDDEN
100
AcDbLine
 10
10.3000312997824
 20
230.835285765905
 30
0.0
 11
10.3000312997824
 21
80.83528576590504
 31
0.0
  0
LINE
  5
C4DF
330
C481
100
AcDbEntity
  8
02製品
100
AcDbLine
 10
46.1000312998317
 20
160.8352857659057
 30
0.0
 11
26.10003129983284
 21
160.8352857659057
 31
0.0
  0
LINE
  5
C4E0
330
C481
100
AcDbEntity
  8
02製品
100
AcDbLine
 10
36.10003129983056
 20
170.835285765905
 30
0.0
 11
36.10003129983056
 21
150.8352857659062
 31
0.0
  0
CIRCLE
  5
C4E1
330
C481
100
AcDbEntity
  8
02製品
100
AcDbCircle
 10
36.10003129983056
 20
160.8352857659057
 30
0.0
 40
5.0
  0
LINE
  5
C4E2
330
C481
100
AcDbEntity
  8
02製品
100
AcDbLine
 10
36.10003129983056
 20
170.835285765905
 30
0.0
 11
36.10003129983056
 21
150.8352857659062
 31
0.0
  0
CIRCLE
  5
C4E3
330
C481
100
AcDbEntity
  8
02製品
100
AcDbCircle
 10
36.10003129983056
 20
160.8352857659057
 30
0.0
 40
5.0
  0
LINE
  5
C4E4
330
C481
100
AcDbEntity
  8
02製品
100
AcDbLine
 10
26.10003129983284
 20
160.8352857659057
 30
0.0
 11
46.1000312998317
 21
160.8352857659057
 31
0.0
  0
LINE
  5
C4E5
330
C481
100
AcDbEntity
  8
02製品
100
AcDbLine
 10
41.10003129983284
 20
220.8352857659057
 30
0.0
 11
41.10003129983284
 21
200.835285765905
 31
0.0
  0
CIRCLE
  5
C4E6
330
C481
100
AcDbEntity
  8
02製品
100
AcDbCircle
 10
41.10003129983284
 20
210.8352857659062
 30
0.0
 40
5.0
  0
CIRCLE
  5
C4E7
330
C481
100
AcDbEntity
  8
02製品
100
AcDbCircle
 10
41.10003129983284
 20
210.8352857659062
 30
0.0
 40
5.0
  0
LINE
  5
C4E8
330
C481
100
AcDbEntity
  8
02製品
100
AcDbLine
 10
41.10003129983284
 20
220.8352857659057
 30
0.0
 11
41.10003129983284
 21
200.835285765905
 31
0.0
  0
CIRCLE
  5
C4E9
330
C481
100
AcDbEntity
  8
02製品
100
AcDbCircle
 10
36.10003129983056
 20
100.8352857659057
 30
0.0
 40
5.0
  0
LINE
  5
C4EA
330
C481
100
AcDbEntity
  8
02製品
100
AcDbLine
 10
46.1000312998317
 20
100.8352857659057
 30
0.0
 11
26.10003129983284
 21
100.8352857659057
 31
0.0
  0
LINE
  5
C4EB
330
C481
100
AcDbEntity
  8
02製品
100
AcDbLine
 10
26.10003129983284
 20
100.8352857659057
 30
0.0
 11
46.1000312998317
 21
100.8352857659057
 31
0.0
  0
CIRCLE
  5
C4EC
330
C481
100
AcDbEntity
  8
02製品
100
AcDbCircle
 10
36.10003129983056
 20
100.8352857659057
 30
0.0
 40
5.0
  0
LINE
  5
C4ED
330
C481
100
AcDbEntity
  8
02製品
100
AcDbLine
 10
7.100031299833063
 20
80.83528576590504
 30
0.0
 11
47.10003129983079
 21
80.83528576590504
 31
0.0
  0
LINE
  5
C4EE
330
C481
100
AcDbEntity
  8
02製品
100
AcDbLine
 10
36.10003129983056
 20
110.835285765905
 30
0.0
 11
36.10003129983056
 21
90.83528576590618
 31
0.0
  0
LINE
  5
C4EF
330
C481
100
AcDbEntity
  8
02製品
100
AcDbLine
 10
36.10003129983056
 20
110.835285765905
 30
0.0
 11
36.10003129983056
 21
90.83528576590618
 31
0.0
  0
LINE
  5
C4F0
330
C481
100
AcDbEntity
  8
02製品
100
AcDbLine
 10
7.100031299833063
 20
230.835285765905
 30
0.0
 11
7.100031299833063
 21
80.83528576590504
 31
0.0
  0
LINE
  5
C4F1
330
C481
100
AcDbEntity
  8
02製品
100
AcDbLine
 10
51.10003129982726
 20
0.0
 30
0.0
 11
51.10003129982715
 21
84.83528576589981
 31
0.0
  0
LINE
  5
C4F2
330
C481
100
AcDbEntity
  8
02製品
100
AcDbLine
 10
157.1000312998331
 20
190.8352857659039
 30
0.0
 11
214.6413143738971
 21
190.8352857659041
 31
0.0
  0
LINE
  5
C4F3
330
C481
100
AcDbEntity
  8
02製品
100
AcDbLine
 10
146.1000312998328
 20
210.8352857659062
 30
0.0
 11
126.1000312998306
 21
210.8352857659062
 31
0.0
  0
LINE
  5
C4F4
330
C481
100
AcDbEntity
  8
02製品
100
AcDbLine
 10
126.1000312998306
 20
210.8352857659062
 30
0.0
 11
146.1000312998328
 21
210.8352857659062
 31
0.0
  0
LINE
  5
C4F5
330
C481
100
AcDbEntity
  8
02製品
100
AcDbLine
 10
157.1000312998331
 20
230.835285765905
 30
0.0
 11
157.1000312998331
 21
190.8352857659057
 31
0.0
  0
LINE
  5
C4F6
330
C481
100
AcDbEntity
  8
02製品
100
AcDbLine
 10
136.1000312998317
 20
220.8352857659057
 30
0.0
 11
136.1000312998317
 21
200.835285765905
 31
0.0
  0
CIRCLE
  5
C4F7
330
C481
100
AcDbEntity
  8
02製品
100
AcDbCircle
 10
136.1000312998317
 20
210.8352857659062
 30
0.0
 40
5.0
  0
CIRCLE
  5
C4F8
330
C481
100
AcDbEntity
  8
02製品
100
AcDbCircle
 10
136.1000312998317
 20
210.8352857659062
 30
0.0
 40
5.0
  0
LINE
  5
C4F9
330
C481
100
AcDbEntity
  8
02製品
100
AcDbLine
 10
136.1000312998317
 20
220.8352857659057
 30
0.0
 11
136.1000312998317
 21
200.835285765905
 31
0.0
  0
LINE
  5
C4FA
330
C481
100
AcDbEntity
  8
02製品
100
AcDbLine
 10
214.6413143738971
 20
230.835285765905
 30
0.0
 11
11.10003129983284
 21
230.835285765905
 31
0.0
  0
LINE
  5
C4FB
330
C481
100
AcDbEntity
  8
02製品
  6
HIDDEN
100
AcDbLine
 10
214.6413143738971
 20
227.8352857659062
 30
0.0
 11
157.1000312998331
 21
227.8352857659062
 31
0.0
  0
ENDBLK
  5
C4FD
330
C481
100
AcDbEntity
  8
0
100
AcDbBlockEnd
  0
BLOCK
  5
15584
330
15583
100
AcDbEntity
  8
0
100
AcDbBlockBegin
  2
A$C19363
 70
     0
 10
0.0
 20
0.0
 30
0.0
  3
A$C19363
  1

  0
LINE
  5
15585
330
15583
100
AcDbEntity
  8
01注記寸法
100
AcDbLine
 10
149.9999999999999
 20
200.0
 30
0.0
 11
0.0
 21
200.0
 31
0.0
  0
LINE
  5
15586
330
15583
100
AcDbEntity
  8
01注記寸法
100
AcDbLine
 10
0.0
 20
200.0
 30
0.0
 11
0.0
 21
0.0
 31
0.0
  0
LINE
  5
15587
330
15583
100
AcDbEntity
  8
01注記寸法
100
AcDbLine
 10
149.9999999999999
 20
194.0
 30
0.0
 11
0.0
 21
194.0
 31
0.0
  0
LINE
  5
15588
330
15583
100
AcDbEntity
  8
01注記寸法
100
AcDbLine
 10
149.9999999999998
 20
0.0
 30
0.0
 11
149.9999999999999
 21
200.0
 31
0.0
  0
LINE
  5
15589
330
15583
100
AcDbEntity
  8
01注記寸法
100
AcDbLine
 10
149.9999999999998
 20
0.0
 30
0.0
 11
0.0
 21
0.0
 31
0.0
  0
ENDBLK
  5
1558A
330
15583
100
AcDbEntity
  8
0
100
AcDbBlockEnd
  0
BLOCK
  5
15724
330
1559B
100
AcDbEntity
  8
0
100
AcDbBlockBegin
  2
A$C3830
 70
     0
 10
0.0
 20
0.0
 30
0.0
  3
A$C3830
  1

  0
LINE
  5
155C9
330
1559B
100
AcDbEntity
  8
02製品
  6
Continuous
100
AcDbLine
 10
50.30001751923919
 20
60.0
 30
0.0
 11
50.30001751923919
 21
520.0000074133277
 31
0.0
  0
LINE
  5
155CA
330
1559B
100
AcDbEntity
  8
02製品
  6
Continuous
100
AcDbLine
 10
10.30002586388946
 20
140.0
 30
0.0
 11
10.30002586388946
 21
520.0000074133277
 31
0.0
  0
LINE
  5
155CB
330
1559B
100
AcDbEntity
  8
02製品
  6
Continuous
100
AcDbLine
 10
1195.300011320356
 20
140.0000000000018
 30
0.0
 11
1195.300011320356
 21
520.0000074133277
 31
0.0
  0
LINE
  5
155CC
330
1559B
100
AcDbEntity
  8
02製品
  6
Continuous
100
AcDbLine
 10
1155.300049467329
 20
60.0
 30
0.0
 11
1155.300049467329
 21
520.0000074133277
 31
0.0
  0
LINE
  5
155CD
330
1559B
100
AcDbEntity
  8
02製品
  6
HIDDEN
100
AcDbLine
 10
50.30001751923919
 20
60.0
 30
0.0
 11
50.30001751923919
 21
63.00002098083496
 31
0.0
  0
LINE
  5
155CE
330
1559B
100
AcDbEntity
  8
02製品
  6
Continuous
100
AcDbLine
 10
1165.921331663916
 20
0.0
 30
0.0
 11
1196.800011320356
 21
0.0
 31
0.0
  0
LINE
  5
155CF
330
1559B
100
AcDbEntity
  8
02製品
  6
Continuous
100
AcDbLine
 10
1196.800011320356
 20
140.0000000000018
 30
0.0
 11
1196.800011320356
 21
0.0
 31
0.0
  0
LINE
  5
155D0
330
1559B
100
AcDbEntity
  8
02製品
  6
CENTERX2
100
AcDbLine
 10
1176.53224436739
 20
13.40000000000327
 30
0.0
 11
1185.128438445103
 21
13.40000000000327
 31
0.0
  0
LWPOLYLINE
  5
155D1
330
1559B
100
AcDbEntity
  8
02製品
  6
Continuous
100
AcDbPolyline
 90
       16
 70
   128
 43
0.0
 10
1182.067778273324
 20
9.899999999999636
 10
1182.582333455952
 20
9.976483397431366
 10
1183.074400107989
 20
10.20259089825049
 10
1183.522472555545
 20
10.56844051968801
 10
1183.906967882569
 20
11.05804287774481
 10
1184.211081798259
 20
11.64999999999964
 10
1184.421523065197
 20
12.31844051968801
 10
1184.529094390211
 20
13.03415037856212
 10
1184.529094390211
 20
13.76584962143716
 10
1184.421523065197
 20
14.48155948031308
 10
1184.211081798259
 20
15.14999999999964
 10
1183.906967882569
 20
15.74195712225628
 10
1183.522472555544
 20
16.23155948031308
 10
1183.074400107989
 20
16.59740910174878
 10
1182.582333455952
 20
16.82351660256791
 10
1182.067778273324
 20
16.89999999999964
  0
LINE
  5
155D2
330
1559B
100
AcDbEntity
  8
02製品
  6
Continuous
100
AcDbLine
 10
1181.78049288271
 20
16.89999999999964
 30
0.0
 11
1180.940850101562
 21
16.89999999999964
 31
0.0
  0
LINE
  5
155D3
330
1559B
100
AcDbEntity
  8
02製品
  6
Continuous
100
AcDbLine
 10
1181.78049288275
 20
9.899999999999636
 30
0.0
 11
1180.94085010152
 21
9.899999999999636
 31
0.0
  0
LINE
  5
155D4
330
1559B
100
AcDbEntity
  8
02製品
  6
Continuous
100
AcDbLine
 10
1180.940850101522
 20
9.899999999999636
 30
0.0
 11
1179.592904539169
 21
9.899999999999636
 31
0.0
  0
LWPOLYLINE
  5
155D5
330
1559B
100
AcDbEntity
  8
02製品
  6
Continuous
100
AcDbPolyline
 90
       16
 70
   128
 43
0.0
 10
1179.592904539169
 20
16.89999999999964
 10
1179.078349356541
 20
16.82351660256791
 10
1178.586282704504
 20
16.59740910174878
 10
1178.13821025695
 20
16.23155948031308
 10
1177.753714929924
 20
15.74195712225628
 10
1177.449601014236
 20
15.14999999999964
 10
1177.239159747296
 20
14.48155948031308
 10
1177.131588422284
 20
13.76584962143716
 10
1177.131588422284
 20
13.03415037856212
 10
1177.239159747296
 20
12.31844051968801
 10
1177.449601014236
 20
11.64999999999964
 10
1177.753714929924
 20
11.05804287774481
 10
1178.13821025695
 20
10.56844051968801
 10
1178.586282704504
 20
10.20259089825049
 10
1179.078349356541
 20
9.976483397431366
 10
1179.592904539169
 20
9.899999999999636
  0
LINE
  5
155D6
330
1559B
100
AcDbEntity
  8
02製品
  6
Continuous
100
AcDbLine
 10
1180.940850101562
 20
16.89999999999964
 30
0.0
 11
1179.592904539169
 21
16.89999999999964
 31
0.0
  0
ARC
  5
155D7
330
1559B
100
AcDbEntity
  8
02製品
  6
Continuous
100
AcDbCircle
 10
1181.360671492137
 20
15.16041298585151
 30
0.0
 40
1.789528703254752
100
AcDbArc
 50
76.43202197238111
 51
103.5679780276788
  0
LINE
  5
155D8
330
1559B
100
AcDbEntity
  8
02製品
  6
Continuous
100
AcDbLine
 10
1183.128438445103
 20
16.89999999999964
 30
0.0
 11
1181.78049288271
 21
16.89999999999964
 31
0.0
  0
LWPOLYLINE
  5
155D9
330
1559B
100
AcDbEntity
  8
02製品
  6
Continuous
100
AcDbPolyline
 90
       16
 70
   128
 43
0.0
 10
1183.128438445103
 20
9.899999999999636
 10
1183.642993627731
 20
9.976483397431366
 10
1184.135060279768
 20
10.20259089825049
 10
1184.583132727324
 20
10.56844051968801
 10
1184.967628054348
 20
11.05804287774481
 10
1185.271741970038
 20
11.64999999999964
 10
1185.482183236976
 20
12.31844051968801
 10
1185.58975456199
 20
13.03415037856212
 10
1185.58975456199
 20
13.76584962143716
 10
1185.482183236976
 20
14.48155948031308
 10
1185.271741970038
 20
15.14999999999964
 10
1184.967628054348
 20
15.74195712225628
 10
1184.583132727324
 20
16.23155948031308
 10
1184.135060279768
 20
16.59740910174878
 10
1183.642993627731
 20
16.82351660256791
 10
1183.128438445103
 20
16.89999999999964
  0
LINE
  5
155DA
330
1559B
100
AcDbEntity
  8
02製品
  6
Continuous
100
AcDbLine
 10
1183.128438445103
 20
9.899999999999636
 30
0.0
 11
1181.78049288275
 21
9.899999999999636
 31
0.0
  0
ARC
  5
155DB
330
1559B
100
AcDbEntity
  8
02製品
  6
Continuous
100
AcDbCircle
 10
1181.360671492135
 20
11.63958701414049
 30
0.0
 40
1.789528703259284
100
AcDbArc
 50
256.4320219709782
 51
283.5679780290818
  0
LWPOLYLINE
  5
155DC
330
1559B
100
AcDbEntity
  8
02製品
  6
Continuous
100
AcDbPolyline
 90
       16
 70
   128
 43
0.0
 10
1182.067778273324
 20
39.89999999999964
 10
1182.582333455952
 20
39.97648339743137
 10
1183.074400107989
 20
40.20259089825049
 10
1183.522472555544
 20
40.56844051968801
 10
1183.906967882569
 20
41.05804287774481
 10
1184.211081798259
 20
41.64999999999964
 10
1184.421523065197
 20
42.31844051968801
 10
1184.529094390211
 20
43.03415037856212
 10
1184.529094390211
 20
43.76584962143716
 10
1184.421523065197
 20
44.48155948031308
 10
1184.211081798259
 20
45.14999999999964
 10
1183.906967882569
 20
45.74195712225628
 10
1183.522472555544
 20
46.23155948031308
 10
1183.074400107989
 20
46.59740910174878
 10
1182.582333455952
 20
46.82351660256791
 10
1182.067778273324
 20
46.89999999999964
  0
LWPOLYLINE
  5
155DD
330
1559B
100
AcDbEntity
  8
02製品
  6
Continuous
100
AcDbPolyline
 90
       16
 70
   128
 43
0.0
 10
1183.128438445103
 20
39.89999999999964
 10
1183.642993627731
 20
39.97648339743137
 10
1184.135060279768
 20
40.20259089825049
 10
1184.583132727324
 20
40.56844051968801
 10
1184.967628054348
 20
41.05804287774481
 10
1185.271741970038
 20
41.64999999999964
 10
1185.482183236976
 20
42.31844051968801
 10
1185.58975456199
 20
43.03415037856212
 10
1185.58975456199
 20
43.76584962143716
 10
1185.482183236976
 20
44.48155948031308
 10
1185.271741970038
 20
45.14999999999964
 10
1184.967628054348
 20
45.74195712225628
 10
1184.583132727324
 20
46.23155948031308
 10
1184.135060279768
 20
46.59740910174878
 10
1183.642993627731
 20
46.82351660256791
 10
1183.128438445103
 20
46.89999999999964
  0
LWPOLYLINE
  5
155DE
330
1559B
100
AcDbEntity
  8
02製品
  6
Continuous
100
AcDbPolyline
 90
       16
 70
   128
 43
0.0
 10
1179.592904539171
 20
46.89999999999964
 10
1179.078349356541
 20
46.82351660256791
 10
1178.586282704504
 20
46.59740910174878
 10
1178.13821025695
 20
46.23155948031308
 10
1177.753714929924
 20
45.74195712225628
 10
1177.449601014236
 20
45.14999999999964
 10
1177.239159747296
 20
44.48155948031308
 10
1177.131588422284
 20
43.76584962143716
 10
1177.131588422284
 20
43.03415037856212
 10
1177.239159747296
 20
42.31844051968801
 10
1177.449601014236
 20
41.64999999999964
 10
1177.753714929924
 20
41.05804287774481
 10
1178.13821025695
 20
40.56844051968801
 10
1178.586282704504
 20
40.20259089825049
 10
1179.078349356541
 20
39.97648339743137
 10
1179.592904539171
 20
39.89999999999964
  0
LINE
  5
155DF
330
1559B
100
AcDbEntity
  8
02製品
  6
CENTERX2
100
AcDbLine
 10
1176.53224436739
 20
43.40000000000327
 30
0.0
 11
1185.128438445103
 21
43.40000000000327
 31
0.0
  0
LINE
  5
155E0
330
1559B
100
AcDbEntity
  8
02製品
  6
Continuous
100
AcDbLine
 10
1181.78049288275
 20
39.89999999999964
 30
0.0
 11
1180.940850101522
 21
39.89999999999964
 31
0.0
  0
LINE
  5
155E1
330
1559B
100
AcDbEntity
  8
02製品
  6
Continuous
100
AcDbLine
 10
1183.128438445103
 20
39.89999999999964
 30
0.0
 11
1181.78049288275
 21
39.89999999999964
 31
0.0
  0
ARC
  5
155E2
330
1559B
100
AcDbEntity
  8
02製品
  6
Continuous
100
AcDbCircle
 10
1181.360671492135
 20
41.63958701414231
 30
0.0
 40
1.789528703260913
100
AcDbArc
 50
256.4320219709908
 51
283.5679780290092
  0
LINE
  5
155E3
330
1559B
100
AcDbEntity
  8
02製品
  6
Continuous
100
AcDbLine
 10
1180.94085010152
 20
39.89999999999964
 30
0.0
 11
1179.592904539171
 21
39.89999999999964
 31
0.0
  0
LINE
  5
155E4
330
1559B
100
AcDbEntity
  8
02製品
  6
Continuous
100
AcDbLine
 10
1181.780492882708
 20
46.89999999999964
 30
0.0
 11
1180.940850101562
 21
46.89999999999964
 31
0.0
  0
LINE
  5
155E5
330
1559B
100
AcDbEntity
  8
02製品
  6
Continuous
100
AcDbLine
 10
1180.940850101562
 20
46.89999999999964
 30
0.0
 11
1179.592904539171
 21
46.89999999999964
 31
0.0
  0
ARC
  5
155E6
330
1559B
100
AcDbEntity
  8
02製品
  6
Continuous
100
AcDbCircle
 10
1181.360671492135
 20
45.16041298584969
 30
0.0
 40
1.789528703256606
100
AcDbArc
 50
76.43202197233548
 51
103.5679780276046
  0
LINE
  5
155E7
330
1559B
100
AcDbEntity
  8
02製品
  6
Continuous
100
AcDbLine
 10
1183.128438445103
 20
46.89999999999964
 30
0.0
 11
1181.780492882708
 21
46.89999999999964
 31
0.0
  0
LINE
  5
155E8
330
1559B
100
AcDbEntity
  8
02製品
100
AcDbLine
 10
1165.921331663916
 20
60.0
 30
0.0
 11
1165.921331663916
 21
0.0
 31
0.0
  0
LINE
  5
155E9
330
1559B
100
AcDbEntity
  8
02製品
  6
Continuous
100
AcDbLine
 10
1115.300011320358
 20
60.0
 30
0.0
 11
1115.300011320358
 21
0.0
 31
0.0
  0
LINE
  5
155EA
330
1559B
100
AcDbEntity
  8
02製品
  6
Continuous
100
AcDbLine
 10
1115.300011320358
 20
0.0
 30
0.0
 11
1165.921331663916
 21
0.0
 31
0.0
  0
INSERT
  5
155EB
330
1559B
100
AcDbEntity
  8
02製品
  6
Continuous
100
AcDbBlockReference
  2
SW_CENTERMARKSYMBOL_8
 10
1151.80001132036
 20
13.399999999996
 30
0.0
 50
90.0
  0
LINE
  5
155F7
330
1559B
100
AcDbEntity
  8
02製品
  6
Continuous
100
AcDbLine
 10
1151.206294215979
 20
9.899999999999636
 30
0.0
 11
1149.300011320358
 21
9.899999999999636
 31
0.0
  0
ARC
  5
155F8
330
1559B
100
AcDbEntity
  8
02製品
  6
Continuous
100
AcDbCircle
 10
1149.300011320356
 20
13.39999999999964
 30
0.0
 40
3.5
100
AcDbArc
 50
90.0
 51
270.0
  0
LINE
  5
155F9
330
1559B
100
AcDbEntity
  8
02製品
  6
Continuous
100
AcDbLine
 10
1151.206294216037
 20
16.89999999999964
 30
0.0
 11
1149.300011320358
 21
16.89999999999964
 31
0.0
  0
ARC
  5
155FA
330
1559B
100
AcDbEntity
  8
02製品
  6
Continuous
100
AcDbCircle
 10
1151.80001132036
 20
13.39999999999418
 30
0.0
 40
3.55000000000005
100
AcDbArc
 50
80.37236731782643
 51
99.62763268217358
  0
LINE
  5
155FB
330
1559B
100
AcDbEntity
  8
02製品
  6
Continuous
100
AcDbLine
 10
1154.300011320358
 20
16.89999999999964
 30
0.0
 11
1152.393728424682
 21
16.89999999999964
 31
0.0
  0
ARC
  5
155FC
330
1559B
100
AcDbEntity
  8
02製品
  6
Continuous
100
AcDbCircle
 10
1154.300011320358
 20
13.39999999999964
 30
0.0
 40
3.5
100
AcDbArc
 50
270.0
 51
90.0
  0
LINE
  5
155FD
330
1559B
100
AcDbEntity
  8
02製品
  6
Continuous
100
AcDbLine
 10
1154.300011320358
 20
9.899999999999636
 30
0.0
 11
1152.39372842474
 21
9.899999999999636
 31
0.0
  0
ARC
  5
155FE
330
1559B
100
AcDbEntity
  8
02製品
  6
Continuous
100
AcDbCircle
 10
1151.80001132036
 20
13.39999999999418
 30
0.0
 40
3.54999999999995
100
AcDbArc
 50
260.3723673168733
 51
279.6276326831267
  0
ARC
  5
155FF
330
1559B
100
AcDbEntity
  8
02製品
  6
Continuous
100
AcDbCircle
 10
1126.800011320358
 20
48.99999999999818
 30
0.0
 40
3.5
100
AcDbArc
 50
90.0
 51
270.0
  0
INSERT
  5
15600
330
1559B
100
AcDbEntity
  8
02製品
  6
Continuous
100
AcDbBlockReference
  2
SW_CENTERMARKSYMBOL_9
 10
1132.30001132036
 20
49.00000000000182
 30
0.0
 50
90.0
  0
LINE
  5
1560C
330
1559B
100
AcDbEntity
  8
02製品
  6
Continuous
100
AcDbLine
 10
1131.706294216006
 20
45.49999999999818
 30
0.0
 11
1126.800011320358
 21
45.49999999999818
 31
0.0
  0
LINE
  5
1560D
330
1559B
100
AcDbEntity
  8
02製品
  6
Continuous
100
AcDbLine
 10
1131.706294216005
 20
52.49999999999818
 30
0.0
 11
1126.800011320356
 21
52.49999999999818
 31
0.0
  0
ARC
  5
1560E
330
1559B
100
AcDbEntity
  8
02製品
  6
Continuous
100
AcDbCircle
 10
1132.300011320358
 20
48.99999999999818
 30
0.0
 40
3.550000000000269
100
AcDbArc
 50
80.37236731735062
 51
99.62763268264939
  0
LINE
  5
1560F
330
1559B
100
AcDbEntity
  8
02製品
  6
Continuous
100
AcDbLine
 10
1137.800011320358
 20
52.5
 30
0.0
 11
1132.893728424708
 21
52.49999999999818
 31
0.0
  0
ARC
  5
15610
330
1559B
100
AcDbEntity
  8
02製品
  6
Continuous
100
AcDbCircle
 10
1137.800011320358
 20
49.0
 30
0.0
 40
3.500000000000028
100
AcDbArc
 50
270.0
 51
90.0
  0
LINE
  5
15611
330
1559B
100
AcDbEntity
  8
02製品
  6
Continuous
100
AcDbLine
 10
1137.800011320358
 20
45.5
 30
0.0
 11
1132.893728424709
 21
45.49999999999818
 31
0.0
  0
ARC
  5
15612
330
1559B
100
AcDbEntity
  8
02製品
  6
Continuous
100
AcDbCircle
 10
1132.300011320358
 20
48.99999999999818
 30
0.0
 40
3.549999999999969
100
AcDbArc
 50
260.3723673173498
 51
279.6276326826502
  0
LINE
  5
15613
330
1559B
100
AcDbEntity
  8
02製品
100
AcDbLine
 10
1195.300011320356
 20
140.0000000000018
 30
0.0
 11
1196.800011320356
 21
140.0000000000018
 31
0.0
  0
LINE
  5
15614
330
1559B
100
AcDbEntity
  8
02製品
  6
CENTERX2
100
AcDbLine
 10
29.06779281685704
 20
43.39999999999964
 30
0.0
 11
20.47159873914461
 21
43.39999999999964
 31
0.0
  0
LINE
  5
15615
330
1559B
100
AcDbEntity
  8
02製品
  6
CENTERX2
100
AcDbLine
 10
29.06779281685704
 20
13.39999999999964
 30
0.0
 11
20.47159873914461
 21
13.39999999999964
 31
0.0
  0
LINE
  5
15616
330
1559B
100
AcDbEntity
  8
02製品
100
AcDbLine
 10
8.80002586388946
 20
140.0
 30
0.0
 11
10.30002586388946
 21
140.0
 31
0.0
  0
LINE
  5
15617
330
1559B
100
AcDbEntity
  8
02製品
  6
Continuous
100
AcDbLine
 10
8.80002586388946
 20
0.0
 30
0.0
 11
39.67870552032946
 21
0.0
 31
0.0
  0
LWPOLYLINE
  5
15618
330
1559B
100
AcDbEntity
  8
02製品
  6
Continuous
100
AcDbPolyline
 90
       16
 70
   128
 43
0.0
 10
26.00713264507613
 20
39.89999999999964
 10
26.52168782770423
 20
39.97648339743137
 10
27.01375447974169
 20
40.20259089825049
 10
27.46182692729781
 20
40.56844051968801
 10
27.84632225432324
 20
41.05804287774481
 10
28.15043617001174
 20
41.64999999999964
 10
28.36087743695134
 20
42.31844051968801
 10
28.46844876196337
 20
43.03415037856394
 10
28.46844876196337
 20
43.76584962143716
 10
28.36087743695134
 20
44.48155948031308
 10
28.15043617001174
 20
45.14999999999964
 10
27.84632225432324
 20
45.74195712225628
 10
27.46182692729781
 20
46.23155948031308
 10
27.01375447974169
 20
46.59740910174878
 10
26.52168782770423
 20
46.82351660256791
 10
26.00713264507613
 20
46.89999999999964
  0
LWPOLYLINE
  5
15619
330
1559B
100
AcDbEntity
  8
02製品
  6
Continuous
100
AcDbPolyline
 90
       16
 70
   128
 43
0.0
 10
26.00713264507613
 20
9.899999999999636
 10
26.52168782770423
 20
9.976483397431366
 10
27.01375447974169
 20
10.20259089825049
 10
27.46182692729781
 20
10.56844051968801
 10
27.84632225432324
 20
11.05804287774481
 10
28.15043617001174
 20
11.64999999999964
 10
28.36087743695134
 20
12.31844051968801
 10
28.46844876196337
 20
13.03415037856394
 10
28.46844876196337
 20
13.76584962143716
 10
28.36087743695134
 20
14.48155948031308
 10
28.15043617001174
 20
15.14999999999964
 10
27.84632225432324
 20
15.74195712225628
 10
27.46182692729781
 20
16.23155948031308
 10
27.01375447974169
 20
16.59740910174878
 10
26.52168782770423
 20
16.82351660256791
 10
26.00713264507613
 20
16.89999999999964
  0
LINE
  5
1561A
330
1559B
100
AcDbEntity
  8
02製品
  6
Continuous
100
AcDbLine
 10
8.80002586388946
 20
140.0
 30
0.0
 11
8.80002586388946
 21
0.0
 31
0.0
  0
LWPOLYLINE
  5
1561B
330
1559B
100
AcDbEntity
  8
02製品
  6
Continuous
100
AcDbPolyline
 90
       16
 70
   128
 43
0.0
 10
23.5322589109237
 20
16.89999999999964
 10
23.0177037282956
 20
16.82351660256791
 10
22.52563707625814
 20
16.59740910174878
 10
22.07756462870202
 20
16.23155948031308
 10
21.69306930167841
 20
15.74195712225628
 10
21.38895538598808
 20
15.14999999999964
 10
21.17851411905031
 20
14.48155948031308
 10
21.07094279403645
 20
13.76584962143716
 10
21.07094279403645
 20
13.03415037856394
 10
21.17851411905031
 20
12.31844051968801
 10
21.38895538598808
 20
11.64999999999964
 10
21.69306930167841
 20
11.05804287774481
 10
22.07756462870202
 20
10.56844051968801
 10
22.52563707625814
 20
10.20259089825049
 10
23.0177037282956
 20
9.976483397431366
 10
23.5322589109237
 20
9.899999999999636
  0
LINE
  5
1561C
330
1559B
100
AcDbEntity
  8
02製品
  6
Continuous
100
AcDbLine
 10
24.65918708268146
 20
16.89999999999964
 30
0.0
 11
23.81954430153564
 21
16.89999999999964
 31
0.0
  0
LINE
  5
1561D
330
1559B
100
AcDbEntity
  8
02製品
  6
Continuous
100
AcDbLine
 10
24.65918708272329
 20
9.899999999999636
 30
0.0
 11
23.81954430149381
 21
9.899999999999636
 31
0.0
  0
LINE
  5
1561E
330
1559B
100
AcDbEntity
  8
02製品
  6
Continuous
100
AcDbLine
 10
23.81954430149381
 20
9.899999999999636
 30
0.0
 11
22.47159873914461
 21
9.899999999999636
 31
0.0
  0
LWPOLYLINE
  5
1561F
330
1559B
100
AcDbEntity
  8
02製品
  6
Continuous
100
AcDbPolyline
 90
       16
 70
   128
 43
0.0
 10
22.47159873914461
 20
16.89999999999964
 10
21.95704355651651
 20
16.82351660256791
 10
21.46497690447904
 20
16.59740910174878
 10
21.01690445692293
 20
16.23155948031308
 10
20.6324091298975
 20
15.74195712225628
 10
20.32829521420899
 20
15.14999999999964
 10
20.1178539472694
 20
14.48155948031308
 10
20.01028262225736
 20
13.76584962143716
 10
20.01028262225736
 20
13.03415037856394
 10
20.1178539472694
 20
12.31844051968801
 10
20.32829521420899
 20
11.64999999999964
 10
20.6324091298975
 20
11.05804287774481
 10
21.01690445692293
 20
10.56844051968801
 10
21.46497690447904
 20
10.20259089825049
 10
21.95704355651651
 20
9.976483397431366
 10
22.47159873914461
 20
9.899999999999636
  0
LINE
  5
15620
330
1559B
100
AcDbEntity
  8
02製品
  6
Continuous
100
AcDbLine
 10
23.81954430153564
 20
16.89999999999964
 30
0.0
 11
22.47159873914461
 21
16.89999999999964
 31
0.0
  0
ARC
  5
15621
330
1559B
100
AcDbEntity
  8
02製品
  6
Continuous
100
AcDbCircle
 10
24.23936569210855
 20
15.16041298585515
 30
0.0
 40
1.789528703251949
100
AcDbArc
 50
76.43202197229951
 51
103.5679780277005
  0
LINE
  5
15622
330
1559B
100
AcDbEntity
  8
02製品
  6
Continuous
100
AcDbLine
 10
26.00713264507613
 20
16.89999999999964
 30
0.0
 11
24.65918708268146
 21
16.89999999999964
 31
0.0
  0
LINE
  5
15623
330
1559B
100
AcDbEntity
  8
02製品
  6
Continuous
100
AcDbLine
 10
26.00713264507613
 20
9.899999999999636
 30
0.0
 11
24.65918708272329
 21
9.899999999999636
 31
0.0
  0
ARC
  5
15624
330
1559B
100
AcDbEntity
  8
02製品
  6
Continuous
100
AcDbCircle
 10
24.23936569210855
 20
11.63958701414413
 30
0.0
 40
1.789528703261202
100
AcDbArc
 50
256.432021970993
 51
283.567978029007
  0
LWPOLYLINE
  5
15625
330
1559B
100
AcDbEntity
  8
02製品
  6
Continuous
100
AcDbPolyline
 90
       16
 70
   128
 43
0.0
 10
23.5322589109237
 20
46.89999999999964
 10
23.0177037282956
 20
46.82351660256791
 10
22.52563707625814
 20
46.59740910174878
 10
22.07756462870202
 20
46.23155948031308
 10
21.69306930167841
 20
45.74195712225628
 10
21.38895538598808
 20
45.14999999999964
 10
21.17851411905031
 20
44.48155948031308
 10
21.07094279403645
 20
43.76584962143716
 10
21.07094279403645
 20
43.03415037856394
 10
21.17851411905031
 20
42.31844051968801
 10
21.38895538598808
 20
41.64999999999964
 10
21.69306930167841
 20
41.05804287774481
 10
22.07756462870202
 20
40.56844051968801
 10
22.52563707625814
 20
40.20259089825049
 10
23.0177037282956
 20
39.97648339743137
 10
23.5322589109237
 20
39.89999999999964
  0
LINE
  5
15626
330
1559B
100
AcDbEntity
  8
02製品
  6
Continuous
100
AcDbLine
 10
24.65918708268146
 20
46.89999999999964
 30
0.0
 11
23.81954430153564
 21
46.89999999999964
 31
0.0
  0
LINE
  5
15627
330
1559B
100
AcDbEntity
  8
02製品
  6
Continuous
100
AcDbLine
 10
24.65918708272329
 20
39.89999999999964
 30
0.0
 11
23.81954430149381
 21
39.89999999999964
 31
0.0
  0
LINE
  5
15628
330
1559B
100
AcDbEntity
  8
02製品
  6
Continuous
100
AcDbLine
 10
23.81954430153564
 20
46.89999999999964
 30
0.0
 11
22.47159873914461
 21
46.89999999999964
 31
0.0
  0
ARC
  5
15629
330
1559B
100
AcDbEntity
  8
02製品
  6
Continuous
100
AcDbCircle
 10
24.23936569210855
 20
45.16041298585151
 30
0.0
 40
1.789528703257061
100
AcDbArc
 50
76.43202197233902
 51
103.567978027661
  0
LINE
  5
1562A
330
1559B
100
AcDbEntity
  8
02製品
  6
Continuous
100
AcDbLine
 10
26.00713264507613
 20
46.89999999999964
 30
0.0
 11
24.65918708268146
 21
46.89999999999964
 31
0.0
  0
LINE
  5
1562B
330
1559B
100
AcDbEntity
  8
02製品
  6
Continuous
100
AcDbLine
 10
26.00713264507613
 20
39.89999999999964
 30
0.0
 11
24.65918708272329
 21
39.89999999999964
 31
0.0
  0
ARC
  5
1562C
330
1559B
100
AcDbEntity
  8
02製品
  6
Continuous
100
AcDbCircle
 10
24.23936569210855
 20
41.63958701414231
 30
0.0
 40
1.789528703259063
100
AcDbArc
 50
256.4320219709765
 51
283.5679780290235
  0
LINE
  5
1562D
330
1559B
100
AcDbEntity
  8
02製品
  6
Continuous
100
AcDbLine
 10
23.81954430149381
 20
39.89999999999964
 30
0.0
 11
22.47159873914461
 21
39.89999999999964
 31
0.0
  0
LWPOLYLINE
  5
1562E
330
1559B
100
AcDbEntity
  8
02製品
  6
Continuous
100
AcDbPolyline
 90
       16
 70
   128
 43
0.0
 10
22.47159873914461
 20
46.89999999999964
 10
21.95704355651651
 20
46.82351660256791
 10
21.46497690447904
 20
46.59740910174878
 10
21.01690445692293
 20
46.23155948031308
 10
20.6324091298975
 20
45.74195712225628
 10
20.32829521420899
 20
45.14999999999964
 10
20.1178539472694
 20
44.48155948031308
 10
20.01028262225736
 20
43.76584962143716
 10
20.01028262225736
 20
43.03415037856394
 10
20.1178539472694
 20
42.31844051968801
 10
20.32829521420899
 20
41.64999999999964
 10
20.6324091298975
 20
41.05804287774481
 10
21.01690445692293
 20
40.56844051968801
 10
21.46497690447904
 20
40.20259089825049
 10
21.95704355651651
 20
39.97648339743137
 10
22.47159873914461
 20
39.89999999999964
  0
LINE
  5
1562F
330
1559B
100
AcDbEntity
  8
02製品
  6
Continuous
100
AcDbLine
 10
90.30002586389128
 20
60.0
 30
0.0
 11
90.30002586389128
 21
0.0
 31
0.0
  0
LINE
  5
15630
330
1559B
100
AcDbEntity
  8
02製品
  6
Continuous
100
AcDbLine
 10
39.67870552032946
 20
60.0
 30
0.0
 11
39.67870552032946
 21
0.0
 31
0.0
  0
LINE
  5
15631
330
1559B
100
AcDbEntity
  8
02製品
  6
Continuous
100
AcDbLine
 10
39.67870552032946
 20
0.0
 30
0.0
 11
90.30002586389128
 21
0.0
 31
0.0
  0
INSERT
  5
15632
330
1559B
100
AcDbEntity
  8
02製品
  6
Continuous
100
AcDbBlockReference
  2
SW_CENTERMARKSYMBOL_4
 10
53.80002586388218
 20
13.39999999999964
 30
0.0
 50
360.0
  0
ARC
  5
1563E
330
1559B
100
AcDbEntity
  8
02製品
  6
Continuous
100
AcDbCircle
 10
51.30002586388764
 20
13.399999999996
 30
0.0
 40
3.500000000000057
100
AcDbArc
 50
90.0
 51
270.0
  0
LINE
  5
1563F
330
1559B
100
AcDbEntity
  8
02製品
  6
Continuous
100
AcDbLine
 10
53.20630875951247
 20
16.899999999996
 30
0.0
 11
51.30002586388764
 21
16.899999999996
 31
0.0
  0
ARC
  5
15640
330
1559B
100
AcDbEntity
  8
02製品
  6
Continuous
100
AcDbCircle
 10
53.800025863884
 20
13.39999999999964
 30
0.0
 40
3.550000000000024
100
AcDbArc
 50
80.37236731705215
 51
99.62763268297765
  0
LINE
  5
15641
330
1559B
100
AcDbEntity
  8
02製品
  6
Continuous
100
AcDbLine
 10
56.30002586388764
 20
16.899999999996
 30
0.0
 11
54.39374296825372
 21
16.899999999996
 31
0.0
  0
ARC
  5
15642
330
1559B
100
AcDbEntity
  8
02製品
  6
Continuous
100
AcDbCircle
 10
56.30002586388764
 20
13.399999999996
 30
0.0
 40
3.500000000000782
100
AcDbArc
 50
270.0
 51
90.0
  0
LINE
  5
15643
330
1559B
100
AcDbEntity
  8
02製品
  6
Continuous
100
AcDbLine
 10
56.30002586388764
 20
9.89999999999418
 30
0.0
 11
54.39374296821552
 21
9.89999999999418
 31
0.0
  0
ARC
  5
15644
330
1559B
100
AcDbEntity
  8
02製品
  6
Continuous
100
AcDbCircle
 10
53.800025863884
 20
13.39999999999964
 30
0.0
 40
3.550000000000718
100
AcDbArc
 50
260.3723673176495
 51
279.6276326823206
  0
LINE
  5
15645
330
1559B
100
AcDbEntity
  8
02製品
  6
Continuous
100
AcDbLine
 10
53.20630875955067
 20
9.899999999995998
 30
0.0
 11
51.30002586388764
 21
9.899999999995998
 31
0.0
  0
LINE
  5
15646
330
1559B
100
AcDbEntity
  8
02製品
  6
Continuous
100
AcDbLine
 10
1115.300011320358
 20
60.0
 30
0.0
 11
1165.921331663916
 21
60.0
 31
0.0
  0
LINE
  5
15647
330
1559B
100
AcDbEntity
  8
02製品
100
AcDbLine
 10
1196.800011320356
 20
140.0000000000018
 30
0.0
 11
1165.921331663916
 21
60.0
 31
0.0
  0
LINE
  5
15648
330
1559B
100
AcDbEntity
  8
02製品
100
AcDbLine
 10
1195.300011320356
 20
139.9999999999982
 30
0.0
 11
1165.300011320356
 21
60.0
 31
0.0
  0
LINE
  5
15649
330
1559B
100
AcDbEntity
  8
02製品
100
AcDbLine
 10
8.80002586388946
 20
140.0
 30
0.0
 11
39.67870552032946
 21
60.0
 31
0.0
  0
LINE
  5
1564A
330
1559B
100
AcDbEntity
  8
02製品
100
AcDbLine
 10
40.30002586388946
 20
60.0
 30
0.0
 11
10.30002586388946
 21
140.0
 31
0.0
  0
LINE
  5
1564B
330
1559B
100
AcDbEntity
  8
02製品
100
AcDbLine
 10
50.30001751923919
 20
60.0
 30
0.0
 11
90.30002586389128
 21
60.0
 31
0.0
  0
LINE
  5
1564C
330
1559B
100
AcDbEntity
  8
02製品
100
AcDbLine
 10
1166.446508135643
 20
63.0
 30
0.0
 11
1155.300049467329
 21
63.0
 31
0.0
  0
LINE
  5
1564D
330
1559B
100
AcDbEntity
  8
02製品
100
AcDbLine
 10
39.15352904860265
 20
63.0
 30
0.0
 11
50.30001751923919
 21
63.00002098083496
 31
0.0
  0
LINE
  5
1564E
330
1559B
100
AcDbEntity
  8
02製品
  6
Continuous
100
AcDbLine
 10
1195.300011320356
 20
560.0000074505806
 30
0.0
 11
1195.300011320356
 21
410.0000089406967
 31
0.0
  0
LINE
  5
1564F
330
1559B
100
AcDbEntity
  8
02製品
  6
Continuous
100
AcDbLine
 10
1198.500005884413
 20
560.0000074505806
 30
0.0
 11
1198.500005884413
 21
410.0000089406967
 31
0.0
  0
LINE
  5
15650
330
1559B
100
AcDbEntity
  8
02製品
  6
Continuous
100
AcDbLine
 10
1195.300011320356
 20
410.0000089406967
 30
0.0
 11
1198.500005884413
 21
410.0000089406967
 31
0.0
  0
LINE
  5
15651
330
1559B
100
AcDbEntity
  8
02製品
  6
Continuous
100
AcDbLine
 10
1195.300011320356
 20
560.0000074505806
 30
0.0
 11
1198.500005884413
 21
560.0000074505806
 31
0.0
  0
LINE
  5
15652
330
1559B
100
AcDbEntity
  8
02製品
  6
Continuous
100
AcDbLine
 10
10.30002586388946
 20
560.0000074505806
 30
0.0
 11
10.30002586388946
 21
410.0000089406967
 31
0.0
  0
LINE
  5
15653
330
1559B
100
AcDbEntity
  8
02製品
  6
Continuous
100
AcDbLine
 10
7.100031299833063
 20
560.0000074505806
 30
0.0
 11
7.100031299833063
 21
410.0000089406967
 31
0.0
  0
LINE
  5
15654
330
1559B
100
AcDbEntity
  8
02製品
  6
Continuous
100
AcDbLine
 10
10.30002586388946
 20
410.0000089406967
 30
0.0
 11
7.100031299833063
 21
410.0000089406967
 31
0.0
  0
LINE
  5
15655
330
1559B
100
AcDbEntity
  8
02製品
  6
Continuous
100
AcDbLine
 10
10.30002586388946
 20
560.0000074505806
 30
0.0
 11
7.100031299833063
 21
560.0000074505806
 31
0.0
  0
LINE
  5
15656
330
1559B
100
AcDbEntity
  8
02製品
  6
HIDDEN
100
AcDbLine
 10
10.30002586388946
 20
560.0000074505806
 30
0.0
 11
10.30002586388946
 21
410.0000089406967
 31
0.0
  0
LINE
  5
15657
330
1559B
100
AcDbEntity
  8
02製品
  6
Continuous
100
AcDbLine
 10
10.30002586388946
 20
560.0000074505806
 30
0.0
 11
1195.300011320356
 21
560.0000074505806
 31
0.0
  0
LINE
  5
15658
330
1559B
100
AcDbEntity
  8
02製品
  6
Continuous
100
AcDbLine
 10
1195.300011320356
 20
520.0000074133277
 30
0.0
 11
10.30002586388946
 21
520.0000074133277
 31
0.0
  0
INSERT
  5
15659
330
1559B
100
AcDbEntity
  8
02製品
  6
Continuous
100
AcDbBlockReference
  2
SW_CENTERMARKSYMBOL_2
 10
73.300025863884
 20
49.00000000000364
 30
0.0
 50
360.0
  0
ARC
  5
15665
330
1559B
100
AcDbEntity
  8
02製品
  6
Continuous
100
AcDbCircle
 10
73.300025863884
 20
49.00000000000364
 30
0.0
 40
3.550000000000024
100
AcDbArc
 50
80.37236731705215
 51
99.62763268294785
  0
ARC
  5
15666
330
1559B
100
AcDbEntity
  8
02製品
  6
Continuous
100
AcDbCircle
 10
73.300025863884
 20
49.00000000000364
 30
0.0
 40
3.550000000000789
100
AcDbArc
 50
260.3723673176498
 51
279.6276326823502
  0
INSERT
  5
15667
330
1559B
100
AcDbEntity
  8
02製品
  6
Continuous
100
AcDbBlockReference
  2
SW_CENTERMARKSYMBOL_3
 10
50.30002586388582
 20
49.00000000000364
 30
0.0
 50
360.0
  0
ARC
  5
15673
330
1559B
100
AcDbEntity
  8
02製品
  6
Continuous
100
AcDbCircle
 10
50.30002586388582
 20
49.00000000000364
 30
0.0
 40
3.550000000000043
100
AcDbArc
 50
80.37236731702244
 51
99.62763268297756
  0
ARC
  5
15674
330
1559B
100
AcDbEntity
  8
02製品
  6
Continuous
100
AcDbCircle
 10
50.30002586388582
 20
49.00000000000364
 30
0.0
 40
3.54999999999998
100
AcDbArc
 50
260.3723673176774
 51
279.6276326823226
  0
LINE
  5
15675
330
1559B
100
AcDbEntity
  8
02製品
  6
Continuous
100
AcDbLine
 10
49.7063087595543
 20
45.5
 30
0.0
 11
47.80002586388946
 21
45.5
 31
0.0
  0
ARC
  5
15676
330
1559B
100
AcDbEntity
  8
02製品
  6
Continuous
100
AcDbCircle
 10
47.80002586388946
 20
49.0
 30
0.0
 40
3.500000000000057
100
AcDbArc
 50
90.0
 51
270.0
  0
LINE
  5
15677
330
1559B
100
AcDbEntity
  8
02製品
  6
Continuous
100
AcDbLine
 10
49.70630875951429
 20
52.5
 30
0.0
 11
47.80002586389128
 21
52.5
 31
0.0
  0
LINE
  5
15678
330
1559B
100
AcDbEntity
  8
02製品
  6
Continuous
100
AcDbLine
 10
52.80002586388946
 20
52.5
 30
0.0
 11
50.89374296825736
 21
52.5
 31
0.0
  0
ARC
  5
15679
330
1559B
100
AcDbEntity
  8
02製品
  6
Continuous
100
AcDbCircle
 10
52.80002586388946
 20
49.0
 30
0.0
 40
3.500000000000057
100
AcDbArc
 50
270.0
 51
90.0
  0
LINE
  5
1567A
330
1559B
100
AcDbEntity
  8
02製品
  6
Continuous
100
AcDbLine
 10
52.80002586388946
 20
45.5
 30
0.0
 11
50.89374296821734
 21
45.5
 31
0.0
  0
LINE
  5
1567B
330
1559B
100
AcDbEntity
  8
02製品
  6
Continuous
100
AcDbLine
 10
67.80002586388946
 20
45.5
 30
0.0
 11
72.70630875955248
 21
45.5
 31
0.0
  0
ARC
  5
1567C
330
1559B
100
AcDbEntity
  8
02製品
  6
Continuous
100
AcDbCircle
 10
67.80002586388946
 20
49.0
 30
0.0
 40
3.500000000000057
100
AcDbArc
 50
90.0
 51
270.0
  0
LINE
  5
1567D
330
1559B
100
AcDbEntity
  8
02製品
  6
Continuous
100
AcDbLine
 10
67.80002586388946
 20
52.5
 30
0.0
 11
72.70630875951247
 21
52.5
 31
0.0
  0
LINE
  5
1567E
330
1559B
100
AcDbEntity
  8
02製品
  6
Continuous
100
AcDbLine
 10
73.89374296825554
 20
52.5
 30
0.0
 11
78.80002586388946
 21
52.5
 31
0.0
  0
ARC
  5
1567F
330
1559B
100
AcDbEntity
  8
02製品
  6
Continuous
100
AcDbCircle
 10
78.80002586388946
 20
49.0
 30
0.0
 40
3.500000000000014
100
AcDbArc
 50
270.0
 51
90.0
  0
LINE
  5
15680
330
1559B
100
AcDbEntity
  8
02製品
  6
Continuous
100
AcDbLine
 10
73.89374296821734
 20
45.5
 30
0.0
 11
78.80002586388946
 21
45.5
 31
0.0
  0
INSERT
  5
15681
330
1559B
100
AcDbEntity
  8
02製品
  6
Continuous
100
AcDbBlockReference
  2
SW_CENTERMARKSYMBOL_7
 10
1155.300011320363
 20
49.0
 30
0.0
 50
44.99999999999539
  0
ARC
  5
1568D
330
1559B
100
AcDbEntity
  8
02製品
  6
Continuous
100
AcDbCircle
 10
1157.800011320363
 20
49.00000000000364
 30
0.0
 40
3.5
100
AcDbArc
 50
270.0
 51
90.0
  0
LINE
  5
1568E
330
1559B
100
AcDbEntity
  8
02製品
  6
Continuous
100
AcDbLine
 10
1154.706294216043
 20
52.50000000000364
 30
0.0
 11
1152.800011320362
 21
52.50000000000364
 31
0.0
  0
ARC
  5
1568F
330
1559B
100
AcDbEntity
  8
02製品
  6
Continuous
100
AcDbCircle
 10
1155.300011320363
 20
48.99999999999818
 30
0.0
 40
3.550000000000031
100
AcDbArc
 50
80.37236731779659
 51
99.62763268217363
  0
LINE
  5
15690
330
1559B
100
AcDbEntity
  8
02製品
  6
Continuous
100
AcDbLine
 10
1157.800011320363
 20
52.50000000000364
 30
0.0
 11
1155.893728424688
 21
52.50000000000364
 31
0.0
  0
LINE
  5
15691
330
1559B
100
AcDbEntity
  8
02製品
  6
Continuous
100
AcDbLine
 10
1157.800011320363
 20
45.50000000000364
 30
0.0
 11
1155.893728424746
 21
45.50000000000364
 31
0.0
  0
ARC
  5
15692
330
1559B
100
AcDbEntity
  8
02製品
  6
Continuous
100
AcDbCircle
 10
1155.300011320363
 20
48.99999999999818
 30
0.0
 40
3.549999999999969
100
AcDbArc
 50
260.3723673169031
 51
279.6276326831266
  0
LINE
  5
15693
330
1559B
100
AcDbEntity
  8
02製品
  6
Continuous
100
AcDbLine
 10
1154.706294215983
 20
45.50000000000364
 30
0.0
 11
1152.800011320362
 21
45.50000000000364
 31
0.0
  0
ARC
  5
15694
330
1559B
100
AcDbEntity
  8
02製品
  6
Continuous
100
AcDbCircle
 10
1152.80001132036
 20
49.00000000000364
 30
0.0
 40
3.5
100
AcDbArc
 50
90.0
 51
270.0
  0
LINE
  5
15695
330
1559B
100
AcDbEntity
  8
02製品
100
AcDbLine
 10
39.67870552032946
 20
60.0
 30
0.0
 11
50.30001751923919
 21
60.0
 31
0.0
  0
LINE
  5
15696
330
1559B
100
AcDbEntity
  8
02製品
100
AcDbLine
 10
10.30002586388946
 20
560.0000074505806
 30
0.0
 11
10.30002586388946
 21
520.0000074133277
 31
0.0
  0
LINE
  5
15697
330
1559B
100
AcDbEntity
  8
02製品
100
AcDbLine
 10
1195.300011320356
 20
560.0000074505806
 30
0.0
 11
1195.300011320356
 21
520.0000074133277
 31
0.0
  0
LINE
  5
15698
330
1559B
100
AcDbEntity
  8
02製品
  6
ByBlock
100
AcDbLine
 10
1204.998113794569
 20
536.2472608685548
 30
0.0
 11
1200.100011987928
 21
536.2472608685548
 31
0.0
  0
LINE
  5
15699
330
1559B
100
AcDbEntity
  8
02製品
  6
ByBlock
100
AcDbLine
 10
1205.600011987928
 20
546.3000257611329
 30
0.0
 11
1205.600011987928
 21
533.7000196576173
 31
0.0
  0
LINE
  5
1569A
330
1559B
100
AcDbEntity
  8
02製品
  6
ByBlock
100
AcDbLine
 10
1205.600037184246
 20
533.7000538825469
 30
0.0
 11
1204.99813595448
 21
536.2473080018954
 31
0.0
  0
ARC
  5
1569B
330
1559B
100
AcDbEntity
  8
02製品
  6
ByBlock
100
AcDbCircle
 10
1193.600011987928
 20
540.000007450586
 30
0.0
 40
12.0
100
AcDbArc
 50
341.7762176856163
 51
18.22401954976297
  0
LINE
  5
1569C
330
1559B
100
AcDbEntity
  8
02製品
  6
ByBlock
100
AcDbLine
 10
1205.600035955551
 20
533.7000381427406
 30
0.0
 11
1204.904014396765
 21
532.494493306569
 31
0.0
  0
LINE
  5
1569D
330
1559B
100
AcDbEntity
  8
02製品
  6
ByBlock
100
AcDbLine
 10
1204.903982324842
 20
532.4944685101564
 30
0.0
 11
1200.100011987928
 21
532.4944685101564
 31
0.0
  0
LINE
  5
1569E
330
1559B
100
AcDbEntity
  8
02製品
  6
ByBlock
100
AcDbLine
 10
1204.99809853578
 20
543.7528150677736
 30
0.0
 11
1200.100011987928
 21
543.7528150677736
 31
0.0
  0
LINE
  5
1569F
330
1559B
100
AcDbEntity
  8
02製品
  6
ByBlock
100
AcDbLine
 10
1204.903982324842
 20
547.5055769085939
 30
0.0
 11
1200.100011987928
 21
547.5055769085939
 31
0.0
  0
LINE
  5
156A0
330
1559B
100
AcDbEntity
  8
02製品
  6
ByBlock
100
AcDbLine
 10
1204.99811022498
 20
543.752838722894
 30
0.0
 11
1205.600025649121
 21
546.3000581301221
 31
0.0
  0
LINE
  5
156A1
330
1559B
100
AcDbEntity
  8
02製品
  6
ByBlock
100
AcDbLine
 10
1204.903993201351
 20
547.5056326927461
 30
0.0
 11
1205.600022568346
 21
546.3000743323628
 31
0.0
  0
LINE
  5
156A2
330
1559B
100
AcDbEntity
  8
02製品
  6
ByBlock
100
AcDbLine
 10
1200.100011987928
 20
548.5000074505824
 30
0.0
 11
1200.100011987928
 21
531.500007450586
 31
0.0
  0
LINE
  5
156A3
330
1559B
100
AcDbEntity
  8
02製品
  6
ByBlock
100
AcDbLine
 10
1198.500005884413
 20
548.5000074505824
 30
0.0
 11
1198.500005884413
 21
531.500007450586
 31
0.0
  0
LINE
  5
156A4
330
1559B
100
AcDbEntity
  8
02製品
  6
ByBlock
100
AcDbLine
 10
1200.100011987928
 20
548.5000074505824
 30
0.0
 11
1198.500005884413
 21
548.5000074505824
 31
0.0
  0
LINE
  5
156A5
330
1559B
100
AcDbEntity
  8
02製品
  6
ByBlock
100
AcDbLine
 10
1200.100011987928
 20
531.500007450586
 30
0.0
 11
1198.500005884413
 21
531.500007450586
 31
0.0
  0
LINE
  5
156A6
330
1559B
100
AcDbEntity
  8
02製品
  6
ByBlock
100
AcDbLine
 10
1204.998113794569
 20
486.2472608685512
 30
0.0
 11
1200.100011987928
 21
486.2472608685512
 31
0.0
  0
LINE
  5
156A7
330
1559B
100
AcDbEntity
  8
02製品
  6
ByBlock
100
AcDbLine
 10
1205.600011987928
 20
496.3000257611293
 30
0.0
 11
1205.600011987928
 21
483.7000196576137
 31
0.0
  0
LINE
  5
156A8
330
1559B
100
AcDbEntity
  8
02製品
  6
ByBlock
100
AcDbLine
 10
1205.600037184246
 20
483.7000538825432
 30
0.0
 11
1204.99813595448
 21
486.2473080018917
 31
0.0
  0
ARC
  5
156A9
330
1559B
100
AcDbEntity
  8
02製品
  6
ByBlock
100
AcDbCircle
 10
1193.600011987928
 20
490.0000074505824
 30
0.0
 40
12.0
100
AcDbArc
 50
341.7762176856163
 51
18.2240195497604
  0
LINE
  5
156AA
330
1559B
100
AcDbEntity
  8
02製品
  6
ByBlock
100
AcDbLine
 10
1205.600035955551
 20
483.700038142737
 30
0.0
 11
1204.904014396765
 21
482.4944933065653
 31
0.0
  0
LINE
  5
156AB
330
1559B
100
AcDbEntity
  8
02製品
  6
ByBlock
100
AcDbLine
 10
1204.903982324842
 20
482.4944685101527
 30
0.0
 11
1200.100011987928
 21
482.4944685101527
 31
0.0
  0
LINE
  5
156AC
330
1559B
100
AcDbEntity
  8
02製品
  6
ByBlock
100
AcDbLine
 10
1204.99809853578
 20
493.7528150677699
 30
0.0
 11
1200.100011987928
 21
493.7528150677699
 31
0.0
  0
LINE
  5
156AD
330
1559B
100
AcDbEntity
  8
02製品
  6
ByBlock
100
AcDbLine
 10
1204.903982324842
 20
497.5055769085902
 30
0.0
 11
1200.100011987928
 21
497.5055769085902
 31
0.0
  0
LINE
  5
156AE
330
1559B
100
AcDbEntity
  8
02製品
  6
ByBlock
100
AcDbLine
 10
1204.99811022498
 20
493.7528387228904
 30
0.0
 11
1205.600025649121
 21
496.3000581301185
 31
0.0
  0
LINE
  5
156AF
330
1559B
100
AcDbEntity
  8
02製品
  6
ByBlock
100
AcDbLine
 10
1204.903993201351
 20
497.5056326927424
 30
0.0
 11
1205.600022568346
 21
496.3000743323591
 31
0.0
  0
LINE
  5
156B0
330
1559B
100
AcDbEntity
  8
02製品
  6
ByBlock
100
AcDbLine
 10
1200.100011987928
 20
498.5000074505788
 30
0.0
 11
1200.100011987928
 21
481.5000074505824
 31
0.0
  0
LINE
  5
156B1
330
1559B
100
AcDbEntity
  8
02製品
  6
ByBlock
100
AcDbLine
 10
1198.500005884413
 20
498.5000074505788
 30
0.0
 11
1198.500005884413
 21
481.5000074505824
 31
0.0
  0
LINE
  5
156B2
330
1559B
100
AcDbEntity
  8
02製品
  6
ByBlock
100
AcDbLine
 10
1200.100011987928
 20
498.5000074505788
 30
0.0
 11
1198.500005884413
 21
498.5000074505788
 31
0.0
  0
LINE
  5
156B3
330
1559B
100
AcDbEntity
  8
02製品
  6
ByBlock
100
AcDbLine
 10
1200.100011987928
 20
481.5000074505824
 30
0.0
 11
1198.500005884413
 21
481.5000074505824
 31
0.0
  0
LINE
  5
156B4
330
1559B
100
AcDbEntity
  8
02製品
  6
ByBlock
100
AcDbLine
 10
1204.998113794569
 20
426.2472608685512
 30
0.0
 11
1200.100011987928
 21
426.2472608685512
 31
0.0
  0
LINE
  5
156B5
330
1559B
100
AcDbEntity
  8
02製品
  6
ByBlock
100
AcDbLine
 10
1205.600011987928
 20
436.3000257611293
 30
0.0
 11
1205.600011987928
 21
423.7000196576137
 31
0.0
  0
LINE
  5
156B6
330
1559B
100
AcDbEntity
  8
02製品
  6
ByBlock
100
AcDbLine
 10
1205.600037184246
 20
423.7000538825432
 30
0.0
 11
1204.99813595448
 21
426.2473080018917
 31
0.0
  0
ARC
  5
156B7
330
1559B
100
AcDbEntity
  8
02製品
  6
ByBlock
100
AcDbCircle
 10
1193.600011987928
 20
430.0000074505824
 30
0.0
 40
12.0
100
AcDbArc
 50
341.7762176856158
 51
18.2240195497604
  0
LINE
  5
156B8
330
1559B
100
AcDbEntity
  8
02製品
  6
ByBlock
100
AcDbLine
 10
1205.600035955551
 20
423.700038142737
 30
0.0
 11
1204.904014396765
 21
422.4944933065653
 31
0.0
  0
LINE
  5
156B9
330
1559B
100
AcDbEntity
  8
02製品
  6
ByBlock
100
AcDbLine
 10
1204.903982324842
 20
422.4944685101527
 30
0.0
 11
1200.100011987928
 21
422.4944685101527
 31
0.0
  0
LINE
  5
156BA
330
1559B
100
AcDbEntity
  8
02製品
  6
ByBlock
100
AcDbLine
 10
1204.99809853578
 20
433.7528150677699
 30
0.0
 11
1200.100011987928
 21
433.7528150677699
 31
0.0
  0
LINE
  5
156BB
330
1559B
100
AcDbEntity
  8
02製品
  6
ByBlock
100
AcDbLine
 10
1204.903982324842
 20
437.5055769085902
 30
0.0
 11
1200.100011987928
 21
437.5055769085902
 31
0.0
  0
LINE
  5
156BC
330
1559B
100
AcDbEntity
  8
02製品
  6
ByBlock
100
AcDbLine
 10
1204.99811022498
 20
433.7528387228904
 30
0.0
 11
1205.600025649121
 21
436.3000581301185
 31
0.0
  0
LINE
  5
156BD
330
1559B
100
AcDbEntity
  8
02製品
  6
ByBlock
100
AcDbLine
 10
1204.903993201351
 20
437.5056326927424
 30
0.0
 11
1205.600022568346
 21
436.3000743323591
 31
0.0
  0
LINE
  5
156BE
330
1559B
100
AcDbEntity
  8
02製品
  6
ByBlock
100
AcDbLine
 10
1200.100011987928
 20
438.5000074505788
 30
0.0
 11
1200.100011987928
 21
421.5000074505824
 31
0.0
  0
LINE
  5
156BF
330
1559B
100
AcDbEntity
  8
02製品
  6
ByBlock
100
AcDbLine
 10
1198.500005884413
 20
438.5000074505788
 30
0.0
 11
1198.500005884413
 21
421.5000074505824
 31
0.0
  0
LINE
  5
156C0
330
1559B
100
AcDbEntity
  8
02製品
  6
ByBlock
100
AcDbLine
 10
1200.100011987928
 20
438.5000074505788
 30
0.0
 11
1198.500005884413
 21
438.5000074505788
 31
0.0
  0
LINE
  5
156C1
330
1559B
100
AcDbEntity
  8
02製品
  6
ByBlock
100
AcDbLine
 10
1200.100011987928
 20
421.5000074505824
 30
0.0
 11
1198.500005884413
 21
421.5000074505824
 31
0.0
  0
LINE
  5
156C2
330
1559B
100
AcDbEntity
  8
02製品
  6
ByBlock
100
AcDbLine
 10
1203.298119230512
 20
116.2472534179724
 30
0.0
 11
1198.400017423872
 21
116.2472534179724
 31
0.0
  0
LINE
  5
156C3
330
1559B
100
AcDbEntity
  8
02製品
  6
ByBlock
100
AcDbLine
 10
1203.900017423872
 20
126.3000183105505
 30
0.0
 11
1203.900017423872
 21
113.7000122070349
 31
0.0
  0
LINE
  5
156C4
330
1559B
100
AcDbEntity
  8
02製品
  6
ByBlock
100
AcDbLine
 10
1203.900042620189
 20
113.7000464319644
 30
0.0
 11
1203.298141390424
 21
116.2473005513129
 31
0.0
  0
ARC
  5
156C5
330
1559B
100
AcDbEntity
  8
02製品
  6
ByBlock
100
AcDbCircle
 10
1191.900017423872
 20
120.0000000000036
 30
0.0
 40
12.0
100
AcDbArc
 50
341.776217685615
 51
18.22401954975962
  0
LINE
  5
156C6
330
1559B
100
AcDbEntity
  8
02製品
  6
ByBlock
100
AcDbLine
 10
1203.900041391495
 20
113.7000306921582
 30
0.0
 11
1203.204019832709
 21
112.4944858559866
 31
0.0
  0
LINE
  5
156C7
330
1559B
100
AcDbEntity
  8
02製品
  6
ByBlock
100
AcDbLine
 10
1203.203987760786
 20
112.494461059574
 30
0.0
 11
1198.400017423872
 21
112.494461059574
 31
0.0
  0
LINE
  5
156C8
330
1559B
100
AcDbEntity
  8
02製品
  6
ByBlock
100
AcDbLine
 10
1203.298103971723
 20
123.7528076171911
 30
0.0
 11
1198.400017423872
 21
123.7528076171911
 31
0.0
  0
LINE
  5
156C9
330
1559B
100
AcDbEntity
  8
02製品
  6
ByBlock
100
AcDbLine
 10
1203.203987760786
 20
127.5055694580115
 30
0.0
 11
1198.400017423872
 21
127.5055694580115
 31
0.0
  0
LINE
  5
156CA
330
1559B
100
AcDbEntity
  8
02製品
  6
ByBlock
100
AcDbLine
 10
1203.298115660924
 20
123.7528312723116
 30
0.0
 11
1203.900031085064
 21
126.3000506795397
 31
0.0
  0
LINE
  5
156CB
330
1559B
100
AcDbEntity
  8
02製品
  6
ByBlock
100
AcDbLine
 10
1203.203998637295
 20
127.5056252421637
 30
0.0
 11
1203.900028004289
 21
126.3000668817804
 31
0.0
  0
LINE
  5
156CC
330
1559B
100
AcDbEntity
  8
02製品
  6
ByBlock
100
AcDbLine
 10
1198.400017423872
 20
128.5
 30
0.0
 11
1198.400017423872
 21
111.5000000000036
 31
0.0
  0
LINE
  5
156CD
330
1559B
100
AcDbEntity
  8
02製品
  6
ByBlock
100
AcDbLine
 10
1196.800011320356
 20
128.5
 30
0.0
 11
1196.800011320356
 21
111.5000000000036
 31
0.0
  0
LINE
  5
156CE
330
1559B
100
AcDbEntity
  8
02製品
  6
ByBlock
100
AcDbLine
 10
1198.400017423872
 20
128.5
 30
0.0
 11
1196.800011320356
 21
128.5
 31
0.0
  0
LINE
  5
156CF
330
1559B
100
AcDbEntity
  8
02製品
  6
ByBlock
100
AcDbLine
 10
1198.400017423872
 20
111.5000000000036
 30
0.0
 11
1196.800011320356
 21
111.5000000000036
 31
0.0
  0
LINE
  5
156D0
330
1559B
100
AcDbEntity
  8
02製品
  6
ByBlock
100
AcDbLine
 10
1203.298119230512
 20
76.24725341797239
 30
0.0
 11
1198.400017423872
 21
76.24725341797239
 31
0.0
  0
LINE
  5
156D1
330
1559B
100
AcDbEntity
  8
02製品
  6
ByBlock
100
AcDbLine
 10
1203.900017423872
 20
86.30001831055051
 30
0.0
 11
1203.900017423872
 21
73.70001220703489
 31
0.0
  0
LINE
  5
156D2
330
1559B
100
AcDbEntity
  8
02製品
  6
ByBlock
100
AcDbLine
 10
1203.900042620189
 20
73.70004643196444
 30
0.0
 11
1203.298141390424
 21
76.24730055131295
 31
0.0
  0
ARC
  5
156D3
330
1559B
100
AcDbEntity
  8
02製品
  6
ByBlock
100
AcDbCircle
 10
1191.900017423872
 20
80.00000000000364
 30
0.0
 40
12.0
100
AcDbArc
 50
341.776217685615
 51
18.22401954975962
  0
LINE
  5
156D4
330
1559B
100
AcDbEntity
  8
02製品
  6
ByBlock
100
AcDbLine
 10
1203.900041391495
 20
73.70003069215818
 30
0.0
 11
1203.204019832709
 21
72.49448585598657
 31
0.0
  0
LINE
  5
156D5
330
1559B
100
AcDbEntity
  8
02製品
  6
ByBlock
100
AcDbLine
 10
1203.203987760786
 20
72.49446105957395
 30
0.0
 11
1198.400017423872
 21
72.49446105957395
 31
0.0
  0
LINE
  5
156D6
330
1559B
100
AcDbEntity
  8
02製品
  6
ByBlock
100
AcDbLine
 10
1203.298103971723
 20
83.75280761719114
 30
0.0
 11
1198.400017423872
 21
83.75280761719114
 31
0.0
  0
LINE
  5
156D7
330
1559B
100
AcDbEntity
  8
02製品
  6
ByBlock
100
AcDbLine
 10
1203.203987760786
 20
87.50556945801145
 30
0.0
 11
1198.400017423872
 21
87.50556945801145
 31
0.0
  0
LINE
  5
156D8
330
1559B
100
AcDbEntity
  8
02製品
  6
ByBlock
100
AcDbLine
 10
1203.298115660924
 20
83.7528312723116
 30
0.0
 11
1203.900031085064
 21
86.30005067953971
 31
0.0
  0
LINE
  5
156D9
330
1559B
100
AcDbEntity
  8
02製品
  6
ByBlock
100
AcDbLine
 10
1203.203998637295
 20
87.50562524216366
 30
0.0
 11
1203.900028004289
 21
86.30006688178037
 31
0.0
  0
LINE
  5
156DA
330
1559B
100
AcDbEntity
  8
02製品
  6
ByBlock
100
AcDbLine
 10
1198.400017423872
 20
88.5
 30
0.0
 11
1198.400017423872
 21
71.50000000000364
 31
0.0
  0
LINE
  5
156DB
330
1559B
100
AcDbEntity
  8
02製品
  6
ByBlock
100
AcDbLine
 10
1196.800011320356
 20
88.5
 30
0.0
 11
1196.800011320356
 21
71.50000000000364
 31
0.0
  0
LINE
  5
156DC
330
1559B
100
AcDbEntity
  8
02製品
  6
ByBlock
100
AcDbLine
 10
1198.400017423872
 20
88.5
 30
0.0
 11
1196.800011320356
 21
88.5
 31
0.0
  0
LINE
  5
156DD
330
1559B
100
AcDbEntity
  8
02製品
  6
ByBlock
100
AcDbLine
 10
1198.400017423872
 20
71.50000000000364
 30
0.0
 11
1196.800011320356
 21
71.50000000000364
 31
0.0
  0
LINE
  5
156DE
330
1559B
100
AcDbEntity
  8
02製品
  6
ByBlock
100
AcDbLine
 10
0.6019233896768128
 20
536.2472608685548
 30
0.0
 11
5.500025196317438
 21
536.2472608685548
 31
0.0
  0
LINE
  5
156DF
330
1559B
100
AcDbEntity
  8
02製品
  6
ByBlock
100
AcDbLine
 10
0.0000251963174378
 20
546.3000257611329
 30
0.0
 11
0.0000251963174378
 21
533.7000196576173
 31
0.0
  0
LINE
  5
156E0
330
1559B
100
AcDbEntity
  8
02製品
  6
ByBlock
100
AcDbLine
 10
0.0
 20
533.7000538825469
 30
0.0
 11
0.6019012297656445
 21
536.2473080018954
 31
0.0
  0
ARC
  5
156E1
330
1559B
100
AcDbEntity
  8
02製品
  6
ByBlock
100
AcDbCircle
 10
12.00002519631744
 20
540.000007450586
 30
0.0
 40
12.0
100
AcDbArc
 50
161.775980450237
 51
198.2237823143822
  0
LINE
  5
156E2
330
1559B
100
AcDbEntity
  8
02製品
  6
ByBlock
100
AcDbLine
 10
0.0000012286946003
 20
533.7000381427406
 30
0.0
 11
0.6960227874806151
 21
532.494493306569
 31
0.0
  0
LINE
  5
156E3
330
1559B
100
AcDbEntity
  8
02製品
  6
ByBlock
100
AcDbLine
 10
0.6960548594033753
 20
532.4944685101564
 30
0.0
 11
5.500025196317438
 21
532.4944685101564
 31
0.0
  0
LINE
  5
156E4
330
1559B
100
AcDbEntity
  8
02製品
  6
ByBlock
100
AcDbLine
 10
0.6019386484658753
 20
543.7528150677736
 30
0.0
 11
5.500025196317438
 21
543.7528150677736
 31
0.0
  0
LINE
  5
156E5
330
1559B
100
AcDbEntity
  8
02製品
  6
ByBlock
100
AcDbLine
 10
0.6960548594033753
 20
547.5055769085939
 30
0.0
 11
5.500025196317438
 21
547.5055769085939
 31
0.0
  0
LINE
  5
156E6
330
1559B
100
AcDbEntity
  8
02製品
  6
ByBlock
100
AcDbLine
 10
0.6019269592652563
 20
543.752838722894
 30
0.0
 11
0.0000115351249406
 21
546.3000581301221
 31
0.0
  0
LINE
  5
156E7
330
1559B
100
AcDbEntity
  8
02製品
  6
ByBlock
100
AcDbLine
 10
0.69604398289448
 20
547.5056326927461
 30
0.0
 11
0.0000146158999996
 21
546.3000743323628
 31
0.0
  0
LINE
  5
156E8
330
1559B
100
AcDbEntity
  8
02製品
  6
ByBlock
100
AcDbLine
 10
5.500025196317438
 20
548.5000074505824
 30
0.0
 11
5.500025196317438
 21
531.500007450586
 31
0.0
  0
LINE
  5
156E9
330
1559B
100
AcDbEntity
  8
02製品
  6
ByBlock
100
AcDbLine
 10
7.100031299833063
 20
548.5000074505824
 30
0.0
 11
7.100031299833063
 21
531.500007450586
 31
0.0
  0
LINE
  5
156EA
330
1559B
100
AcDbEntity
  8
02製品
  6
ByBlock
100
AcDbLine
 10
5.500025196317438
 20
548.5000074505824
 30
0.0
 11
7.100031299833063
 21
548.5000074505824
 31
0.0
  0
LINE
  5
156EB
330
1559B
100
AcDbEntity
  8
02製品
  6
ByBlock
100
AcDbLine
 10
5.500025196317438
 20
531.500007450586
 30
0.0
 11
7.100031299833063
 21
531.500007450586
 31
0.0
  0
LINE
  5
156EC
330
1559B
100
AcDbEntity
  8
02製品
  6
ByBlock
100
AcDbLine
 10
0.6019233896768128
 20
486.2472608685512
 30
0.0
 11
5.500025196317438
 21
486.2472608685512
 31
0.0
  0
LINE
  5
156ED
330
1559B
100
AcDbEntity
  8
02製品
  6
ByBlock
100
AcDbLine
 10
0.0000251963174378
 20
496.3000257611293
 30
0.0
 11
0.0000251963174378
 21
483.7000196576137
 31
0.0
  0
LINE
  5
156EE
330
1559B
100
AcDbEntity
  8
02製品
  6
ByBlock
100
AcDbLine
 10
0.0
 20
483.7000538825432
 30
0.0
 11
0.6019012297656445
 21
486.2473080018917
 31
0.0
  0
ARC
  5
156EF
330
1559B
100
AcDbEntity
  8
02製品
  6
ByBlock
100
AcDbCircle
 10
12.00002519631744
 20
490.0000074505824
 30
0.0
 40
12.0
100
AcDbArc
 50
161.7759804502396
 51
198.2237823143822
  0
LINE
  5
156F0
330
1559B
100
AcDbEntity
  8
02製品
  6
ByBlock
100
AcDbLine
 10
0.0000012286946003
 20
483.700038142737
 30
0.0
 11
0.6960227874806151
 21
482.4944933065653
 31
0.0
  0
LINE
  5
156F1
330
1559B
100
AcDbEntity
  8
02製品
  6
ByBlock
100
AcDbLine
 10
0.6960548594033753
 20
482.4944685101527
 30
0.0
 11
5.500025196317438
 21
482.4944685101527
 31
0.0
  0
LINE
  5
156F2
330
1559B
100
AcDbEntity
  8
02製品
  6
ByBlock
100
AcDbLine
 10
0.6019386484658753
 20
493.7528150677699
 30
0.0
 11
5.500025196317438
 21
493.7528150677699
 31
0.0
  0
LINE
  5
156F3
330
1559B
100
AcDbEntity
  8
02製品
  6
ByBlock
100
AcDbLine
 10
0.6960548594033753
 20
497.5055769085902
 30
0.0
 11
5.500025196317438
 21
497.5055769085902
 31
0.0
  0
LINE
  5
156F4
330
1559B
100
AcDbEntity
  8
02製品
  6
ByBlock
100
AcDbLine
 10
0.6019269592652563
 20
493.7528387228904
 30
0.0
 11
0.0000115351249406
 21
496.3000581301185
 31
0.0
  0
LINE
  5
156F5
330
1559B
100
AcDbEntity
  8
02製品
  6
ByBlock
100
AcDbLine
 10
0.69604398289448
 20
497.5056326927424
 30
0.0
 11
0.0000146158999996
 21
496.3000743323591
 31
0.0
  0
LINE
  5
156F6
330
1559B
100
AcDbEntity
  8
02製品
  6
ByBlock
100
AcDbLine
 10
5.500025196317438
 20
498.5000074505788
 30
0.0
 11
5.500025196317438
 21
481.5000074505824
 31
0.0
  0
LINE
  5
156F7
330
1559B
100
AcDbEntity
  8
02製品
  6
ByBlock
100
AcDbLine
 10
7.100031299833063
 20
498.5000074505788
 30
0.0
 11
7.100031299833063
 21
481.5000074505824
 31
0.0
  0
LINE
  5
156F8
330
1559B
100
AcDbEntity
  8
02製品
  6
ByBlock
100
AcDbLine
 10
5.500025196317438
 20
498.5000074505788
 30
0.0
 11
7.100031299833063
 21
498.5000074505788
 31
0.0
  0
LINE
  5
156F9
330
1559B
100
AcDbEntity
  8
02製品
  6
ByBlock
100
AcDbLine
 10
5.500025196317438
 20
481.5000074505824
 30
0.0
 11
7.100031299833063
 21
481.5000074505824
 31
0.0
  0
LINE
  5
156FA
330
1559B
100
AcDbEntity
  8
02製品
  6
ByBlock
100
AcDbLine
 10
0.6019233896768128
 20
426.2472608685512
 30
0.0
 11
5.500025196317438
 21
426.2472608685512
 31
0.0
  0
LINE
  5
156FB
330
1559B
100
AcDbEntity
  8
02製品
  6
ByBlock
100
AcDbLine
 10
0.0000251963174378
 20
436.3000257611293
 30
0.0
 11
0.0000251963174378
 21
423.7000196576137
 31
0.0
  0
LINE
  5
156FC
330
1559B
100
AcDbEntity
  8
02製品
  6
ByBlock
100
AcDbLine
 10
0.0
 20
423.7000538825432
 30
0.0
 11
0.6019012297656445
 21
426.2473080018917
 31
0.0
  0
ARC
  5
156FD
330
1559B
100
AcDbEntity
  8
02製品
  6
ByBlock
100
AcDbCircle
 10
12.00002519631744
 20
430.0000074505824
 30
0.0
 40
12.0
100
AcDbArc
 50
161.7759804502396
 51
198.2237823143822
  0
LINE
  5
156FE
330
1559B
100
AcDbEntity
  8
02製品
  6
ByBlock
100
AcDbLine
 10
0.0000012286946003
 20
423.700038142737
 30
0.0
 11
0.6960227874806151
 21
422.4944933065653
 31
0.0
  0
LINE
  5
156FF
330
1559B
100
AcDbEntity
  8
02製品
  6
ByBlock
100
AcDbLine
 10
0.6960548594033753
 20
422.4944685101527
 30
0.0
 11
5.500025196317438
 21
422.4944685101527
 31
0.0
  0
LINE
  5
15700
330
1559B
100
AcDbEntity
  8
02製品
  6
ByBlock
100
AcDbLine
 10
0.6019386484658753
 20
433.7528150677699
 30
0.0
 11
5.500025196317438
 21
433.7528150677699
 31
0.0
  0
LINE
  5
15701
330
1559B
100
AcDbEntity
  8
02製品
  6
ByBlock
100
AcDbLine
 10
0.6960548594033753
 20
437.5055769085902
 30
0.0
 11
5.500025196317438
 21
437.5055769085902
 31
0.0
  0
LINE
  5
15702
330
1559B
100
AcDbEntity
  8
02製品
  6
ByBlock
100
AcDbLine
 10
0.6019269592652563
 20
433.7528387228904
 30
0.0
 11
0.0000115351249406
 21
436.3000581301185
 31
0.0
  0
LINE
  5
15703
330
1559B
100
AcDbEntity
  8
02製品
  6
ByBlock
100
AcDbLine
 10
0.69604398289448
 20
437.5056326927424
 30
0.0
 11
0.0000146158999996
 21
436.3000743323591
 31
0.0
  0
LINE
  5
15704
330
1559B
100
AcDbEntity
  8
02製品
  6
ByBlock
100
AcDbLine
 10
5.500025196317438
 20
438.5000074505788
 30
0.0
 11
5.500025196317438
 21
421.5000074505824
 31
0.0
  0
LINE
  5
15705
330
1559B
100
AcDbEntity
  8
02製品
  6
ByBlock
100
AcDbLine
 10
7.100031299833063
 20
438.5000074505788
 30
0.0
 11
7.100031299833063
 21
421.5000074505824
 31
0.0
  0
LINE
  5
15706
330
1559B
100
AcDbEntity
  8
02製品
  6
ByBlock
100
AcDbLine
 10
5.500025196317438
 20
438.5000074505788
 30
0.0
 11
7.100031299833063
 21
438.5000074505788
 31
0.0
  0
LINE
  5
15707
330
1559B
100
AcDbEntity
  8
02製品
  6
ByBlock
100
AcDbLine
 10
5.500025196317438
 20
421.5000074505824
 30
0.0
 11
7.100031299833063
 21
421.5000074505824
 31
0.0
  0
LINE
  5
15708
330
1559B
100
AcDbEntity
  8
02製品
  6
ByBlock
100
AcDbLine
 10
2.301917953733209
 20
116.2472534179724
 30
0.0
 11
7.200019760373834
 21
116.2472534179724
 31
0.0
  0
LINE
  5
15709
330
1559B
100
AcDbEntity
  8
02製品
  6
ByBlock
100
AcDbLine
 10
1.700019760373834
 20
126.3000183105505
 30
0.0
 11
1.700019760373834
 21
113.7000122070349
 31
0.0
  0
LINE
  5
1570A
330
1559B
100
AcDbEntity
  8
02製品
  6
ByBlock
100
AcDbLine
 10
1.699994564056396
 20
113.7000464319644
 30
0.0
 11
2.301895793822041
 21
116.2473005513129
 31
0.0
  0
ARC
  5
1570B
330
1559B
100
AcDbEntity
  8
02製品
  6
ByBlock
100
AcDbCircle
 10
13.70001976037383
 20
120.0000000000036
 30
0.0
 40
12.0
100
AcDbArc
 50
161.7759804502404
 51
198.2237823143832
  0
LINE
  5
1570C
330
1559B
100
AcDbEntity
  8
02製品
  6
ByBlock
100
AcDbLine
 10
1.699995792750997
 20
113.7000306921582
 30
0.0
 11
2.396017351537012
 21
112.4944858559866
 31
0.0
  0
LINE
  5
1570D
330
1559B
100
AcDbEntity
  8
02製品
  6
ByBlock
100
AcDbLine
 10
2.396049423459772
 20
112.494461059574
 30
0.0
 11
7.200019760373834
 21
112.494461059574
 31
0.0
  0
LINE
  5
1570E
330
1559B
100
AcDbEntity
  8
02製品
  6
ByBlock
100
AcDbLine
 10
2.301933212522272
 20
123.7528076171911
 30
0.0
 11
7.200019760373834
 21
123.7528076171911
 31
0.0
  0
LINE
  5
1570F
330
1559B
100
AcDbEntity
  8
02製品
  6
ByBlock
100
AcDbLine
 10
2.396049423459772
 20
127.5055694580115
 30
0.0
 11
7.200019760373834
 21
127.5055694580115
 31
0.0
  0
LINE
  5
15710
330
1559B
100
AcDbEntity
  8
02製品
  6
ByBlock
100
AcDbLine
 10
2.301921523321653
 20
123.7528312723116
 30
0.0
 11
1.700006099181337
 21
126.3000506795397
 31
0.0
  0
LINE
  5
15711
330
1559B
100
AcDbEntity
  8
02製品
  6
ByBlock
100
AcDbLine
 10
2.396038546950876
 20
127.5056252421637
 30
0.0
 11
1.700009179956396
 21
126.3000668817804
 31
0.0
  0
LINE
  5
15712
330
1559B
100
AcDbEntity
  8
02製品
  6
ByBlock
100
AcDbLine
 10
7.200019760373834
 20
128.5
 30
0.0
 11
7.200019760373834
 21
111.5000000000036
 31
0.0
  0
LINE
  5
15713
330
1559B
100
AcDbEntity
  8
02製品
  6
ByBlock
100
AcDbLine
 10
8.80002586388946
 20
128.5
 30
0.0
 11
8.80002586388946
 21
111.5000000000036
 31
0.0
  0
LINE
  5
15714
330
1559B
100
AcDbEntity
  8
02製品
  6
ByBlock
100
AcDbLine
 10
7.200019760373834
 20
128.5
 30
0.0
 11
8.80002586388946
 21
128.5
 31
0.0
  0
LINE
  5
15715
330
1559B
100
AcDbEntity
  8
02製品
  6
ByBlock
100
AcDbLine
 10
7.200019760373834
 20
111.5000000000036
 30
0.0
 11
8.80002586388946
 21
111.5000000000036
 31
0.0
  0
LINE
  5
15716
330
1559B
100
AcDbEntity
  8
02製品
  6
ByBlock
100
AcDbLine
 10
2.301917953733209
 20
76.24725341797239
 30
0.0
 11
7.200019760373834
 21
76.24725341797239
 31
0.0
  0
LINE
  5
15717
330
1559B
100
AcDbEntity
  8
02製品
  6
ByBlock
100
AcDbLine
 10
1.700019760373834
 20
86.30001831055051
 30
0.0
 11
1.700019760373834
 21
73.70001220703489
 31
0.0
  0
LINE
  5
15718
330
1559B
100
AcDbEntity
  8
02製品
  6
ByBlock
100
AcDbLine
 10
1.699994564056396
 20
73.70004643196444
 30
0.0
 11
2.301895793822041
 21
76.24730055131295
 31
0.0
  0
ARC
  5
15719
330
1559B
100
AcDbEntity
  8
02製品
  6
ByBlock
100
AcDbCircle
 10
13.70001976037383
 20
80.00000000000364
 30
0.0
 40
12.0
100
AcDbArc
 50
161.7759804502404
 51
198.2237823143832
  0
LINE
  5
1571A
330
1559B
100
AcDbEntity
  8
02製品
  6
ByBlock
100
AcDbLine
 10
1.699995792750997
 20
73.70003069215818
 30
0.0
 11
2.396017351537012
 21
72.49448585598657
 31
0.0
  0
LINE
  5
1571B
330
1559B
100
AcDbEntity
  8
02製品
  6
ByBlock
100
AcDbLine
 10
2.396049423459772
 20
72.49446105957395
 30
0.0
 11
7.200019760373834
 21
72.49446105957395
 31
0.0
  0
LINE
  5
1571C
330
1559B
100
AcDbEntity
  8
02製品
  6
ByBlock
100
AcDbLine
 10
2.301933212522272
 20
83.75280761719114
 30
0.0
 11
7.200019760373834
 21
83.75280761719114
 31
0.0
  0
LINE
  5
1571D
330
1559B
100
AcDbEntity
  8
02製品
  6
ByBlock
100
AcDbLine
 10
2.396049423459772
 20
87.50556945801145
 30
0.0
 11
7.200019760373834
 21
87.50556945801145
 31
0.0
  0
LINE
  5
1571E
330
1559B
100
AcDbEntity
  8
02製品
  6
ByBlock
100
AcDbLine
 10
2.301921523321653
 20
83.7528312723116
 30
0.0
 11
1.700006099181337
 21
86.30005067953971
 31
0.0
  0
LINE
  5
1571F
330
1559B
100
AcDbEntity
  8
02製品
  6
ByBlock
100
AcDbLine
 10
2.396038546950876
 20
87.50562524216366
 30
0.0
 11
1.700009179956396
 21
86.30006688178037
 31
0.0
  0
LINE
  5
15720
330
1559B
100
AcDbEntity
  8
02製品
  6
ByBlock
100
AcDbLine
 10
7.200019760373834
 20
88.5
 30
0.0
 11
7.200019760373834
 21
71.50000000000364
 31
0.0
  0
LINE
  5
15721
330
1559B
100
AcDbEntity
  8
02製品
  6
ByBlock
100
AcDbLine
 10
8.80002586388946
 20
88.5
 30
0.0
 11
8.80002586388946
 21
71.50000000000364
 31
0.0
  0
LINE
  5
15722
330
1559B
100
AcDbEntity
  8
02製品
  6
ByBlock
100
AcDbLine
 10
7.200019760373834
 20
88.5
 30
0.0
 11
8.80002586388946
 21
88.5
 31
0.0
  0
LINE
  5
15723
330
1559B
100
AcDbEntity
  8
02製品
  6
ByBlock
100
AcDbLine
 10
7.200019760373834
 20
71.50000000000364
 30
0.0
 11
8.80002586388946
 21
71.50000000000364
 31
0.0
  0
ENDBLK
  5
15725
330
1559B
100
AcDbEntity
  8
0
100
AcDbBlockEnd
  0
BLOCK
  5
15829
330
15727
100
AcDbEntity
  8
0
100
AcDbBlockBegin
  2
A$C13158
 70
     0
 10
0.0
 20
0.0
 30
0.0
  3
A$C13158
  1

  0
LINE
  5
15755
330
15727
100
AcDbEntity
  8
02製品
  6
Continuous
100
AcDbLine
 10
971.4999639987946
 20
140.0000000000036
 30
0.0
 11
971.4999639987946
 21
410.0000074505824
 31
0.0
  0
LINE
  5
15756
330
15727
100
AcDbEntity
  8
02製品
  6
Continuous
100
AcDbLine
 10
931.4999728991515
 20
140.0000000000022
 30
0.0
 11
931.4999723434448
 21
410.0000089406985
 31
0.0
  0
LINE
  5
15757
330
15727
100
AcDbEntity
  8
02製品
  6
Continuous
100
AcDbLine
 10
71.49996185302734
 20
140.0000000000036
 30
0.0
 11
71.49996185302734
 21
410.0000089406985
 31
0.0
  0
LINE
  5
15758
330
15727
100
AcDbEntity
  8
02製品
  6
Continuous
100
AcDbLine
 10
31.49999983225644
 20
140.0000000000036
 30
0.0
 11
31.49996963853482
 21
410.0000089406985
 31
0.0
  0
LINE
  5
15759
330
15727
100
AcDbEntity
  8
02製品
  6
Continuous
100
AcDbLine
 10
925.4999601840973
 20
560.0000074505824
 30
0.0
 11
77.49997401237488
 21
560.0000074505824
 31
0.0
  0
LINE
  5
1575A
330
15727
100
AcDbEntity
  8
02製品
  6
Continuous
100
AcDbLine
 10
901.4999639987946
 20
520.0000074505824
 30
0.0
 11
101.4999701976776
 21
520.0000089406985
 31
0.0
  0
LINE
  5
1575B
330
15727
100
AcDbEntity
  8
02製品
100
AcDbLine
 10
921.4999639987946
 20
140.0000000000018
 30
0.0
 11
972.1212843423546
 21
140.0000000000036
 31
0.0
  0
LINE
  5
1575C
330
15727
100
AcDbEntity
  8
02製品
  6
Continuous
100
AcDbLine
 10
972.1212843423546
 20
0.0
 30
0.0
 11
1002.999963998795
 21
0.0
 31
0.0
  0
LINE
  5
1575D
330
15727
100
AcDbEntity
  8
02製品
  6
Continuous
100
AcDbLine
 10
1002.999963998795
 20
60.0
 30
0.0
 11
1002.999963998795
 21
0.0
 31
0.0
  0
LINE
  5
1575E
330
15727
100
AcDbEntity
  8
02製品
  6
CENTERX2
100
AcDbLine
 10
982.7321970458288
 20
13.40000000000509
 30
0.0
 11
991.3283911235412
 21
13.40000000000509
 31
0.0
  0
LWPOLYLINE
  5
1575F
330
15727
100
AcDbEntity
  8
02製品
  6
Continuous
100
AcDbPolyline
 90
       16
 70
   128
 43
0.0
 10
988.2677309517621
 20
9.900000000001455
 10
988.7822861343902
 20
9.976483397433185
 10
989.2743527864277
 20
10.20259089825049
 10
989.7224252339838
 20
10.56844051968801
 10
990.1069205610074
 20
11.05804287774663
 10
990.4110344766978
 20
11.65000000000146
 10
990.6214757436355
 20
12.31844051968801
 10
990.7290470686494
 20
13.03415037856394
 10
990.7290470686494
 20
13.76584962143897
 10
990.6214757436355
 20
14.4815594803149
 10
990.4110344766978
 20
15.15000000000146
 10
990.1069205610074
 20
15.74195712225628
 10
989.722425233982
 20
16.2315594803149
 10
989.2743527864277
 20
16.59740910174878
 10
988.7822861343902
 20
16.82351660256973
 10
988.2677309517621
 20
16.90000000000146
  0
LINE
  5
15760
330
15727
100
AcDbEntity
  8
02製品
  6
Continuous
100
AcDbLine
 10
987.9804455611484
 20
16.90000000000146
 30
0.0
 11
987.1408027800007
 21
16.90000000000146
 31
0.0
  0
LINE
  5
15761
330
15727
100
AcDbEntity
  8
02製品
  6
Continuous
100
AcDbLine
 10
987.9804455611884
 20
9.900000000001455
 30
0.0
 11
987.1408027799589
 21
9.900000000001455
 31
0.0
  0
LINE
  5
15762
330
15727
100
AcDbEntity
  8
02製品
  6
Continuous
100
AcDbLine
 10
987.1408027799607
 20
9.900000000001455
 30
0.0
 11
985.7928572176079
 21
9.900000000001455
 31
0.0
  0
LWPOLYLINE
  5
15763
330
15727
100
AcDbEntity
  8
02製品
  6
Continuous
100
AcDbPolyline
 90
       16
 70
   128
 43
0.0
 10
985.7928572176079
 20
16.90000000000146
 10
985.2783020349798
 20
16.82351660256973
 10
984.7862353829423
 20
16.59740910174878
 10
984.338162935388
 20
16.2315594803149
 10
983.9536676083626
 20
15.74195712225628
 10
983.6495536926741
 20
15.15000000000146
 10
983.4391124257345
 20
14.4815594803149
 10
983.3315411007225
 20
13.76584962143897
 10
983.3315411007225
 20
13.03415037856394
 10
983.4391124257345
 20
12.31844051968801
 10
983.6495536926741
 20
11.65000000000146
 10
983.9536676083626
 20
11.05804287774663
 10
984.338162935388
 20
10.56844051968801
 10
984.7862353829423
 20
10.20259089825049
 10
985.2783020349798
 20
9.976483397433185
 10
985.7928572176079
 20
9.900000000001455
  0
LINE
  5
15764
330
15727
100
AcDbEntity
  8
02製品
  6
Continuous
100
AcDbLine
 10
987.1408027800007
 20
16.90000000000146
 30
0.0
 11
985.7928572176079
 21
16.90000000000146
 31
0.0
  0
ARC
  5
15765
330
15727
100
AcDbEntity
  8
02製品
  6
Continuous
100
AcDbCircle
 10
987.5606241705736
 20
15.16041298585333
 30
0.0
 40
1.789528703254752
100
AcDbArc
 50
76.43202197238111
 51
103.5679780276189
  0
LINE
  5
15766
330
15727
100
AcDbEntity
  8
02製品
  6
Continuous
100
AcDbLine
 10
989.3283911235412
 20
16.90000000000146
 30
0.0
 11
987.9804455611484
 21
16.90000000000146
 31
0.0
  0
LWPOLYLINE
  5
15767
330
15727
100
AcDbEntity
  8
02製品
  6
Continuous
100
AcDbPolyline
 90
       16
 70
   128
 43
0.0
 10
989.3283911235412
 20
9.900000000001455
 10
989.8429463061693
 20
9.976483397433185
 10
990.3350129582068
 20
10.20259089825049
 10
990.7830854057629
 20
10.56844051968801
 10
991.1675807327865
 20
11.05804287774663
 10
991.4716946484768
 20
11.65000000000146
 10
991.6821359154146
 20
12.31844051968801
 10
991.7897072404285
 20
13.03415037856394
 10
991.7897072404285
 20
13.76584962143897
 10
991.6821359154146
 20
14.4815594803149
 10
991.4716946484768
 20
15.15000000000146
 10
991.1675807327865
 20
15.74195712225628
 10
990.7830854057629
 20
16.2315594803149
 10
990.3350129582068
 20
16.59740910174878
 10
989.8429463061693
 20
16.82351660256973
 10
989.3283911235412
 20
16.90000000000146
  0
LINE
  5
15768
330
15727
100
AcDbEntity
  8
02製品
  6
Continuous
100
AcDbLine
 10
989.3283911235412
 20
9.900000000001455
 30
0.0
 11
987.9804455611884
 21
9.900000000001455
 31
0.0
  0
ARC
  5
15769
330
15727
100
AcDbEntity
  8
02製品
  6
Continuous
100
AcDbCircle
 10
987.5606241705736
 20
11.63958701414231
 30
0.0
 40
1.789528703259284
100
AcDbArc
 50
256.4320219709782
 51
283.5679780289619
  0
LWPOLYLINE
  5
1576A
330
15727
100
AcDbEntity
  8
02製品
  6
Continuous
100
AcDbPolyline
 90
       16
 70
   128
 43
0.0
 10
988.2677309517621
 20
39.90000000000146
 10
988.7822861343902
 20
39.97648339743319
 10
989.2743527864277
 20
40.20259089825049
 10
989.722425233982
 20
40.56844051968801
 10
990.1069205610074
 20
41.05804287774663
 10
990.4110344766978
 20
41.65000000000146
 10
990.6214757436355
 20
42.31844051968801
 10
990.7290470686494
 20
43.03415037856394
 10
990.7290470686494
 20
43.76584962143897
 10
990.6214757436355
 20
44.4815594803149
 10
990.4110344766978
 20
45.15000000000146
 10
990.1069205610074
 20
45.74195712225628
 10
989.722425233982
 20
46.2315594803149
 10
989.2743527864277
 20
46.59740910174878
 10
988.7822861343902
 20
46.82351660256973
 10
988.2677309517621
 20
46.90000000000146
  0
LWPOLYLINE
  5
1576B
330
15727
100
AcDbEntity
  8
02製品
  6
Continuous
100
AcDbPolyline
 90
       16
 70
   128
 43
0.0
 10
989.3283911235412
 20
39.90000000000146
 10
989.8429463061693
 20
39.97648339743319
 10
990.3350129582068
 20
40.20259089825049
 10
990.7830854057629
 20
40.56844051968801
 10
991.1675807327865
 20
41.05804287774663
 10
991.4716946484768
 20
41.65000000000146
 10
991.6821359154146
 20
42.31844051968801
 10
991.7897072404285
 20
43.03415037856394
 10
991.7897072404285
 20
43.76584962143897
 10
991.6821359154146
 20
44.4815594803149
 10
991.4716946484768
 20
45.15000000000146
 10
991.1675807327865
 20
45.74195712225628
 10
990.7830854057629
 20
46.2315594803149
 10
990.3350129582068
 20
46.59740910174878
 10
989.8429463061693
 20
46.82351660256973
 10
989.3283911235412
 20
46.90000000000146
  0
LWPOLYLINE
  5
1576C
330
15727
100
AcDbEntity
  8
02製品
  6
Continuous
100
AcDbPolyline
 90
       16
 70
   128
 43
0.0
 10
985.7928572176097
 20
46.90000000000146
 10
985.2783020349798
 20
46.82351660256973
 10
984.7862353829423
 20
46.59740910174878
 10
984.338162935388
 20
46.2315594803149
 10
983.9536676083626
 20
45.74195712225628
 10
983.6495536926741
 20
45.15000000000146
 10
983.4391124257345
 20
44.4815594803149
 10
983.3315411007225
 20
43.76584962143897
 10
983.3315411007225
 20
43.03415037856394
 10
983.4391124257345
 20
42.31844051968801
 10
983.6495536926741
 20
41.65000000000146
 10
983.9536676083626
 20
41.05804287774663
 10
984.338162935388
 20
40.56844051968801
 10
984.7862353829423
 20
40.20259089825049
 10
985.2783020349798
 20
39.97648339743319
 10
985.7928572176097
 20
39.90000000000146
  0
LINE
  5
1576D
330
15727
100
AcDbEntity
  8
02製品
  6
CENTERX2
100
AcDbLine
 10
982.7321970458288
 20
43.40000000000509
 30
0.0
 11
991.3283911235412
 21
43.40000000000509
 31
0.0
  0
LINE
  5
1576E
330
15727
100
AcDbEntity
  8
02製品
  6
Continuous
100
AcDbLine
 10
987.9804455611884
 20
39.90000000000146
 30
0.0
 11
987.1408027799607
 21
39.90000000000146
 31
0.0
  0
LINE
  5
1576F
330
15727
100
AcDbEntity
  8
02製品
  6
Continuous
100
AcDbLine
 10
989.3283911235412
 20
39.90000000000146
 30
0.0
 11
987.9804455611884
 21
39.90000000000146
 31
0.0
  0
ARC
  5
15770
330
15727
100
AcDbEntity
  8
02製品
  6
Continuous
100
AcDbCircle
 10
987.5606241705736
 20
41.63958701414231
 30
0.0
 40
1.789528703260913
100
AcDbArc
 50
256.4320219710507
 51
283.5679780289493
  0
LINE
  5
15771
330
15727
100
AcDbEntity
  8
02製品
  6
Continuous
100
AcDbLine
 10
987.1408027799589
 20
39.90000000000146
 30
0.0
 11
985.7928572176097
 21
39.90000000000146
 31
0.0
  0
LINE
  5
15772
330
15727
100
AcDbEntity
  8
02製品
  6
Continuous
100
AcDbLine
 10
987.9804455611466
 20
46.90000000000146
 30
0.0
 11
987.1408027800007
 21
46.90000000000146
 31
0.0
  0
LINE
  5
15773
330
15727
100
AcDbEntity
  8
02製品
  6
Continuous
100
AcDbLine
 10
987.1408027800007
 20
46.90000000000146
 30
0.0
 11
985.7928572176097
 21
46.90000000000146
 31
0.0
  0
ARC
  5
15774
330
15727
100
AcDbEntity
  8
02製品
  6
Continuous
100
AcDbCircle
 10
987.5606241705736
 20
45.16041298584969
 30
0.0
 40
1.789528703256606
100
AcDbArc
 50
76.4320219723954
 51
103.5679780276645
  0
LINE
  5
15775
330
15727
100
AcDbEntity
  8
02製品
  6
Continuous
100
AcDbLine
 10
989.3283911235412
 20
46.90000000000146
 30
0.0
 11
987.9804455611466
 21
46.90000000000146
 31
0.0
  0
LINE
  5
15776
330
15727
100
AcDbEntity
  8
02製品
  6
Continuous
100
AcDbLine
 10
972.1212843423546
 20
140.0000000000036
 30
0.0
 11
972.1212843423546
 21
0.0
 31
0.0
  0
LINE
  5
15777
330
15727
100
AcDbEntity
  8
02製品
  6
Continuous
100
AcDbLine
 10
921.4999639987946
 20
140.0000000000018
 30
0.0
 11
921.4999639987964
 21
0.0
 31
0.0
  0
LINE
  5
15778
330
15727
100
AcDbEntity
  8
02製品
  6
Continuous
100
AcDbLine
 10
921.4999639987964
 20
0.0
 30
0.0
 11
972.1212843423546
 21
0.0
 31
0.0
  0
INSERT
  5
15779
330
15727
100
AcDbEntity
  8
02製品
  6
Continuous
100
AcDbBlockReference
  2
SW_CENTERMARKSYMBOL_8
 10
957.9999639987982
 20
13.39999999999782
 30
0.0
 50
90.0
  0
LINE
  5
15785
330
15727
100
AcDbEntity
  8
02製品
  6
Continuous
100
AcDbLine
 10
957.4062468944176
 20
9.900000000001455
 30
0.0
 11
955.4999639987964
 21
9.900000000001455
 31
0.0
  0
ARC
  5
15786
330
15727
100
AcDbEntity
  8
02製品
  6
Continuous
100
AcDbCircle
 10
955.4999639987946
 20
13.40000000000146
 30
0.0
 40
3.5
100
AcDbArc
 50
90.0
 51
270.0
  0
LINE
  5
15787
330
15727
100
AcDbEntity
  8
02製品
  6
Continuous
100
AcDbLine
 10
957.4062468944758
 20
16.90000000000146
 30
0.0
 11
955.4999639987964
 21
16.90000000000146
 31
0.0
  0
ARC
  5
15788
330
15727
100
AcDbEntity
  8
02製品
  6
Continuous
100
AcDbCircle
 10
957.9999639987982
 20
13.39999999999418
 30
0.0
 40
3.55000000000005
100
AcDbArc
 50
80.3723673178562
 51
99.62763268217358
  0
LINE
  5
15789
330
15727
100
AcDbEntity
  8
02製品
  6
Continuous
100
AcDbLine
 10
960.4999639987964
 20
16.90000000000146
 30
0.0
 11
958.5936811031206
 21
16.90000000000146
 31
0.0
  0
ARC
  5
1578A
330
15727
100
AcDbEntity
  8
02製品
  6
Continuous
100
AcDbCircle
 10
960.4999639987964
 20
13.40000000000146
 30
0.0
 40
3.5
100
AcDbArc
 50
270.0
 51
90.0
  0
LINE
  5
1578B
330
15727
100
AcDbEntity
  8
02製品
  6
Continuous
100
AcDbLine
 10
960.4999639987964
 20
9.900000000001455
 30
0.0
 11
958.5936811031788
 21
9.900000000001455
 31
0.0
  0
ARC
  5
1578C
330
15727
100
AcDbEntity
  8
02製品
  6
Continuous
100
AcDbCircle
 10
957.9999639987982
 20
13.39999999999418
 30
0.0
 40
3.54999999999995
100
AcDbArc
 50
260.3723673168435
 51
279.6276326831267
  0
ARC
  5
1578D
330
15727
100
AcDbEntity
  8
02製品
  6
Continuous
100
AcDbCircle
 10
932.9999639987964
 20
49.0
 30
0.0
 40
3.5
100
AcDbArc
 50
90.0
 51
270.0
  0
INSERT
  5
1578E
330
15727
100
AcDbEntity
  8
02製品
  6
Continuous
100
AcDbBlockReference
  2
SW_CENTERMARKSYMBOL_9
 10
938.4999639987964
 20
49.00000000000364
 30
0.0
 50
90.0
  0
LINE
  5
1579A
330
15727
100
AcDbEntity
  8
02製品
  6
Continuous
100
AcDbLine
 10
937.9062468944448
 20
45.5
 30
0.0
 11
932.9999639987964
 21
45.5
 31
0.0
  0
LINE
  5
1579B
330
15727
100
AcDbEntity
  8
02製品
  6
Continuous
100
AcDbLine
 10
937.906246894443
 20
52.5
 30
0.0
 11
932.9999639987946
 21
52.5
 31
0.0
  0
ARC
  5
1579C
330
15727
100
AcDbEntity
  8
02製品
  6
Continuous
100
AcDbCircle
 10
938.4999639987964
 20
49.0
 30
0.0
 40
3.550000000000269
100
AcDbArc
 50
80.37236731735062
 51
99.62763268267919
  0
LINE
  5
1579D
330
15727
100
AcDbEntity
  8
02製品
  6
Continuous
100
AcDbLine
 10
943.9999639987964
 20
52.5
 30
0.0
 11
939.0936811031461
 21
52.5
 31
0.0
  0
ARC
  5
1579E
330
15727
100
AcDbEntity
  8
02製品
  6
Continuous
100
AcDbCircle
 10
943.9999639987964
 20
49.0
 30
0.0
 40
3.500000000000028
100
AcDbArc
 50
270.0
 51
90.0
  0
LINE
  5
1579F
330
15727
100
AcDbEntity
  8
02製品
  6
Continuous
100
AcDbLine
 10
943.9999639987964
 20
45.5
 30
0.0
 11
939.0936811031479
 21
45.5
 31
0.0
  0
ARC
  5
157A0
330
15727
100
AcDbEntity
  8
02製品
  6
Continuous
100
AcDbCircle
 10
938.4999639987964
 20
49.0
 30
0.0
 40
3.549999999999969
100
AcDbArc
 50
260.3723673173498
 51
279.6276326826502
  0
LINE
  5
157A1
330
15727
100
AcDbEntity
  8
02製品
  6
CENTERX2
100
AcDbLine
 10
20.2677669529694
 20
43.40000000000146
 30
0.0
 11
11.67157287525697
 21
43.40000000000146
 31
0.0
  0
LINE
  5
157A2
330
15727
100
AcDbEntity
  8
02製品
  6
CENTERX2
100
AcDbLine
 10
20.2677669529694
 20
13.40000000000146
 30
0.0
 11
11.67157287525697
 21
13.40000000000146
 31
0.0
  0
LINE
  5
157A3
330
15727
100
AcDbEntity
  8
02製品
100
AcDbLine
 10
30.87867965644182
 20
140.0000000000036
 30
0.0
 11
81.50000000000364
 21
140.0000000000036
 31
0.0
  0
LINE
  5
157A4
330
15727
100
AcDbEntity
  8
02製品
  6
Continuous
100
AcDbLine
 10
0.0
 20
0.000000000003638
 30
0.0
 11
30.87867965644182
 21
0.000000000003638
 31
0.0
  0
LWPOLYLINE
  5
157A5
330
15727
100
AcDbEntity
  8
02製品
  6
Continuous
100
AcDbPolyline
 90
       16
 70
   128
 43
0.0
 10
17.20710678118849
 20
39.90000000000146
 10
17.72166196381659
 20
39.97648339743319
 10
18.21372861585405
 20
40.20259089825413
 10
18.66180106340835
 20
40.56844051969165
 10
19.0462963904356
 20
41.05804287774663
 10
19.3504103061241
 20
41.65000000000146
 10
19.5608515730637
 20
42.31844051969165
 10
19.66842289807391
 20
43.03415037856757
 10
19.66842289807391
 20
43.76584962143897
 10
19.5608515730637
 20
44.4815594803149
 10
19.3504103061241
 20
45.15000000000146
 10
19.0462963904356
 20
45.74195712225992
 10
18.66180106340835
 20
46.2315594803149
 10
18.21372861585405
 20
46.59740910175242
 10
17.72166196381659
 20
46.82351660256973
 10
17.20710678118849
 20
46.90000000000146
  0
LWPOLYLINE
  5
157A6
330
15727
100
AcDbEntity
  8
02製品
  6
Continuous
100
AcDbPolyline
 90
       16
 70
   128
 43
0.0
 10
17.20710678118849
 20
9.900000000001455
 10
17.72166196381659
 20
9.976483397433185
 10
18.21372861585405
 20
10.20259089825413
 10
18.66180106340835
 20
10.56844051969165
 10
19.0462963904356
 20
11.05804287774663
 10
19.3504103061241
 20
11.65000000000146
 10
19.5608515730637
 20
12.31844051969165
 10
19.66842289807391
 20
13.03415037856757
 10
19.66842289807391
 20
13.76584962143897
 10
19.5608515730637
 20
14.4815594803149
 10
19.3504103061241
 20
15.15000000000146
 10
19.0462963904356
 20
15.74195712225992
 10
18.66180106340835
 20
16.2315594803149
 10
18.21372861585405
 20
16.59740910175242
 10
17.72166196381659
 20
16.82351660256973
 10
17.20710678118849
 20
16.90000000000146
  0
LINE
  5
157A7
330
15727
100
AcDbEntity
  8
02製品
  6
Continuous
100
AcDbLine
 10
0.0
 20
60.00000000000364
 30
0.0
 11
0.0
 21
0.000000000003638
 31
0.0
  0
LWPOLYLINE
  5
157A8
330
15727
100
AcDbEntity
  8
02製品
  6
Continuous
100
AcDbPolyline
 90
       16
 70
   128
 43
0.0
 10
14.73223304703424
 20
16.90000000000146
 10
14.21767786440614
 20
16.82351660256973
 10
13.72561121236868
 20
16.59740910175242
 10
13.27753876481438
 20
16.2315594803149
 10
12.89304343779077
 20
15.74195712225992
 10
12.58892952209862
 20
15.15000000000146
 10
12.37848825516267
 20
14.4815594803149
 10
12.27091693014881
 20
13.76584962143897
 10
12.27091693014881
 20
13.03415037856757
 10
12.37848825516267
 20
12.31844051969165
 10
12.58892952209862
 20
11.65000000000146
 10
12.89304343779077
 20
11.05804287774663
 10
13.27753876481438
 20
10.56844051969165
 10
13.72561121236868
 20
10.20259089825413
 10
14.21767786440614
 20
9.976483397433185
 10
14.73223304703424
 20
9.900000000001455
  0
LINE
  5
157A9
330
15727
100
AcDbEntity
  8
02製品
  6
Continuous
100
AcDbLine
 10
15.859161218792
 20
16.90000000000146
 30
0.0
 11
15.01951843764618
 21
16.90000000000146
 31
0.0
  0
LINE
  5
157AA
330
15727
100
AcDbEntity
  8
02製品
  6
Continuous
100
AcDbLine
 10
15.85916121883565
 20
9.900000000001455
 30
0.0
 11
15.01951843760617
 21
9.900000000001455
 31
0.0
  0
LINE
  5
157AB
330
15727
100
AcDbEntity
  8
02製品
  6
Continuous
100
AcDbLine
 10
15.01951843760617
 20
9.900000000001455
 30
0.0
 11
13.67157287525697
 21
9.900000000001455
 31
0.0
  0
LWPOLYLINE
  5
157AC
330
15727
100
AcDbEntity
  8
02製品
  6
Continuous
100
AcDbPolyline
 90
       16
 70
   128
 43
0.0
 10
13.67157287525697
 20
16.90000000000146
 10
13.15701769262887
 20
16.82351660256973
 10
12.6649510405914
 20
16.59740910175242
 10
12.21687859303347
 20
16.2315594803149
 10
11.83238326600986
 20
15.74195712225992
 10
11.52826935032135
 20
15.15000000000146
 10
11.31782808338176
 20
14.4815594803149
 10
11.2102567583679
 20
13.76584962143897
 10
11.2102567583679
 20
13.03415037856757
 10
11.31782808338176
 20
12.31844051969165
 10
11.52826935032135
 20
11.65000000000146
 10
11.83238326600986
 20
11.05804287774663
 10
12.21687859303347
 20
10.56844051969165
 10
12.6649510405914
 20
10.20259089825413
 10
13.15701769262887
 20
9.976483397433185
 10
13.67157287525697
 20
9.900000000001455
  0
LINE
  5
157AD
330
15727
100
AcDbEntity
  8
02製品
  6
Continuous
100
AcDbLine
 10
15.01951843764618
 20
16.90000000000146
 30
0.0
 11
13.67157287525697
 21
16.90000000000146
 31
0.0
  0
ARC
  5
157AE
330
15727
100
AcDbEntity
  8
02製品
  6
Continuous
100
AcDbCircle
 10
15.43933982821909
 20
15.16041298585878
 30
0.0
 40
1.789528703251949
100
AcDbArc
 50
76.43202197229951
 51
103.5679780277005
  0
LINE
  5
157AF
330
15727
100
AcDbEntity
  8
02製品
  6
Continuous
100
AcDbLine
 10
17.20710678118849
 20
16.90000000000146
 30
0.0
 11
15.859161218792
 21
16.90000000000146
 31
0.0
  0
LINE
  5
157B0
330
15727
100
AcDbEntity
  8
02製品
  6
Continuous
100
AcDbLine
 10
17.20710678118849
 20
9.900000000001455
 30
0.0
 11
15.85916121883565
 21
9.900000000001455
 31
0.0
  0
ARC
  5
157B1
330
15727
100
AcDbEntity
  8
02製品
  6
Continuous
100
AcDbCircle
 10
15.43933982821909
 20
11.63958701414776
 30
0.0
 40
1.789528703261202
100
AcDbArc
 50
256.4320219710529
 51
283.567978029007
  0
LWPOLYLINE
  5
157B2
330
15727
100
AcDbEntity
  8
02製品
  6
Continuous
100
AcDbPolyline
 90
       16
 70
   128
 43
0.0
 10
14.73223304703424
 20
46.90000000000146
 10
14.21767786440614
 20
46.82351660256973
 10
13.72561121236868
 20
46.59740910175242
 10
13.27753876481438
 20
46.2315594803149
 10
12.89304343779077
 20
45.74195712225992
 10
12.58892952209862
 20
45.15000000000146
 10
12.37848825516267
 20
44.4815594803149
 10
12.27091693014881
 20
43.76584962143897
 10
12.27091693014881
 20
43.03415037856757
 10
12.37848825516267
 20
42.31844051969165
 10
12.58892952209862
 20
41.65000000000146
 10
12.89304343779077
 20
41.05804287774663
 10
13.27753876481438
 20
40.56844051969165
 10
13.72561121236868
 20
40.20259089825413
 10
14.21767786440614
 20
39.97648339743319
 10
14.73223304703424
 20
39.90000000000146
  0
LINE
  5
157B3
330
15727
100
AcDbEntity
  8
02製品
  6
Continuous
100
AcDbLine
 10
15.859161218792
 20
46.90000000000146
 30
0.0
 11
15.01951843764618
 21
46.90000000000146
 31
0.0
  0
LINE
  5
157B4
330
15727
100
AcDbEntity
  8
02製品
  6
Continuous
100
AcDbLine
 10
15.85916121883565
 20
39.90000000000146
 30
0.0
 11
15.01951843760617
 21
39.90000000000146
 31
0.0
  0
LINE
  5
157B5
330
15727
100
AcDbEntity
  8
02製品
  6
Continuous
100
AcDbLine
 10
15.01951843764618
 20
46.90000000000146
 30
0.0
 11
13.67157287525697
 21
46.90000000000146
 31
0.0
  0
ARC
  5
157B6
330
15727
100
AcDbEntity
  8
02製品
  6
Continuous
100
AcDbCircle
 10
15.43933982821909
 20
45.16041298585333
 30
0.0
 40
1.789528703257061
100
AcDbArc
 50
76.43202197239893
 51
103.567978027661
  0
LINE
  5
157B7
330
15727
100
AcDbEntity
  8
02製品
  6
Continuous
100
AcDbLine
 10
17.20710678118849
 20
46.90000000000146
 30
0.0
 11
15.859161218792
 21
46.90000000000146
 31
0.0
  0
LINE
  5
157B8
330
15727
100
AcDbEntity
  8
02製品
  6
Continuous
100
AcDbLine
 10
17.20710678118849
 20
39.90000000000146
 30
0.0
 11
15.85916121883565
 21
39.90000000000146
 31
0.0
  0
ARC
  5
157B9
330
15727
100
AcDbEntity
  8
02製品
  6
Continuous
100
AcDbCircle
 10
15.43933982821909
 20
41.63958701414595
 30
0.0
 40
1.789528703259063
100
AcDbArc
 50
256.4320219710364
 51
283.5679780290835
  0
LINE
  5
157BA
330
15727
100
AcDbEntity
  8
02製品
  6
Continuous
100
AcDbLine
 10
15.01951843760617
 20
39.90000000000146
 30
0.0
 11
13.67157287525697
 21
39.90000000000146
 31
0.0
  0
LWPOLYLINE
  5
157BB
330
15727
100
AcDbEntity
  8
02製品
  6
Continuous
100
AcDbPolyline
 90
       16
 70
   128
 43
0.0
 10
13.67157287525697
 20
46.90000000000146
 10
13.15701769262887
 20
46.82351660256973
 10
12.6649510405914
 20
46.59740910175242
 10
12.21687859303347
 20
46.2315594803149
 10
11.83238326600986
 20
45.74195712225992
 10
11.52826935032135
 20
45.15000000000146
 10
11.31782808338176
 20
44.4815594803149
 10
11.2102567583679
 20
43.76584962143897
 10
11.2102567583679
 20
43.03415037856757
 10
11.31782808338176
 20
42.31844051969165
 10
11.52826935032135
 20
41.65000000000146
 10
11.83238326600986
 20
41.05804287774663
 10
12.21687859303347
 20
40.56844051969165
 10
12.6649510405914
 20
40.20259089825413
 10
13.15701769262887
 20
39.97648339743319
 10
13.67157287525697
 20
39.90000000000146
  0
LINE
  5
157BC
330
15727
100
AcDbEntity
  8
02製品
  6
Continuous
100
AcDbLine
 10
81.50000000000364
 20
140.0000000000036
 30
0.0
 11
81.50000000000364
 21
0.000000000003638
 31
0.0
  0
LINE
  5
157BD
330
15727
100
AcDbEntity
  8
02製品
  6
Continuous
100
AcDbLine
 10
30.87867965644182
 20
140.0000000000036
 30
0.0
 11
30.87867965644182
 21
0.000000000003638
 31
0.0
  0
LINE
  5
157BE
330
15727
100
AcDbEntity
  8
02製品
  6
Continuous
100
AcDbLine
 10
30.87867965644182
 20
0.000000000003638
 30
0.0
 11
81.50000000000364
 21
0.000000000003638
 31
0.0
  0
INSERT
  5
157BF
330
15727
100
AcDbEntity
  8
02製品
  6
Continuous
100
AcDbBlockReference
  2
SW_CENTERMARKSYMBOL_4
 10
44.99999999999272
 20
13.40000000000146
 30
0.0
 50
360.0
  0
ARC
  5
157CB
330
15727
100
AcDbEntity
  8
02製品
  6
Continuous
100
AcDbCircle
 10
42.5
 20
13.39999999999782
 30
0.0
 40
3.500000000000057
100
AcDbArc
 50
90.0
 51
270.0
  0
LINE
  5
157CC
330
15727
100
AcDbEntity
  8
02製品
  6
Continuous
100
AcDbLine
 10
44.40628289562301
 20
16.89999999999782
 30
0.0
 11
42.5
 21
16.89999999999782
 31
0.0
  0
ARC
  5
157CD
330
15727
100
AcDbEntity
  8
02製品
  6
Continuous
100
AcDbCircle
 10
44.99999999999636
 20
13.40000000000146
 30
0.0
 40
3.550000000000024
100
AcDbArc
 50
80.37236731708194
 51
99.62763268300738
  0
LINE
  5
157CE
330
15727
100
AcDbEntity
  8
02製品
  6
Continuous
100
AcDbLine
 10
47.5
 20
16.89999999999782
 30
0.0
 11
45.59371710436608
 21
16.89999999999782
 31
0.0
  0
ARC
  5
157CF
330
15727
100
AcDbEntity
  8
02製品
  6
Continuous
100
AcDbCircle
 10
47.5
 20
13.39999999999782
 30
0.0
 40
3.500000000000782
100
AcDbArc
 50
270.0
 51
90.0
  0
LINE
  5
157D0
330
15727
100
AcDbEntity
  8
02製品
  6
Continuous
100
AcDbLine
 10
47.5
 20
9.899999999997817
 30
0.0
 11
45.59371710432606
 21
9.899999999997817
 31
0.0
  0
ARC
  5
157D1
330
15727
100
AcDbEntity
  8
02製品
  6
Continuous
100
AcDbCircle
 10
44.99999999999636
 20
13.40000000000146
 30
0.0
 40
3.550000000000718
100
AcDbArc
 50
260.3723673176495
 51
279.6276326823206
  0
LINE
  5
157D2
330
15727
100
AcDbEntity
  8
02製品
  6
Continuous
100
AcDbLine
 10
44.40628289566303
 20
9.899999999997817
 30
0.0
 11
42.5
 21
9.899999999997817
 31
0.0
  0
CIRCLE
  5
157D3
330
15727
100
AcDbEntity
  8
02製品
  6
Continuous
100
AcDbCircle
 10
51.5
 20
120.0000000000036
 30
0.0
 40
5.0
  0
INSERT
  5
157D4
330
15727
100
AcDbEntity
  8
02製品
  6
Continuous
100
AcDbBlockReference
  2
SW_CENTERMARKSYMBOL_10
 10
51.5
 20
120.0000000000036
 30
0.0
 41
10.0
 42
10.0
 43
10.0
  0
CIRCLE
  5
157E0
330
15727
100
AcDbEntity
  8
02製品
  6
Continuous
100
AcDbCircle
 10
51.5
 20
80.00000000000364
 30
0.0
 40
5.0
  0
INSERT
  5
157E1
330
15727
100
AcDbEntity
  8
02製品
  6
Continuous
100
AcDbBlockReference
  2
SW_CENTERMARKSYMBOL_10
 10
51.5
 20
80.00000000000364
 30
0.0
 41
10.0
 42
10.0
 43
10.0
  0
CIRCLE
  5
157E2
330
15727
100
AcDbEntity
  8
02製品
  6
Continuous
100
AcDbCircle
 10
951.4999639987946
 20
120.0000000000036
 30
0.0
 40
5.0
  0
INSERT
  5
157E3
330
15727
100
AcDbEntity
  8
02製品
  6
Continuous
100
AcDbBlockReference
  2
SW_CENTERMARKSYMBOL_10
 10
951.4999639987946
 20
120.0000000000036
 30
0.0
 41
10.0
 42
10.0
 43
10.0
  0
CIRCLE
  5
157E4
330
15727
100
AcDbEntity
  8
02製品
  6
Continuous
100
AcDbCircle
 10
951.4999639987946
 20
80.00000000000364
 30
0.0
 40
5.0
  0
INSERT
  5
157E5
330
15727
100
AcDbEntity
  8
02製品
  6
Continuous
100
AcDbBlockReference
  2
SW_CENTERMARKSYMBOL_10
 10
951.4999639987946
 20
80.00000000000364
 30
0.0
 41
10.0
 42
10.0
 43
10.0
  0
LINE
  5
157E6
330
15727
100
AcDbEntity
  8
02製品
100
AcDbLine
 10
50.75
 20
120.0000000000036
 30
0.0
 11
52.25
 21
120.0000000000036
 31
0.0
  0
LINE
  5
157E7
330
15727
100
AcDbEntity
  8
02製品
100
AcDbLine
 10
51.5
 20
119.2500000000036
 30
0.0
 11
51.5
 21
120.7500000000036
 31
0.0
  0
LINE
  5
157E8
330
15727
100
AcDbEntity
  8
02製品
  6
Continuous
100
AcDbLine
 10
0.0
 20
60.00000000000364
 30
0.0
 11
1.5
 21
60.00000000000364
 31
0.0
  0
LINE
  5
157E9
330
15727
100
AcDbEntity
  8
02製品
100
AcDbLine
 10
30.87867965644182
 20
140.0000000000036
 30
0.0
 11
1.5
 21
60.00000000000364
 31
0.0
  0
LINE
  5
157EA
330
15727
100
AcDbEntity
  8
02製品
  6
Continuous
100
AcDbLine
 10
1001.499963998795
 20
60.0
 30
0.0
 11
1002.999963998795
 21
60.0
 31
0.0
  0
LINE
  5
157EB
330
15727
100
AcDbEntity
  8
02製品
100
AcDbLine
 10
972.1212843423546
 20
140.0000000000036
 30
0.0
 11
1001.499963998795
 21
60.0
 31
0.0
  0
LINE
  5
157EC
330
15727
100
AcDbEntity
  8
02製品
100
AcDbLine
 10
971.4999639987946
 20
410.0000074505824
 30
0.0
 11
931.4999639987946
 21
410.0000074505824
 31
0.0
  0
LINE
  5
157ED
330
15727
100
AcDbEntity
  8
02製品
100
AcDbLine
 10
901.4999639987946
 20
560.0000074505824
 30
0.0
 11
1001.499963998795
 21
560.0000074505824
 31
0.0
  0
LINE
  5
157EE
330
15727
100
AcDbEntity
  8
02製品
100
AcDbLine
 10
951.4999639987946
 20
440.0000074505824
 30
0.0
 11
951.4999639987946
 21
420.0000074505824
 31
0.0
  0
CIRCLE
  5
157EF
330
15727
100
AcDbEntity
  8
02製品
100
AcDbCircle
 10
951.4999639987946
 20
430.0000074505824
 30
0.0
 40
5.0
  0
LINE
  5
157F0
330
15727
100
AcDbEntity
  8
02製品
100
AcDbLine
 10
961.4999639987946
 20
430.0000074505824
 30
0.0
 11
941.4999639987946
 21
430.0000074505824
 31
0.0
  0
LINE
  5
157F1
330
15727
100
AcDbEntity
  8
02製品
100
AcDbLine
 10
926.4999639987946
 20
540.000007450586
 30
0.0
 11
906.4999639987946
 21
540.000007450586
 31
0.0
  0
CIRCLE
  5
157F2
330
15727
100
AcDbEntity
  8
02製品
100
AcDbCircle
 10
916.4999639987946
 20
540.000007450586
 30
0.0
 40
5.0
  0
LINE
  5
157F3
330
15727
100
AcDbEntity
  8
02製品
100
AcDbLine
 10
916.4999639987946
 20
550.000007450586
 30
0.0
 11
916.4999639987946
 21
530.000007450586
 31
0.0
  0
LINE
  5
157F4
330
15727
100
AcDbEntity
  8
02製品
100
AcDbLine
 10
951.4999639987946
 20
500.0000074505824
 30
0.0
 11
951.4999639987946
 21
480.0000074505824
 31
0.0
  0
CIRCLE
  5
157F5
330
15727
100
AcDbEntity
  8
02製品
100
AcDbCircle
 10
951.4999639987946
 20
490.0000074505824
 30
0.0
 40
5.0
  0
LINE
  5
157F6
330
15727
100
AcDbEntity
  8
02製品
100
AcDbLine
 10
961.4999639987946
 20
490.0000074505824
 30
0.0
 11
941.4999639987946
 21
490.0000074505824
 31
0.0
  0
CIRCLE
  5
157F7
330
15727
100
AcDbEntity
  8
02製品
100
AcDbCircle
 10
916.4999639987946
 20
540.0000074505824
 30
0.0
 40
4.999999999999999
  0
LINE
  5
157F8
330
15727
100
AcDbEntity
  8
02製品
100
AcDbLine
 10
916.4999639987946
 20
550.0000074505824
 30
0.0
 11
916.4999639987946
 21
530.0000074505824
 31
0.0
  0
LINE
  5
157F9
330
15727
100
AcDbEntity
  8
02製品
100
AcDbLine
 10
901.4999639987946
 20
560.0000074505824
 30
0.0
 11
901.4999639987946
 21
520.0000074505824
 31
0.0
  0
LINE
  5
157FA
330
15727
100
AcDbEntity
  8
02製品
100
AcDbLine
 10
941.4999639987946
 20
430.0000074505824
 30
0.0
 11
961.4999639987946
 21
430.0000074505824
 31
0.0
  0
LINE
  5
157FB
330
15727
100
AcDbEntity
  8
02製品
100
AcDbLine
 10
951.4999639987946
 20
440.0000074505824
 30
0.0
 11
951.4999639987946
 21
420.0000074505824
 31
0.0
  0
CIRCLE
  5
157FC
330
15727
100
AcDbEntity
  8
02製品
100
AcDbCircle
 10
951.4999639987946
 20
430.0000074505824
 30
0.0
 40
5.0
  0
LINE
  5
157FD
330
15727
100
AcDbEntity
  8
02製品
100
AcDbLine
 10
951.4999639987946
 20
500.0000074505824
 30
0.0
 11
951.4999639987946
 21
480.0000074505824
 31
0.0
  0
CIRCLE
  5
157FE
330
15727
100
AcDbEntity
  8
02製品
100
AcDbCircle
 10
951.4999639987946
 20
490.0000074505824
 30
0.0
 40
5.0
  0
LINE
  5
157FF
330
15727
100
AcDbEntity
  8
02製品
100
AcDbLine
 10
941.4999639987946
 20
490.0000074505824
 30
0.0
 11
961.4999639987946
 21
490.0000074505824
 31
0.0
  0
LINE
  5
15800
330
15727
100
AcDbEntity
  8
02製品
100
AcDbLine
 10
906.4999639987946
 20
540.0000074505824
 30
0.0
 11
926.4999639987946
 21
540.0000074505824
 31
0.0
  0
LINE
  5
15801
330
15727
100
AcDbEntity
  8
02製品
100
AcDbLine
 10
986.4999639987946
 20
550.0000074505842
 30
0.0
 11
986.4999639987946
 21
530.0000074505842
 31
0.0
  0
LINE
  5
15802
330
15727
100
AcDbEntity
  8
02製品
100
AcDbLine
 10
996.4999639987946
 20
540.0000074505842
 30
0.0
 11
976.4999639987946
 21
540.0000074505842
 31
0.0
  0
CIRCLE
  5
15803
330
15727
100
AcDbEntity
  8
02製品
100
AcDbCircle
 10
986.4999639987946
 20
540.0000074505842
 30
0.0
 40
5.0
  0
LINE
  5
15804
330
15727
100
AcDbEntity
  8
02製品
100
AcDbLine
 10
1001.499963998795
 20
560.0000074505824
 30
0.0
 11
1001.499963998795
 21
520.0000074505824
 31
0.0
  0
LINE
  5
15805
330
15727
100
AcDbEntity
  8
02製品
100
AcDbLine
 10
986.4999639987946
 20
550.0000074505824
 30
0.0
 11
986.4999639987946
 21
530.0000074505824
 31
0.0
  0
CIRCLE
  5
15806
330
15727
100
AcDbEntity
  8
02製品
100
AcDbCircle
 10
986.4999639987946
 20
540.0000074505824
 30
0.0
 40
5.0
  0
LINE
  5
15807
330
15727
100
AcDbEntity
  8
02製品
100
AcDbLine
 10
1001.499963998795
 20
520.0000074505824
 30
0.0
 11
971.4999639987946
 21
410.0000074505824
 31
0.0
  0
LINE
  5
15808
330
15727
100
AcDbEntity
  8
02製品
100
AcDbLine
 10
976.4999639987946
 20
540.0000074505824
 30
0.0
 11
996.4999639987946
 21
540.0000074505824
 31
0.0
  0
LINE
  5
15809
330
15727
100
AcDbEntity
  8
02製品
100
AcDbLine
 10
901.4999639987946
 20
520.0000074505824
 30
0.0
 11
931.4999639987946
 21
410.0000074505824
 31
0.0
  0
LINE
  5
1580A
330
15727
100
AcDbEntity
  8
02製品
100
AcDbLine
 10
71.49997019767761
 20
410.0000089406985
 30
0.0
 11
31.49997019767761
 21
410.0000089406985
 31
0.0
  0
LINE
  5
1580B
330
15727
100
AcDbEntity
  8
02製品
100
AcDbLine
 10
1.499970197677612
 20
560.0000089406985
 30
0.0
 11
101.4999701976776
 21
560.0000089406985
 31
0.0
  0
LINE
  5
1580C
330
15727
100
AcDbEntity
  8
02製品
100
AcDbLine
 10
51.49997019767761
 20
440.0000089406985
 30
0.0
 11
51.49997019767761
 21
420.0000089406985
 31
0.0
  0
CIRCLE
  5
1580D
330
15727
100
AcDbEntity
  8
02製品
100
AcDbCircle
 10
51.49997019767761
 20
430.0000089406985
 30
0.0
 40
5.0
  0
LINE
  5
1580E
330
15727
100
AcDbEntity
  8
02製品
100
AcDbLine
 10
61.49997019767761
 20
430.0000089406985
 30
0.0
 11
41.49997019767761
 21
430.0000089406985
 31
0.0
  0
LINE
  5
1580F
330
15727
100
AcDbEntity
  8
02製品
100
AcDbLine
 10
26.49997019767761
 20
540.0000089407022
 30
0.0
 11
6.499970197677612
 21
540.0000089407022
 31
0.0
  0
CIRCLE
  5
15810
330
15727
100
AcDbEntity
  8
02製品
100
AcDbCircle
 10
16.49997019767761
 20
540.0000089407022
 30
0.0
 40
5.0
  0
LINE
  5
15811
330
15727
100
AcDbEntity
  8
02製品
100
AcDbLine
 10
16.49997019767761
 20
550.0000089407022
 30
0.0
 11
16.49997019767761
 21
530.0000089407022
 31
0.0
  0
LINE
  5
15812
330
15727
100
AcDbEntity
  8
02製品
100
AcDbLine
 10
51.49997019767761
 20
500.0000089406985
 30
0.0
 11
51.49997019767761
 21
480.0000089406985
 31
0.0
  0
CIRCLE
  5
15813
330
15727
100
AcDbEntity
  8
02製品
100
AcDbCircle
 10
51.49997019767761
 20
490.0000089406985
 30
0.0
 40
5.0
  0
LINE
  5
15814
330
15727
100
AcDbEntity
  8
02製品
100
AcDbLine
 10
61.49997019767761
 20
490.0000089406985
 30
0.0
 11
41.49997019767761
 21
490.0000089406985
 31
0.0
  0
CIRCLE
  5
15815
330
15727
100
AcDbEntity
  8
02製品
100
AcDbCircle
 10
16.49997019767761
 20
540.0000089406985
 30
0.0
 40
4.999999999999999
  0
LINE
  5
15816
330
15727
100
AcDbEntity
  8
02製品
100
AcDbLine
 10
16.49997019767761
 20
550.0000089406985
 30
0.0
 11
16.49997019767761
 21
530.0000089406985
 31
0.0
  0
LINE
  5
15817
330
15727
100
AcDbEntity
  8
02製品
100
AcDbLine
 10
1.499970197677612
 20
560.0000089406985
 30
0.0
 11
1.499970197677612
 21
520.0000089406985
 31
0.0
  0
LINE
  5
15818
330
15727
100
AcDbEntity
  8
02製品
100
AcDbLine
 10
31.49997019767761
 20
410.0000089406985
 30
0.0
 11
1.499970197677612
 21
520.0000089406985
 31
0.0
  0
LINE
  5
15819
330
15727
100
AcDbEntity
  8
02製品
100
AcDbLine
 10
41.49997019767761
 20
430.0000089406985
 30
0.0
 11
61.49997019767761
 21
430.0000089406985
 31
0.0
  0
LINE
  5
1581A
330
15727
100
AcDbEntity
  8
02製品
100
AcDbLine
 10
51.49997019767761
 20
440.0000089406985
 30
0.0
 11
51.49997019767761
 21
420.0000089406985
 31
0.0
  0
CIRCLE
  5
1581B
330
15727
100
AcDbEntity
  8
02製品
100
AcDbCircle
 10
51.49997019767761
 20
430.0000089406985
 30
0.0
 40
5.0
  0
LINE
  5
1581C
330
15727
100
AcDbEntity
  8
02製品
100
AcDbLine
 10
51.49997019767761
 20
500.0000089406985
 30
0.0
 11
51.49997019767761
 21
480.0000089406985
 31
0.0
  0
CIRCLE
  5
1581D
330
15727
100
AcDbEntity
  8
02製品
100
AcDbCircle
 10
51.49997019767761
 20
490.0000089406985
 30
0.0
 40
5.0
  0
LINE
  5
1581E
330
15727
100
AcDbEntity
  8
02製品
100
AcDbLine
 10
41.49997019767761
 20
490.0000089406985
 30
0.0
 11
61.49997019767761
 21
490.0000089406985
 31
0.0
  0
LINE
  5
1581F
330
15727
100
AcDbEntity
  8
02製品
100
AcDbLine
 10
6.499970197677612
 20
540.0000089406985
 30
0.0
 11
26.49997019767761
 21
540.0000089406985
 31
0.0
  0
LINE
  5
15820
330
15727
100
AcDbEntity
  8
02製品
100
AcDbLine
 10
86.49997019767761
 20
550.0000089407004
 30
0.0
 11
86.49997019767761
 21
530.0000089407004
 31
0.0
  0
LINE
  5
15821
330
15727
100
AcDbEntity
  8
02製品
100
AcDbLine
 10
96.49997019767761
 20
540.0000089407004
 30
0.0
 11
76.49997019767761
 21
540.0000089407004
 31
0.0
  0
CIRCLE
  5
15822
330
15727
100
AcDbEntity
  8
02製品
100
AcDbCircle
 10
86.49997019767761
 20
540.0000089407004
 30
0.0
 40
5.0
  0
LINE
  5
15823
330
15727
100
AcDbEntity
  8
02製品
100
AcDbLine
 10
101.4999701976776
 20
560.0000089406985
 30
0.0
 11
101.4999701976776
 21
520.0000089406985
 31
0.0
  0
LINE
  5
15824
330
15727
100
AcDbEntity
  8
02製品
100
AcDbLine
 10
86.49997019767761
 20
550.0000089406985
 30
0.0
 11
86.49997019767761
 21
530.0000089406985
 31
0.0
  0
CIRCLE
  5
15825
330
15727
100
AcDbEntity
  8
02製品
100
AcDbCircle
 10
86.49997019767761
 20
540.0000089406985
 30
0.0
 40
5.0
  0
LINE
  5
15826
330
15727
100
AcDbEntity
  8
02製品
100
AcDbLine
 10
76.49997019767761
 20
540.0000089406985
 30
0.0
 11
96.49997019767761
 21
540.0000089406985
 31
0.0
  0
LINE
  5
15827
330
15727
100
AcDbEntity
  8
02製品
  6
HIDDEN
100
AcDbLine
 10
1.499970197677612
 20
520.0000089034456
 30
0.0
 11
1.499970197677612
 21
560.0000089406985
 31
0.0
  0
LINE
  5
15828
330
15727
100
AcDbEntity
  8
02製品
100
AcDbLine
 10
71.49997019767761
 20
410.0000089406985
 30
0.0
 11
101.4999701976776
 21
520.0000089406985
 31
0.0
  0
ENDBLK
  5
1582A
330
15727
100
AcDbEntity
  8
0
100
AcDbBlockEnd
  0
BLOCK
  5
1598F
330
1582C
100
AcDbEntity
  8
0
100
AcDbBlockBegin
  2
A$C26301
 70
     0
 10
0.0
 20
0.0
 30
0.0
  3
A$C26301
  1

  0
LINE
  5
15858
330
1582C
100
AcDbEntity
  8
02製品
  6
Continuous
100
AcDbLine
 10
1155.300019665006
 20
1001.499993801117
 30
0.0
 11
1155.300019665006
 21
1.5
 31
0.0
  0
LINE
  5
15859
330
1582C
100
AcDbEntity
  8
02製品
  6
Continuous
100
AcDbLine
 10
1195.299981518034
 20
961.5000021457672
 30
0.0
 11
1195.299981518034
 21
41.49999165534973
 31
0.0
  0
LINE
  5
1585A
330
1582C
100
AcDbEntity
  8
02製品
  6
Continuous
100
AcDbLine
 10
50.2999877169168
 20
1.5
 30
0.0
 11
50.2999877169168
 21
1001.499993801117
 31
0.0
  0
LINE
  5
1585B
330
1582C
100
AcDbEntity
  8
02製品
  6
Continuous
100
AcDbLine
 10
10.29999606156707
 20
41.49999165534973
 30
0.0
 11
10.29999606156707
 21
961.5000021457672
 31
0.0
  0
LINE
  5
1585C
330
1582C
100
AcDbEntity
  8
02製品
  6
Continuous
100
AcDbLine
 10
1155.300019665006
 20
41.49999165534973
 30
0.0
 11
50.2999877169168
 21
41.49999165534973
 31
0.0
  0
LINE
  5
1585D
330
1582C
100
AcDbEntity
  8
02製品
  6
Continuous
100
AcDbLine
 10
1192.300020141844
 20
1.5
 30
0.0
 11
13.29998724007964
 21
1.5
 31
0.0
  0
LINE
  5
1585E
330
1582C
100
AcDbEntity
  8
02製品
  6
Continuous
100
AcDbLine
 10
50.2999877169168
 20
961.5000021457672
 30
0.0
 11
1155.300019665006
 21
961.5000021457672
 31
0.0
  0
LINE
  5
1585F
330
1582C
100
AcDbEntity
  8
02製品
  6
Continuous
100
AcDbLine
 10
13.29998724007964
 20
1001.499993801117
 30
0.0
 11
1192.300020141844
 21
1001.499993801117
 31
0.0
  0
LINE
  5
15860
330
1582C
100
AcDbEntity
  8
02製品
  6
Continuous
100
AcDbLine
 10
1155.300019665006
 20
486.4999969303608
 30
0.0
 11
50.2999877169168
 21
486.4999969303608
 31
0.0
  0
LINE
  5
15861
330
1582C
100
AcDbEntity
  8
02製品
  6
Continuous
100
AcDbLine
 10
1155.300019665006
 20
516.4999906718731
 30
0.0
 11
50.2999877169168
 21
516.4999906718731
 31
0.0
  0
LINE
  5
15862
330
1582C
100
AcDbEntity
  8
02製品
100
AcDbLine
 10
628.2000036909631
 20
452.4999969303608
 30
0.0
 11
602.8000036909616
 21
463.8333302636929
 31
0.0
  0
LINE
  5
15863
330
1582C
100
AcDbEntity
  8
02製品
100
AcDbLine
 10
577.4000036909601
 20
452.4999969303608
 30
0.0
 11
602.8000036909616
 21
463.8333302636929
 31
0.0
  0
LINE
  5
15864
330
1582C
100
AcDbEntity
  8
02製品
100
AcDbLine
 10
577.4000036909601
 20
520.4999969303608
 30
0.0
 11
552.0000036909623
 21
531.8333302636929
 31
0.0
  0
LINE
  5
15865
330
1582C
100
AcDbEntity
  8
02製品
100
AcDbLine
 10
577.4000036909601
 20
497.8333302636929
 30
0.0
 11
552.0000036909623
 21
509.166663597025
 31
0.0
  0
LINE
  5
15866
330
1582C
100
AcDbEntity
  8
02製品
100
AcDbLine
 10
552.0000036909623
 20
486.4999969303608
 30
0.0
 11
577.4000036909601
 21
475.166663597025
 31
0.0
  0
LINE
  5
15867
330
1582C
100
AcDbEntity
  8
02製品
100
AcDbLine
 10
577.4000036909601
 20
497.8333302636929
 30
0.0
 11
552.0000036909623
 21
486.4999969303608
 31
0.0
  0
LINE
  5
15868
330
1582C
100
AcDbEntity
  8
02製品
100
AcDbLine
 10
577.4000036909601
 20
475.166663597025
 30
0.0
 11
552.0000036909623
 21
463.8333302636929
 31
0.0
  0
LINE
  5
15869
330
1582C
100
AcDbEntity
  8
02製品
100
AcDbLine
 10
552.0000036909623
 20
509.166663597025
 30
0.0
 11
577.4000036909601
 21
520.4999969303608
 31
0.0
  0
LINE
  5
1586A
330
1582C
100
AcDbEntity
  8
02製品
100
AcDbLine
 10
526.6000036909609
 20
497.8333302636929
 30
0.0
 11
501.2000036909612
 21
509.166663597025
 31
0.0
  0
LINE
  5
1586B
330
1582C
100
AcDbEntity
  8
02製品
100
AcDbLine
 10
526.6000036909609
 20
497.8333302636929
 30
0.0
 11
501.2000036909612
 21
486.4999969303608
 31
0.0
  0
LINE
  5
1586C
330
1582C
100
AcDbEntity
  8
02製品
100
AcDbLine
 10
552.0000036909623
 20
486.4999969303608
 30
0.0
 11
526.6000036909609
 21
497.8333302636929
 31
0.0
  0
LINE
  5
1586D
330
1582C
100
AcDbEntity
  8
02製品
100
AcDbLine
 10
526.6000036909609
 20
475.166663597025
 30
0.0
 11
552.0000036909623
 21
486.4999969303608
 31
0.0
  0
LINE
  5
1586E
330
1582C
100
AcDbEntity
  8
02製品
100
AcDbLine
 10
526.6000036909609
 20
520.4999969303608
 30
0.0
 11
552.0000036909623
 21
509.166663597025
 31
0.0
  0
LINE
  5
1586F
330
1582C
100
AcDbEntity
  8
02製品
100
AcDbLine
 10
552.0000036909623
 20
509.166663597025
 30
0.0
 11
526.6000036909609
 21
497.8333302636929
 31
0.0
  0
LINE
  5
15870
330
1582C
100
AcDbEntity
  8
02製品
100
AcDbLine
 10
602.8000036909616
 20
531.8333302636929
 30
0.0
 11
628.2000036909631
 21
520.4999969303608
 31
0.0
  0
LINE
  5
15871
330
1582C
100
AcDbEntity
  8
02製品
100
AcDbLine
 10
602.8000036909616
 20
531.8333302636929
 30
0.0
 11
577.4000036909601
 21
520.4999969303608
 31
0.0
  0
LINE
  5
15872
330
1582C
100
AcDbEntity
  8
02製品
100
AcDbLine
 10
628.2000036909631
 20
520.4999969303608
 30
0.0
 11
653.6000036909627
 21
531.8333302636929
 31
0.0
  0
LINE
  5
15873
330
1582C
100
AcDbEntity
  8
02製品
100
AcDbLine
 10
628.2000036909631
 20
497.8333302636929
 30
0.0
 11
653.6000036909627
 21
509.166663597025
 31
0.0
  0
LINE
  5
15874
330
1582C
100
AcDbEntity
  8
02製品
100
AcDbLine
 10
628.2000036909631
 20
475.166663597025
 30
0.0
 11
653.6000036909627
 21
463.8333302636929
 31
0.0
  0
LINE
  5
15875
330
1582C
100
AcDbEntity
  8
02製品
100
AcDbLine
 10
653.6000036909627
 20
486.4999969303608
 30
0.0
 11
628.2000036909631
 21
475.166663597025
 31
0.0
  0
LINE
  5
15876
330
1582C
100
AcDbEntity
  8
02製品
100
AcDbLine
 10
628.2000036909631
 20
497.8333302636929
 30
0.0
 11
653.6000036909627
 21
486.4999969303608
 31
0.0
  0
LINE
  5
15877
330
1582C
100
AcDbEntity
  8
02製品
100
AcDbLine
 10
653.6000036909627
 20
509.166663597025
 30
0.0
 11
628.2000036909631
 21
520.4999969303608
 31
0.0
  0
LINE
  5
15878
330
1582C
100
AcDbEntity
  8
02製品
100
AcDbLine
 10
602.8000036909616
 20
509.166663597025
 30
0.0
 11
628.2000036909631
 21
497.8333302636929
 31
0.0
  0
LINE
  5
15879
330
1582C
100
AcDbEntity
  8
02製品
100
AcDbLine
 10
628.2000036909631
 20
475.166663597025
 30
0.0
 11
602.8000036909616
 21
486.4999969303608
 31
0.0
  0
LINE
  5
1587A
330
1582C
100
AcDbEntity
  8
02製品
100
AcDbLine
 10
602.8000036909616
 20
486.4999969303608
 30
0.0
 11
628.2000036909631
 21
497.8333302636929
 31
0.0
  0
LINE
  5
1587B
330
1582C
100
AcDbEntity
  8
02製品
100
AcDbLine
 10
602.8000036909616
 20
509.166663597025
 30
0.0
 11
577.4000036909601
 21
497.8333302636929
 31
0.0
  0
LINE
  5
1587C
330
1582C
100
AcDbEntity
  8
02製品
100
AcDbLine
 10
577.4000036909601
 20
475.166663597025
 30
0.0
 11
602.8000036909616
 21
486.4999969303608
 31
0.0
  0
LINE
  5
1587D
330
1582C
100
AcDbEntity
  8
02製品
100
AcDbLine
 10
602.8000036909616
 20
486.4999969303608
 30
0.0
 11
577.4000036909601
 21
497.8333302636929
 31
0.0
  0
LINE
  5
1587E
330
1582C
100
AcDbEntity
  8
02製品
100
AcDbLine
 10
602.8000036909616
 20
463.8333302636929
 30
0.0
 11
577.4000036909601
 21
475.166663597025
 31
0.0
  0
LINE
  5
1587F
330
1582C
100
AcDbEntity
  8
02製品
100
AcDbLine
 10
602.8000036909616
 20
463.8333302636929
 30
0.0
 11
628.2000036909631
 21
475.166663597025
 31
0.0
  0
LINE
  5
15880
330
1582C
100
AcDbEntity
  8
02製品
100
AcDbLine
 10
577.4000036909601
 20
520.4999969303608
 30
0.0
 11
602.8000036909616
 21
509.166663597025
 31
0.0
  0
LINE
  5
15881
330
1582C
100
AcDbEntity
  8
02製品
100
AcDbLine
 10
628.2000036909631
 20
520.4999969303608
 30
0.0
 11
602.8000036909616
 21
509.166663597025
 31
0.0
  0
LINE
  5
15882
330
1582C
100
AcDbEntity
  8
02製品
100
AcDbLine
 10
653.6000036909627
 20
509.166663597025
 30
0.0
 11
679.0000036909641
 21
497.8333302636929
 31
0.0
  0
LINE
  5
15883
330
1582C
100
AcDbEntity
  8
02製品
100
AcDbLine
 10
679.0000036909641
 20
475.166663597025
 30
0.0
 11
653.6000036909627
 21
486.4999969303608
 31
0.0
  0
LINE
  5
15884
330
1582C
100
AcDbEntity
  8
02製品
100
AcDbLine
 10
653.6000036909627
 20
486.4999969303608
 30
0.0
 11
679.0000036909641
 21
497.8333302636929
 31
0.0
  0
LINE
  5
15885
330
1582C
100
AcDbEntity
  8
02製品
100
AcDbLine
 10
679.0000036909641
 20
497.8333302636929
 30
0.0
 11
704.4000036909638
 21
509.166663597025
 31
0.0
  0
LINE
  5
15886
330
1582C
100
AcDbEntity
  8
02製品
100
AcDbLine
 10
679.0000036909641
 20
497.8333302636929
 30
0.0
 11
704.4000036909638
 21
486.4999969303608
 31
0.0
  0
LINE
  5
15887
330
1582C
100
AcDbEntity
  8
02製品
100
AcDbLine
 10
679.0000036909641
 20
520.4999969303608
 30
0.0
 11
653.6000036909627
 21
509.166663597025
 31
0.0
  0
LINE
  5
15888
330
1582C
100
AcDbEntity
  8
02製品
100
AcDbLine
 10
628.2000036909631
 20
543.166663597025
 30
0.0
 11
602.8000036909616
 21
531.8333302636929
 31
0.0
  0
LINE
  5
15889
330
1582C
100
AcDbEntity
  8
02製品
100
AcDbLine
 10
577.4000036909601
 20
543.166663597025
 30
0.0
 11
602.8000036909616
 21
531.8333302636929
 31
0.0
  0
LINE
  5
1588A
330
1582C
100
AcDbEntity
  8
02製品
100
AcDbLine
 10
587.8000036909616
 20
41.49999165534973
 30
0.0
 11
587.8000036909616
 21
486.4999969303608
 31
0.0
  0
LINE
  5
1588B
330
1582C
100
AcDbEntity
  8
02製品
100
AcDbLine
 10
617.8000036909616
 20
41.49999165534973
 30
0.0
 11
617.8000036909616
 21
486.4999969303608
 31
0.0
  0
LINE
  5
1588C
330
1582C
100
AcDbEntity
  8
02製品
100
AcDbLine
 10
587.8000036909616
 20
961.5000021457672
 30
0.0
 11
587.8000036909616
 21
516.4999906718731
 31
0.0
  0
LINE
  5
1588D
330
1582C
100
AcDbEntity
  8
02製品
100
AcDbLine
 10
617.8000036909616
 20
961.5000021457672
 30
0.0
 11
617.8000036909616
 21
516.4999906718731
 31
0.0
  0
LINE
  5
1588E
330
1582C
100
AcDbEntity
  8
02製品
  6
Continuous
100
AcDbLine
 10
1192.300020141844
 20
1.5
 30
0.0
 11
1195.299981518034
 21
1.5
 31
0.0
  0
LINE
  5
1588F
330
1582C
100
AcDbEntity
  8
02製品
  6
Continuous
100
AcDbLine
 10
1195.299981518034
 20
1.5
 30
0.0
 11
1195.299981518034
 21
4.499991178512573
 31
0.0
  0
LINE
  5
15890
330
1582C
100
AcDbEntity
  8
02製品
  6
Continuous
100
AcDbLine
 10
1195.299981518034
 20
101.5
 30
0.0
 11
1195.299981518034
 21
1.5
 31
0.0
  0
LINE
  5
15891
330
1582C
100
AcDbEntity
  8
02製品
  6
Continuous
100
AcDbLine
 10
1198.49997608209
 20
1.5
 30
0.0
 11
1198.49997608209
 21
101.5
 31
0.0
  0
LINE
  5
15892
330
1582C
100
AcDbEntity
  8
02製品
  6
Continuous
100
AcDbLine
 10
1195.299981518034
 20
4.499991178512573
 30
0.0
 11
1195.299981518034
 21
41.49999165534973
 31
0.0
  0
LINE
  5
15893
330
1582C
100
AcDbEntity
  8
02製品
  6
Continuous
100
AcDbLine
 10
1192.300020141844
 20
1.5
 30
0.0
 11
1195.299981518034
 21
4.499991178512573
 31
0.0
  0
INSERT
  5
15894
330
1582C
100
AcDbEntity
  8
02製品
100
AcDbBlockReference
  2
A$C3C7277DA
 10
952.1000196650039
 20
41.49999984134047
 30
0.0
 41
0.6666666666666666
 42
0.6666666666666666
 43
0.6666666666666666
 50
359.9999999999175
  0
LINE
  5
158BC
330
1582C
100
AcDbEntity
  8
02製品
100
AcDbLine
 10
1115.299981518036
 20
1.5
 30
0.0
 11
1165.299981518034
 21
1.5
 31
0.0
  0
LINE
  5
158BD
330
1582C
100
AcDbEntity
  8
02製品
  6
Continuous
100
AcDbLine
 10
1115.299981518034
 20
0.0
 30
0.0
 11
1165.921301861594
 21
0.0
 31
0.0
  0
LINE
  5
158BE
330
1582C
100
AcDbEntity
  8
02製品
  6
Continuous
100
AcDbLine
 10
1115.299981518036
 20
1.5
 30
0.0
 11
1115.299981518034
 21
0.0
 31
0.0
  0
LINE
  5
158BF
330
1582C
100
AcDbEntity
  8
02製品
  6
Continuous
100
AcDbLine
 10
1165.921301861594
 20
0.0
 30
0.0
 11
1167.421301861594
 21
1.5
 31
0.0
  0
LINE
  5
158C0
330
1582C
100
AcDbEntity
  8
02製品
100
AcDbLine
 10
1195.299981518034
 20
1.5
 30
0.0
 11
1198.49997608209
 21
1.5
 31
0.0
  0
LINE
  5
158C1
330
1582C
100
AcDbEntity
  8
02製品
100
AcDbLine
 10
1195.299981518034
 20
101.5
 30
0.0
 11
1198.49997608209
 21
101.5
 31
0.0
  0
LINE
  5
158C2
330
1582C
100
AcDbEntity
  8
02製品
  6
Continuous
100
AcDbLine
 10
1192.300020141844
 20
1001.499993801117
 30
0.0
 11
1195.299981518034
 21
1001.499993801117
 31
0.0
  0
LINE
  5
158C3
330
1582C
100
AcDbEntity
  8
02製品
  6
Continuous
100
AcDbLine
 10
1195.299981518034
 20
1001.499993801117
 30
0.0
 11
1195.299981518034
 21
998.5000026226044
 31
0.0
  0
LINE
  5
158C4
330
1582C
100
AcDbEntity
  8
02製品
  6
Continuous
100
AcDbLine
 10
1195.299981518034
 20
901.499993801117
 30
0.0
 11
1195.299981518034
 21
1001.499993801117
 31
0.0
  0
LINE
  5
158C5
330
1582C
100
AcDbEntity
  8
02製品
  6
Continuous
100
AcDbLine
 10
1198.49997608209
 20
1001.499993801117
 30
0.0
 11
1198.49997608209
 21
901.499993801117
 31
0.0
  0
LINE
  5
158C6
330
1582C
100
AcDbEntity
  8
02製品
  6
Continuous
100
AcDbLine
 10
1195.299981518034
 20
998.5000026226044
 30
0.0
 11
1195.299981518034
 21
961.5000021457672
 31
0.0
  0
LINE
  5
158C7
330
1582C
100
AcDbEntity
  8
02製品
  6
Continuous
100
AcDbLine
 10
1192.300020141844
 20
1001.499993801117
 30
0.0
 11
1195.299981518034
 21
998.5000026226044
 31
0.0
  0
LINE
  5
158C8
330
1582C
100
AcDbEntity
  8
02製品
100
AcDbLine
 10
1195.299981518034
 20
1001.499993801117
 30
0.0
 11
1198.49997608209
 21
1001.499993801117
 31
0.0
  0
LINE
  5
158C9
330
1582C
100
AcDbEntity
  8
02製品
100
AcDbLine
 10
1195.299981518034
 20
901.499993801117
 30
0.0
 11
1198.49997608209
 21
901.499993801117
 31
0.0
  0
LINE
  5
158CA
330
1582C
100
AcDbEntity
  8
02製品
100
AcDbLine
 10
1115.299981518036
 20
1001.499993801117
 30
0.0
 11
1165.299981518034
 21
1001.499993801117
 31
0.0
  0
LINE
  5
158CB
330
1582C
100
AcDbEntity
  8
02製品
  6
Continuous
100
AcDbLine
 10
1115.299981518034
 20
1002.999993801117
 30
0.0
 11
1165.921301861594
 21
1002.999993801117
 31
0.0
  0
LINE
  5
158CC
330
1582C
100
AcDbEntity
  8
02製品
  6
Continuous
100
AcDbLine
 10
1115.299981518036
 20
1001.499993801117
 30
0.0
 11
1115.299981518034
 21
1002.999993801117
 31
0.0
  0
LINE
  5
158CD
330
1582C
100
AcDbEntity
  8
02製品
  6
Continuous
100
AcDbLine
 10
1165.921301861594
 20
1002.999993801117
 30
0.0
 11
1167.421301861594
 21
1001.499993801117
 31
0.0
  0
INSERT
  5
158CE
330
1582C
100
AcDbEntity
  8
02製品
100
AcDbBlockReference
  2
A$C3C7277DA
 10
253.4999889884839
 20
961.5000021454834
 30
0.0
 41
0.6666666666666666
 42
0.6666666666666666
 43
0.6666666666666666
 50
179.9999999999175
  0
LINE
  5
158CF
330
1582C
100
AcDbEntity
  8
02製品
  6
Continuous
100
AcDbLine
 10
13.29995743775726
 20
1001.499993801117
 30
0.0
 11
10.29999606156707
 21
1001.499993801117
 31
0.0
  0
LINE
  5
158D0
330
1582C
100
AcDbEntity
  8
02製品
  6
Continuous
100
AcDbLine
 10
10.29999606156707
 20
1001.499993801117
 30
0.0
 11
10.29999606156707
 21
998.5000026226044
 31
0.0
  0
LINE
  5
158D1
330
1582C
100
AcDbEntity
  8
02製品
  6
Continuous
100
AcDbLine
 10
10.29999606156707
 20
901.499993801117
 30
0.0
 11
10.29999606156707
 21
1001.499993801117
 31
0.0
  0
LINE
  5
158D2
330
1582C
100
AcDbEntity
  8
02製品
  6
Continuous
100
AcDbLine
 10
7.100001497510675
 20
1001.499993801117
 30
0.0
 11
7.100001497510675
 21
901.499993801117
 31
0.0
  0
LINE
  5
158D3
330
1582C
100
AcDbEntity
  8
02製品
  6
Continuous
100
AcDbLine
 10
10.29999606156707
 20
998.5000026226044
 30
0.0
 11
10.29999606156707
 21
961.5000021457672
 31
0.0
  0
LINE
  5
158D4
330
1582C
100
AcDbEntity
  8
02製品
  6
Continuous
100
AcDbLine
 10
13.29995743775726
 20
1001.499993801117
 30
0.0
 11
10.29999606156707
 21
998.5000026226044
 31
0.0
  0
LINE
  5
158D5
330
1582C
100
AcDbEntity
  8
02製品
  6
Continuous
100
AcDbLine
 10
39.67867571800707
 20
1002.999993801117
 30
0.0
 11
38.17867571800707
 21
1001.499993801117
 31
0.0
  0
LINE
  5
158D6
330
1582C
100
AcDbEntity
  8
02製品
100
AcDbLine
 10
10.29999606156707
 20
1001.499993801117
 30
0.0
 11
7.100001497510675
 21
1001.499993801117
 31
0.0
  0
LINE
  5
158D7
330
1582C
100
AcDbEntity
  8
02製品
100
AcDbLine
 10
10.29999606156707
 20
901.499993801117
 30
0.0
 11
7.100001497510675
 21
901.499993801117
 31
0.0
  0
LINE
  5
158D8
330
1582C
100
AcDbEntity
  8
02製品
100
AcDbLine
 10
90.29999606156525
 20
1001.499993801117
 30
0.0
 11
40.29999606156707
 21
1001.499993801117
 31
0.0
  0
LINE
  5
158D9
330
1582C
100
AcDbEntity
  8
02製品
  6
Continuous
100
AcDbLine
 10
90.29999606156707
 20
1002.999993801117
 30
0.0
 11
39.67867571800707
 21
1002.999993801117
 31
0.0
  0
LINE
  5
158DA
330
1582C
100
AcDbEntity
  8
02製品
  6
Continuous
100
AcDbLine
 10
90.29999606156525
 20
1001.499993801117
 30
0.0
 11
90.29999606156707
 21
1002.999993801117
 31
0.0
  0
LINE
  5
158DB
330
1582C
100
AcDbEntity
  8
02製品
  6
Continuous
100
AcDbLine
 10
13.29995743775726
 20
1.5
 30
0.0
 11
10.29999606156707
 21
1.5
 31
0.0
  0
LINE
  5
158DC
330
1582C
100
AcDbEntity
  8
02製品
  6
Continuous
100
AcDbLine
 10
10.29999606156707
 20
1.5
 30
0.0
 11
10.29999606156707
 21
4.499991178512573
 31
0.0
  0
LINE
  5
158DD
330
1582C
100
AcDbEntity
  8
02製品
  6
Continuous
100
AcDbLine
 10
10.29999606156707
 20
101.5
 30
0.0
 11
10.29999606156707
 21
1.5
 31
0.0
  0
LINE
  5
158DE
330
1582C
100
AcDbEntity
  8
02製品
  6
Continuous
100
AcDbLine
 10
7.100001497510675
 20
1.5
 30
0.0
 11
7.100001497510675
 21
101.5
 31
0.0
  0
LINE
  5
158DF
330
1582C
100
AcDbEntity
  8
02製品
  6
Continuous
100
AcDbLine
 10
10.29999606156707
 20
4.499991178512573
 30
0.0
 11
10.29999606156707
 21
41.49999165534973
 31
0.0
  0
LINE
  5
158E0
330
1582C
100
AcDbEntity
  8
02製品
  6
Continuous
100
AcDbLine
 10
13.29995743775726
 20
1.5
 30
0.0
 11
10.29999606156707
 21
4.499991178512573
 31
0.0
  0
LINE
  5
158E1
330
1582C
100
AcDbEntity
  8
02製品
  6
Continuous
100
AcDbLine
 10
39.67867571800707
 20
0.0
 30
0.0
 11
38.17867571800707
 21
1.5
 31
0.0
  0
LINE
  5
158E2
330
1582C
100
AcDbEntity
  8
02製品
100
AcDbLine
 10
10.29999606156707
 20
1.5
 30
0.0
 11
7.100001497510675
 21
1.5
 31
0.0
  0
LINE
  5
158E3
330
1582C
100
AcDbEntity
  8
02製品
100
AcDbLine
 10
10.29999606156707
 20
101.5
 30
0.0
 11
7.100001497510675
 21
101.5
 31
0.0
  0
LINE
  5
158E4
330
1582C
100
AcDbEntity
  8
02製品
100
AcDbLine
 10
90.29999606156525
 20
1.5
 30
0.0
 11
40.29999606156707
 21
1.5
 31
0.0
  0
LINE
  5
158E5
330
1582C
100
AcDbEntity
  8
02製品
  6
Continuous
100
AcDbLine
 10
90.29999606156707
 20
0.0
 30
0.0
 11
39.67867571800707
 21
0.0
 31
0.0
  0
LINE
  5
158E6
330
1582C
100
AcDbEntity
  8
02製品
  6
Continuous
100
AcDbLine
 10
90.29999606156525
 20
1.5
 30
0.0
 11
90.29999606156707
 21
0.0
 31
0.0
  0
LINE
  5
158E7
330
1582C
100
AcDbEntity
  8
02製品
  6
ByBlock
100
AcDbLine
 10
1204.998083992246
 20
982.7472472190857
 30
0.0
 11
1200.099982185606
 21
982.7472472190857
 31
0.0
  0
LINE
  5
158E8
330
1582C
100
AcDbEntity
  8
02製品
  6
ByBlock
100
AcDbLine
 10
1205.599982185606
 20
992.8000121116638
 30
0.0
 11
1205.599982185606
 21
980.2000060081482
 31
0.0
  0
LINE
  5
158E9
330
1582C
100
AcDbEntity
  8
02製品
  6
ByBlock
100
AcDbLine
 10
1205.600007381923
 20
980.2000402330777
 30
0.0
 11
1204.998106152158
 21
982.7472943524263
 31
0.0
  0
ARC
  5
158EA
330
1582C
100
AcDbEntity
  8
02製品
  6
ByBlock
100
AcDbCircle
 10
1193.599982185606
 20
986.499993801117
 30
0.0
 40
12.0
100
AcDbArc
 50
341.7762176856143
 51
18.22401954976297
  0
LINE
  5
158EB
330
1582C
100
AcDbEntity
  8
02製品
  6
ByBlock
100
AcDbLine
 10
1205.600006153229
 20
980.2000244932715
 30
0.0
 11
1204.903984594443
 21
978.9944796570999
 31
0.0
  0
LINE
  5
158EC
330
1582C
100
AcDbEntity
  8
02製品
  6
ByBlock
100
AcDbLine
 10
1204.90395252252
 20
978.9944548606873
 30
0.0
 11
1200.099982185606
 21
978.9944548606873
 31
0.0
  0
LINE
  5
158ED
330
1582C
100
AcDbEntity
  8
02製品
  6
ByBlock
100
AcDbLine
 10
1204.998068733457
 20
990.2528014183044
 30
0.0
 11
1200.099982185606
 21
990.2528014183044
 31
0.0
  0
LINE
  5
158EE
330
1582C
100
AcDbEntity
  8
02製品
  6
ByBlock
100
AcDbLine
 10
1204.90395252252
 20
994.0055632591248
 30
0.0
 11
1200.099982185606
 21
994.0055632591248
 31
0.0
  0
LINE
  5
158EF
330
1582C
100
AcDbEntity
  8
02製品
  6
ByBlock
100
AcDbLine
 10
1204.998080422658
 20
990.2528250734249
 30
0.0
 11
1205.599995846798
 21
992.800044480653
 31
0.0
  0
LINE
  5
158F0
330
1582C
100
AcDbEntity
  8
02製品
  6
ByBlock
100
AcDbLine
 10
1204.903963399029
 20
994.005619043277
 30
0.0
 11
1205.599992766023
 21
992.8000606828937
 31
0.0
  0
LINE
  5
158F1
330
1582C
100
AcDbEntity
  8
02製品
  6
ByBlock
100
AcDbLine
 10
1200.099982185606
 20
994.9999938011133
 30
0.0
 11
1200.099982185606
 21
977.999993801117
 31
0.0
  0
LINE
  5
158F2
330
1582C
100
AcDbEntity
  8
02製品
  6
ByBlock
100
AcDbLine
 10
1198.49997608209
 20
994.9999938011133
 30
0.0
 11
1198.49997608209
 21
977.999993801117
 31
0.0
  0
LINE
  5
158F3
330
1582C
100
AcDbEntity
  8
02製品
  6
ByBlock
100
AcDbLine
 10
1200.099982185606
 20
994.9999938011133
 30
0.0
 11
1198.49997608209
 21
994.9999938011133
 31
0.0
  0
LINE
  5
158F4
330
1582C
100
AcDbEntity
  8
02製品
  6
ByBlock
100
AcDbLine
 10
1200.099982185606
 20
977.999993801117
 30
0.0
 11
1198.49997608209
 21
977.999993801117
 31
0.0
  0
LINE
  5
158F5
330
1582C
100
AcDbEntity
  8
02製品
  6
ByBlock
100
AcDbLine
 10
1204.998083992246
 20
947.7472472190857
 30
0.0
 11
1200.099982185606
 21
947.7472472190857
 31
0.0
  0
LINE
  5
158F6
330
1582C
100
AcDbEntity
  8
02製品
  6
ByBlock
100
AcDbLine
 10
1205.599982185606
 20
957.8000121116638
 30
0.0
 11
1205.599982185606
 21
945.2000060081482
 31
0.0
  0
LINE
  5
158F7
330
1582C
100
AcDbEntity
  8
02製品
  6
ByBlock
100
AcDbLine
 10
1205.600007381923
 20
945.2000402330777
 30
0.0
 11
1204.998106152158
 21
947.7472943524263
 31
0.0
  0
ARC
  5
158F8
330
1582C
100
AcDbEntity
  8
02製品
  6
ByBlock
100
AcDbCircle
 10
1193.599982185606
 20
951.499993801117
 30
0.0
 40
12.0
100
AcDbArc
 50
341.7762176856143
 51
18.22401954976297
  0
LINE
  5
158F9
330
1582C
100
AcDbEntity
  8
02製品
  6
ByBlock
100
AcDbLine
 10
1205.600006153229
 20
945.2000244932715
 30
0.0
 11
1204.903984594443
 21
943.9944796570999
 31
0.0
  0
LINE
  5
158FA
330
1582C
100
AcDbEntity
  8
02製品
  6
ByBlock
100
AcDbLine
 10
1204.90395252252
 20
943.9944548606873
 30
0.0
 11
1200.099982185606
 21
943.9944548606873
 31
0.0
  0
LINE
  5
158FB
330
1582C
100
AcDbEntity
  8
02製品
  6
ByBlock
100
AcDbLine
 10
1204.998068733457
 20
955.2528014183044
 30
0.0
 11
1200.099982185606
 21
955.2528014183044
 31
0.0
  0
LINE
  5
158FC
330
1582C
100
AcDbEntity
  8
02製品
  6
ByBlock
100
AcDbLine
 10
1204.90395252252
 20
959.0055632591248
 30
0.0
 11
1200.099982185606
 21
959.0055632591248
 31
0.0
  0
LINE
  5
158FD
330
1582C
100
AcDbEntity
  8
02製品
  6
ByBlock
100
AcDbLine
 10
1204.998080422658
 20
955.2528250734249
 30
0.0
 11
1205.599995846798
 21
957.800044480653
 31
0.0
  0
LINE
  5
158FE
330
1582C
100
AcDbEntity
  8
02製品
  6
ByBlock
100
AcDbLine
 10
1204.903963399029
 20
959.005619043277
 30
0.0
 11
1205.599992766023
 21
957.8000606828937
 31
0.0
  0
LINE
  5
158FF
330
1582C
100
AcDbEntity
  8
02製品
  6
ByBlock
100
AcDbLine
 10
1200.099982185606
 20
959.9999938011133
 30
0.0
 11
1200.099982185606
 21
942.999993801117
 31
0.0
  0
LINE
  5
15900
330
1582C
100
AcDbEntity
  8
02製品
  6
ByBlock
100
AcDbLine
 10
1198.49997608209
 20
959.9999938011133
 30
0.0
 11
1198.49997608209
 21
942.999993801117
 31
0.0
  0
LINE
  5
15901
330
1582C
100
AcDbEntity
  8
02製品
  6
ByBlock
100
AcDbLine
 10
1200.099982185606
 20
959.9999938011133
 30
0.0
 11
1198.49997608209
 21
959.9999938011133
 31
0.0
  0
LINE
  5
15902
330
1582C
100
AcDbEntity
  8
02製品
  6
ByBlock
100
AcDbLine
 10
1200.099982185606
 20
942.999993801117
 30
0.0
 11
1198.49997608209
 21
942.999993801117
 31
0.0
  0
LINE
  5
15903
330
1582C
100
AcDbEntity
  8
02製品
  6
ByBlock
100
AcDbLine
 10
1204.998083992246
 20
912.7472472190857
 30
0.0
 11
1200.099982185606
 21
912.7472472190857
 31
0.0
  0
LINE
  5
15904
330
1582C
100
AcDbEntity
  8
02製品
  6
ByBlock
100
AcDbLine
 10
1205.599982185606
 20
922.8000121116638
 30
0.0
 11
1205.599982185606
 21
910.2000060081482
 31
0.0
  0
LINE
  5
15905
330
1582C
100
AcDbEntity
  8
02製品
  6
ByBlock
100
AcDbLine
 10
1205.600007381923
 20
910.2000402330777
 30
0.0
 11
1204.998106152158
 21
912.7472943524263
 31
0.0
  0
ARC
  5
15906
330
1582C
100
AcDbEntity
  8
02製品
  6
ByBlock
100
AcDbCircle
 10
1193.599982185606
 20
916.499993801117
 30
0.0
 40
12.0
100
AcDbArc
 50
341.7762176856143
 51
18.22401954976297
  0
LINE
  5
15907
330
1582C
100
AcDbEntity
  8
02製品
  6
ByBlock
100
AcDbLine
 10
1205.600006153229
 20
910.2000244932715
 30
0.0
 11
1204.903984594443
 21
908.9944796570999
 31
0.0
  0
LINE
  5
15908
330
1582C
100
AcDbEntity
  8
02製品
  6
ByBlock
100
AcDbLine
 10
1204.90395252252
 20
908.9944548606873
 30
0.0
 11
1200.099982185606
 21
908.9944548606873
 31
0.0
  0
LINE
  5
15909
330
1582C
100
AcDbEntity
  8
02製品
  6
ByBlock
100
AcDbLine
 10
1204.998068733457
 20
920.2528014183044
 30
0.0
 11
1200.099982185606
 21
920.2528014183044
 31
0.0
  0
LINE
  5
1590A
330
1582C
100
AcDbEntity
  8
02製品
  6
ByBlock
100
AcDbLine
 10
1204.90395252252
 20
924.0055632591248
 30
0.0
 11
1200.099982185606
 21
924.0055632591248
 31
0.0
  0
LINE
  5
1590B
330
1582C
100
AcDbEntity
  8
02製品
  6
ByBlock
100
AcDbLine
 10
1204.998080422658
 20
920.2528250734249
 30
0.0
 11
1205.599995846798
 21
922.800044480653
 31
0.0
  0
LINE
  5
1590C
330
1582C
100
AcDbEntity
  8
02製品
  6
ByBlock
100
AcDbLine
 10
1204.903963399029
 20
924.005619043277
 30
0.0
 11
1205.599992766023
 21
922.8000606828937
 31
0.0
  0
LINE
  5
1590D
330
1582C
100
AcDbEntity
  8
02製品
  6
ByBlock
100
AcDbLine
 10
1200.099982185606
 20
924.9999938011133
 30
0.0
 11
1200.099982185606
 21
907.999993801117
 31
0.0
  0
LINE
  5
1590E
330
1582C
100
AcDbEntity
  8
02製品
  6
ByBlock
100
AcDbLine
 10
1198.49997608209
 20
924.9999938011133
 30
0.0
 11
1198.49997608209
 21
907.999993801117
 31
0.0
  0
LINE
  5
1590F
330
1582C
100
AcDbEntity
  8
02製品
  6
ByBlock
100
AcDbLine
 10
1200.099982185606
 20
924.9999938011133
 30
0.0
 11
1198.49997608209
 21
924.9999938011133
 31
0.0
  0
LINE
  5
15910
330
1582C
100
AcDbEntity
  8
02製品
  6
ByBlock
100
AcDbLine
 10
1200.099982185606
 20
907.999993801117
 30
0.0
 11
1198.49997608209
 21
907.999993801117
 31
0.0
  0
LINE
  5
15911
330
1582C
100
AcDbEntity
  8
02製品
  6
ByBlock
100
AcDbLine
 10
1204.998083992246
 20
82.74725341797057
 30
0.0
 11
1200.099982185606
 21
82.74725341797057
 31
0.0
  0
LINE
  5
15912
330
1582C
100
AcDbEntity
  8
02製品
  6
ByBlock
100
AcDbLine
 10
1205.599982185606
 20
92.8000183105487
 30
0.0
 11
1205.599982185606
 21
80.20001220703307
 31
0.0
  0
LINE
  5
15913
330
1582C
100
AcDbEntity
  8
02製品
  6
ByBlock
100
AcDbLine
 10
1205.600007381923
 20
80.20004643196262
 30
0.0
 11
1204.998106152158
 21
82.74730055131113
 31
0.0
  0
ARC
  5
15914
330
1582C
100
AcDbEntity
  8
02製品
  6
ByBlock
100
AcDbCircle
 10
1193.599982185606
 20
86.50000000000182
 30
0.0
 40
12.0
100
AcDbArc
 50
341.7762176856163
 51
18.22401954976297
  0
LINE
  5
15915
330
1582C
100
AcDbEntity
  8
02製品
  6
ByBlock
100
AcDbLine
 10
1205.600006153229
 20
80.20003069215636
 30
0.0
 11
1204.903984594443
 21
78.99448585598475
 31
0.0
  0
LINE
  5
15916
330
1582C
100
AcDbEntity
  8
02製品
  6
ByBlock
100
AcDbLine
 10
1204.90395252252
 20
78.99446105957213
 30
0.0
 11
1200.099982185606
 21
78.99446105957213
 31
0.0
  0
LINE
  5
15917
330
1582C
100
AcDbEntity
  8
02製品
  6
ByBlock
100
AcDbLine
 10
1204.998068733457
 20
90.25280761718932
 30
0.0
 11
1200.099982185606
 21
90.25280761718932
 31
0.0
  0
LINE
  5
15918
330
1582C
100
AcDbEntity
  8
02製品
  6
ByBlock
100
AcDbLine
 10
1204.90395252252
 20
94.00556945800963
 30
0.0
 11
1200.099982185606
 21
94.00556945800963
 31
0.0
  0
LINE
  5
15919
330
1582C
100
AcDbEntity
  8
02製品
  6
ByBlock
100
AcDbLine
 10
1204.998080422658
 20
90.25283127230978
 30
0.0
 11
1205.599995846798
 21
92.80005067953789
 31
0.0
  0
LINE
  5
1591A
330
1582C
100
AcDbEntity
  8
02製品
  6
ByBlock
100
AcDbLine
 10
1204.903963399029
 20
94.00562524216184
 30
0.0
 11
1205.599992766023
 21
92.80006688177855
 31
0.0
  0
LINE
  5
1591B
330
1582C
100
AcDbEntity
  8
02製品
  6
ByBlock
100
AcDbLine
 10
1200.099982185606
 20
94.99999999999818
 30
0.0
 11
1200.099982185606
 21
78.00000000000182
 31
0.0
  0
LINE
  5
1591C
330
1582C
100
AcDbEntity
  8
02製品
  6
ByBlock
100
AcDbLine
 10
1198.49997608209
 20
94.99999999999818
 30
0.0
 11
1198.49997608209
 21
78.00000000000182
 31
0.0
  0
LINE
  5
1591D
330
1582C
100
AcDbEntity
  8
02製品
  6
ByBlock
100
AcDbLine
 10
1200.099982185606
 20
94.99999999999818
 30
0.0
 11
1198.49997608209
 21
94.99999999999818
 31
0.0
  0
LINE
  5
1591E
330
1582C
100
AcDbEntity
  8
02製品
  6
ByBlock
100
AcDbLine
 10
1200.099982185606
 20
78.00000000000182
 30
0.0
 11
1198.49997608209
 21
78.00000000000182
 31
0.0
  0
LINE
  5
1591F
330
1582C
100
AcDbEntity
  8
02製品
  6
ByBlock
100
AcDbLine
 10
1204.998083992246
 20
47.74725341797057
 30
0.0
 11
1200.099982185606
 21
47.74725341797057
 31
0.0
  0
LINE
  5
15920
330
1582C
100
AcDbEntity
  8
02製品
  6
ByBlock
100
AcDbLine
 10
1205.599982185606
 20
57.80001831054869
 30
0.0
 11
1205.599982185606
 21
45.20001220703307
 31
0.0
  0
LINE
  5
15921
330
1582C
100
AcDbEntity
  8
02製品
  6
ByBlock
100
AcDbLine
 10
1205.600007381923
 20
45.20004643196262
 30
0.0
 11
1204.998106152158
 21
47.74730055131113
 31
0.0
  0
ARC
  5
15922
330
1582C
100
AcDbEntity
  8
02製品
  6
ByBlock
100
AcDbCircle
 10
1193.599982185606
 20
51.50000000000182
 30
0.0
 40
12.0
100
AcDbArc
 50
341.7762176856163
 51
18.22401954976297
  0
LINE
  5
15923
330
1582C
100
AcDbEntity
  8
02製品
  6
ByBlock
100
AcDbLine
 10
1205.600006153229
 20
45.20003069215636
 30
0.0
 11
1204.903984594443
 21
43.99448585598475
 31
0.0
  0
LINE
  5
15924
330
1582C
100
AcDbEntity
  8
02製品
  6
ByBlock
100
AcDbLine
 10
1204.90395252252
 20
43.99446105957213
 30
0.0
 11
1200.099982185606
 21
43.99446105957213
 31
0.0
  0
LINE
  5
15925
330
1582C
100
AcDbEntity
  8
02製品
  6
ByBlock
100
AcDbLine
 10
1204.998068733457
 20
55.25280761718932
 30
0.0
 11
1200.099982185606
 21
55.25280761718932
 31
0.0
  0
LINE
  5
15926
330
1582C
100
AcDbEntity
  8
02製品
  6
ByBlock
100
AcDbLine
 10
1204.90395252252
 20
59.00556945800963
 30
0.0
 11
1200.099982185606
 21
59.00556945800963
 31
0.0
  0
LINE
  5
15927
330
1582C
100
AcDbEntity
  8
02製品
  6
ByBlock
100
AcDbLine
 10
1204.998080422658
 20
55.25283127230978
 30
0.0
 11
1205.599995846798
 21
57.80005067953789
 31
0.0
  0
LINE
  5
15928
330
1582C
100
AcDbEntity
  8
02製品
  6
ByBlock
100
AcDbLine
 10
1204.903963399029
 20
59.00562524216184
 30
0.0
 11
1205.599992766023
 21
57.80006688177855
 31
0.0
  0
LINE
  5
15929
330
1582C
100
AcDbEntity
  8
02製品
  6
ByBlock
100
AcDbLine
 10
1200.099982185606
 20
59.99999999999818
 30
0.0
 11
1200.099982185606
 21
43.00000000000182
 31
0.0
  0
LINE
  5
1592A
330
1582C
100
AcDbEntity
  8
02製品
  6
ByBlock
100
AcDbLine
 10
1198.49997608209
 20
59.99999999999818
 30
0.0
 11
1198.49997608209
 21
43.00000000000182
 31
0.0
  0
LINE
  5
1592B
330
1582C
100
AcDbEntity
  8
02製品
  6
ByBlock
100
AcDbLine
 10
1200.099982185606
 20
59.99999999999818
 30
0.0
 11
1198.49997608209
 21
59.99999999999818
 31
0.0
  0
LINE
  5
1592C
330
1582C
100
AcDbEntity
  8
02製品
  6
ByBlock
100
AcDbLine
 10
1200.099982185606
 20
43.00000000000182
 30
0.0
 11
1198.49997608209
 21
43.00000000000182
 31
0.0
  0
LINE
  5
1592D
330
1582C
100
AcDbEntity
  8
02製品
  6
ByBlock
100
AcDbLine
 10
1204.998083992246
 20
12.74725341797057
 30
0.0
 11
1200.099982185606
 21
12.74725341797057
 31
0.0
  0
LINE
  5
1592E
330
1582C
100
AcDbEntity
  8
02製品
  6
ByBlock
100
AcDbLine
 10
1205.599982185606
 20
22.80001831054869
 30
0.0
 11
1205.599982185606
 21
10.20001220703307
 31
0.0
  0
LINE
  5
1592F
330
1582C
100
AcDbEntity
  8
02製品
  6
ByBlock
100
AcDbLine
 10
1205.600007381923
 20
10.20004643196262
 30
0.0
 11
1204.998106152158
 21
12.74730055131113
 31
0.0
  0
ARC
  5
15930
330
1582C
100
AcDbEntity
  8
02製品
  6
ByBlock
100
AcDbCircle
 10
1193.599982185606
 20
16.50000000000182
 30
0.0
 40
12.0
100
AcDbArc
 50
341.7762176856163
 51
18.22401954976297
  0
LINE
  5
15931
330
1582C
100
AcDbEntity
  8
02製品
  6
ByBlock
100
AcDbLine
 10
1205.600006153229
 20
10.20003069215636
 30
0.0
 11
1204.903984594443
 21
8.994485855984749
 31
0.0
  0
LINE
  5
15932
330
1582C
100
AcDbEntity
  8
02製品
  6
ByBlock
100
AcDbLine
 10
1204.90395252252
 20
8.994461059572131
 30
0.0
 11
1200.099982185606
 21
8.994461059572131
 31
0.0
  0
LINE
  5
15933
330
1582C
100
AcDbEntity
  8
02製品
  6
ByBlock
100
AcDbLine
 10
1204.998068733457
 20
20.25280761718932
 30
0.0
 11
1200.099982185606
 21
20.25280761718932
 31
0.0
  0
LINE
  5
15934
330
1582C
100
AcDbEntity
  8
02製品
  6
ByBlock
100
AcDbLine
 10
1204.90395252252
 20
24.00556945800963
 30
0.0
 11
1200.099982185606
 21
24.00556945800963
 31
0.0
  0
LINE
  5
15935
330
1582C
100
AcDbEntity
  8
02製品
  6
ByBlock
100
AcDbLine
 10
1204.998080422658
 20
20.25283127230978
 30
0.0
 11
1205.599995846798
 21
22.80005067953789
 31
0.0
  0
LINE
  5
15936
330
1582C
100
AcDbEntity
  8
02製品
  6
ByBlock
100
AcDbLine
 10
1204.903963399029
 20
24.00562524216184
 30
0.0
 11
1205.599992766023
 21
22.80006688177855
 31
0.0
  0
LINE
  5
15937
330
1582C
100
AcDbEntity
  8
02製品
  6
ByBlock
100
AcDbLine
 10
1200.099982185606
 20
24.99999999999818
 30
0.0
 11
1200.099982185606
 21
8.000000000001819
 31
0.0
  0
LINE
  5
15938
330
1582C
100
AcDbEntity
  8
02製品
  6
ByBlock
100
AcDbLine
 10
1198.49997608209
 20
24.99999999999818
 30
0.0
 11
1198.49997608209
 21
8.000000000001819
 31
0.0
  0
LINE
  5
15939
330
1582C
100
AcDbEntity
  8
02製品
  6
ByBlock
100
AcDbLine
 10
1200.099982185606
 20
24.99999999999818
 30
0.0
 11
1198.49997608209
 21
24.99999999999818
 31
0.0
  0
LINE
  5
1593A
330
1582C
100
AcDbEntity
  8
02製品
  6
ByBlock
100
AcDbLine
 10
1200.099982185606
 20
8.000000000001819
 30
0.0
 11
1198.49997608209
 21
8.000000000001819
 31
0.0
  0
LINE
  5
1593B
330
1582C
100
AcDbEntity
  8
02製品
  6
ByBlock
100
AcDbLine
 10
0.6019233896768128
 20
982.7472472190857
 30
0.0
 11
5.500025196317438
 21
982.7472472190857
 31
0.0
  0
LINE
  5
1593C
330
1582C
100
AcDbEntity
  8
02製品
  6
ByBlock
100
AcDbLine
 10
0.0000251963174378
 20
992.8000121116638
 30
0.0
 11
0.0000251963174378
 21
980.2000060081482
 31
0.0
  0
LINE
  5
1593D
330
1582C
100
AcDbEntity
  8
02製品
  6
ByBlock
100
AcDbLine
 10
0.0
 20
980.2000402330777
 30
0.0
 11
0.6019012297656445
 21
982.7472943524263
 31
0.0
  0
ARC
  5
1593E
330
1582C
100
AcDbEntity
  8
02製品
  6
ByBlock
100
AcDbCircle
 10
12.00002519631744
 20
986.499993801117
 30
0.0
 40
12.0
100
AcDbArc
 50
161.775980450237
 51
198.2237823143837
  0
LINE
  5
1593F
330
1582C
100
AcDbEntity
  8
02製品
  6
ByBlock
100
AcDbLine
 10
0.0000012286946003
 20
980.2000244932715
 30
0.0
 11
0.6960227874806151
 21
978.9944796570999
 31
0.0
  0
LINE
  5
15940
330
1582C
100
AcDbEntity
  8
02製品
  6
ByBlock
100
AcDbLine
 10
0.6960548594033753
 20
978.9944548606873
 30
0.0
 11
5.500025196317438
 21
978.9944548606873
 31
0.0
  0
LINE
  5
15941
330
1582C
100
AcDbEntity
  8
02製品
  6
ByBlock
100
AcDbLine
 10
0.6019386484658753
 20
990.2528014183044
 30
0.0
 11
5.500025196317438
 21
990.2528014183044
 31
0.0
  0
LINE
  5
15942
330
1582C
100
AcDbEntity
  8
02製品
  6
ByBlock
100
AcDbLine
 10
0.6960548594033753
 20
994.0055632591248
 30
0.0
 11
5.500025196317438
 21
994.0055632591248
 31
0.0
  0
LINE
  5
15943
330
1582C
100
AcDbEntity
  8
02製品
  6
ByBlock
100
AcDbLine
 10
0.6019269592652563
 20
990.2528250734249
 30
0.0
 11
0.0000115351249406
 21
992.800044480653
 31
0.0
  0
LINE
  5
15944
330
1582C
100
AcDbEntity
  8
02製品
  6
ByBlock
100
AcDbLine
 10
0.69604398289448
 20
994.005619043277
 30
0.0
 11
0.0000146158999996
 21
992.8000606828937
 31
0.0
  0
LINE
  5
15945
330
1582C
100
AcDbEntity
  8
02製品
  6
ByBlock
100
AcDbLine
 10
5.500025196317438
 20
994.9999938011133
 30
0.0
 11
5.500025196317438
 21
977.999993801117
 31
0.0
  0
LINE
  5
15946
330
1582C
100
AcDbEntity
  8
02製品
  6
ByBlock
100
AcDbLine
 10
7.100031299833063
 20
994.9999938011133
 30
0.0
 11
7.100031299833063
 21
977.999993801117
 31
0.0
  0
LINE
  5
15947
330
1582C
100
AcDbEntity
  8
02製品
  6
ByBlock
100
AcDbLine
 10
5.500025196317438
 20
994.9999938011133
 30
0.0
 11
7.100031299833063
 21
994.9999938011133
 31
0.0
  0
LINE
  5
15948
330
1582C
100
AcDbEntity
  8
02製品
  6
ByBlock
100
AcDbLine
 10
5.500025196317438
 20
977.999993801117
 30
0.0
 11
7.100031299833063
 21
977.999993801117
 31
0.0
  0
LINE
  5
15949
330
1582C
100
AcDbEntity
  8
02製品
  6
ByBlock
100
AcDbLine
 10
0.6019233896768128
 20
947.7472472190857
 30
0.0
 11
5.500025196317438
 21
947.7472472190857
 31
0.0
  0
LINE
  5
1594A
330
1582C
100
AcDbEntity
  8
02製品
  6
ByBlock
100
AcDbLine
 10
0.0000251963174378
 20
957.8000121116638
 30
0.0
 11
0.0000251963174378
 21
945.2000060081482
 31
0.0
  0
LINE
  5
1594B
330
1582C
100
AcDbEntity
  8
02製品
  6
ByBlock
100
AcDbLine
 10
0.0
 20
945.2000402330777
 30
0.0
 11
0.6019012297656445
 21
947.7472943524263
 31
0.0
  0
ARC
  5
1594C
330
1582C
100
AcDbEntity
  8
02製品
  6
ByBlock
100
AcDbCircle
 10
12.00002519631744
 20
951.499993801117
 30
0.0
 40
12.0
100
AcDbArc
 50
161.775980450237
 51
198.2237823143837
  0
LINE
  5
1594D
330
1582C
100
AcDbEntity
  8
02製品
  6
ByBlock
100
AcDbLine
 10
0.0000012286946003
 20
945.2000244932715
 30
0.0
 11
0.6960227874806151
 21
943.9944796570999
 31
0.0
  0
LINE
  5
1594E
330
1582C
100
AcDbEntity
  8
02製品
  6
ByBlock
100
AcDbLine
 10
0.6960548594033753
 20
943.9944548606873
 30
0.0
 11
5.500025196317438
 21
943.9944548606873
 31
0.0
  0
LINE
  5
1594F
330
1582C
100
AcDbEntity
  8
02製品
  6
ByBlock
100
AcDbLine
 10
0.6019386484658753
 20
955.2528014183044
 30
0.0
 11
5.500025196317438
 21
955.2528014183044
 31
0.0
  0
LINE
  5
15950
330
1582C
100
AcDbEntity
  8
02製品
  6
ByBlock
100
AcDbLine
 10
0.6960548594033753
 20
959.0055632591248
 30
0.0
 11
5.500025196317438
 21
959.0055632591248
 31
0.0
  0
LINE
  5
15951
330
1582C
100
AcDbEntity
  8
02製品
  6
ByBlock
100
AcDbLine
 10
0.6019269592652563
 20
955.2528250734249
 30
0.0
 11
0.0000115351249406
 21
957.800044480653
 31
0.0
  0
LINE
  5
15952
330
1582C
100
AcDbEntity
  8
02製品
  6
ByBlock
100
AcDbLine
 10
0.69604398289448
 20
959.005619043277
 30
0.0
 11
0.0000146158999996
 21
957.8000606828937
 31
0.0
  0
LINE
  5
15953
330
1582C
100
AcDbEntity
  8
02製品
  6
ByBlock
100
AcDbLine
 10
5.500025196317438
 20
959.9999938011133
 30
0.0
 11
5.500025196317438
 21
942.999993801117
 31
0.0
  0
LINE
  5
15954
330
1582C
100
AcDbEntity
  8
02製品
  6
ByBlock
100
AcDbLine
 10
7.100031299833063
 20
959.9999938011133
 30
0.0
 11
7.100031299833063
 21
942.999993801117
 31
0.0
  0
LINE
  5
15955
330
1582C
100
AcDbEntity
  8
02製品
  6
ByBlock
100
AcDbLine
 10
5.500025196317438
 20
959.9999938011133
 30
0.0
 11
7.100031299833063
 21
959.9999938011133
 31
0.0
  0
LINE
  5
15956
330
1582C
100
AcDbEntity
  8
02製品
  6
ByBlock
100
AcDbLine
 10
5.500025196317438
 20
942.999993801117
 30
0.0
 11
7.100031299833063
 21
942.999993801117
 31
0.0
  0
LINE
  5
15957
330
1582C
100
AcDbEntity
  8
02製品
  6
ByBlock
100
AcDbLine
 10
0.6019233896768128
 20
912.7472472190857
 30
0.0
 11
5.500025196317438
 21
912.7472472190857
 31
0.0
  0
LINE
  5
15958
330
1582C
100
AcDbEntity
  8
02製品
  6
ByBlock
100
AcDbLine
 10
0.0000251963174378
 20
922.8000121116638
 30
0.0
 11
0.0000251963174378
 21
910.2000060081482
 31
0.0
  0
LINE
  5
15959
330
1582C
100
AcDbEntity
  8
02製品
  6
ByBlock
100
AcDbLine
 10
0.0
 20
910.2000402330777
 30
0.0
 11
0.6019012297656445
 21
912.7472943524263
 31
0.0
  0
ARC
  5
1595A
330
1582C
100
AcDbEntity
  8
02製品
  6
ByBlock
100
AcDbCircle
 10
12.00002519631744
 20
916.499993801117
 30
0.0
 40
12.0
100
AcDbArc
 50
161.775980450237
 51
198.2237823143837
  0
LINE
  5
1595B
330
1582C
100
AcDbEntity
  8
02製品
  6
ByBlock
100
AcDbLine
 10
0.0000012286946003
 20
910.2000244932715
 30
0.0
 11
0.6960227874806151
 21
908.9944796570999
 31
0.0
  0
LINE
  5
1595C
330
1582C
100
AcDbEntity
  8
02製品
  6
ByBlock
100
AcDbLine
 10
0.6960548594033753
 20
908.9944548606873
 30
0.0
 11
5.500025196317438
 21
908.9944548606873
 31
0.0
  0
LINE
  5
1595D
330
1582C
100
AcDbEntity
  8
02製品
  6
ByBlock
100
AcDbLine
 10
0.6019386484658753
 20
920.2528014183044
 30
0.0
 11
5.500025196317438
 21
920.2528014183044
 31
0.0
  0
LINE
  5
1595E
330
1582C
100
AcDbEntity
  8
02製品
  6
ByBlock
100
AcDbLine
 10
0.6960548594033753
 20
924.0055632591248
 30
0.0
 11
5.500025196317438
 21
924.0055632591248
 31
0.0
  0
LINE
  5
1595F
330
1582C
100
AcDbEntity
  8
02製品
  6
ByBlock
100
AcDbLine
 10
0.6019269592652563
 20
920.2528250734249
 30
0.0
 11
0.0000115351249406
 21
922.800044480653
 31
0.0
  0
LINE
  5
15960
330
1582C
100
AcDbEntity
  8
02製品
  6
ByBlock
100
AcDbLine
 10
0.69604398289448
 20
924.005619043277
 30
0.0
 11
0.0000146158999996
 21
922.8000606828937
 31
0.0
  0
LINE
  5
15961
330
1582C
100
AcDbEntity
  8
02製品
  6
ByBlock
100
AcDbLine
 10
5.500025196317438
 20
924.9999938011133
 30
0.0
 11
5.500025196317438
 21
907.999993801117
 31
0.0
  0
LINE
  5
15962
330
1582C
100
AcDbEntity
  8
02製品
  6
ByBlock
100
AcDbLine
 10
7.100031299833063
 20
924.9999938011133
 30
0.0
 11
7.100031299833063
 21
907.999993801117
 31
0.0
  0
LINE
  5
15963
330
1582C
100
AcDbEntity
  8
02製品
  6
ByBlock
100
AcDbLine
 10
5.500025196317438
 20
924.9999938011133
 30
0.0
 11
7.100031299833063
 21
924.9999938011133
 31
0.0
  0
LINE
  5
15964
330
1582C
100
AcDbEntity
  8
02製品
  6
ByBlock
100
AcDbLine
 10
5.500025196317438
 20
907.999993801117
 30
0.0
 11
7.100031299833063
 21
907.999993801117
 31
0.0
  0
LINE
  5
15965
330
1582C
100
AcDbEntity
  8
02製品
  6
ByBlock
100
AcDbLine
 10
0.6019233896768128
 20
82.74725341797057
 30
0.0
 11
5.500025196317438
 21
82.74725341797057
 31
0.0
  0
LINE
  5
15966
330
1582C
100
AcDbEntity
  8
02製品
  6
ByBlock
100
AcDbLine
 10
0.0000251963174378
 20
92.8000183105487
 30
0.0
 11
0.0000251963174378
 21
80.20001220703307
 31
0.0
  0
LINE
  5
15967
330
1582C
100
AcDbEntity
  8
02製品
  6
ByBlock
100
AcDbLine
 10
0.0
 20
80.20004643196262
 30
0.0
 11
0.6019012297656445
 21
82.74730055131113
 31
0.0
  0
ARC
  5
15968
330
1582C
100
AcDbEntity
  8
02製品
  6
ByBlock
100
AcDbCircle
 10
12.00002519631744
 20
86.50000000000182
 30
0.0
 40
12.0
100
AcDbArc
 50
161.775980450237
 51
198.2237823143837
  0
LINE
  5
15969
330
1582C
100
AcDbEntity
  8
02製品
  6
ByBlock
100
AcDbLine
 10
0.0000012286946003
 20
80.20003069215636
 30
0.0
 11
0.6960227874806151
 21
78.99448585598475
 31
0.0
  0
LINE
  5
1596A
330
1582C
100
AcDbEntity
  8
02製品
  6
ByBlock
100
AcDbLine
 10
0.6960548594033753
 20
78.99446105957213
 30
0.0
 11
5.500025196317438
 21
78.99446105957213
 31
0.0
  0
LINE
  5
1596B
330
1582C
100
AcDbEntity
  8
02製品
  6
ByBlock
100
AcDbLine
 10
0.6019386484658753
 20
90.25280761718932
 30
0.0
 11
5.500025196317438
 21
90.25280761718932
 31
0.0
  0
LINE
  5
1596C
330
1582C
100
AcDbEntity
  8
02製品
  6
ByBlock
100
AcDbLine
 10
0.6960548594033753
 20
94.00556945800963
 30
0.0
 11
5.500025196317438
 21
94.00556945800963
 31
0.0
  0
LINE
  5
1596D
330
1582C
100
AcDbEntity
  8
02製品
  6
ByBlock
100
AcDbLine
 10
0.6019269592652563
 20
90.25283127230978
 30
0.0
 11
0.0000115351249406
 21
92.80005067953789
 31
0.0
  0
LINE
  5
1596E
330
1582C
100
AcDbEntity
  8
02製品
  6
ByBlock
100
AcDbLine
 10
0.69604398289448
 20
94.00562524216184
 30
0.0
 11
0.0000146158999996
 21
92.80006688177855
 31
0.0
  0
LINE
  5
1596F
330
1582C
100
AcDbEntity
  8
02製品
  6
ByBlock
100
AcDbLine
 10
5.500025196317438
 20
94.99999999999818
 30
0.0
 11
5.500025196317438
 21
78.00000000000182
 31
0.0
  0
LINE
  5
15970
330
1582C
100
AcDbEntity
  8
02製品
  6
ByBlock
100
AcDbLine
 10
7.100031299833063
 20
94.99999999999818
 30
0.0
 11
7.100031299833063
 21
78.00000000000182
 31
0.0
  0
LINE
  5
15971
330
1582C
100
AcDbEntity
  8
02製品
  6
ByBlock
100
AcDbLine
 10
5.500025196317438
 20
94.99999999999818
 30
0.0
 11
7.100031299833063
 21
94.99999999999818
 31
0.0
  0
LINE
  5
15972
330
1582C
100
AcDbEntity
  8
02製品
  6
ByBlock
100
AcDbLine
 10
5.500025196317438
 20
78.00000000000182
 30
0.0
 11
7.100031299833063
 21
78.00000000000182
 31
0.0
  0
LINE
  5
15973
330
1582C
100
AcDbEntity
  8
02製品
  6
ByBlock
100
AcDbLine
 10
0.6019233896768128
 20
47.74725341797057
 30
0.0
 11
5.500025196317438
 21
47.74725341797057
 31
0.0
  0
LINE
  5
15974
330
1582C
100
AcDbEntity
  8
02製品
  6
ByBlock
100
AcDbLine
 10
0.0000251963174378
 20
57.80001831054869
 30
0.0
 11
0.0000251963174378
 21
45.20001220703307
 31
0.0
  0
LINE
  5
15975
330
1582C
100
AcDbEntity
  8
02製品
  6
ByBlock
100
AcDbLine
 10
0.0
 20
45.20004643196262
 30
0.0
 11
0.6019012297656445
 21
47.74730055131113
 31
0.0
  0
ARC
  5
15976
330
1582C
100
AcDbEntity
  8
02製品
  6
ByBlock
100
AcDbCircle
 10
12.00002519631744
 20
51.50000000000182
 30
0.0
 40
12.0
100
AcDbArc
 50
161.775980450237
 51
198.2237823143837
  0
LINE
  5
15977
330
1582C
100
AcDbEntity
  8
02製品
  6
ByBlock
100
AcDbLine
 10
0.0000012286946003
 20
45.20003069215636
 30
0.0
 11
0.6960227874806151
 21
43.99448585598475
 31
0.0
  0
LINE
  5
15978
330
1582C
100
AcDbEntity
  8
02製品
  6
ByBlock
100
AcDbLine
 10
0.6960548594033753
 20
43.99446105957213
 30
0.0
 11
5.500025196317438
 21
43.99446105957213
 31
0.0
  0
LINE
  5
15979
330
1582C
100
AcDbEntity
  8
02製品
  6
ByBlock
100
AcDbLine
 10
0.6019386484658753
 20
55.25280761718932
 30
0.0
 11
5.500025196317438
 21
55.25280761718932
 31
0.0
  0
LINE
  5
1597A
330
1582C
100
AcDbEntity
  8
02製品
  6
ByBlock
100
AcDbLine
 10
0.6960548594033753
 20
59.00556945800963
 30
0.0
 11
5.500025196317438
 21
59.00556945800963
 31
0.0
  0
LINE
  5
1597B
330
1582C
100
AcDbEntity
  8
02製品
  6
ByBlock
100
AcDbLine
 10
0.6019269592652563
 20
55.25283127230978
 30
0.0
 11
0.0000115351249406
 21
57.80005067953789
 31
0.0
  0
LINE
  5
1597C
330
1582C
100
AcDbEntity
  8
02製品
  6
ByBlock
100
AcDbLine
 10
0.69604398289448
 20
59.00562524216184
 30
0.0
 11
0.0000146158999996
 21
57.80006688177855
 31
0.0
  0
LINE
  5
1597D
330
1582C
100
AcDbEntity
  8
02製品
  6
ByBlock
100
AcDbLine
 10
5.500025196317438
 20
59.99999999999818
 30
0.0
 11
5.500025196317438
 21
43.00000000000182
 31
0.0
  0
LINE
  5
1597E
330
1582C
100
AcDbEntity
  8
02製品
  6
ByBlock
100
AcDbLine
 10
7.100031299833063
 20
59.99999999999818
 30
0.0
 11
7.100031299833063
 21
43.00000000000182
 31
0.0
  0
LINE
  5
1597F
330
1582C
100
AcDbEntity
  8
02製品
  6
ByBlock
100
AcDbLine
 10
5.500025196317438
 20
59.99999999999818
 30
0.0
 11
7.100031299833063
 21
59.99999999999818
 31
0.0
  0
LINE
  5
15980
330
1582C
100
AcDbEntity
  8
02製品
  6
ByBlock
100
AcDbLine
 10
5.500025196317438
 20
43.00000000000182
 30
0.0
 11
7.100031299833063
 21
43.00000000000182
 31
0.0
  0
LINE
  5
15981
330
1582C
100
AcDbEntity
  8
02製品
  6
ByBlock
100
AcDbLine
 10
0.6019233896768128
 20
12.74725341797057
 30
0.0
 11
5.500025196317438
 21
12.74725341797057
 31
0.0
  0
LINE
  5
15982
330
1582C
100
AcDbEntity
  8
02製品
  6
ByBlock
100
AcDbLine
 10
0.0000251963174378
 20
22.80001831054869
 30
0.0
 11
0.0000251963174378
 21
10.20001220703307
 31
0.0
  0
LINE
  5
15983
330
1582C
100
AcDbEntity
  8
02製品
  6
ByBlock
100
AcDbLine
 10
0.0
 20
10.20004643196262
 30
0.0
 11
0.6019012297656445
 21
12.74730055131113
 31
0.0
  0
ARC
  5
15984
330
1582C
100
AcDbEntity
  8
02製品
  6
ByBlock
100
AcDbCircle
 10
12.00002519631744
 20
16.50000000000182
 30
0.0
 40
12.0
100
AcDbArc
 50
161.775980450237
 51
198.2237823143837
  0
LINE
  5
15985
330
1582C
100
AcDbEntity
  8
02製品
  6
ByBlock
100
AcDbLine
 10
0.0000012286946003
 20
10.20003069215636
 30
0.0
 11
0.6960227874806151
 21
8.994485855984749
 31
0.0
  0
LINE
  5
15986
330
1582C
100
AcDbEntity
  8
02製品
  6
ByBlock
100
AcDbLine
 10
0.6960548594033753
 20
8.994461059572131
 30
0.0
 11
5.500025196317438
 21
8.994461059572131
 31
0.0
  0
LINE
  5
15987
330
1582C
100
AcDbEntity
  8
02製品
  6
ByBlock
100
AcDbLine
 10
0.6019386484658753
 20
20.25280761718932
 30
0.0
 11
5.500025196317438
 21
20.25280761718932
 31
0.0
  0
LINE
  5
15988
330
1582C
100
AcDbEntity
  8
02製品
  6
ByBlock
100
AcDbLine
 10
0.6960548594033753
 20
24.00556945800963
 30
0.0
 11
5.500025196317438
 21
24.00556945800963
 31
0.0
  0
LINE
  5
15989
330
1582C
100
AcDbEntity
  8
02製品
  6
ByBlock
100
AcDbLine
 10
0.6019269592652563
 20
20.25283127230978
 30
0.0
 11
0.0000115351249406
 21
22.80005067953789
 31
0.0
  0
LINE
  5
1598A
330
1582C
100
AcDbEntity
  8
02製品
  6
ByBlock
100
AcDbLine
 10
0.69604398289448
 20
24.00562524216184
 30
0.0
 11
0.0000146158999996
 21
22.80006688177855
 31
0.0
  0
LINE
  5
1598B
330
1582C
100
AcDbEntity
  8
02製品
  6
ByBlock
100
AcDbLine
 10
5.500025196317438
 20
24.99999999999818
 30
0.0
 11
5.500025196317438
 21
8.000000000001819
 31
0.0
  0
LINE
  5
1598C
330
1582C
100
AcDbEntity
  8
02製品
  6
ByBlock
100
AcDbLine
 10
7.100031299833063
 20
24.99999999999818
 30
0.0
 11
7.100031299833063
 21
8.000000000001819
 31
0.0
  0
LINE
  5
1598D
330
1582C
100
AcDbEntity
  8
02製品
  6
ByBlock
100
AcDbLine
 10
5.500025196317438
 20
24.99999999999818
 30
0.0
 11
7.100031299833063
 21
24.99999999999818
 31
0.0
  0
LINE
  5
1598E
330
1582C
100
AcDbEntity
  8
02製品
  6
ByBlock
100
AcDbLine
 10
5.500025196317438
 20
8.000000000001819
 30
0.0
 11
7.100031299833063
 21
8.000000000001819
 31
0.0
  0
ENDBLK
  5
15990
330
1582C
100
AcDbEntity
  8
0
100
AcDbBlockEnd
  0
ENDSEC
  0
SECTION
  2
ENTITIES
  0
INSERT
  5
15726
330
1F
100
AcDbEntity
  8
02製品
100
AcDbBlockReference
  2
A$C3830
 10
9550.474120947332
 20
68.10780543681585
 30
0.0
  0
INSERT
  5
1582B
330
1F
100
AcDbEntity
  8
02製品
100
AcDbBlockReference
  2
A$C13158
 10
11142.47810926256
 20
68.10780543681403
 30
0.0
  0
INSERT
  5
15991
330
1F
100
AcDbEntity
  8
02製品
100
AcDbBlockReference
  2
A$C26301
 10
9550.474150749655
 20
1048.350439336061
 30
0.0
  0
ENDSEC
  0
SECTION
  2
OBJECTS
  0
DICTIONARY
  5
C
330
0
100
AcDbDictionary
281
     1
  3
ACAD_DETAILVIEWSTYLE
350
F29E
  3
ACAD_GROUP
350
D
  3
ACAD_IMAGE_VARS
350
6A88
  3
ACAD_LAYOUT
350
1A
  3
ACAD_MLINESTYLE
350
17
  3
ACAD_PLOTSETTINGS
350
19
  3
ACAD_PLOTSTYLENAME
350
E
  3
ACAD_SCALELIST
350
6A4E
  3
ACAD_SECTIONVIEWSTYLE
350
F29F
  3
AcadDim
350
813A
  3
AcDbVariableDictionary
350
79E
  3
AEC_DISP_REPS
350
8259
  3
AEC_DISPLAY_PROPS_DEFAULTS
350
825B
  3
AEC_VARS
350
8257
  3
APPDATA
350
6A87
  3
DWGPROPS
350
159DB
  0
DICTIONARY
  5
7A6F
330
2
100
AcDbDictionary
280
     1
281
     1
  3
ACAD_LAYERFILTERS
360
A22F
  3
ACAD_LAYERSTATES
360
7A70
  3
ACLYDICTIONARY
360
1550C
  0
DICTIONARY
  5
F29E
102
{ACAD_REACTORS
330
C
102
}
330
C
100
AcDbDictionary
281
     1
  0
DICTIONARY
  5
D
102
{ACAD_REACTORS
330
C
102
}
330
C
100
AcDbDictionary
281
     1
  0
RASTERVARIABLES
  5
6A88
102
{ACAD_REACTORS
330
C
102
}
330
C
100
AcDbRasterVariables
 90
        0
 70
     1
 71
     1
 72
     1
  0
DICTIONARY
  5
1A
102
{ACAD_REACTORS
330
C
102
}
330
C
100
AcDbDictionary
281
     1
  3
Layout1
350
1E
  3
Layout2
350
26
  3
Model
350
22
  0
DICTIONARY
  5
17
102
{ACAD_REACTORS
330
C
102
}
330
C
100
AcDbDictionary
281
     1
  3
Standard
350
18
  0
DICTIONARY
  5
19
102
{ACAD_REACTORS
330
C
102
}
330
C
100
AcDbDictionary
281
     1
  0
ACDBDICTIONARYWDFLT
  5
E
102
{ACAD_REACTORS
330
C
102
}
330
C
100
AcDbDictionary
281
     1
  3
Normal
350
F
100
AcDbDictionaryWithDefault
340
F
  0
DICTIONARY
  5
6A4E
102
{ACAD_REACTORS
330
C
102
}
330
C
100
AcDbDictionary
281
     1
  3
A0
350
6A4F
  3
A1
350
6A50
  3
A2
350
6A51
  3
A3
350
6A52
  3
A4
350
6A53
  3
A5
350
6A54
  3
A6
350
6A55
  3
A7
350
6A56
  3
A8
350
6A57
  3
A9
350
6A58
  3
B0
350
6A59
  3
B1
350
6A5A
  3
B2
350
6A5B
  3
B3
350
6A5C
  3
B4
350
6A5D
  3
B5
350
6A5E
  3
B6
350
6A5F
  3
B7
350
6A60
  3
B8
350
6A61
  3
B9
350
6A62
  3
C0
350
6A63
  3
C1
350
6A64
  3
C2
350
6A65
  3
C3
350
6A66
  3
C4
350
6A67
  3
C5
350
6A68
  3
C6
350
6A69
  3
C7
350
6A6A
  3
C8
350
6A6B
  3
C9
350
6A6C
  3
D0
350
6A6D
  3
D1
350
6A6E
  3
D2
350
6A6F
  0
DICTIONARY
  5
F29F
102
{ACAD_REACTORS
330
C
102
}
330
C
100
AcDbDictionary
281
     1
  0
XRECORD
  5
813A
102
{ACAD_REACTORS
330
C
102
}
330
C
100
AcDbXrecord
280
     1
340
0
 72
     0
 71
     0
 70
     0
 69
     0
 68
     1
 67
     3
 66
     0
 65
     0
 64
     0
 63
     3
 62
     1
 61
     0
 60
     0
 40
0.0
  0
DICTIONARY
  5
79E
102
{ACAD_REACTORS
330
C
102
}
330
C
100
AcDbDictionary
281
     1
  3
DIMASSOC
350
79F
  3
SORTENTS
350
264F
  0
DICTIONARY
  5
8259
102
{ACAD_REACTORS
330
C
102
}
330
C
100
AcDbDictionary
281
     1
  3
AecDbDispRep2dSection
350
825A
  3
AecDbDispRepAnchor
350
8294
  3
AecDbDispRepAnchorEntToNode
350
8295
  3
AecDbDispRepClipVolModel
350
8261
  3
AecDbDispRepClipVolPlan
350
8263
  3
AecDbDispRepClipVolResSubDiv
350
8266
  3
AecDbDispRepClipVolResult
350
8265
  3
AecDbDispRepDisplayTheme
350
8268
  3
AecDbDispRepEditInPlaceProfile
350
8299
  3
AecDbDispRepEntRef
350
826A
  3
AecDbDispRepLayoutCurve
350
826C
  3
AecDbDispRepLayoutGrid2d
350
826E
  3
AecDbDispRepLayoutGrid3d
350
8270
  3
AecDbDispRepMaskBlockRef
350
8272
  3
AecDbDispRepMaskBlockRefRcp
350
8274
  3
AecDbDispRepMassElemModel
350
8276
  3
AecDbDispRepMassElemPlan100
350
827C
  3
AecDbDispRepMassElemPlan50
350
827A
  3
AecDbDispRepMassElemRcp
350
827E
  3
AecDbDispRepMassElemSchem
350
8278
  3
AecDbDispRepMassGroupModel
350
8280
  3
AecDbDispRepMassGroupPlan
350
8282
  3
AecDbDispRepMassGroupPlan100
350
8286
  3
AecDbDispRepMassGroupPlan50
350
8284
  3
AecDbDispRepMassGroupRcp
350
8288
  3
AecDbDispRepMaterial
350
8297
  3
AecDbDispRepMvBlockRef
350
828A
  3
AecDbDispRepMvBlockRefModel
350
828B
  3
AecDbDispRepMvBlockRefPlan100
350
828C
  3
AecDbDispRepMvBlockRefPlan50
350
828D
  3
AecDbDispRepPolygonModel
350
828E
  3
AecDbDispRepPolygonTrueColour
350
8290
  3
AecDbDispRepSlice
350
8292
  0
DICTIONARY
  5
825B
102
{ACAD_REACTORS
330
C
102
}
330
C
100
AcDbDictionary
281
     1
  3
*A1
350
825C
  3
*A10
350
827D
  3
*A11
350
827F
  3
*A12
350
8296
  3
*A13
350
8281
  3
*A14
350
8285
  3
*A15
350
8262
  3
*A16
350
8287
  3
*A17
350
8289
  3
*A18
350
828F
  3
*A19
350
8291
  3
*A2
350
826D
  3
*A20
350
8293
  3
*A21
350
8298
  3
*A22
350
8273
  3
*A23
350
829A
  3
*A24
350
8264
  3
*A25
350
8267
  3
*A26
350
8269
  3
*A27
350
826B
  3
*A3
350
826F
  3
*A4
350
8283
  3
*A5
350
8271
  3
*A6
350
8275
  3
*A7
350
8277
  3
*A8
350
8279
  3
*A9
350
827B
  0
DICTIONARY
  5
8257
102
{ACAD_REACTORS
330
C
102
}
330
C
100
AcDbDictionary
281
     1
  3
AEC_VARS_DWG_SETUP
350
8258
  0
DICTIONARY
  5
6A87
102
{ACAD_REACTORS
330
C
102
}
330
C
100
AcDbDictionary
281
     1
  0
XRECORD
  5
159DB
102
{ACAD_REACTORS
330
C
102
}
330
C
100
AcDbXrecord
280
     1
  1
DWGPROPS COOKIE
  2

  3

  4

  6

  7

  8
Sales
  9

300
=
301
=
302
=
303
=
304
=
305
=
306
=
307
=
308
=
309
=
 40
0.0
 41
2455859.030048461
 42
2458968.230097766
  1

 90
        0
  0
DICTIONARY
  5
A22F
102
{ACAD_REACTORS
330
7A6F
102
}
330
7A6F
100
AcDbDictionary
280
     1
281
     1
  0
DICTIONARY
  5
7A70
102
{ACAD_REACTORS
330
7A6F
102
}
330
7A6F
100
AcDbDictionary
281
     1
  0
DICTIONARY
  5
1550C
102
{ACAD_REACTORS
330
7A6F
102
}
330
7A6F
100
AcDbDictionary
281
     1
1001
ACAD
1000
<All
  0
LAYOUT
  5
1E
102
{ACAD_REACTORS
330
1A
102
}
330
1A
100
AcDbPlotSettings
  1

  2

  4

  6

 40
0.0
 41
0.0
 42
0.0
 43
0.0
 44
0.0
 45
0.0
 46
0.0
 47
0.0
 48
0.0
 49
0.0
140
0.0
141
0.0
142
1.0
143
1.0
 70
   688
 72
     0
 73
     0
 74
     5
  7
monochrome.ctb
 75
    16
147
1.0
148
0.0
149
0.0
100
AcDbLayout
  1
Layout1
 70
     1
 71
     1
 10
0.0
 20
0.0
 11
420.0
 21
297.0
 12
0.0
 22
0.0
 32
0.0
 14
1.000000000000000E+20
 24
1.000000000000000E+20
 34
1.000000000000000E+20
 15
-1.000000000000000E+20
 25
-1.000000000000000E+20
 35
-1.000000000000000E+20
146
0.0
 13
0.0
 23
0.0
 33
0.0
 16
1.0
 26
0.0
 36
0.0
 17
0.0
 27
1.0
 37
0.0
 76
     0
330
1B
  0
LAYOUT
  5
26
102
{ACAD_REACTORS
330
1A
102
}
330
1A
100
AcDbPlotSettings
  1

  2

  4

  6

 40
0.0
 41
0.0
 42
0.0
 43
0.0
 44
0.0
 45
0.0
 46
0.0
 47
0.0
 48
0.0
 49
0.0
140
0.0
141
0.0
142
1.0
143
1.0
 70
   688
 72
     0
 73
     0
 74
     5
  7
monochrome.ctb
 75
    16
147
1.0
148
0.0
149
0.0
100
AcDbLayout
  1
Layout2
 70
     1
 71
     2
 10
0.0
 20
0.0
 11
12.0
 21
9.0
 12
0.0
 22
0.0
 32
0.0
 14
0.0
 24
0.0
 34
0.0
 15
0.0
 25
0.0
 35
0.0
146
0.0
 13
0.0
 23
0.0
 33
0.0
 16
1.0
 26
0.0
 36
0.0
 17
0.0
 27
1.0
 37
0.0
 76
     0
330
23
  0
LAYOUT
  5
22
102
{ACAD_REACTORS
330
1A
102
}
330
1A
100
AcDbPlotSettings
  1

  2
none_device
  4
A3
  6

 40
3.174999952316284
 41
3.174999952316284
 42
3.17498779296875
 43
3.17498779296875
 44
297.0318298339844
 45
420.1583251953125
 46
-3.16
 47
-3.1
 48
-90.0
 49
-90.0
140
329.9999999999998
141
207.0
142
1.0
143
1.0
 70
 11940
 72
     1
 73
     1
 74
     4
  7
monochrome.ctb
 75
     0
147
1.0
148
90.0
149
90.0
100
AcDbLayout
  1
Model
 70
     1
 71
     0
 10
9170.550522560283
 20
-443.8001926893305
 11
13370.55052256028
 21
2526.199807310669
 12
0.0
 22
0.0
 32
0.0
 14
9550.474120947332
 24
68.10780543681403
 34
0.0
 15
12145.47807326135
 25
2051.350433137178
 35
0.0
146
0.0
 13
0.0
 23
0.0
 33
0.0
 16
1.0
 26
0.0
 36
0.0
 17
0.0
 27
1.0
 37
0.0
 76
     0
330
1F
331
A2A1
  0
MLINESTYLE
  5
18
102
{ACAD_REACTORS
330
17
102
}
330
17
100
AcDbMlineStyle
  2
STANDARD
 70
     0
  3

 62
   256
 51
90.0
 52
90.0
 71
     2
 49
0.5
 62
   256
  6
BYLAYER
 49
-0.5
 62
   256
  6
BYLAYER
  0
ACDBPLACEHOLDER
  5
F
102
{ACAD_REACTORS
330
E
102
}
330
E
  0
SCALE
  5
6A4F
102
{ACAD_REACTORS
330
6A4E
102
}
330
6A4E
100
AcDbScale
 70
     0
300
1:1
140
1.0
141
1.0
290
     1
  0
SCALE
  5
6A50
102
{ACAD_REACTORS
330
6A4E
102
}
330
6A4E
100
AcDbScale
 70
     0
300
1:2
140
1.0
141
2.0
290
     0
  0
SCALE
  5
6A51
102
{ACAD_REACTORS
330
6A4E
102
}
330
6A4E
100
AcDbScale
 70
     0
300
1:4
140
1.0
141
4.0
290
     0
  0
SCALE
  5
6A52
102
{ACAD_REACTORS
330
6A4E
102
}
330
6A4E
100
AcDbScale
 70
     0
300
1:5
140
1.0
141
5.0
290
     0
  0
SCALE
  5
6A53
102
{ACAD_REACTORS
330
6A4E
102
}
330
6A4E
100
AcDbScale
 70
     0
300
1:8
140
1.0
141
8.0
290
     0
  0
SCALE
  5
6A54
102
{ACAD_REACTORS
330
6A4E
102
}
330
6A4E
100
AcDbScale
 70
     0
300
1:10
140
1.0
141
10.0
290
     0
  0
SCALE
  5
6A55
102
{ACAD_REACTORS
330
6A4E
102
}
330
6A4E
100
AcDbScale
 70
     0
300
1:16
140
1.0
141
16.0
290
     0
  0
SCALE
  5
6A56
102
{ACAD_REACTORS
330
6A4E
102
}
330
6A4E
100
AcDbScale
 70
     0
300
1:20
140
1.0
141
20.0
290
     0
  0
SCALE
  5
6A57
102
{ACAD_REACTORS
330
6A4E
102
}
330
6A4E
100
AcDbScale
 70
     0
300
1:30
140
1.0
141
30.0
290
     0
  0
SCALE
  5
6A58
102
{ACAD_REACTORS
330
6A4E
102
}
330
6A4E
100
AcDbScale
 70
     0
300
1:40
140
1.0
141
40.0
290
     0
  0
SCALE
  5
6A59
102
{ACAD_REACTORS
330
6A4E
102
}
330
6A4E
100
AcDbScale
 70
     0
300
1:50
140
1.0
141
50.0
290
     0
  0
SCALE
  5
6A5A
102
{ACAD_REACTORS
330
6A4E
102
}
330
6A4E
100
AcDbScale
 70
     0
300
1:100
140
1.0
141
100.0
290
     0
  0
SCALE
  5
6A5B
102
{ACAD_REACTORS
330
6A4E
102
}
330
6A4E
100
AcDbScale
 70
     0
300
2:1
140
2.0
141
1.0
290
     0
  0
SCALE
  5
6A5C
102
{ACAD_REACTORS
330
6A4E
102
}
330
6A4E
100
AcDbScale
 70
     0
300
4:1
140
4.0
141
1.0
290
     0
  0
SCALE
  5
6A5D
102
{ACAD_REACTORS
330
6A4E
102
}
330
6A4E
100
AcDbScale
 70
     0
300
8:1
140
8.0
141
1.0
290
     0
  0
SCALE
  5
6A5E
102
{ACAD_REACTORS
330
6A4E
102
}
330
6A4E
100
AcDbScale
 70
     0
300
10:1
140
10.0
141
1.0
290
     0
  0
SCALE
  5
6A5F
102
{ACAD_REACTORS
330
6A4E
102
}
330
6A4E
100
AcDbScale
 70
     0
300
100:1
140
100.0
141
1.0
290
     0
  0
SCALE
  5
6A60
102
{ACAD_REACTORS
330
6A4E
102
}
330
6A4E
100
AcDbScale
 70
     0
300
1/128" = 1'-0"
140
0.0078125
141
12.0
290
     0
  0
SCALE
  5
6A61
102
{ACAD_REACTORS
330
6A4E
102
}
330
6A4E
100
AcDbScale
 70
     0
300
1/64" = 1'-0"
140
0.015625
141
12.0
290
     0
  0
SCALE
  5
6A62
102
{ACAD_REACTORS
330
6A4E
102
}
330
6A4E
100
AcDbScale
 70
     0
300
1/32" = 1'-0"
140
0.03125
141
12.0
290
     0
  0
SCALE
  5
6A63
102
{ACAD_REACTORS
330
6A4E
102
}
330
6A4E
100
AcDbScale
 70
     0
300
1/16" = 1'-0"
140
0.0625
141
12.0
290
     0
  0
SCALE
  5
6A64
102
{ACAD_REACTORS
330
6A4E
102
}
330
6A4E
100
AcDbScale
 70
     0
300
3/32" = 1'-0"
140
0.09375
141
12.0
290
     0
  0
SCALE
  5
6A65
102
{ACAD_REACTORS
330
6A4E
102
}
330
6A4E
100
AcDbScale
 70
     0
300
1/8" = 1'-0"
140
0.125
141
12.0
290
     0
  0
SCALE
  5
6A66
102
{ACAD_REACTORS
330
6A4E
102
}
330
6A4E
100
AcDbScale
 70
     0
300
3/16" = 1'-0"
140
0.1875
141
12.0
290
     0
  0
SCALE
  5
6A67
102
{ACAD_REACTORS
330
6A4E
102
}
330
6A4E
100
AcDbScale
 70
     0
300
1/4" = 1'-0"
140
0.25
141
12.0
290
     0
  0
SCALE
  5
6A68
102
{ACAD_REACTORS
330
6A4E
102
}
330
6A4E
100
AcDbScale
 70
     0
300
3/8" = 1'-0"
140
0.375
141
12.0
290
     0
  0
SCALE
  5
6A69
102
{ACAD_REACTORS
330
6A4E
102
}
330
6A4E
100
AcDbScale
 70
     0
300
1/2" = 1'-0"
140
0.5
141
12.0
290
     0
  0
SCALE
  5
6A6A
102
{ACAD_REACTORS
330
6A4E
102
}
330
6A4E
100
AcDbScale
 70
     0
300
3/4" = 1'-0"
140
0.75
141
12.0
290
     0
  0
SCALE
  5
6A6B
102
{ACAD_REACTORS
330
6A4E
102
}
330
6A4E
100
AcDbScale
 70
     0
300
1" = 1'-0"
140
1.0
141
12.0
290
     0
  0
SCALE
  5
6A6C
102
{ACAD_REACTORS
330
6A4E
102
}
330
6A4E
100
AcDbScale
 70
     0
300
1-1/2" = 1'-0"
140
1.5
141
12.0
290
     0
  0
SCALE
  5
6A6D
102
{ACAD_REACTORS
330
6A4E
102
}
330
6A4E
100
AcDbScale
 70
     0
300
3" = 1'-0"
140
3.0
141
12.0
290
     0
  0
SCALE
  5
6A6E
102
{ACAD_REACTORS
330
6A4E
102
}
330
6A4E
100
AcDbScale
 70
     0
300
6" = 1'-0"
140
6.0
141
12.0
290
     0
  0
SCALE
  5
6A6F
102
{ACAD_REACTORS
330
6A4E
102
}
330
6A4E
100
AcDbScale
 70
     0
300
1'-0" = 1'-0"
140
12.0
141
12.0
290
     0
  0
DICTIONARYVAR
  5
79F
102
{ACAD_REACTORS
330
79E
102
}
330
79E
100
DictionaryVariables
280
     0
  1
1
  0
DICTIONARYVAR
  5
264F
102
{ACAD_REACTORS
330
79E
102
}
330
79E
100
DictionaryVariables
280
     0
  1
96
  0
ACAD_PROXY_OBJECT
  5
8258
102
{ACAD_REACTORS
330
8257
102
}
330
8257
100
AcDbProxyObject
 90
      499
 91
      509
 95
   262177
 70
     0
 93
     1864
310
5434D15054000541505428FC812095550000000000000B08000000000000008200000000000001807E8F2048F205000200001204000000000000581F8000000000000B0807EC3FA6DEBC0E99F8000000000001C07FE8FCC029594224E2D20CA600E2005C008C00E8005C008321803A80170023003A00170020898006200640
310
06001202DA008C2080248020801000140019001A801B00100021803780360037803900148010001000100010002080220019001A801B0021082008600820088008200A4008600900087A08032803180260030803C803280390029803A003200170032003B80338049C09
330
0
 94
        0
  0
ENDSEC
  0
EOF
