  0
SECTION
  2
HEADER
  9
$ACADVER
  1
AC1015
  9
$ACADMAINTVER
 70
     6
  9
$DWGCODEPAGE
  3
ANSI_932
  9
$INSBASE
 10
0.0
 20
0.0
 30
0.0
  9
$EXTMIN
 10
6691.025750377225
 20
4715.618266124696
 30
0.0
  9
$EXTMAX
 10
9769.441123933133
 20
6536.50272675677
 30
0.0
  9
$LIMMIN
 10
6182.786264405324
 20
3736.084079595646
  9
$LIMMAX
 10
11222.78626440532
 20
7300.084079595646
  9
$ORTHOMODE
 70
     1
  9
$REGENMODE
 70
     1
  9
$FILLMODE
 70
     1
  9
$QTEXTMODE
 70
     0
  9
$MIRRTEXT
 70
     1
  9
$LTSCALE
 40
3.6
  9
$ATTMODE
 70
     1
  9
$TEXTSIZE
 40
3.0
  9
$TRACEWID
 40
1.0
  9
$TEXTSTYLE
  7
Standard
  9
$CLAYER
  8
02製品
  9
$CELTYPE
  6
ByLayer
  9
$CECOLOR
 62
   256
  9
$CELTSCALE
 40
1.0
  9
$DISPSILH
 70
     0
  9
$DIMSCALE
 40
12.0
  9
$DIMASZ
 40
3.0
  9
$DIMEXO
 40
1.5
  9
$DIMDLI
 40
10.0
  9
$DIMRND
 40
0.0
  9
$DIMDLE
 40
0.0
  9
$DIMEXE
 40
1.0
  9
$DIMTP
 40
0.0
  9
$DIMTM
 40
0.0
  9
$DIMTXT
 40
3.0
  9
$DIMCEN
 40
1.5
  9
$DIMTSZ
 40
0.0
  9
$DIMTOL
 70
     0
  9
$DIMLIM
 70
     0
  9
$DIMTIH
 70
     0
  9
$DIMTOH
 70
     0
  9
$DIMSE1
 70
     0
  9
$DIMSE2
 70
     0
  9
$DIMTAD
 70
     1
  9
$DIMZIN
 70
     8
  9
$DIMBLK
  1
Open
  9
$DIMASO
 70
     1
  9
$DIMSHO
 70
     1
  9
$DIMPOST
  1

  9
$DIMAPOST
  1

  9
$DIMALT
 70
     0
  9
$DIMALTD
 70
     3
  9
$DIMALTF
 40
0.03937007874016
  9
$DIMLFAC
 40
1.0
  9
$DIMTOFL
 70
     1
  9
$DIMTVP
 40
0.0
  9
$DIMTIX
 70
     0
  9
$DIMSOXD
 70
     0
  9
$DIMSAH
 70
     0
  9
$DIMBLK1
  1

  9
$DIMBLK2
  1

  9
$DIMSTYLE
  2
NEMY-12
  9
$DIMCLRD
 70
     0
  9
$DIMCLRE
 70
     0
  9
$DIMCLRT
 70
     0
  9
$DIMTFAC
 40
1.0
  9
$DIMGAP
 40
1.0
  9
$DIMJUST
 70
     0
  9
$DIMSD1
 70
     0
  9
$DIMSD2
 70
     0
  9
$DIMTOLJ
 70
     0
  9
$DIMTZIN
 70
     8
  9
$DIMALTZ
 70
     0
  9
$DIMALTTZ
 70
     0
  9
$DIMUPT
 70
     0
  9
$DIMDEC
 70
     1
  9
$DIMTDEC
 70
     1
  9
$DIMALTU
 70
     2
  9
$DIMALTTD
 70
     3
  9
$DIMTXSTY
  7
Standard
  9
$DIMAUNIT
 70
     0
  9
$DIMADEC
 70
     0
  9
$DIMALTRND
 40
0.0
  9
$DIMAZIN
 70
     0
  9
$DIMDSEP
 70
    46
  9
$DIMATFIT
 70
     3
  9
$DIMFRAC
 70
     0
  9
$DIMLDRBLK
  1
Open
  9
$DIMLUNIT
 70
     2
  9
$DIMLWD
 70
    -2
  9
$DIMLWE
 70
    -2
  9
$DIMTMOVE
 70
     0
  9
$LUNITS
 70
     2
  9
$LUPREC
 70
     4
  9
$SKETCHINC
 40
1.0
  9
$FILLETRAD
 40
0.0
  9
$AUNITS
 70
     0
  9
$AUPREC
 70
     0
  9
$MENU
  1
.
  9
$ELEVATION
 40
0.0
  9
$PELEVATION
 40
0.0
  9
$THICKNESS
 40
0.0
  9
$LIMCHECK
 70
     0
  9
$CHAMFERA
 40
10.0
  9
$CHAMFERB
 40
10.0
  9
$CHAMFERC
 40
20.0
  9
$CHAMFERD
 40
0.0
  9
$SKPOLY
 70
     0
  9
$TDCREATE
 40
2455859.405048461
  9
$TDUCREATE
 40
2455859.030048461
  9
$TDUPDATE
 40
2458968.608797477
  9
$TDUUPDATE
 40
2458968.233797477
  9
$TDINDWG
 40
0.0186615509
  9
$TDUSRTIMER
 40
0.0001129861
  9
$USRTIMER
 70
     1
  9
$ANGBASE
 50
0.0
  9
$ANGDIR
 70
     0
  9
$PDMODE
 70
     0
  9
$PDSIZE
 40
0.0
  9
$PLINEWID
 40
0.0
  9
$SPLFRAME
 70
     0
  9
$SPLINETYPE
 70
     6
  9
$SPLINESEGS
 70
     8
  9
$HANDSEED
  5
1B740
  9
$SURFTAB1
 70
     6
  9
$SURFTAB2
 70
     6
  9
$SURFTYPE
 70
     6
  9
$SURFU
 70
     6
  9
$SURFV
 70
     6
  9
$UCSBASE
  2

  9
$UCSNAME
  2

  9
$UCSORG
 10
0.0
 20
0.0
 30
0.0
  9
$UCSXDIR
 10
1.0
 20
0.0
 30
0.0
  9
$UCSYDIR
 10
0.0
 20
1.0
 30
0.0
  9
$UCSORTHOREF
  2

  9
$UCSORTHOVIEW
 70
     0
  9
$UCSORGTOP
 10
0.0
 20
0.0
 30
0.0
  9
$UCSORGBOTTOM
 10
0.0
 20
0.0
 30
0.0
  9
$UCSORGLEFT
 10
0.0
 20
0.0
 30
0.0
  9
$UCSORGRIGHT
 10
0.0
 20
0.0
 30
0.0
  9
$UCSORGFRONT
 10
0.0
 20
0.0
 30
0.0
  9
$UCSORGBACK
 10
0.0
 20
0.0
 30
0.0
  9
$PUCSBASE
  2

  9
$PUCSNAME
  2

  9
$PUCSORG
 10
0.0
 20
0.0
 30
0.0
  9
$PUCSXDIR
 10
1.0
 20
0.0
 30
0.0
  9
$PUCSYDIR
 10
0.0
 20
1.0
 30
0.0
  9
$PUCSORTHOREF
  2

  9
$PUCSORTHOVIEW
 70
     0
  9
$PUCSORGTOP
 10
0.0
 20
0.0
 30
0.0
  9
$PUCSORGBOTTOM
 10
0.0
 20
0.0
 30
0.0
  9
$PUCSORGLEFT
 10
0.0
 20
0.0
 30
0.0
  9
$PUCSORGRIGHT
 10
0.0
 20
0.0
 30
0.0
  9
$PUCSORGFRONT
 10
0.0
 20
0.0
 30
0.0
  9
$PUCSORGBACK
 10
0.0
 20
0.0
 30
0.0
  9
$USERI1
 70
     0
  9
$USERI2
 70
     0
  9
$USERI3
 70
     0
  9
$USERI4
 70
     0
  9
$USERI5
 70
     0
  9
$USERR1
 40
0.0
  9
$USERR2
 40
0.0
  9
$USERR3
 40
0.0
  9
$USERR4
 40
0.0
  9
$USERR5
 40
0.0
  9
$WORLDVIEW
 70
     1
  9
$SHADEDGE
 70
     3
  9
$SHADEDIF
 70
    70
  9
$TILEMODE
 70
     1
  9
$MAXACTVP
 70
    64
  9
$PINSBASE
 10
0.0
 20
0.0
 30
0.0
  9
$PLIMCHECK
 70
     0
  9
$PEXTMIN
 10
1.000000000000000E+20
 20
1.000000000000000E+20
 30
1.000000000000000E+20
  9
$PEXTMAX
 10
-1.000000000000000E+20
 20
-1.000000000000000E+20
 30
-1.000000000000000E+20
  9
$PLIMMIN
 10
0.0
 20
0.0
  9
$PLIMMAX
 10
0.0
 20
0.0
  9
$UNITMODE
 70
     0
  9
$VISRETAIN
 70
     1
  9
$PLINEGEN
 70
     0
  9
$PSLTSCALE
 70
     1
  9
$TREEDEPTH
 70
  3020
  9
$CMLSTYLE
  2
Standard
  9
$CMLJUST
 70
     0
  9
$CMLSCALE
 40
20.0
  9
$PROXYGRAPHICS
 70
     1
  9
$MEASUREMENT
 70
     1
  9
$CELWEIGHT
370
    -1
  9
$ENDCAPS
280
     0
  9
$JOINSTYLE
280
     0
  9
$LWDISPLAY
290
     0
  9
$INSUNITS
 70
     4
  9
$HYPERLINKBASE
  1

  9
$STYLESHEET
  1
monochrome.ctb
  9
$XEDIT
290
     1
  9
$CEPSNTYPE
380
     0
  9
$PSTYLEMODE
290
     1
  9
$FINGERPRINTGUID
  2
{FDEAD578-A652-11D2-9A35-0060089B3A3F}
  9
$VERSIONGUID
  2
{FF53CD4B-1AF9-4F2F-ABC0-CA7DF949A403}
  9
$EXTNAMES
290
     1
  9
$PSVPSCALE
 40
0.0
  9
$OLESTARTUP
290
     0
  0
ENDSEC
  0
SECTION
  2
CLASSES
  0
CLASS
  1
ACDBDICTIONARYWDFLT
  2
AcDbDictionaryWithDefault
  3
ObjectDBX Classes
 90
        0
280
     0
281
     0
  0
CLASS
  1
ACDBPLACEHOLDER
  2
AcDbPlaceHolder
  3
ObjectDBX Classes
 90
        0
280
     0
281
     0
  0
CLASS
  1
LAYOUT
  2
AcDbLayout
  3
ObjectDBX Classes
 90
        0
280
     0
281
     0
  0
CLASS
  1
DICTIONARYVAR
  2
AcDbDictionaryVar
  3
ObjectDBX Classes
 90
        0
280
     0
281
     0
  0
CLASS
  1
SCALE
  2
AcDbScale
  3
ObjectDBX Classes
 90
     1153
280
     0
281
     0
  0
CLASS
  1
MATERIAL
  2
AcDbMaterial
  3
ObjectDBX Classes
 90
     1153
280
     0
281
     0
  0
CLASS
  1
VISUALSTYLE
  2
AcDbVisualStyle
  3
ObjectDBX Classes
 90
     4095
280
     0
281
     0
  0
CLASS
  1
TABLESTYLE
  2
AcDbTableStyle
  3
ObjectDBX Classes
 90
     4095
280
     0
281
     0
  0
CLASS
  1
RASTERVARIABLES
  2
AcDbRasterVariables
  3
ISM
 90
        0
280
     0
281
     0
  0
CLASS
  1
AEC_VARS_DWG_SETUP
  2
AecDbVarsDwgSetup
  3
AecBase60
 90
      129
280
     0
281
     0
  0
CLASS
  1
AEC_DISP_REP_2D_SECTION
  2
AecDbDispRep2dSection
  3
AecBase60
 90
      129
280
     0
281
     0
  0
CLASS
  1
AEC_DISP_PROPS_2D_SECTION
  2
AecDbDispProps2dSection
  3
AecBase60
 90
      129
280
     0
281
     0
  0
CLASS
  1
AEC_DISP_REP_CLIP_VOLUME_MODEL
  2
AecDbDispRepClipVolModel
  3
AecBase60
 90
      129
280
     0
281
     0
  0
CLASS
  1
AEC_DISP_PROPS_CLIP_VOLUME
  2
AecDbDispPropsClipVol
  3
AecBase60
 90
      129
280
     0
281
     0
  0
CLASS
  1
AEC_DISP_REP_CLIP_VOLUME_PLAN
  2
AecDbDispRepClipVolPlan
  3
AecBase60
 90
      129
280
     0
281
     0
  0
CLASS
  1
AEC_DISP_REP_CLIP_VOLUME_RESULT
  2
AecDbDispRepClipVolResult
  3
AecBase60
 90
      129
280
     0
281
     0
  0
CLASS
  1
AEC_DISP_REP_CLIP_VOLUME_RESULT_SUBDIV
  2
AecDbDispRepClipVolResSubDiv
  3
AecBase60
 90
      129
280
     0
281
     0
  0
CLASS
  1
AEC_DISP_PROPS_CLIP_VOLUME_RESULT
  2
AecDbDispPropsClipVolResSubDiv
  3
AecBase60
 90
      129
280
     0
281
     0
  0
CLASS
  1
AEC_DISP_REP_DISPLAYTHEME
  2
AecDbDispRepDisplayTheme
  3
AecBase60
 90
      129
280
     0
281
     0
  0
CLASS
  1
AEC_DISP_PROPS_DISPLAYTHEME
  2
AecDbDispPropsDisplayTheme
  3
AecBase60
 90
      129
280
     0
281
     0
  0
CLASS
  1
AEC_DISP_REP_ENT_REF
  2
AecDbDispRepEntRef
  3
AecBase60
 90
      129
280
     0
281
     0
  0
CLASS
  1
AEC_DISP_PROPS_ENT_REF
  2
AecDbDispPropsEntRef
  3
AecBase60
 90
      129
280
     0
281
     0
  0
CLASS
  1
AEC_DISP_REP_LAYOUT_CURVE
  2
AecDbDispRepLayoutCurve
  3
AecBase60
 90
      129
280
     0
281
     0
  0
CLASS
  1
AEC_DISP_PROPS_LAYOUT_CURVE
  2
AecDbDispPropsLayoutCurve
  3
AecBase60
 90
      129
280
     0
281
     0
  0
CLASS
  1
AEC_DISP_REP_LAYOUT_GRID2D
  2
AecDbDispRepLayoutGrid2d
  3
AecBase60
 90
      129
280
     0
281
     0
  0
CLASS
  1
AEC_DISP_PROPS_LAYOUT_GRID2D
  2
AecDbDispPropsLayoutGrid2d
  3
AecBase60
 90
      129
280
     0
281
     0
  0
CLASS
  1
AEC_DISP_REP_LAYOUT_GRID3D
  2
AecDbDispRepLayoutGrid3d
  3
AecBase60
 90
      129
280
     0
281
     0
  0
CLASS
  1
AEC_DISP_PROPS_LAYOUT_GRID3D
  2
AecDbDispPropsLayoutGrid3d
  3
AecBase60
 90
      129
280
     0
281
     0
  0
CLASS
  1
AEC_DISP_REP_MASKBLOCK_REF
  2
AecDbDispRepMaskBlockRef
  3
AecBase60
 90
      129
280
     0
281
     0
  0
CLASS
  1
AEC_DISP_PROPS_MASKBLOCK
  2
AecDbDispPropsMaskBlock
  3
AecBase60
 90
      129
280
     0
281
     0
  0
CLASS
  1
AEC_DISP_REP_MASKBLOCK_REF_RCP
  2
AecDbDispRepMaskBlockRefRcp
  3
AecArchBase60
 90
      129
280
     0
281
     0
  0
CLASS
  1
AEC_DISP_REP_MASS_ELEM_MODEL
  2
AecDbDispRepMassElemModel
  3
AecBase60
 90
      129
280
     0
281
     0
  0
CLASS
  1
AEC_DISP_PROPS_MASS_ELEM_MODEL
  2
AecDbDispPropsMassElem
  3
AecBase60
 90
      129
280
     0
281
     0
  0
CLASS
  1
AEC_DISP_REP_MASS_ELEM_SCHEM
  2
AecDbDispRepMassElemSchem
  3
AecBase60
 90
      129
280
     0
281
     0
  0
CLASS
  1
AEC_DISPREPAECDBDISPREPMASSELEMPLAN50
  2
AecDbDispRepMassElemPlan50
  3
AecArchDACHBase60
 90
      129
280
     0
281
     0
  0
CLASS
  1
AEC_DISPROPSMASSELEMPLANCOMMON
  2
AecDbDispPropsMassElemPlanCommon
  3
AecArchDACHBase60
 90
      129
280
     0
281
     0
  0
CLASS
  1
AEC_DISPREPAECDBDISPREPMASSELEMPLAN100
  2
AecDbDispRepMassElemPlan100
  3
AecArchDACHBase60
 90
      129
280
     0
281
     0
  0
CLASS
  1
AEC_DISP_REP_MASS_ELEM_RCP
  2
AecDbDispRepMassElemRcp
  3
AecArchBase60
 90
      129
280
     0
281
     0
  0
CLASS
  1
AEC_DISP_REP_MASS_GROUP_MODEL
  2
AecDbDispRepMassGroupModel
  3
AecBase60
 90
      129
280
     0
281
     0
  0
CLASS
  1
AEC_DISP_PROPS_MASS_GROUP
  2
AecDbDispPropsMassGroup
  3
AecBase60
 90
      129
280
     0
281
     0
  0
CLASS
  1
AEC_DISP_REP_MASS_GROUP_PLAN
  2
AecDbDispRepMassGroupPlan
  3
AecBase60
 90
      129
280
     0
281
     0
  0
CLASS
  1
AEC_DISPREPAECDBDISPREPMASSGROUPPLAN50
  2
AecDbDispRepMassGroupPlan50
  3
AecArchDACHBase60
 90
      129
280
     0
281
     0
  0
CLASS
  1
AEC_DISPROPSMASSGROUPPLANCOMMON
  2
AecDbDispPropsMassGroupPlanCommon
  3
AecArchDACHBase60
 90
      129
280
     0
281
     0
  0
CLASS
  1
AEC_DISPREPAECDBDISPREPMASSGROUPPLAN100
  2
AecDbDispRepMassGroupPlan100
  3
AecArchDACHBase60
 90
      129
280
     0
281
     0
  0
CLASS
  1
AEC_DISP_REP_MASS_GROUP_RCP
  2
AecDbDispRepMassGroupRcp
  3
AecArchBase60
 90
      129
280
     0
281
     0
  0
CLASS
  1
AEC_DISP_REP_MVBLOCK_REF
  2
AecDbDispRepMvBlockRef
  3
AecBase60
 90
      129
280
     0
281
     0
  0
CLASS
  1
AEC_DISP_REP_MVBLOCK_REF_MODEL
  2
AecDbDispRepMvBlockRefModel
  3
AecBase60
 90
      129
280
     0
281
     0
  0
CLASS
  1
AEC_AECDBDISPREPMVBLOCKREFPLAN100
  2
AecDbDispRepMvBlockRefPlan100
  3
AecBase60
 90
      129
280
     0
281
     0
  0
CLASS
  1
AEC_AECDBDISPREPMVBLOCKREFPLAN50
  2
AecDbDispRepMvBlockRefPlan50
  3
AecBase60
 90
      129
280
     0
281
     0
  0
CLASS
  1
AEC_DISP_REP_POLYGON_MODEL
  2
AecDbDispRepPolygonModel
  3
AecBase60
 90
      129
280
     0
281
     0
  0
CLASS
  1
AEC_DISP_PROPS_POLYGON_MODEL
  2
AecDbDispPropsPolygonModel
  3
AecBase60
 90
      129
280
     0
281
     0
  0
CLASS
  1
AEC_DISP_REP_POLYGON_TRUECOLOUR
  2
AecDbDispRepPolygonTrueColour
  3
AecBase60
 90
      129
280
     0
281
     0
  0
CLASS
  1
AEC_DISP_PROPS_POLYGON_TRUECOLOUR
  2
AecDbDispPropsPolygonTrueColour
  3
AecBase60
 90
      129
280
     0
281
     0
  0
CLASS
  1
AEC_DISP_REP_SLICE
  2
AecDbDispRepSlice
  3
AecBase60
 90
      129
280
     0
281
     0
  0
CLASS
  1
AEC_DISP_PROPS_SLICE
  2
AecDbDispPropsSlice
  3
AecBase60
 90
      129
280
     0
281
     0
  0
CLASS
  1
AEC_DISP_REP_ANCHOR
  2
AecDbDispRepAnchor
  3
AecBase60
 90
      129
280
     0
281
     0
  0
CLASS
  1
AEC_DISP_REP_ANCHOR_ENT_TO_NODE
  2
AecDbDispRepAnchorEntToNode
  3
AecBase60
 90
      129
280
     0
281
     0
  0
CLASS
  1
AEC_DISP_PROPS_ENT
  2
AecDbDispPropsEnt
  3
AecBase60
 90
      129
280
     0
281
     0
  0
CLASS
  1
AEC_DISP_REP_MATERIAL
  2
AecDbDispRepMaterial
  3
AecBase60
 90
      129
280
     0
281
     0
  0
CLASS
  1
AEC_DISP_PROPS_MATERIAL
  2
AecDbDispPropsMaterial
  3
AecBase60
 90
      129
280
     0
281
     0
  0
CLASS
  1
AEC_DISP_REP_EDITINPLACEPROFILE
  2
AecDbDispRepEditInPlaceProfile
  3
AecBase60
 90
      129
280
     0
281
     0
  0
CLASS
  1
AEC_DISP_PROPS_EDITINPLACEPROFILE_MODEL
  2
AecDbDispPropsEditInPlaceProfile
  3
AecBase60
 90
      129
280
     0
281
     0
  0
CLASS
  1
SUN
  2
AcDbSun
  3
SCENEOE
 90
     1153
280
     0
281
     0
  0
CLASS
  1
SORTENTSTABLE
  2
AcDbSortentsTable
  3
ObjectDBX Classes
 90
        0
280
     0
281
     0
  0
CLASS
  1
MLEADERSTYLE
  2
AcDbMLeaderStyle
  3
ACDB_MLEADERSTYLE_CLASS
 90
     4095
280
     0
281
     0
  0
ENDSEC
  0
SECTION
  2
TABLES
  0
TABLE
  2
VPORT
  5
8
330
0
100
AcDbSymbolTable
 70
     1
  0
VPORT
  5
A2A1
330
8
100
AcDbSymbolTableRecord
100
AcDbViewportTableRecord
  2
*Active
 70
     0
 10
0.0
 20
0.0
 11
1.0
 21
1.0
 12
-1718.185615883984
 22
455.5626080014245
 13
0.0
 23
0.0
 14
10.0
 24
10.0
 15
10.0
 25
10.0
 16
0.0
 26
0.0
 36
1.0
 17
9884.571525852956
 27
5168.125358194064
 37
0.0
 40
2199.666205342901
 41
1.479876160990712
 42
50.0
 43
0.0
 44
0.0
 50
0.0
 51
0.0
 71
    16
 72
   100
 73
     1
 74
     2
 75
     0
 76
     0
 77
     0
 78
     0
281
     0
 65
     1
110
0.0
120
0.0
130
0.0
111
1.0
121
0.0
131
0.0
112
0.0
122
1.0
132
0.0
 79
     0
146
0.0
  0
ENDTAB
  0
TABLE
  2
LTYPE
  5
5
330
0
100
AcDbSymbolTable
 70
     7
  0
LTYPE
  5
14
330
5
100
AcDbSymbolTableRecord
100
AcDbLinetypeTableRecord
  2
ByBlock
 70
     0
  3

 72
    65
 73
     0
 40
0.0
  0
LTYPE
  5
15
330
5
100
AcDbSymbolTableRecord
100
AcDbLinetypeTableRecord
  2
ByLayer
 70
     0
  3
Solid line
 72
    65
 73
     0
 40
0.0
  0
LTYPE
  5
16
330
5
100
AcDbSymbolTableRecord
100
AcDbLinetypeTableRecord
  2
Continuous
 70
     0
  3
Solid line
 72
    65
 73
     0
 40
0.0
  0
LTYPE
  5
BA
330
5
100
AcDbSymbolTableRecord
100
AcDbLinetypeTableRecord
  2
HIDDEN
 70
     0
  3
Hidden __ __ __ __ __ __ __ __ __ __ __ __ __ _
 72
    65
 73
     2
 40
9.524999999999999
 49
6.35
 74
     0
 49
-3.175
 74
     0
  0
LTYPE
  5
BB
330
5
100
AcDbSymbolTableRecord
100
AcDbLinetypeTableRecord
  2
PHANTOM
 70
     0
  3
Phantom ______  __  __  ______  __  __  ______
 72
    65
 73
     6
 40
63.5
 49
31.75
 74
     0
 49
-6.35
 74
     0
 49
6.35
 74
     0
 49
-6.35
 74
     0
 49
6.35
 74
     0
 49
-6.35
 74
     0
  0
LTYPE
  5
BC
330
5
100
AcDbSymbolTableRecord
100
AcDbLinetypeTableRecord
  2
CENTER
 70
     0
  3
Center ____ _ ____ _ ____ _ ____ _ ____ _ ____
 72
    65
 73
     4
 40
50.8
 49
31.75
 74
     0
 49
-6.35
 74
     0
 49
6.35
 74
     0
 49
-6.35
 74
     0
  0
LTYPE
  5
47C
330
5
100
AcDbSymbolTableRecord
100
AcDbLinetypeTableRecord
  2
DOT
 70
     0
  3
Dot . . . . . . . . . . . . . . . . . . . . . .
 72
    65
 73
     2
 40
6.35
 49
0.0
 74
     0
 49
-6.35
 74
     0
  0
LTYPE
  5
82C6
330
5
100
AcDbSymbolTableRecord
100
AcDbLinetypeTableRecord
  2
HIDDEN2
 70
     0
  3
Hidden (.5x) _ _ _ _ _ _ _ _ _ _ _ _ _ _ _ _ _
 72
    65
 73
     2
 40
4.762499999999999
 49
3.175
 74
     0
 49
-1.5875
 74
     0
  0
LTYPE
  5
C11D
330
5
100
AcDbSymbolTableRecord
100
AcDbLinetypeTableRecord
  2
DASHED
 70
     0
  3
__ __ __ __ __ __ __ __ __ __ __ __ __ __ __
 72
    65
 73
     2
 40
0.75
 49
0.5
 74
     0
 49
-0.25
 74
     0
  0
ENDTAB
  0
TABLE
  2
LAYER
  5
2
102
{ACAD_XDICTIONARY
360
7A6F
102
}
330
0
100
AcDbSymbolTable
 70
    10
  0
LAYER
  5
10
330
2
100
AcDbSymbolTableRecord
100
AcDbLayerTableRecord
  2
0
 70
     0
 62
     7
  6
Continuous
370
    -3
390
F
  0
LAYER
  5
45
330
2
100
AcDbSymbolTableRecord
100
AcDbLayerTableRecord
  2
01注記寸法
 70
     0
 62
     7
  6
Continuous
370
     9
390
F
  0
LAYER
  5
5F
330
2
100
AcDbSymbolTableRecord
100
AcDbLayerTableRecord
  2
Defpoints
 70
     0
 62
     7
  6
Continuous
290
     0
370
    -3
390
F
  0
LAYER
  5
82BC
330
2
100
AcDbSymbolTableRecord
100
AcDbLayerTableRecord
  2
02製品
 70
     0
 62
     2
  6
Continuous
370
    15
390
F
  0
LAYER
  5
82BD
330
2
100
AcDbSymbolTableRecord
100
AcDbLayerTableRecord
  2
03境界
 70
     0
 62
     3
  6
HIDDEN
370
     9
390
F
  0
LAYER
  5
82BF
330
2
100
AcDbSymbolTableRecord
100
AcDbLayerTableRecord
  2
04筺体
 70
     0
 62
     6
  6
Continuous
370
     9
390
F
  0
LAYER
  5
82C0
330
2
100
AcDbSymbolTableRecord
100
AcDbLayerTableRecord
  2
05GL
 70
     0
 62
     2
  6
Continuous
370
     9
390
F
  0
LAYER
  5
82C1
330
2
100
AcDbSymbolTableRecord
100
AcDbLayerTableRecord
  2
06非表示
 70
     0
 62
     4
  6
Continuous
290
     0
370
     0
390
F
  0
LAYER
  5
82C2
330
2
100
AcDbSymbolTableRecord
100
AcDbLayerTableRecord
  2
07図枠
 70
     0
 62
     1
  6
Continuous
370
    30
390
F
  0
LAYER
  5
147DF
330
2
100
AcDbSymbolTableRecord
100
AcDbLayerTableRecord
  2
99作図基準
 70
     0
 62
   211
  6
Continuous
290
     0
370
     9
390
F
1001
AcAecLayerStandard
1000

1000

  0
ENDTAB
  0
TABLE
  2
STYLE
  5
3
330
0
100
AcDbSymbolTable
 70
     4
  0
STYLE
  5
11
330
3
100
AcDbSymbolTableRecord
100
AcDbTextStyleTableRecord
  2
Standard
 70
     0
 40
0.0
 41
1.0
 50
0.0
 71
     0
 42
3.0
  3
MS Gothic.ttf
  4

1001
ACAD
1000
MS Gothic
1071
    32817
  0
STYLE
  5
19E
330
3
100
AcDbSymbolTableRecord
100
AcDbTextStyleTableRecord
  2
STYLE1
 70
     0
 40
0.0
 41
0.9
 50
0.0
 71
     0
 42
28.125
  3
TXT.shx
  4
extfont.shx
  0
STYLE
  5
47B
330
3
100
AcDbSymbolTableRecord
100
AcDbTextStyleTableRecord
  2

 70
     1
 40
0.0
 41
1.0
 50
0.0
 71
     0
 42
3.0
  3
ltypeshp.shx
  4

  0
STYLE
  5
C96B
330
3
100
AcDbSymbolTableRecord
100
AcDbTextStyleTableRecord
  2
Standard-tate
 70
     0
 40
0.0
 41
1.0
 50
0.0
 71
     0
 42
3.0
  3
@MS PGothic.ttf
  4

1001
ACAD
1000
@MS PGothic
1071
    32818
  0
ENDTAB
  0
TABLE
  2
VIEW
  5
6
330
0
100
AcDbSymbolTable
 70
     0
  0
ENDTAB
  0
TABLE
  2
UCS
  5
7
330
0
100
AcDbSymbolTable
 70
     0
  0
ENDTAB
  0
TABLE
  2
APPID
  5
9
330
0
100
AcDbSymbolTable
 70
    12
  0
APPID
  5
12
330
9
100
AcDbSymbolTableRecord
100
AcDbRegAppTableRecord
  2
ACAD
 70
     0
  0
APPID
  5
6A9E
330
9
100
AcDbSymbolTableRecord
100
AcDbRegAppTableRecord
  2
ACAD_DSTYLE_DIMRADIAL_EXTENSION
 70
     0
  0
APPID
  5
742C
330
9
100
AcDbSymbolTableRecord
100
AcDbRegAppTableRecord
  2
ACAD_PSEXT
 70
     0
  0
APPID
  5
742D
330
9
100
AcDbSymbolTableRecord
100
AcDbRegAppTableRecord
  2
ACAD_DSTYLE_DIMJAG
 70
     0
  0
APPID
  5
742E
330
9
100
AcDbSymbolTableRecord
100
AcDbRegAppTableRecord
  2
ACAD_DSTYLE_DIMTALN
 70
     0
  0
APPID
  5
8254
330
9
100
AcDbSymbolTableRecord
100
AcDbRegAppTableRecord
  2
AECBASE
 70
     0
  0
APPID
  5
8255
330
9
100
AcDbSymbolTableRecord
100
AcDbRegAppTableRecord
  2
AEC_2DSECTION_XDATA
 70
     0
  0
APPID
  5
8256
330
9
100
AcDbSymbolTableRecord
100
AcDbRegAppTableRecord
  2
AEC_MASSGROUP_XDADA
 70
     0
  0
APPID
  5
B0E5
330
9
100
AcDbSymbolTableRecord
100
AcDbRegAppTableRecord
  2
PE_DIMMEASUREMENT
 70
     0
  0
APPID
  5
147E0
330
9
100
AcDbSymbolTableRecord
100
AcDbRegAppTableRecord
  2
AcAecLayerStandard
 70
     0
  0
APPID
  5
15094
330
9
100
AcDbSymbolTableRecord
100
AcDbRegAppTableRecord
  2
PLOTTRANSPARENCY
 70
     0
  0
APPID
  5
1A0DA
330
9
100
AcDbSymbolTableRecord
100
AcDbRegAppTableRecord
  2
PE_URL
 70
     0
  0
ENDTAB
  0
TABLE
  2
DIMSTYLE
  5
A
330
0
100
AcDbSymbolTable
 70
    27
100
AcDbDimStyleTable
  0
DIMSTYLE
105
73
330
A
100
AcDbSymbolTableRecord
100
AcDbDimStyleTableRecord
  2
NEMY-1
 70
     0
 41
3.0
 42
1.5
 43
10.0
 44
1.0
 73
     0
 74
     0
 77
     1
 78
     8
140
3.0
141
1.5
143
0.03937007874016
147
1.0
171
     3
172
     1
178
     0
271
     1
272
     1
274
     3
283
     0
284
     8
340
11
341
8F
342
8F
  0
DIMSTYLE
105
4DCE
330
A
100
AcDbSymbolTableRecord
100
AcDbDimStyleTableRecord
  2
NEMY-2
 70
     0
 40
2.0
 41
3.0
 42
1.5
 43
10.0
 44
1.0
 73
     0
 74
     0
 77
     1
 78
     8
140
3.0
141
1.5
143
0.03937007874016
147
1.0
171
     3
172
     1
178
     0
271
     1
272
     1
274
     3
283
     0
284
     8
340
11
341
8F
342
8F
  0
DIMSTYLE
105
4DCF
330
A
100
AcDbSymbolTableRecord
100
AcDbDimStyleTableRecord
  2
NEMY-3
 70
     0
 40
3.0
 41
3.0
 42
1.5
 43
10.0
 44
1.0
 73
     0
 74
     0
 77
     1
 78
     8
140
3.0
141
1.5
143
0.03937007874016
147
1.0
171
     3
172
     1
178
     0
271
     1
272
     1
274
     3
283
     0
284
     8
340
11
341
8F
342
8F
  0
DIMSTYLE
105
4DD0
330
A
100
AcDbSymbolTableRecord
100
AcDbDimStyleTableRecord
  2
NEMY-5
 70
     0
 40
5.0
 41
3.0
 42
1.5
 43
10.0
 44
1.0
 73
     0
 74
     0
 77
     1
 78
     8
140
3.0
141
1.5
143
0.03937007874016
147
1.0
171
     3
172
     1
178
     0
271
     1
272
     1
274
     3
283
     0
284
     8
340
11
341
8F
342
8F
  0
DIMSTYLE
105
4DD1
330
A
100
AcDbSymbolTableRecord
100
AcDbDimStyleTableRecord
  2
NEMY-8
 70
     0
 40
8.0
 41
3.0
 42
1.5
 43
10.0
 44
1.0
 73
     0
 74
     0
 77
     1
 78
     8
140
3.0
141
1.5
143
0.03937007874016
147
1.0
171
     3
172
     1
178
     0
271
     1
272
     1
274
     3
283
     0
284
     8
340
11
341
8F
342
8F
  0
DIMSTYLE
105
4DD2
330
A
100
AcDbSymbolTableRecord
100
AcDbDimStyleTableRecord
  2
NEMY-15
 70
     0
 40
15.0
 41
3.0
 42
1.5
 43
10.0
 44
1.0
 73
     0
 74
     0
 77
     1
 78
     8
140
3.0
141
1.5
143
0.03937007874016
147
1.0
171
     3
172
     1
178
     0
271
     1
272
     1
274
     3
283
     0
284
     8
340
11
341
8F
342
8F
  0
DIMSTYLE
105
4DD3
330
A
100
AcDbSymbolTableRecord
100
AcDbDimStyleTableRecord
  2
NEMY-10
 70
     0
 40
10.0
 41
3.0
 42
1.5
 43
10.0
 44
1.0
 73
     0
 74
     0
 77
     1
 78
     8
140
3.0
141
1.5
143
0.03937007874016
147
1.0
171
     3
172
     1
178
     0
271
     1
272
     1
274
     3
283
     0
284
     8
340
11
341
8F
342
8F
  0
DIMSTYLE
105
4DD4
330
A
100
AcDbSymbolTableRecord
100
AcDbDimStyleTableRecord
  2
NEMY-25
 70
     0
 40
25.0
 41
3.0
 42
1.5
 43
10.0
 44
1.0
 73
     0
 74
     0
 77
     1
 78
     8
140
3.0
141
1.5
143
0.03937007874016
147
1.0
171
     3
172
     1
178
     0
271
     1
272
     1
274
     3
283
     0
284
     8
340
11
341
8F
342
8F
  0
DIMSTYLE
105
4DD5
330
A
100
AcDbSymbolTableRecord
100
AcDbDimStyleTableRecord
  2
NEMY-30
 70
     0
 40
30.0
 41
3.0
 42
1.5
 43
10.0
 44
1.0
 73
     0
 74
     0
 77
     1
 78
     8
140
3.0
141
1.5
143
0.03937007874016
147
1.0
171
     3
172
     1
178
     0
271
     1
272
     1
274
     3
283
     0
284
     8
340
11
341
8F
342
8F
  0
DIMSTYLE
105
4DD6
330
A
100
AcDbSymbolTableRecord
100
AcDbDimStyleTableRecord
  2
NEMY-50
 70
     0
 40
50.0
 41
3.0
 42
1.5
 43
10.0
 44
1.0
 73
     0
 74
     0
 77
     1
 78
     8
140
3.0
141
1.5
143
0.03937007874016
147
1.0
171
     3
172
     1
178
     0
271
     1
272
     1
274
     3
283
     0
284
     8
340
11
341
8F
342
8F
  0
DIMSTYLE
105
4E6F
330
A
100
AcDbSymbolTableRecord
100
AcDbDimStyleTableRecord
  2
NEMY-20
 70
     0
 40
20.0
 41
3.0
 42
1.5
 43
10.0
 44
1.0
 73
     0
 74
     0
 77
     1
 78
     8
140
3.0
141
1.5
143
0.03937007874016
147
1.0
171
     3
172
     1
178
     0
271
     1
272
     1
274
     3
283
     0
284
     8
340
11
341
8F
342
8F
  0
DIMSTYLE
105
4F44
330
A
100
AcDbSymbolTableRecord
100
AcDbDimStyleTableRecord
  2
NEMY-10$3
 70
     0
 40
10.0
 41
3.0
 42
1.5
 43
10.0
 44
1.0
 77
     1
 78
     8
140
3.0
141
1.5
143
0.03937007874016
147
1.0
171
     3
172
     1
178
     0
271
     1
272
     1
274
     3
283
     0
284
     8
340
11
341
8F
342
8F
  0
DIMSTYLE
105
4F45
330
A
100
AcDbSymbolTableRecord
100
AcDbDimStyleTableRecord
  2
NEMY-1$3
 70
     0
 41
3.0
 42
1.5
 43
10.0
 44
1.0
 77
     1
 78
     8
140
3.0
141
1.5
143
0.03937007874016
147
1.0
171
     3
172
     1
178
     0
271
     1
272
     1
274
     3
283
     0
284
     8
340
11
341
8F
342
8F
  0
DIMSTYLE
105
4F46
330
A
100
AcDbSymbolTableRecord
100
AcDbDimStyleTableRecord
  2
NEMY-12
 70
     0
 40
12.0
 41
3.0
 42
1.5
 43
10.0
 44
1.0
 73
     0
 74
     0
 77
     1
 78
     8
140
3.0
141
1.5
143
0.03937007874016
147
1.0
171
     3
172
     1
178
     0
271
     1
272
     1
274
     3
283
     0
284
     8
340
11
341
8F
342
8F
  0
DIMSTYLE
105
4F47
330
A
100
AcDbSymbolTableRecord
100
AcDbDimStyleTableRecord
  2
NEMY-12$3
 70
     0
 40
12.0
 41
3.0
 42
1.5
 43
10.0
 44
1.0
 77
     1
 78
     8
140
3.0
141
1.5
143
0.03937007874016
147
1.0
171
     3
172
     1
178
     0
271
     1
272
     1
274
     3
283
     0
284
     8
340
11
341
8F
342
8F
  0
DIMSTYLE
105
5E6E
330
A
100
AcDbSymbolTableRecord
100
AcDbDimStyleTableRecord
  2
NEMY-8$3
 70
     0
 40
8.0
 41
3.0
 42
1.5
 43
10.0
 44
1.0
 77
     1
 78
     8
140
3.0
141
1.5
143
0.03937007874016
147
1.0
171
     3
172
     1
178
     0
271
     1
272
     1
274
     3
283
     0
284
     8
340
11
341
8F
342
8F
  0
DIMSTYLE
105
5E6F
330
A
100
AcDbSymbolTableRecord
100
AcDbDimStyleTableRecord
  2
NEMY-50$3
 70
     0
 40
50.0
 41
3.0
 42
1.5
 43
10.0
 44
1.0
 77
     1
 78
     8
140
3.0
141
1.5
143
0.03937007874016
147
1.0
171
     3
172
     1
178
     0
271
     1
272
     1
274
     3
283
     0
284
     8
340
11
341
8F
342
8F
  0
DIMSTYLE
105
5E70
330
A
100
AcDbSymbolTableRecord
100
AcDbDimStyleTableRecord
  2
NEMY-5$3
 70
     0
 40
5.0
 41
3.0
 42
1.5
 43
10.0
 44
1.0
 77
     1
 78
     8
140
3.0
141
1.5
143
0.03937007874016
147
1.0
171
     3
172
     1
178
     0
271
     1
272
     1
274
     3
283
     0
284
     8
340
11
341
8F
342
8F
  0
DIMSTYLE
105
5E71
330
A
100
AcDbSymbolTableRecord
100
AcDbDimStyleTableRecord
  2
NEMY-30$3
 70
     0
 40
30.0
 41
3.0
 42
1.5
 43
10.0
 44
1.0
 77
     1
 78
     8
140
3.0
141
1.5
143
0.03937007874016
147
1.0
171
     3
172
     1
178
     0
271
     1
272
     1
274
     3
283
     0
284
     8
340
11
341
8F
342
8F
  0
DIMSTYLE
105
5E72
330
A
100
AcDbSymbolTableRecord
100
AcDbDimStyleTableRecord
  2
NEMY-3$3
 70
     0
 40
3.0
 41
3.0
 42
1.5
 43
10.0
 44
1.0
 77
     1
 78
     8
140
3.0
141
1.5
143
0.03937007874016
147
1.0
171
     3
172
     1
178
     0
271
     1
272
     1
274
     3
283
     0
284
     8
340
11
341
8F
342
8F
  0
DIMSTYLE
105
5E73
330
A
100
AcDbSymbolTableRecord
100
AcDbDimStyleTableRecord
  2
NEMY-25$3
 70
     0
 40
25.0
 41
3.0
 42
1.5
 43
10.0
 44
1.0
 77
     1
 78
     8
140
3.0
141
1.5
143
0.03937007874016
147
1.0
171
     3
172
     1
178
     0
271
     1
272
     1
274
     3
283
     0
284
     8
340
11
341
8F
342
8F
  0
DIMSTYLE
105
5E74
330
A
100
AcDbSymbolTableRecord
100
AcDbDimStyleTableRecord
  2
NEMY-20$3
 70
     0
 40
20.0
 41
3.0
 42
1.5
 43
10.0
 44
1.0
 77
     1
 78
     8
140
3.0
141
1.5
143
0.03937007874016
147
1.0
171
     3
172
     1
178
     0
271
     1
272
     1
274
     3
283
     0
284
     8
340
11
341
8F
342
8F
  0
DIMSTYLE
105
5E75
330
A
100
AcDbSymbolTableRecord
100
AcDbDimStyleTableRecord
  2
NEMY-2$3
 70
     0
 40
2.0
 41
3.0
 42
1.5
 43
10.0
 44
1.0
 77
     1
 78
     8
140
3.0
141
1.5
143
0.03937007874016
147
1.0
171
     3
172
     1
178
     0
271
     1
272
     1
274
     3
283
     0
284
     8
340
11
341
8F
342
8F
  0
DIMSTYLE
105
5E76
330
A
100
AcDbSymbolTableRecord
100
AcDbDimStyleTableRecord
  2
NEMY-15$3
 70
     0
 40
15.0
 41
3.0
 42
1.5
 43
10.0
 44
1.0
 77
     1
 78
     8
140
3.0
141
1.5
143
0.03937007874016
147
1.0
171
     3
172
     1
178
     0
271
     1
272
     1
274
     3
283
     0
284
     8
340
11
341
8F
342
8F
  0
DIMSTYLE
105
A870
330
A
100
AcDbSymbolTableRecord
100
AcDbDimStyleTableRecord
  2
STANDARD-WS-15
 70
     0
 40
10.5
 41
2.5
 42
2.0
 43
3.75
 44
1.25
 73
     0
 74
     0
 77
     3
 78
     8
140
3.0
141
1.5
147
1.25
172
     1
173
     1
176
   256
177
   256
271
     1
178
   256
271
     1
272
     1
284
     8
340
19E
341
8F
343
8F
344
8F
  0
DIMSTYLE
105
1A308
330
A
100
AcDbSymbolTableRecord
100
AcDbDimStyleTableRecord
  2
Standard
 70
     0
178
     0
340
11
  0
DIMSTYLE
105
1AA35
330
A
100
AcDbSymbolTableRecord
100
AcDbDimStyleTableRecord
  2
STANDARD-WS-4
 70
     0
 40
2.828
 41
2.5
 42
2.0
 43
3.75
 44
1.25
 73
     0
 74
     0
 77
     1
 78
     8
140
3.75
141
2.5
147
1.5
172
     1
173
     1
176
   256
177
   256
271
     1
178
   256
271
     1
272
     1
284
     8
340
19E
341
8F
343
8F
344
8F
  0
ENDTAB
  0
TABLE
  2
BLOCK_RECORD
  5
1
330
0
100
AcDbSymbolTable
 70
    10
  0
BLOCK_RECORD
  5
1F
102
{ACAD_XDICTIONARY
360
CBD6
102
}
330
1
100
AcDbSymbolTableRecord
100
AcDbBlockTableRecord
  2
*Model_Space
340
22
  0
BLOCK_RECORD
  5
1B
330
1
100
AcDbSymbolTableRecord
100
AcDbBlockTableRecord
  2
*Paper_Space
340
1E
  0
BLOCK_RECORD
  5
23
330
1
100
AcDbSymbolTableRecord
100
AcDbBlockTableRecord
  2
*Paper_Space0
340
26
  0
BLOCK_RECORD
  5
8F
330
1
100
AcDbSymbolTableRecord
100
AcDbBlockTableRecord
  2
_Open
340
0
102
{BLKREFS
331
186E0
331
186E1
331
18D00
331
18D01
331
18D0D
331
18D0E
331
18D1A
331
18D1B
331
18D27
331
18D28
331
18D83
331
18D84
102
}
  0
BLOCK_RECORD
  5
CE00
330
1
100
AcDbSymbolTableRecord
100
AcDbBlockTableRecord
  2
A$C19363
340
0
  0
BLOCK_RECORD
  5
152FD
330
1
100
AcDbSymbolTableRecord
100
AcDbBlockTableRecord
  2
A$C3C7277DA
340
0
102
{BLKREFS
331
1B516
331
1B517
102
}
  0
BLOCK_RECORD
  5
1A9DF
102
{ACAD_XDICTIONARY
360
1A9F1
102
}
330
1
100
AcDbSymbolTableRecord
100
AcDbBlockTableRecord
  2
A$C25349
340
0
102
{BLKREFS
331
1B518
331
1B519
102
}
  0
BLOCK_RECORD
  5
1B28B
102
{ACAD_XDICTIONARY
360
1B28C
102
}
330
1
100
AcDbSymbolTableRecord
100
AcDbBlockTableRecord
  2
A$C24898
340
0
102
{BLKREFS
331
1B32D
102
}
  0
BLOCK_RECORD
  5
1B290
102
{ACAD_XDICTIONARY
360
1B291
102
}
330
1
100
AcDbSymbolTableRecord
100
AcDbBlockTableRecord
  2
A$C19638
340
0
102
{BLKREFS
331
1B28F
102
}
  0
BLOCK_RECORD
  5
1B454
102
{ACAD_XDICTIONARY
360
1B469
102
}
330
1
100
AcDbSymbolTableRecord
100
AcDbBlockTableRecord
  2
A$C3361
340
0
102
{BLKREFS
331
1B4B5
102
}
  0
BLOCK_RECORD
  5
1B4B6
102
{ACAD_XDICTIONARY
360
1B4CB
102
}
330
1
100
AcDbSymbolTableRecord
100
AcDbBlockTableRecord
  2
A$C19219
340
0
102
{BLKREFS
331
1B621
102
}
  0
BLOCK_RECORD
  5
1B60A
102
{ACAD_XDICTIONARY
360
1B61F
102
}
330
1
100
AcDbSymbolTableRecord
100
AcDbBlockTableRecord
  2
A$C9882
340
0
102
{BLKREFS
331
1B6EE
102
}
  0
ENDTAB
  0
ENDSEC
  0
SECTION
  2
BLOCKS
  0
BLOCK
  5
20
330
1F
100
AcDbEntity
  8
0
100
AcDbBlockBegin
  2
*Model_Space
 70
     0
 10
0.0
 20
0.0
 30
0.0
  3
*Model_Space
  1

  0
ENDBLK
  5
21
330
1F
100
AcDbEntity
  8
0
100
AcDbBlockEnd
  0
BLOCK
  5
1C
330
1B
100
AcDbEntity
 67
     1
  8
0
100
AcDbBlockBegin
  2
*Paper_Space
 70
     0
 10
0.0
 20
0.0
 30
0.0
  3
*Paper_Space
  1

  0
ENDBLK
  5
1D
330
1B
100
AcDbEntity
 67
     1
  8
0
100
AcDbBlockEnd
  0
BLOCK
  5
24
330
23
100
AcDbEntity
  8
0
100
AcDbBlockBegin
  2
*Paper_Space0
 70
     0
 10
0.0
 20
0.0
 30
0.0
  3
*Paper_Space0
  1

  0
ENDBLK
  5
25
330
23
100
AcDbEntity
  8
0
100
AcDbBlockEnd
  0
BLOCK
  5
93
330
8F
100
AcDbEntity
  8
0
100
AcDbBlockBegin
  2
_Open
 70
     0
 10
0.0
 20
0.0
 30
0.0
  3
_Open
  1

  0
LINE
  5
90
330
8F
100
AcDbEntity
  8
01注記寸法
 62
     0
370
    -2
100
AcDbLine
 10
-1.0
 20
0.1666666666666667
 30
0.0
 11
0.0
 21
0.0
 31
0.0
  0
LINE
  5
91
330
8F
100
AcDbEntity
  8
01注記寸法
 62
     0
370
    -2
100
AcDbLine
 10
-1.0
 20
-0.1666666666666667
 30
0.0
 11
0.0
 21
0.0
 31
0.0
  0
LINE
  5
92
330
8F
100
AcDbEntity
  8
01注記寸法
 62
     0
370
    -2
100
AcDbLine
 10
0.0
 20
0.0
 30
0.0
 11
-1.0
 21
0.0
 31
0.0
  0
ENDBLK
  5
94
330
8F
100
AcDbEntity
  8
0
100
AcDbBlockEnd
  0
BLOCK
  5
CE01
330
CE00
100
AcDbEntity
  8
0
100
AcDbBlockBegin
  2
A$C19363
 70
     0
 10
0.0
 20
0.0
 30
0.0
  3
A$C19363
  1

  0
LINE
  5
CE02
330
CE00
100
AcDbEntity
  8
01注記寸法
100
AcDbLine
 10
149.9999999999999
 20
200.0
 30
0.0
 11
0.0
 21
200.0
 31
0.0
  0
LINE
  5
CE03
330
CE00
100
AcDbEntity
  8
01注記寸法
100
AcDbLine
 10
0.0
 20
200.0
 30
0.0
 11
0.0
 21
0.0
 31
0.0
  0
LINE
  5
CE04
330
CE00
100
AcDbEntity
  8
01注記寸法
100
AcDbLine
 10
149.9999999999999
 20
194.0
 30
0.0
 11
0.0
 21
194.0
 31
0.0
  0
LINE
  5
CE05
330
CE00
100
AcDbEntity
  8
01注記寸法
100
AcDbLine
 10
149.9999999999998
 20
0.0
 30
0.0
 11
149.9999999999999
 21
200.0
 31
0.0
  0
LINE
  5
CE06
330
CE00
100
AcDbEntity
  8
01注記寸法
100
AcDbLine
 10
149.9999999999998
 20
0.0
 30
0.0
 11
0.0
 21
0.0
 31
0.0
  0
ENDBLK
  5
CE07
330
CE00
100
AcDbEntity
  8
0
100
AcDbBlockEnd
  0
BLOCK
  5
152FE
330
152FD
100
AcDbEntity
  8
0
 48
20.0
100
AcDbBlockBegin
  2
A$C3C7277DA
 70
     0
 10
0.0
 20
0.0
 30
0.0
  3
A$C3C7277DA
  1

  0
LINE
  5
152FF
330
152FD
100
AcDbEntity
  8
0
100
AcDbLine
 10
266.7000199373761
 20
68.00000432218076
 30
0.0
 11
304.8000199373782
 21
51.00000432218076
 31
0.0
  0
LINE
  5
15300
330
152FD
100
AcDbEntity
  8
0
100
AcDbLine
 10
228.6000199373775
 20
51.00000432218076
 30
0.0
 11
266.7000199373761
 21
68.00000432218076
 31
0.0
  0
LINE
  5
15301
330
152FD
100
AcDbEntity
  8
0
100
AcDbLine
 10
152.4000199373768
 20
51.00000432218076
 30
0.0
 11
190.5000199373753
 21
68.00000432218076
 31
0.0
  0
LINE
  5
15302
330
152FD
100
AcDbEntity
  8
0
100
AcDbLine
 10
114.3000199373746
 20
68.00000432218076
 30
0.0
 11
152.4000199373768
 21
51.00000432218076
 31
0.0
  0
LINE
  5
15303
330
152FD
100
AcDbEntity
  8
0
100
AcDbLine
 10
190.5000199373753
 20
68.00000432218076
 30
0.0
 11
228.6000199373775
 21
51.00000432218076
 31
0.0
  0
LINE
  5
15304
330
152FD
100
AcDbEntity
  8
0
100
AcDbLine
 10
228.6000199373775
 20
51.00000432218076
 30
0.0
 11
190.5000199373753
 21
34.00000432218076
 31
0.0
  0
LINE
  5
15305
330
152FD
100
AcDbEntity
  8
0
100
AcDbLine
 10
190.5000199373753
 20
34.00000432218076
 30
0.0
 11
228.6000199373775
 21
17.00000432218076
 31
0.0
  0
LINE
  5
15306
330
152FD
100
AcDbEntity
  8
0
100
AcDbLine
 10
228.6000199373775
 20
17.00000432218076
 30
0.0
 11
190.5000199373753
 21
0.0000043221807573
 31
0.0
  0
LINE
  5
15307
330
152FD
100
AcDbEntity
  8
0
100
AcDbLine
 10
38.10001993737387
 20
34.00000432218076
 30
0.0
 11
76.20001993737606
 21
17.00000432218076
 31
0.0
  0
LINE
  5
15308
330
152FD
100
AcDbEntity
  8
0
100
AcDbLine
 10
76.20001993737606
 20
17.00000432218076
 30
0.0
 11
38.10001993737387
 21
0.0000043221807573
 31
0.0
  0
LINE
  5
15309
330
152FD
100
AcDbEntity
  8
0
100
AcDbLine
 10
38.10001993737387
 20
0.0000043221807573
 30
0.0
 11
0.0000199373753276
 21
17.00000432218076
 31
0.0
  0
LINE
  5
1530A
330
152FD
100
AcDbEntity
  8
0
100
AcDbLine
 10
114.3000199373746
 20
34.00000432218076
 30
0.0
 11
76.20001993737606
 21
51.00000432218076
 31
0.0
  0
LINE
  5
1530B
330
152FD
100
AcDbEntity
  8
0
100
AcDbLine
 10
190.5000199373753
 20
34.00000432218076
 30
0.0
 11
152.4000199373768
 21
51.00000432218076
 31
0.0
  0
LINE
  5
1530C
330
152FD
100
AcDbEntity
  8
0
100
AcDbLine
 10
152.4000199373768
 20
51.00000432218076
 30
0.0
 11
114.3000199373746
 21
34.00000432218076
 31
0.0
  0
LINE
  5
1530D
330
152FD
100
AcDbEntity
  8
0
100
AcDbLine
 10
114.3000199373746
 20
34.00000432218076
 30
0.0
 11
152.4000199373768
 21
17.00000432218076
 31
0.0
  0
LINE
  5
1530E
330
152FD
100
AcDbEntity
  8
0
100
AcDbLine
 10
76.20001993737606
 20
17.00000432218076
 30
0.0
 11
114.3000199373746
 21
34.00000432218076
 31
0.0
  0
LINE
  5
1530F
330
152FD
100
AcDbEntity
  8
0
100
AcDbLine
 10
114.3000199373746
 20
0.0000043221807573
 30
0.0
 11
76.20001993737606
 21
17.00000432218076
 31
0.0
  0
LINE
  5
15310
330
152FD
100
AcDbEntity
  8
0
100
AcDbLine
 10
152.4000199373768
 20
17.00000432218076
 30
0.0
 11
114.3000199373746
 21
0.0000043221807573
 31
0.0
  0
LINE
  5
15311
330
152FD
100
AcDbEntity
  8
0
100
AcDbLine
 10
152.4000199373768
 20
17.00000432218076
 30
0.0
 11
190.5000199373753
 21
34.00000432218076
 31
0.0
  0
LINE
  5
15312
330
152FD
100
AcDbEntity
  8
0
100
AcDbLine
 10
190.5000199373753
 20
0.0000043221807573
 30
0.0
 11
152.4000199373768
 21
17.00000432218076
 31
0.0
  0
LINE
  5
15313
330
152FD
100
AcDbEntity
  8
0
100
AcDbLine
 10
304.8000199373782
 20
51.00000432218076
 30
0.0
 11
266.7000199373761
 21
34.00000432218076
 31
0.0
  0
LINE
  5
15314
330
152FD
100
AcDbEntity
  8
0
100
AcDbLine
 10
266.7000199373761
 20
34.00000432218076
 30
0.0
 11
228.6000199373775
 21
51.00000432218076
 31
0.0
  0
LINE
  5
15315
330
152FD
100
AcDbEntity
  8
0
100
AcDbLine
 10
304.8000199373782
 20
17.00000432218076
 30
0.0
 11
266.7000199373761
 21
0.0000043221807573
 31
0.0
  0
LINE
  5
15316
330
152FD
100
AcDbEntity
  8
0
100
AcDbLine
 10
266.7000199373761
 20
0.0000043221807573
 30
0.0
 11
228.6000199373775
 21
17.00000432218076
 31
0.0
  0
LINE
  5
15317
330
152FD
100
AcDbEntity
  8
0
100
AcDbLine
 10
228.6000199373775
 20
17.00000432218076
 30
0.0
 11
266.7000199373761
 21
34.00000432218076
 31
0.0
  0
LINE
  5
15318
330
152FD
100
AcDbEntity
  8
0
100
AcDbLine
 10
266.7000199373761
 20
34.00000432218076
 30
0.0
 11
304.8000199373782
 21
17.00000432218076
 31
0.0
  0
LINE
  5
15319
330
152FD
100
AcDbEntity
  8
0
100
AcDbLine
 10
228.6000199373775
 20
85.00000432218076
 30
0.0
 11
190.5000199373753
 21
68.00000432218076
 31
0.0
  0
LINE
  5
1531A
330
152FD
100
AcDbEntity
  8
0
100
AcDbLine
 10
190.5000199373753
 20
102.0000043221808
 30
0.0
 11
228.6000199373775
 21
85.00000432218076
 31
0.0
  0
LINE
  5
1531B
330
152FD
100
AcDbEntity
  8
0
100
AcDbLine
 10
190.5000199373753
 20
68.00000432218076
 30
0.0
 11
152.4000199373768
 21
85.00000432218076
 31
0.0
  0
LINE
  5
1531C
330
152FD
100
AcDbEntity
  8
0
100
AcDbLine
 10
266.7000199373761
 20
136.0000043221808
 30
0.0
 11
304.8000199373782
 21
119.0000043221808
 31
0.0
  0
LINE
  5
1531D
330
152FD
100
AcDbEntity
  8
0
100
AcDbLine
 10
304.8000199373782
 20
119.0000043221808
 30
0.0
 11
266.7000199373761
 21
102.0000043221808
 31
0.0
  0
LINE
  5
1531E
330
152FD
100
AcDbEntity
  8
0
100
AcDbLine
 10
266.7000199373761
 20
102.0000043221808
 30
0.0
 11
228.6000199373775
 21
119.0000043221808
 31
0.0
  0
LINE
  5
1531F
330
152FD
100
AcDbEntity
  8
0
100
AcDbLine
 10
266.7000199373761
 20
102.0000043221808
 30
0.0
 11
304.8000199373782
 21
85.00000432218076
 31
0.0
  0
LINE
  5
15320
330
152FD
100
AcDbEntity
  8
0
100
AcDbLine
 10
304.8000199373782
 20
85.00000432218076
 30
0.0
 11
266.7000199373761
 21
68.00000432218076
 31
0.0
  0
LINE
  5
15321
330
152FD
100
AcDbEntity
  8
0
100
AcDbLine
 10
228.6000199373775
 20
85.00000432218076
 30
0.0
 11
266.7000199373761
 21
102.0000043221808
 31
0.0
  0
LINE
  5
15322
330
152FD
100
AcDbEntity
  8
0
100
AcDbLine
 10
266.7000199373761
 20
68.00000432218076
 30
0.0
 11
228.6000199373775
 21
85.00000432218076
 31
0.0
  0
ENDBLK
  5
15323
330
152FD
100
AcDbEntity
  8
0
 48
20.0
100
AcDbBlockEnd
  0
BLOCK
  5
1AA1B
330
1A9DF
100
AcDbEntity
  8
0
100
AcDbBlockBegin
  2
A$C25349
 70
     0
 10
0.0
 20
0.0
 30
0.0
  3
A$C25349
  1

  0
LINE
  5
1A9F3
330
1A9DF
100
AcDbEntity
  8
02製品
100
AcDbLine
 10
190.5000000000036
 20
0.0
 30
0.0
 11
152.4000000000015
 21
17.0
 31
0.0
  0
LINE
  5
1A9F4
330
1A9DF
100
AcDbEntity
  8
02製品
100
AcDbLine
 10
190.5000000000036
 20
102.0
 30
0.0
 11
228.6000000000022
 21
119.0
 31
0.0
  0
LINE
  5
1A9F5
330
1A9DF
100
AcDbEntity
  8
02製品
100
AcDbLine
 10
228.6000000000022
 20
85.0
 30
0.0
 11
190.5000000000036
 21
102.0
 31
0.0
  0
LINE
  5
1A9F6
330
1A9DF
100
AcDbEntity
  8
02製品
100
AcDbLine
 10
190.5000000000036
 20
68.0
 30
0.0
 11
228.6000000000022
 21
85.0
 31
0.0
  0
LINE
  5
1A9F7
330
1A9DF
100
AcDbEntity
  8
02製品
100
AcDbLine
 10
190.5000000000036
 20
34.0
 30
0.0
 11
228.6000000000022
 21
17.0
 31
0.0
  0
LINE
  5
1A9F8
330
1A9DF
100
AcDbEntity
  8
02製品
100
AcDbLine
 10
228.6000000000022
 20
51.0
 30
0.0
 11
190.5000000000036
 21
34.0
 31
0.0
  0
LINE
  5
1A9F9
330
1A9DF
100
AcDbEntity
  8
02製品
100
AcDbLine
 10
190.5000000000036
 20
68.0
 30
0.0
 11
228.6000000000022
 21
51.0
 31
0.0
  0
LINE
  5
1A9FA
330
1A9DF
100
AcDbEntity
  8
02製品
100
AcDbLine
 10
114.2999999999993
 20
102.0
 30
0.0
 11
76.20000000000073
 21
119.0
 31
0.0
  0
LINE
  5
1A9FB
330
1A9DF
100
AcDbEntity
  8
02製品
100
AcDbLine
 10
114.2999999999993
 20
68.0
 30
0.0
 11
76.20000000000073
 21
85.0
 31
0.0
  0
LINE
  5
1A9FC
330
1A9DF
100
AcDbEntity
  8
02製品
100
AcDbLine
 10
76.20000000000073
 20
85.0
 30
0.0
 11
114.2999999999993
 21
102.0
 31
0.0
  0
LINE
  5
1A9FD
330
1A9DF
100
AcDbEntity
  8
02製品
100
AcDbLine
 10
114.2999999999993
 20
34.0
 30
0.0
 11
76.20000000000073
 21
17.0
 31
0.0
  0
LINE
  5
1A9FE
330
1A9DF
100
AcDbEntity
  8
02製品
100
AcDbLine
 10
76.20000000000073
 20
51.0
 30
0.0
 11
114.2999999999993
 21
34.0
 31
0.0
  0
LINE
  5
1A9FF
330
1A9DF
100
AcDbEntity
  8
02製品
100
AcDbLine
 10
114.2999999999993
 20
68.0
 30
0.0
 11
76.20000000000073
 21
51.0
 31
0.0
  0
LINE
  5
1AA00
330
1A9DF
100
AcDbEntity
  8
02製品
100
AcDbLine
 10
38.09999999999854
 20
68.0
 30
0.0
 11
0.0
 21
51.0
 31
0.0
  0
LINE
  5
1AA01
330
1A9DF
100
AcDbEntity
  8
02製品
100
AcDbLine
 10
76.20000000000073
 20
51.0
 30
0.0
 11
38.09999999999854
 21
68.0
 31
0.0
  0
LINE
  5
1AA02
330
1A9DF
100
AcDbEntity
  8
02製品
100
AcDbLine
 10
38.09999999999854
 20
34.0
 30
0.0
 11
76.20000000000073
 21
51.0
 31
0.0
  0
LINE
  5
1AA03
330
1A9DF
100
AcDbEntity
  8
02製品
100
AcDbLine
 10
38.09999999999854
 20
68.0
 30
0.0
 11
0.0
 21
85.0
 31
0.0
  0
LINE
  5
1AA04
330
1A9DF
100
AcDbEntity
  8
02製品
100
AcDbLine
 10
38.09999999999854
 20
102.0
 30
0.0
 11
76.20000000000073
 21
85.0
 31
0.0
  0
LINE
  5
1AA05
330
1A9DF
100
AcDbEntity
  8
02製品
100
AcDbLine
 10
76.20000000000073
 20
85.0
 30
0.0
 11
38.09999999999854
 21
68.0
 31
0.0
  0
LINE
  5
1AA06
330
1A9DF
100
AcDbEntity
  8
02製品
100
AcDbLine
 10
152.4000000000015
 20
51.0
 30
0.0
 11
114.2999999999993
 21
68.0
 31
0.0
  0
LINE
  5
1AA07
330
1A9DF
100
AcDbEntity
  8
02製品
100
AcDbLine
 10
152.4000000000015
 20
51.0
 30
0.0
 11
190.5000000000036
 21
68.0
 31
0.0
  0
LINE
  5
1AA08
330
1A9DF
100
AcDbEntity
  8
02製品
100
AcDbLine
 10
152.4000000000015
 20
17.0
 30
0.0
 11
114.2999999999993
 21
34.0
 31
0.0
  0
LINE
  5
1AA09
330
1A9DF
100
AcDbEntity
  8
02製品
100
AcDbLine
 10
114.2999999999993
 20
0.0
 30
0.0
 11
152.4000000000015
 21
17.0
 31
0.0
  0
LINE
  5
1AA0A
330
1A9DF
100
AcDbEntity
  8
02製品
100
AcDbLine
 10
114.2999999999993
 20
34.0
 30
0.0
 11
152.4000000000015
 21
51.0
 31
0.0
  0
LINE
  5
1AA0B
330
1A9DF
100
AcDbEntity
  8
02製品
100
AcDbLine
 10
152.4000000000015
 20
17.0
 30
0.0
 11
190.5000000000036
 21
34.0
 31
0.0
  0
LINE
  5
1AA0C
330
1A9DF
100
AcDbEntity
  8
02製品
100
AcDbLine
 10
190.5000000000036
 20
34.0
 30
0.0
 11
152.4000000000015
 21
51.0
 31
0.0
  0
LINE
  5
1AA0D
330
1A9DF
100
AcDbEntity
  8
02製品
100
AcDbLine
 10
152.4000000000015
 20
119.0
 30
0.0
 11
114.2999999999993
 21
102.0
 31
0.0
  0
LINE
  5
1AA0E
330
1A9DF
100
AcDbEntity
  8
02製品
100
AcDbLine
 10
114.2999999999993
 20
136.0
 30
0.0
 11
152.4000000000015
 21
119.0
 31
0.0
  0
LINE
  5
1AA0F
330
1A9DF
100
AcDbEntity
  8
02製品
100
AcDbLine
 10
152.4000000000015
 20
85.0
 30
0.0
 11
114.2999999999993
 21
68.0
 31
0.0
  0
LINE
  5
1AA10
330
1A9DF
100
AcDbEntity
  8
02製品
100
AcDbLine
 10
114.2999999999993
 20
102.0
 30
0.0
 11
152.4000000000015
 21
85.0
 31
0.0
  0
LINE
  5
1AA11
330
1A9DF
100
AcDbEntity
  8
02製品
100
AcDbLine
 10
152.4000000000015
 20
119.0
 30
0.0
 11
190.5000000000036
 21
102.0
 31
0.0
  0
LINE
  5
1AA12
330
1A9DF
100
AcDbEntity
  8
02製品
100
AcDbLine
 10
190.5000000000036
 20
136.0
 30
0.0
 11
152.4000000000015
 21
119.0
 31
0.0
  0
LINE
  5
1AA13
330
1A9DF
100
AcDbEntity
  8
02製品
100
AcDbLine
 10
190.5000000000036
 20
102.0
 30
0.0
 11
152.4000000000015
 21
85.0
 31
0.0
  0
LINE
  5
1AA14
330
1A9DF
100
AcDbEntity
  8
02製品
100
AcDbLine
 10
152.4000000000015
 20
85.0
 30
0.0
 11
190.5000000000036
 21
68.0
 31
0.0
  0
LINE
  5
1AA15
330
1A9DF
100
AcDbEntity
  8
02製品
100
AcDbLine
 10
228.6000000000022
 20
51.0
 30
0.0
 11
266.7000000000044
 21
68.0
 31
0.0
  0
LINE
  5
1AA16
330
1A9DF
100
AcDbEntity
  8
02製品
100
AcDbLine
 10
266.7000000000044
 20
68.0
 30
0.0
 11
304.8000000000029
 21
51.0
 31
0.0
  0
LINE
  5
1AA17
330
1A9DF
100
AcDbEntity
  8
02製品
100
AcDbLine
 10
266.7000000000044
 20
34.0
 30
0.0
 11
228.6000000000022
 21
51.0
 31
0.0
  0
LINE
  5
1AA18
330
1A9DF
100
AcDbEntity
  8
02製品
100
AcDbLine
 10
228.6000000000022
 20
85.0
 30
0.0
 11
266.7000000000044
 21
68.0
 31
0.0
  0
LINE
  5
1AA19
330
1A9DF
100
AcDbEntity
  8
02製品
100
AcDbLine
 10
266.7000000000044
 20
102.0
 30
0.0
 11
228.6000000000022
 21
85.0
 31
0.0
  0
LINE
  5
1AA1A
330
1A9DF
100
AcDbEntity
  8
02製品
100
AcDbLine
 10
266.7000000000044
 20
68.0
 30
0.0
 11
304.8000000000029
 21
85.0
 31
0.0
  0
ENDBLK
  5
1AA1C
330
1A9DF
100
AcDbEntity
  8
0
100
AcDbBlockEnd
  0
BLOCK
  5
1B28E
330
1B28B
100
AcDbEntity
  8
0
100
AcDbBlockBegin
  2
A$C24898
 70
     0
 10
0.0
 20
0.0
 30
0.0
  3
A$C24898
  1

  0
INSERT
  5
1B28F
330
1B28B
100
AcDbEntity
  8
02製品
100
AcDbBlockReference
  2
A$C19638
 10
7.099986188957701
 20
0.0
 30
0.0
  0
LINE
  5
1B2C7
330
1B28B
100
AcDbEntity
  8
02製品
100
AcDbLine
 10
26.10000000351647
 20
369.9989941738231
 30
0.0
 11
46.10000000351647
 21
369.9989941738231
 31
0.0
  0
LINE
  5
1B2C8
330
1B28B
100
AcDbEntity
  8
02製品
100
AcDbLine
 10
31.10000000351647
 20
479.9989941738231
 30
0.0
 11
51.10000000351647
 21
479.9989941738231
 31
0.0
  0
LINE
  5
1B2C9
330
1B28B
100
AcDbEntity
  8
02製品
100
AcDbLine
 10
41.10000000351647
 20
489.9989941738231
 30
0.0
 11
41.10000000351647
 21
469.9989941738231
 31
0.0
  0
LINE
  5
1B2CA
330
1B28B
100
AcDbEntity
  8
02製品
100
AcDbLine
 10
36.10000000351647
 20
379.9989941738231
 30
0.0
 11
36.10000000351647
 21
359.9989941738231
 31
0.0
  0
LINE
  5
1B2CB
330
1B28B
100
AcDbEntity
  8
02製品
100
AcDbLine
 10
26.10000000351647
 20
369.9989941738231
 30
0.0
 11
46.10000000351647
 21
369.9989941738231
 31
0.0
  0
LINE
  5
1B2CC
330
1B28B
100
AcDbEntity
  8
02製品
100
AcDbLine
 10
36.10000000351647
 20
439.9989941738304
 30
0.0
 11
36.10000000351647
 21
419.9989941738304
 31
0.0
  0
LINE
  5
1B2CD
330
1B28B
100
AcDbEntity
  8
02製品
100
AcDbLine
 10
26.10000000351647
 20
429.9989941738304
 30
0.0
 11
46.10000000351647
 21
429.9989941738304
 31
0.0
  0
LINE
  5
1B2CE
330
1B28B
100
AcDbEntity
  8
02製品
  6
ByBlock
100
AcDbLine
 10
5.500000000001819
 20
471.498994173834
 30
0.0
 11
7.10000000351647
 21
471.498994173834
 31
0.0
  0
LINE
  5
1B2CF
330
1B28B
100
AcDbEntity
  8
02製品
  6
ByBlock
100
AcDbLine
 10
5.500000000001819
 20
488.498994173834
 30
0.0
 11
7.10000000351647
 21
488.498994173834
 31
0.0
  0
LINE
  5
1B2D0
330
1B28B
100
AcDbEntity
  8
02製品
  6
ByBlock
100
AcDbLine
 10
7.10000000351647
 20
488.498994173834
 30
0.0
 11
7.10000000351647
 21
471.498994173834
 31
0.0
  0
LINE
  5
1B2D1
330
1B28B
100
AcDbEntity
  8
02製品
  6
ByBlock
100
AcDbLine
 10
5.500000000001819
 20
488.498994173834
 30
0.0
 11
5.500000000001819
 21
471.498994173834
 31
0.0
  0
LINE
  5
1B2D2
330
1B28B
100
AcDbEntity
  8
02製品
  6
ByBlock
100
AcDbLine
 10
0.6960296630859375
 20
472.4934552334043
 30
0.0
 11
5.500000000001819
 21
472.4934552334043
 31
0.0
  0
LINE
  5
1B2D3
330
1B28B
100
AcDbEntity
  8
02製品
  6
ByBlock
100
AcDbLine
 10
0.0
 20
486.2990793814306
 30
0.0
 11
0.0
 21
473.6989833528451
 31
0.0
  0
ARC
  5
1B2D4
330
1B28B
100
AcDbEntity
  8
02製品
  6
ByBlock
100
AcDbCircle
 10
12.00000000000364
 20
479.998994173834
 30
0.0
 40
12.0
100
AcDbArc
 50
161.7759804502466
 51
198.2237823143786
  0
LINE
  5
1B2D5
330
1B28B
100
AcDbEntity
  8
02製品
  6
ByBlock
100
AcDbLine
 10
0.601898193359375
 20
476.2462475918028
 30
0.0
 11
5.500000000001819
 21
476.2462475918028
 31
0.0
  0
LINE
  5
1B2D6
330
1B28B
100
AcDbEntity
  8
02製品
  6
ByBlock
100
AcDbLine
 10
0.6019134521520755
 20
483.7518017910215
 30
0.0
 11
5.500000000001819
 21
483.7518017910215
 31
0.0
  0
LINE
  5
1B2D7
330
1B28B
100
AcDbEntity
  8
02製品
  6
ByBlock
100
AcDbLine
 10
0.6960296630859375
 20
487.50456363184
 30
0.0
 11
5.500000000001819
 21
487.50456363184
 31
0.0
  0
LINE
  5
1B2D8
330
1B28B
100
AcDbEntity
  8
02製品
  6
ByBlock
100
AcDbLine
 10
0.6019017629496375
 20
483.751825446142
 30
0.0
 11
0.0
 21
486.2990793814306
 31
0.0
  0
LINE
  5
1B2D9
330
1B28B
100
AcDbEntity
  8
02製品
  6
ByBlock
100
AcDbLine
 10
0.0
 20
473.6989833528451
 30
0.0
 11
0.6018760334500257
 21
476.2462947251433
 31
0.0
  0
LINE
  5
1B2DA
330
1B28B
100
AcDbEntity
  8
02製品
  6
ByBlock
100
AcDbLine
 10
0.0
 20
473.6989833528451
 30
0.0
 11
0.6959975911631773
 21
472.493480029817
 31
0.0
  0
LINE
  5
1B2DB
330
1B28B
100
AcDbEntity
  8
02製品
  6
ByBlock
100
AcDbLine
 10
0.6960187865770422
 20
487.5046194159904
 30
0.0
 11
0.0
 21
486.2990793814306
 31
0.0
  0
LINE
  5
1B2DC
330
1B28B
100
AcDbEntity
  8
02製品
  6
ByBlock
100
AcDbLine
 10
5.500000000001819
 20
421.498994173834
 30
0.0
 11
7.10000000351647
 21
421.498994173834
 31
0.0
  0
LINE
  5
1B2DD
330
1B28B
100
AcDbEntity
  8
02製品
  6
ByBlock
100
AcDbLine
 10
5.500000000001819
 20
438.498994173834
 30
0.0
 11
7.10000000351647
 21
438.498994173834
 31
0.0
  0
LINE
  5
1B2DE
330
1B28B
100
AcDbEntity
  8
02製品
  6
ByBlock
100
AcDbLine
 10
7.10000000351647
 20
438.498994173834
 30
0.0
 11
7.10000000351647
 21
421.498994173834
 31
0.0
  0
LINE
  5
1B2DF
330
1B28B
100
AcDbEntity
  8
02製品
  6
ByBlock
100
AcDbLine
 10
5.500000000001819
 20
438.498994173834
 30
0.0
 11
5.500000000001819
 21
421.498994173834
 31
0.0
  0
LINE
  5
1B2E0
330
1B28B
100
AcDbEntity
  8
02製品
  6
ByBlock
100
AcDbLine
 10
0.6960296630859375
 20
422.4934552334043
 30
0.0
 11
5.500000000001819
 21
422.4934552334043
 31
0.0
  0
LINE
  5
1B2E1
330
1B28B
100
AcDbEntity
  8
02製品
  6
ByBlock
100
AcDbLine
 10
0.0
 20
436.2990793814306
 30
0.0
 11
0.0
 21
423.6989833528451
 31
0.0
  0
ARC
  5
1B2E2
330
1B28B
100
AcDbEntity
  8
02製品
  6
ByBlock
100
AcDbCircle
 10
12.00000000000364
 20
429.998994173834
 30
0.0
 40
12.0
100
AcDbArc
 50
161.7759804502466
 51
198.2237823143786
  0
LINE
  5
1B2E3
330
1B28B
100
AcDbEntity
  8
02製品
  6
ByBlock
100
AcDbLine
 10
0.601898193359375
 20
426.2462475918028
 30
0.0
 11
5.500000000001819
 21
426.2462475918028
 31
0.0
  0
LINE
  5
1B2E4
330
1B28B
100
AcDbEntity
  8
02製品
  6
ByBlock
100
AcDbLine
 10
0.6019134521520755
 20
433.7518017910215
 30
0.0
 11
5.500000000001819
 21
433.7518017910215
 31
0.0
  0
LINE
  5
1B2E5
330
1B28B
100
AcDbEntity
  8
02製品
  6
ByBlock
100
AcDbLine
 10
0.6960296630859375
 20
437.50456363184
 30
0.0
 11
5.500000000001819
 21
437.50456363184
 31
0.0
  0
LINE
  5
1B2E6
330
1B28B
100
AcDbEntity
  8
02製品
  6
ByBlock
100
AcDbLine
 10
0.6019017629496375
 20
433.751825446142
 30
0.0
 11
0.0
 21
436.2990793814306
 31
0.0
  0
LINE
  5
1B2E7
330
1B28B
100
AcDbEntity
  8
02製品
  6
ByBlock
100
AcDbLine
 10
0.0
 20
423.6989833528451
 30
0.0
 11
0.6018760334500257
 21
426.2462947251433
 31
0.0
  0
LINE
  5
1B2E8
330
1B28B
100
AcDbEntity
  8
02製品
  6
ByBlock
100
AcDbLine
 10
0.0
 20
423.6989833528451
 30
0.0
 11
0.6959975911631773
 21
422.493480029817
 31
0.0
  0
LINE
  5
1B2E9
330
1B28B
100
AcDbEntity
  8
02製品
  6
ByBlock
100
AcDbLine
 10
0.6960187865770422
 20
437.5046194159904
 30
0.0
 11
0.0
 21
436.2990793814306
 31
0.0
  0
LINE
  5
1B2EA
330
1B28B
100
AcDbEntity
  8
02製品
  6
ByBlock
100
AcDbLine
 10
5.500000000001819
 20
361.498994173834
 30
0.0
 11
7.10000000351647
 21
361.498994173834
 31
0.0
  0
LINE
  5
1B2EB
330
1B28B
100
AcDbEntity
  8
02製品
  6
ByBlock
100
AcDbLine
 10
5.500000000001819
 20
378.498994173834
 30
0.0
 11
7.10000000351647
 21
378.498994173834
 31
0.0
  0
LINE
  5
1B2EC
330
1B28B
100
AcDbEntity
  8
02製品
  6
ByBlock
100
AcDbLine
 10
7.10000000351647
 20
378.498994173834
 30
0.0
 11
7.10000000351647
 21
361.498994173834
 31
0.0
  0
LINE
  5
1B2ED
330
1B28B
100
AcDbEntity
  8
02製品
  6
ByBlock
100
AcDbLine
 10
5.500000000001819
 20
378.498994173834
 30
0.0
 11
5.500000000001819
 21
361.498994173834
 31
0.0
  0
LINE
  5
1B2EE
330
1B28B
100
AcDbEntity
  8
02製品
  6
ByBlock
100
AcDbLine
 10
0.6960296630859375
 20
362.4934552334043
 30
0.0
 11
5.500000000001819
 21
362.4934552334043
 31
0.0
  0
LINE
  5
1B2EF
330
1B28B
100
AcDbEntity
  8
02製品
  6
ByBlock
100
AcDbLine
 10
0.0
 20
376.2990793814306
 30
0.0
 11
0.0
 21
363.6989833528451
 31
0.0
  0
ARC
  5
1B2F0
330
1B28B
100
AcDbEntity
  8
02製品
  6
ByBlock
100
AcDbCircle
 10
12.00000000000364
 20
369.998994173834
 30
0.0
 40
12.0
100
AcDbArc
 50
161.775980450237
 51
198.2237823143786
  0
LINE
  5
1B2F1
330
1B28B
100
AcDbEntity
  8
02製品
  6
ByBlock
100
AcDbLine
 10
0.601898193359375
 20
366.2462475918028
 30
0.0
 11
5.500000000001819
 21
366.2462475918028
 31
0.0
  0
LINE
  5
1B2F2
330
1B28B
100
AcDbEntity
  8
02製品
  6
ByBlock
100
AcDbLine
 10
0.6019134521520755
 20
373.7518017910215
 30
0.0
 11
5.500000000001819
 21
373.7518017910215
 31
0.0
  0
LINE
  5
1B2F3
330
1B28B
100
AcDbEntity
  8
02製品
  6
ByBlock
100
AcDbLine
 10
0.6960296630859375
 20
377.50456363184
 30
0.0
 11
5.500000000001819
 21
377.50456363184
 31
0.0
  0
LINE
  5
1B2F4
330
1B28B
100
AcDbEntity
  8
02製品
  6
ByBlock
100
AcDbLine
 10
0.6019017629496375
 20
373.751825446142
 30
0.0
 11
0.0
 21
376.2990793814306
 31
0.0
  0
LINE
  5
1B2F5
330
1B28B
100
AcDbEntity
  8
02製品
  6
ByBlock
100
AcDbLine
 10
0.0
 20
363.6989833528451
 30
0.0
 11
0.6018760334500257
 21
366.2462947251433
 31
0.0
  0
LINE
  5
1B2F6
330
1B28B
100
AcDbEntity
  8
02製品
  6
ByBlock
100
AcDbLine
 10
0.0
 20
363.6989833528451
 30
0.0
 11
0.6959975911631773
 21
362.493480029817
 31
0.0
  0
LINE
  5
1B2F7
330
1B28B
100
AcDbEntity
  8
02製品
  6
ByBlock
100
AcDbLine
 10
0.6960187865770422
 20
377.5046194159904
 30
0.0
 11
0.0
 21
376.2990793814306
 31
0.0
  0
LINE
  5
1B2F8
330
1B28B
100
AcDbEntity
  8
02製品
100
AcDbLine
 10
876.09819231035
 20
369.9989941738231
 30
0.0
 11
856.09819231035
 21
369.9989941738231
 31
0.0
  0
LINE
  5
1B2F9
330
1B28B
100
AcDbEntity
  8
02製品
100
AcDbLine
 10
871.09819231035
 20
479.9989941738231
 30
0.0
 11
851.09819231035
 21
479.9989941738231
 31
0.0
  0
LINE
  5
1B2FA
330
1B28B
100
AcDbEntity
  8
02製品
100
AcDbLine
 10
861.09819231035
 20
489.9989941738231
 30
0.0
 11
861.09819231035
 21
469.9989941738231
 31
0.0
  0
LINE
  5
1B2FB
330
1B28B
100
AcDbEntity
  8
02製品
100
AcDbLine
 10
866.09819231035
 20
379.9989941738231
 30
0.0
 11
866.09819231035
 21
359.9989941738231
 31
0.0
  0
LINE
  5
1B2FC
330
1B28B
100
AcDbEntity
  8
02製品
100
AcDbLine
 10
876.09819231035
 20
369.9989941738231
 30
0.0
 11
856.09819231035
 21
369.9989941738231
 31
0.0
  0
LINE
  5
1B2FD
330
1B28B
100
AcDbEntity
  8
02製品
100
AcDbLine
 10
866.09819231035
 20
439.9989941738304
 30
0.0
 11
866.09819231035
 21
419.9989941738304
 31
0.0
  0
LINE
  5
1B2FE
330
1B28B
100
AcDbEntity
  8
02製品
100
AcDbLine
 10
876.09819231035
 20
429.9989941738304
 30
0.0
 11
856.09819231035
 21
429.9989941738304
 31
0.0
  0
LINE
  5
1B2FF
330
1B28B
100
AcDbEntity
  8
02製品
  6
ByBlock
100
AcDbLine
 10
896.6981923138646
 20
471.498994173834
 30
0.0
 11
895.09819231035
 21
471.498994173834
 31
0.0
  0
LINE
  5
1B300
330
1B28B
100
AcDbEntity
  8
02製品
  6
ByBlock
100
AcDbLine
 10
896.6981923138646
 20
488.498994173834
 30
0.0
 11
895.09819231035
 21
488.498994173834
 31
0.0
  0
LINE
  5
1B301
330
1B28B
100
AcDbEntity
  8
02製品
  6
ByBlock
100
AcDbLine
 10
895.09819231035
 20
488.498994173834
 30
0.0
 11
895.09819231035
 21
471.498994173834
 31
0.0
  0
LINE
  5
1B302
330
1B28B
100
AcDbEntity
  8
02製品
  6
ByBlock
100
AcDbLine
 10
896.6981923138646
 20
488.498994173834
 30
0.0
 11
896.6981923138646
 21
471.498994173834
 31
0.0
  0
LINE
  5
1B303
330
1B28B
100
AcDbEntity
  8
02製品
  6
ByBlock
100
AcDbLine
 10
901.5021626507805
 20
472.4934552334043
 30
0.0
 11
896.6981923138646
 21
472.4934552334043
 31
0.0
  0
LINE
  5
1B304
330
1B28B
100
AcDbEntity
  8
02製品
  6
ByBlock
100
AcDbLine
 10
902.1981923138665
 20
486.2990793814306
 30
0.0
 11
902.1981923138665
 21
473.6989833528451
 31
0.0
  0
ARC
  5
1B305
330
1B28B
100
AcDbEntity
  8
02製品
  6
ByBlock
100
AcDbCircle
 10
890.1981923138628
 20
479.998994173834
 30
0.0
 40
12.0
100
AcDbArc
 50
341.7762176856215
 51
18.22401954975336
  0
LINE
  5
1B306
330
1B28B
100
AcDbEntity
  8
02製品
  6
ByBlock
100
AcDbLine
 10
901.5962941205071
 20
476.2462475918028
 30
0.0
 11
896.6981923138646
 21
476.2462475918028
 31
0.0
  0
LINE
  5
1B307
330
1B28B
100
AcDbEntity
  8
02製品
  6
ByBlock
100
AcDbLine
 10
901.5962788617144
 20
483.7518017910215
 30
0.0
 11
896.6981923138646
 21
483.7518017910215
 31
0.0
  0
LINE
  5
1B308
330
1B28B
100
AcDbEntity
  8
02製品
  6
ByBlock
100
AcDbLine
 10
901.5021626507805
 20
487.50456363184
 30
0.0
 11
896.6981923138646
 21
487.50456363184
 31
0.0
  0
LINE
  5
1B309
330
1B28B
100
AcDbEntity
  8
02製品
  6
ByBlock
100
AcDbLine
 10
901.5962905509168
 20
483.751825446142
 30
0.0
 11
902.1981923138665
 21
486.2990793814306
 31
0.0
  0
LINE
  5
1B30A
330
1B28B
100
AcDbEntity
  8
02製品
  6
ByBlock
100
AcDbLine
 10
902.1981923138665
 20
473.6989833528451
 30
0.0
 11
901.5963162804164
 21
476.2462947251433
 31
0.0
  0
LINE
  5
1B30B
330
1B28B
100
AcDbEntity
  8
02製品
  6
ByBlock
100
AcDbLine
 10
902.1981923138665
 20
473.6989833528451
 30
0.0
 11
901.5021947227033
 21
472.493480029817
 31
0.0
  0
LINE
  5
1B30C
330
1B28B
100
AcDbEntity
  8
02製品
  6
ByBlock
100
AcDbLine
 10
901.5021735272894
 20
487.5046194159904
 30
0.0
 11
902.1981923138665
 21
486.2990793814306
 31
0.0
  0
LINE
  5
1B30D
330
1B28B
100
AcDbEntity
  8
02製品
  6
ByBlock
100
AcDbLine
 10
896.6981923138646
 20
421.498994173834
 30
0.0
 11
895.09819231035
 21
421.498994173834
 31
0.0
  0
LINE
  5
1B30E
330
1B28B
100
AcDbEntity
  8
02製品
  6
ByBlock
100
AcDbLine
 10
896.6981923138646
 20
438.498994173834
 30
0.0
 11
895.09819231035
 21
438.498994173834
 31
0.0
  0
LINE
  5
1B30F
330
1B28B
100
AcDbEntity
  8
02製品
  6
ByBlock
100
AcDbLine
 10
895.09819231035
 20
438.498994173834
 30
0.0
 11
895.09819231035
 21
421.498994173834
 31
0.0
  0
LINE
  5
1B310
330
1B28B
100
AcDbEntity
  8
02製品
  6
ByBlock
100
AcDbLine
 10
896.6981923138646
 20
438.498994173834
 30
0.0
 11
896.6981923138646
 21
421.498994173834
 31
0.0
  0
LINE
  5
1B311
330
1B28B
100
AcDbEntity
  8
02製品
  6
ByBlock
100
AcDbLine
 10
901.5021626507805
 20
422.4934552334043
 30
0.0
 11
896.6981923138646
 21
422.4934552334043
 31
0.0
  0
LINE
  5
1B312
330
1B28B
100
AcDbEntity
  8
02製品
  6
ByBlock
100
AcDbLine
 10
902.1981923138665
 20
436.2990793814306
 30
0.0
 11
902.1981923138665
 21
423.6989833528451
 31
0.0
  0
ARC
  5
1B313
330
1B28B
100
AcDbEntity
  8
02製品
  6
ByBlock
100
AcDbCircle
 10
890.1981923138628
 20
429.998994173834
 30
0.0
 40
12.0
100
AcDbArc
 50
341.7762176856215
 51
18.22401954975336
  0
LINE
  5
1B314
330
1B28B
100
AcDbEntity
  8
02製品
  6
ByBlock
100
AcDbLine
 10
901.5962941205071
 20
426.2462475918028
 30
0.0
 11
896.6981923138646
 21
426.2462475918028
 31
0.0
  0
LINE
  5
1B315
330
1B28B
100
AcDbEntity
  8
02製品
  6
ByBlock
100
AcDbLine
 10
901.5962788617144
 20
433.7518017910215
 30
0.0
 11
896.6981923138646
 21
433.7518017910215
 31
0.0
  0
LINE
  5
1B316
330
1B28B
100
AcDbEntity
  8
02製品
  6
ByBlock
100
AcDbLine
 10
901.5021626507805
 20
437.50456363184
 30
0.0
 11
896.6981923138646
 21
437.50456363184
 31
0.0
  0
LINE
  5
1B317
330
1B28B
100
AcDbEntity
  8
02製品
  6
ByBlock
100
AcDbLine
 10
901.5962905509168
 20
433.751825446142
 30
0.0
 11
902.1981923138665
 21
436.2990793814306
 31
0.0
  0
LINE
  5
1B318
330
1B28B
100
AcDbEntity
  8
02製品
  6
ByBlock
100
AcDbLine
 10
902.1981923138665
 20
423.6989833528451
 30
0.0
 11
901.5963162804164
 21
426.2462947251433
 31
0.0
  0
LINE
  5
1B319
330
1B28B
100
AcDbEntity
  8
02製品
  6
ByBlock
100
AcDbLine
 10
902.1981923138665
 20
423.6989833528451
 30
0.0
 11
901.5021947227033
 21
422.493480029817
 31
0.0
  0
LINE
  5
1B31A
330
1B28B
100
AcDbEntity
  8
02製品
  6
ByBlock
100
AcDbLine
 10
901.5021735272894
 20
437.5046194159904
 30
0.0
 11
902.1981923138665
 21
436.2990793814306
 31
0.0
  0
LINE
  5
1B31B
330
1B28B
100
AcDbEntity
  8
02製品
  6
ByBlock
100
AcDbLine
 10
896.6981923138646
 20
361.498994173834
 30
0.0
 11
895.09819231035
 21
361.498994173834
 31
0.0
  0
LINE
  5
1B31C
330
1B28B
100
AcDbEntity
  8
02製品
  6
ByBlock
100
AcDbLine
 10
896.6981923138646
 20
378.498994173834
 30
0.0
 11
895.09819231035
 21
378.498994173834
 31
0.0
  0
LINE
  5
1B31D
330
1B28B
100
AcDbEntity
  8
02製品
  6
ByBlock
100
AcDbLine
 10
895.09819231035
 20
378.498994173834
 30
0.0
 11
895.09819231035
 21
361.498994173834
 31
0.0
  0
LINE
  5
1B31E
330
1B28B
100
AcDbEntity
  8
02製品
  6
ByBlock
100
AcDbLine
 10
896.6981923138646
 20
378.498994173834
 30
0.0
 11
896.6981923138646
 21
361.498994173834
 31
0.0
  0
LINE
  5
1B31F
330
1B28B
100
AcDbEntity
  8
02製品
  6
ByBlock
100
AcDbLine
 10
901.5021626507805
 20
362.4934552334043
 30
0.0
 11
896.6981923138646
 21
362.4934552334043
 31
0.0
  0
LINE
  5
1B320
330
1B28B
100
AcDbEntity
  8
02製品
  6
ByBlock
100
AcDbLine
 10
902.1981923138665
 20
376.2990793814306
 30
0.0
 11
902.1981923138665
 21
363.6989833528451
 31
0.0
  0
ARC
  5
1B321
330
1B28B
100
AcDbEntity
  8
02製品
  6
ByBlock
100
AcDbCircle
 10
890.1981923138628
 20
369.998994173834
 30
0.0
 40
12.0
100
AcDbArc
 50
341.7762176856215
 51
18.22401954976297
  0
LINE
  5
1B322
330
1B28B
100
AcDbEntity
  8
02製品
  6
ByBlock
100
AcDbLine
 10
901.5962941205071
 20
366.2462475918028
 30
0.0
 11
896.6981923138646
 21
366.2462475918028
 31
0.0
  0
LINE
  5
1B323
330
1B28B
100
AcDbEntity
  8
02製品
  6
ByBlock
100
AcDbLine
 10
901.5962788617144
 20
373.7518017910215
 30
0.0
 11
896.6981923138646
 21
373.7518017910215
 31
0.0
  0
LINE
  5
1B324
330
1B28B
100
AcDbEntity
  8
02製品
  6
ByBlock
100
AcDbLine
 10
901.5021626507805
 20
377.50456363184
 30
0.0
 11
896.6981923138646
 21
377.50456363184
 31
0.0
  0
LINE
  5
1B325
330
1B28B
100
AcDbEntity
  8
02製品
  6
ByBlock
100
AcDbLine
 10
901.5962905509168
 20
373.751825446142
 30
0.0
 11
902.1981923138665
 21
376.2990793814306
 31
0.0
  0
LINE
  5
1B326
330
1B28B
100
AcDbEntity
  8
02製品
  6
ByBlock
100
AcDbLine
 10
902.1981923138665
 20
363.6989833528451
 30
0.0
 11
901.5963162804164
 21
366.2462947251433
 31
0.0
  0
LINE
  5
1B327
330
1B28B
100
AcDbEntity
  8
02製品
  6
ByBlock
100
AcDbLine
 10
902.1981923138665
 20
363.6989833528451
 30
0.0
 11
901.5021947227033
 21
362.493480029817
 31
0.0
  0
LINE
  5
1B328
330
1B28B
100
AcDbEntity
  8
02製品
  6
ByBlock
100
AcDbLine
 10
901.5021735272894
 20
377.5046194159904
 30
0.0
 11
902.1981923138665
 21
376.2990793814306
 31
0.0
  0
ENDBLK
  5
1B329
330
1B28B
100
AcDbEntity
  8
0
100
AcDbBlockEnd
  0
BLOCK
  5
1B293
330
1B290
100
AcDbEntity
  8
0
100
AcDbBlockBegin
  2
A$C19638
 70
     0
 10
0.0
 20
0.0
 30
0.0
  3
A$C19638
  1

  0
LINE
  5
1B294
330
1B290
100
AcDbEntity
  8
02製品
  6
Continuous
370
    15
100
AcDbLine
 10
881.6012999983723
 20
350.000516106451
 30
0.0
 11
881.6012999983723
 21
500.0007372949349
 31
0.0
  0
LINE
  5
1B295
330
1B290
100
AcDbEntity
  8
02製品
  6
Continuous
370
    15
100
AcDbLine
 10
881.6012999983723
 20
350.000516106451
 30
0.0
 11
838.0012357062915
 21
350.000516106451
 31
0.0
  0
CIRCLE
  5
1B296
330
1B290
100
AcDbEntity
  8
02製品
  6
Continuous
370
    15
100
AcDbCircle
 10
859.0012666726507
 20
370.0005455982209
 30
0.0
 40
5.000007372948771
  0
CIRCLE
  5
1B297
330
1B290
100
AcDbEntity
  8
02製品
  6
Continuous
370
    15
100
AcDbCircle
 10
859.0012666726507
 20
430.0006340736509
 30
0.0
 40
5.000007372948771
  0
LINE
  5
1B298
330
1B290
100
AcDbEntity
  8
02製品
  6
Continuous
370
    15
100
AcDbLine
 10
858.0012651980614
 20
475.0007004301769
 30
0.0
 11
848.0012504521437
 21
475.0007004301769
 31
0.0
  0
ARC
  5
1B299
330
1B290
100
AcDbEntity
  8
02製品
  6
Continuous
370
    15
100
AcDbCircle
 10
858.0012651980614
 20
480.0007078031358
 30
0.0
 40
5.000007372949312
100
AcDbArc
 50
270.0
 51
90.0
  0
LINE
  5
1B29A
330
1B290
100
AcDbEntity
  8
02製品
  6
Continuous
370
    15
100
AcDbLine
 10
848.0012504521437
 20
485.0007151760619
 30
0.0
 11
858.0012651980614
 21
485.0007151760619
 31
0.0
  0
ARC
  5
1B29B
330
1B290
100
AcDbEntity
  8
02製品
  6
Continuous
370
    15
100
AcDbCircle
 10
848.0012504521437
 20
480.0007078031358
 30
0.0
 40
5.000007372949312
100
AcDbArc
 50
90.0
 51
270.0
  0
LINE
  5
1B29C
330
1B290
100
AcDbEntity
  8
02製品
  6
Continuous
370
    15
100
AcDbLine
 10
838.0012357062915
 20
350.000516106451
 30
0.0
 11
838.0012357062915
 21
500.0007372949349
 31
0.0
  0
LINE
  5
1B29D
330
1B290
100
AcDbEntity
  8
02製品
  6
Continuous
370
    15
100
AcDbLine
 10
881.6012999983723
 20
500.0007372949349
 30
0.0
 11
838.0012357062915
 21
500.0007372949349
 31
0.0
  0
LINE
  5
1B29E
330
1B290
100
AcDbEntity
  8
02製品
  6
Continuous
370
    15
100
AcDbLine
 10
888.0013094357455
 20
350.000516106451
 30
0.0
 11
888.0013094357455
 21
500.0007372949349
 31
0.0
  0
LINE
  5
1B29F
330
1B290
100
AcDbEntity
  8
02製品
  6
Continuous
370
    15
100
AcDbLine
 10
888.0013094357455
 20
350.000516106451
 30
0.0
 11
881.6012999983723
 21
350.000516106451
 31
0.0
  0
LINE
  5
1B2A0
330
1B290
100
AcDbEntity
  8
02製品
  6
Continuous
370
    15
100
AcDbLine
 10
888.0013094357455
 20
500.0007372949349
 30
0.0
 11
881.6012999983723
 21
500.0007372949349
 31
0.0
  0
LINE
  5
1B2A1
330
1B290
100
AcDbEntity
  8
02製品
  6
Continuous
370
    15
100
AcDbLine
 10
6.400009437373228
 20
350.000516106451
 30
0.0
 11
6.400009437373228
 21
500.0007372949349
 31
0.0
  0
LINE
  5
1B2A2
330
1B290
100
AcDbEntity
  8
02製品
  6
Continuous
370
    15
100
AcDbLine
 10
0.0
 20
350.000516106451
 30
0.0
 11
6.400009437373228
 21
350.000516106451
 31
0.0
  0
LINE
  5
1B2A3
330
1B290
100
AcDbEntity
  8
02製品
  6
Continuous
370
    15
100
AcDbLine
 10
0.0
 20
350.000516106451
 30
0.0
 11
0.0
 21
500.0007372949349
 31
0.0
  0
LINE
  5
1B2A4
330
1B290
100
AcDbEntity
  8
02製品
  6
Continuous
370
    15
100
AcDbLine
 10
0.0
 20
500.0007372949349
 30
0.0
 11
6.400009437373228
 21
500.0007372949349
 31
0.0
  0
LINE
  5
1B2A5
330
1B290
100
AcDbEntity
  8
02製品
  6
Continuous
370
    15
100
AcDbLine
 10
50.00007372948676
 20
350.000516106451
 30
0.0
 11
50.00007372948676
 21
500.0007372949349
 31
0.0
  0
LINE
  5
1B2A6
330
1B290
100
AcDbEntity
  8
02製品
  6
Continuous
370
    15
100
AcDbLine
 10
6.400009437373228
 20
500.0007372949349
 30
0.0
 11
50.00007372948676
 21
500.0007372949349
 31
0.0
  0
LINE
  5
1B2A7
330
1B290
100
AcDbEntity
  8
02製品
  6
Continuous
370
    15
100
AcDbLine
 10
40.00005898356903
 20
485.0007151760619
 30
0.0
 11
30.00004423768405
 21
485.0007151760619
 31
0.0
  0
ARC
  5
1B2A8
330
1B290
100
AcDbEntity
  8
02製品
  6
Continuous
370
    15
100
AcDbCircle
 10
30.00004423768405
 20
480.0007078031358
 30
0.0
 40
5.000007372949312
100
AcDbArc
 50
90.0
 51
270.0
  0
LINE
  5
1B2A9
330
1B290
100
AcDbEntity
  8
02製品
  6
Continuous
370
    15
100
AcDbLine
 10
30.00004423768405
 20
475.0007004301769
 30
0.0
 11
40.00005898356903
 21
475.0007004301769
 31
0.0
  0
ARC
  5
1B2AA
330
1B290
100
AcDbEntity
  8
02製品
  6
Continuous
370
    15
100
AcDbCircle
 10
40.00005898356903
 20
480.0007078031358
 30
0.0
 40
5.000007372949312
100
AcDbArc
 50
270.0
 51
90.0
  0
CIRCLE
  5
1B2AB
330
1B290
100
AcDbEntity
  8
02製品
  6
Continuous
370
    15
100
AcDbCircle
 10
29.00004276306208
 20
370.0005455982209
 30
0.0
 40
5.000007372949493
  0
LINE
  5
1B2AC
330
1B290
100
AcDbEntity
  8
02製品
  6
Continuous
370
    15
100
AcDbLine
 10
6.400009437373228
 20
350.000516106451
 30
0.0
 11
50.00007372948676
 21
350.000516106451
 31
0.0
  0
CIRCLE
  5
1B2AD
330
1B290
100
AcDbEntity
  8
02製品
  6
Continuous
370
    15
100
AcDbCircle
 10
29.00004276306208
 20
430.0006340736509
 30
0.0
 40
5.000007372949493
  0
LINE
  5
1B2AE
330
1B290
100
AcDbEntity
  8
02製品
  6
Continuous
370
    15
100
AcDbLine
 10
884.0013035373777
 20
345.0005087334939
 30
0.0
 11
881.0012991136355
 21
345.0005087334939
 31
0.0
  0
LINE
  5
1B2AF
330
1B290
100
AcDbEntity
  8
02製品
  6
Continuous
370
    15
100
AcDbLine
 10
884.0013035373777
 20
3.000004423773134
 30
0.0
 11
884.0013035373777
 21
345.0005087334939
 31
0.0
  0
LINE
  5
1B2B0
330
1B290
100
AcDbEntity
  8
02製品
  6
Continuous
370
    15
100
AcDbLine
 10
884.0013035373777
 20
3.000004423773134
 30
0.0
 11
844.0012445538086
 21
3.000004423773134
 31
0.0
  0
LINE
  5
1B2B1
330
1B290
100
AcDbEntity
  8
02製品
  6
Continuous
370
    15
100
AcDbLine
 10
844.0012445538086
 20
3.000004423773134
 30
0.0
 11
844.0012445538086
 21
350.000516106451
 31
0.0
  0
LINE
  5
1B2B2
330
1B290
100
AcDbEntity
  8
02製品
  6
Continuous
370
    15
100
AcDbLine
 10
881.0012991136355
 20
345.0005087334939
 30
0.0
 11
881.0012991136355
 21
350.000516106451
 31
0.0
  0
LINE
  5
1B2B3
330
1B290
100
AcDbEntity
  8
02製品
  6
Continuous
370
    15
100
AcDbLine
 10
884.0013035373777
 20
345.0005087334939
 30
0.0
 11
884.0013035373777
 21
350.000516106451
 31
0.0
  0
LINE
  5
1B2B4
330
1B290
100
AcDbEntity
  8
02製品
  6
Continuous
370
    15
100
AcDbLine
 10
884.0013035373777
 20
0.0
 30
0.0
 11
884.0013035373777
 21
3.000004423773134
 31
0.0
  0
LINE
  5
1B2B5
330
1B290
100
AcDbEntity
  8
02製品
  6
Continuous
370
    15
100
AcDbLine
 10
844.0012445538086
 20
0.0
 30
0.0
 11
884.0013035373777
 21
0.0
 31
0.0
  0
LINE
  5
1B2B6
330
1B290
100
AcDbEntity
  8
02製品
  6
Continuous
370
    15
100
AcDbLine
 10
844.0012445538086
 20
0.0
 30
0.0
 11
844.0012445538086
 21
3.000004423773134
 31
0.0
  0
LINE
  5
1B2B7
330
1B290
100
AcDbEntity
  8
02製品
  6
Continuous
370
    15
100
AcDbLine
 10
44.00006488193685
 20
3.000004423773134
 30
0.0
 11
44.00006488193685
 21
350.000516106451
 31
0.0
  0
LINE
  5
1B2B8
330
1B290
100
AcDbEntity
  8
02製品
  6
Continuous
370
    15
100
AcDbLine
 10
4.000005898335075
 20
3.000004423773134
 30
0.0
 11
44.00006488193685
 21
3.000004423773134
 31
0.0
  0
LINE
  5
1B2B9
330
1B290
100
AcDbEntity
  8
02製品
  6
Continuous
370
    15
100
AcDbLine
 10
4.000005898335075
 20
3.000004423773134
 30
0.0
 11
4.000005898335075
 21
345.0005087334939
 31
0.0
  0
LINE
  5
1B2BA
330
1B290
100
AcDbEntity
  8
02製品
  6
Continuous
370
    15
100
AcDbLine
 10
4.000005898335075
 20
345.0005087334939
 30
0.0
 11
7.000010322110029
 21
345.0005087334939
 31
0.0
  0
LINE
  5
1B2BB
330
1B290
100
AcDbEntity
  8
02製品
  6
Continuous
370
    15
100
AcDbLine
 10
7.000010322110029
 20
345.0005087334939
 30
0.0
 11
7.000010322110029
 21
350.000516106451
 31
0.0
  0
LINE
  5
1B2BC
330
1B290
100
AcDbEntity
  8
02製品
  6
Continuous
370
    15
100
AcDbLine
 10
4.000005898335075
 20
345.0005087334939
 30
0.0
 11
4.000005898335075
 21
350.000516106451
 31
0.0
  0
LINE
  5
1B2BD
330
1B290
100
AcDbEntity
  8
02製品
  6
Continuous
370
    15
100
AcDbLine
 10
44.00006488193685
 20
0.0
 30
0.0
 11
44.00006488193685
 21
3.000004423773134
 31
0.0
  0
LINE
  5
1B2BE
330
1B290
100
AcDbEntity
  8
02製品
  6
Continuous
370
    15
100
AcDbLine
 10
44.00006488193685
 20
0.0
 30
0.0
 11
4.000005898335075
 21
0.0
 31
0.0
  0
LINE
  5
1B2BF
330
1B290
100
AcDbEntity
  8
02製品
  6
Continuous
370
    15
100
AcDbLine
 10
4.000005898335075
 20
0.0
 30
0.0
 11
4.000005898335075
 21
3.000004423773134
 31
0.0
  0
LINE
  5
1B2C0
330
1B290
100
AcDbEntity
  8
02製品
  6
Continuous
370
    15
100
AcDbLine
 10
838.0012357062915
 20
500.0007372949349
 30
0.0
 11
50.00007372948676
 21
500.0007372949349
 31
0.0
  0
LINE
  5
1B2C1
330
1B290
100
AcDbEntity
  8
02製品
  6
Continuous
370
    15
100
AcDbLine
 10
838.0012357062915
 20
460.0006783113349
 30
0.0
 11
50.00007372948676
 21
460.0006783113349
 31
0.0
  0
CIRCLE
  5
1B2C2
330
1B290
100
AcDbEntity
  8
02製品
  6
Continuous
370
    15
100
AcDbCircle
 10
854.0012592996936
 20
480.0007078031358
 30
0.0
 40
5.000007372949493
  0
CIRCLE
  5
1B2C3
330
1B290
100
AcDbEntity
  8
02製品
  6
Continuous
370
    15
100
AcDbCircle
 10
34.00005013605187
 20
480.0007078031358
 30
0.0
 40
5.000007372949131
  0
LINE
  5
1B2C4
330
1B290
100
AcDbEntity
  8
02製品
  6
Continuous
370
    15
100
AcDbLine
 10
30.63701083279011
 20
483.7007132591025
 30
0.0
 11
37.36308943931363
 21
483.7007132591025
 31
0.0
  0
LINE
  5
1B2C5
330
1B290
100
AcDbEntity
  8
02製品
  6
Continuous
370
    15
100
AcDbLine
 10
850.638219996461
 20
483.7007132591025
 30
0.0
 11
857.3642986029554
 21
483.7007132591025
 31
0.0
  0
ENDBLK
  5
1B2C6
330
1B290
100
AcDbEntity
  8
0
100
AcDbBlockEnd
  0
BLOCK
  5
1B4B3
330
1B454
100
AcDbEntity
  8
0
100
AcDbBlockBegin
  2
A$C3361
 70
     0
 10
0.0
 20
0.0
 30
0.0
  3
A$C3361
  1

  0
LINE
  5
1B46B
330
1B454
100
AcDbEntity
  8
02製品
  6
Continuous
370
    15
100
AcDbLine
 10
844.7244094488142
 20
0.0000011146412362
 30
0.0
 11
844.7244094488142
 21
3.023623161883734
 31
0.0
  0
LINE
  5
1B46C
330
1B454
100
AcDbEntity
  8
02製品
  6
Continuous
370
    15
100
AcDbLine
 10
844.7244094488142
 20
0.0000011146412362
 30
0.0
 11
721.889763779518
 21
0.0000011146412362
 31
0.0
  0
LINE
  5
1B46D
330
1B454
100
AcDbEntity
  8
02製品
  6
Continuous
370
    15
100
AcDbLine
 10
844.7244094488142
 20
3.023623161883734
 30
0.0
 11
721.889763779518
 21
3.023623161883734
 31
0.0
  0
LINE
  5
1B46E
330
1B454
100
AcDbEntity
  8
02製品
  6
Continuous
370
    15
100
AcDbLine
 10
721.889763779518
 20
0.0000011146412362
 30
0.0
 11
721.889763779518
 21
3.023623161883734
 31
0.0
  0
LINE
  5
1B46F
330
1B454
100
AcDbEntity
  8
02製品
  6
Continuous
370
    15
100
AcDbLine
 10
844.7244094488142
 20
836.03149494834
 30
0.0
 11
844.7244094488142
 21
839.0551169955834
 31
0.0
  0
LINE
  5
1B470
330
1B454
100
AcDbEntity
  8
02製品
  6
Continuous
370
    15
100
AcDbLine
 10
721.889763779518
 20
836.03149494834
 30
0.0
 11
721.889763779518
 21
839.0551169955834
 31
0.0
  0
LINE
  5
1B471
330
1B454
100
AcDbEntity
  8
02製品
  6
Continuous
370
    15
100
AcDbLine
 10
844.7244094488142
 20
839.0551169955834
 30
0.0
 11
721.889763779518
 21
839.0551169955834
 31
0.0
  0
LINE
  5
1B472
330
1B454
100
AcDbEntity
  8
02製品
  6
Continuous
370
    15
100
AcDbLine
 10
844.7244094488142
 20
836.03149494834
 30
0.0
 11
721.889763779518
 21
836.03149494834
 31
0.0
  0
LINE
  5
1B473
330
1B454
100
AcDbEntity
  8
02製品
  6
Continuous
370
    15
100
AcDbLine
 10
1563.590551181102
 20
791.81102362204
 30
0.0
 11
1563.590551181102
 21
833.0078740157496
 31
0.0
  0
ARC
  5
1B474
330
1B454
100
AcDbEntity
  8
02製品
  6
Continuous
370
    15
100
AcDbCircle
 10
1560.566929133858
 20
833.0078740157496
 30
0.0
 40
3.02362204724443
100
AcDbArc
 50
0.0
 51
90.0
  0
LINE
  5
1B475
330
1B454
100
AcDbEntity
  8
02製品
  6
Continuous
370
    15
100
AcDbLine
 10
1560.566929133858
 20
836.031496062993
 30
0.0
 11
1424.881889763785
 21
836.031496062993
 31
0.0
  0
LINE
  5
1B476
330
1B454
100
AcDbEntity
  8
02製品
  6
Continuous
370
    15
100
AcDbLine
 10
1424.881889763785
 20
836.031496062993
 30
0.0
 11
1424.881889763785
 21
839.0551181102364
 31
0.0
  0
LINE
  5
1B477
330
1B454
100
AcDbEntity
  8
02製品
  6
Continuous
370
    15
100
AcDbLine
 10
1424.881889763785
 20
839.0551181102364
 30
0.0
 11
1560.566929133858
 21
839.0551181102364
 31
0.0
  0
ARC
  5
1B478
330
1B454
100
AcDbEntity
  8
02製品
  6
Continuous
370
    15
100
AcDbCircle
 10
1560.566929133858
 20
833.0078740157496
 30
0.0
 40
6.047244094488519
100
AcDbArc
 50
0.0
 51
90.0
  0
LINE
  5
1B479
330
1B454
100
AcDbEntity
  8
02製品
  6
Continuous
370
    15
100
AcDbLine
 10
1566.614173228345
 20
833.0078740157496
 30
0.0
 11
1566.614173228345
 21
791.81102362204
 31
0.0
  0
LINE
  5
1B47A
330
1B454
100
AcDbEntity
  8
02製品
  6
Continuous
370
    15
100
AcDbLine
 10
1566.614173228345
 20
791.81102362204
 30
0.0
 11
1563.590551181102
 21
791.81102362204
 31
0.0
  0
LINE
  5
1B47B
330
1B454
100
AcDbEntity
  8
02製品
  6
Continuous
370
    15
100
AcDbLine
 10
3.023622047245226
 20
47.24409448818369
 30
0.0
 11
3.023622047245226
 21
6.047244094488633
 31
0.0
  0
LINE
  5
1B47C
330
1B454
100
AcDbEntity
  8
02製品
  6
Continuous
370
    15
100
AcDbLine
 10
6.047244094488633
 20
3.023622047245226
 30
0.0
 11
141.732283464562
 21
3.023622047245226
 31
0.0
  0
LINE
  5
1B47D
330
1B454
100
AcDbEntity
  8
02製品
  6
Continuous
370
    15
100
AcDbLine
 10
0.000000000001819
 20
6.047244094488633
 30
0.0
 11
0.000000000001819
 21
47.24409448818369
 31
0.0
  0
LINE
  5
1B47E
330
1B454
100
AcDbEntity
  8
02製品
  6
Continuous
370
    15
100
AcDbLine
 10
0.000000000001819
 20
47.24409448818369
 30
0.0
 11
3.023622047245226
 21
47.24409448818369
 31
0.0
  0
ARC
  5
1B47F
330
1B454
100
AcDbEntity
  8
02製品
  6
Continuous
370
    15
100
AcDbCircle
 10
6.047244094488633
 20
6.047244094488633
 30
0.0
 40
3.023622047244089
100
AcDbArc
 50
180.0
 51
270.0
  0
LINE
  5
1B480
330
1B454
100
AcDbEntity
  8
02製品
  6
Continuous
370
    15
100
AcDbLine
 10
141.732283464562
 20
3.023622047245226
 30
0.0
 11
141.732283464562
 21
0.000000000001819
 31
0.0
  0
ARC
  5
1B481
330
1B454
100
AcDbEntity
  8
02製品
  6
Continuous
370
    15
100
AcDbCircle
 10
6.047244094488633
 20
6.047244094488633
 30
0.0
 40
6.047244094488178
100
AcDbArc
 50
180.0
 51
270.0
  0
LINE
  5
1B482
330
1B454
100
AcDbEntity
  8
02製品
  6
Continuous
370
    15
100
AcDbLine
 10
141.732283464562
 20
0.000000000001819
 30
0.0
 11
6.047244094488633
 21
0.000000000001819
 31
0.0
  0
LINE
  5
1B483
330
1B454
100
AcDbEntity
  8
02製品
  6
Continuous
370
    15
100
AcDbLine
 10
0.000000000001819
 20
833.0078740157496
 30
0.0
 11
0.000000000001819
 21
791.81102362204
 31
0.0
  0
ARC
  5
1B484
330
1B454
100
AcDbEntity
  8
02製品
  6
Continuous
370
    15
100
AcDbCircle
 10
6.047244094488633
 20
833.0078740157496
 30
0.0
 40
6.047244094488519
100
AcDbArc
 50
90.0
 51
180.0
  0
ARC
  5
1B485
330
1B454
100
AcDbEntity
  8
02製品
  6
Continuous
370
    15
100
AcDbCircle
 10
6.047244094488633
 20
833.0078740157496
 30
0.0
 40
3.02362204724443
100
AcDbArc
 50
90.0
 51
180.0
  0
LINE
  5
1B486
330
1B454
100
AcDbEntity
  8
02製品
  6
Continuous
370
    15
100
AcDbLine
 10
3.023622047245226
 20
791.81102362204
 30
0.0
 11
3.023622047245226
 21
833.0078740157496
 31
0.0
  0
LINE
  5
1B487
330
1B454
100
AcDbEntity
  8
02製品
  6
Continuous
370
    15
100
AcDbLine
 10
0.000000000001819
 20
791.81102362204
 30
0.0
 11
3.023622047245226
 21
791.81102362204
 31
0.0
  0
LINE
  5
1B488
330
1B454
100
AcDbEntity
  8
02製品
  6
Continuous
370
    15
100
AcDbLine
 10
141.732283464562
 20
839.0551181102364
 30
0.0
 11
6.047244094488633
 21
839.0551181102364
 31
0.0
  0
LINE
  5
1B489
330
1B454
100
AcDbEntity
  8
02製品
  6
Continuous
370
    15
100
AcDbLine
 10
6.047244094488633
 20
836.031496062993
 30
0.0
 11
141.732283464562
 21
836.031496062993
 31
0.0
  0
LINE
  5
1B48A
330
1B454
100
AcDbEntity
  8
02製品
  6
Continuous
370
    15
100
AcDbLine
 10
141.732283464562
 20
836.031496062993
 30
0.0
 11
141.732283464562
 21
839.0551181102364
 31
0.0
  0
ARC
  5
1B48B
330
1B454
100
AcDbEntity
  8
02製品
  6
Continuous
370
    15
100
AcDbCircle
 10
1560.566929133858
 20
6.047244094488633
 30
0.0
 40
6.047244094488519
100
AcDbArc
 50
270.0
 51
0.0
  0
LINE
  5
1B48C
330
1B454
100
AcDbEntity
  8
02製品
  6
Continuous
370
    15
100
AcDbLine
 10
1560.566929133858
 20
3.023622047245226
 30
0.0
 11
1424.881889763785
 21
3.023622047245226
 31
0.0
  0
LINE
  5
1B48D
330
1B454
100
AcDbEntity
  8
02製品
  6
Continuous
370
    15
100
AcDbLine
 10
1566.614173228345
 20
47.24409448818369
 30
0.0
 11
1563.590551181102
 21
47.24409448818369
 31
0.0
  0
ARC
  5
1B48E
330
1B454
100
AcDbEntity
  8
02製品
  6
Continuous
370
    15
100
AcDbCircle
 10
1560.566929133858
 20
6.047244094488633
 30
0.0
 40
3.023622047244089
100
AcDbArc
 50
270.0
 51
0.0
  0
LINE
  5
1B48F
330
1B454
100
AcDbEntity
  8
02製品
  6
Continuous
370
    15
100
AcDbLine
 10
1424.881889763785
 20
3.023622047245226
 30
0.0
 11
1424.881889763785
 21
0.000000000001819
 31
0.0
  0
LINE
  5
1B490
330
1B454
100
AcDbEntity
  8
02製品
  6
Continuous
370
    15
100
AcDbLine
 10
1566.614173228345
 20
6.047244094488633
 30
0.0
 11
1566.614173228345
 21
47.24409448818369
 31
0.0
  0
LINE
  5
1B491
330
1B454
100
AcDbEntity
  8
02製品
  6
Continuous
370
    15
100
AcDbLine
 10
1424.881889763785
 20
0.000000000001819
 30
0.0
 11
1560.566929133858
 21
0.000000000001819
 31
0.0
  0
LINE
  5
1B492
330
1B454
100
AcDbEntity
  8
02製品
  6
Continuous
370
    15
100
AcDbLine
 10
1563.590551181102
 20
47.24409448818369
 30
0.0
 11
1563.590551181102
 21
6.047244094488633
 31
0.0
  0
LINE
  5
1B493
330
1B454
100
AcDbEntity
  8
02製品
  6
Continuous
370
    15
100
AcDbLine
 10
6.614173228344953
 20
3.779527559048802
 30
0.0
 11
4.047306095571912
 21
3.779527559048802
 31
0.0
  0
LINE
  5
1B494
330
1B454
100
AcDbEntity
  8
02製品
  6
Continuous
370
    15
100
AcDbLine
 10
3.779527559048802
 20
4.047306095571912
 30
0.0
 11
3.779527559048802
 21
6.614173228344953
 31
0.0
  0
LINE
  5
1B495
330
1B454
100
AcDbEntity
  8
02製品
  6
Continuous
370
    15
100
AcDbLine
 10
1562.834645669298
 20
835.0078120146663
 30
0.0
 11
1562.834645669298
 21
832.4409448818933
 31
0.0
  0
LINE
  5
1B496
330
1B454
100
AcDbEntity
  8
02製品
  6
Continuous
370
    15
100
AcDbLine
 10
1560.000000000002
 20
835.2755905511749
 30
0.0
 11
1562.566867132775
 21
835.2755905511749
 31
0.0
  0
LINE
  5
1B497
330
1B454
100
AcDbEntity
  8
02製品
  6
Continuous
370
    15
100
AcDbLine
 10
1562.834645669298
 20
4.047306095571912
 30
0.0
 11
1562.834645669298
 21
6.614173228344953
 31
0.0
  0
LINE
  5
1B498
330
1B454
100
AcDbEntity
  8
02製品
  6
Continuous
370
    15
100
AcDbLine
 10
1560.000000000002
 20
3.779527559048802
 30
0.0
 11
1562.566867132775
 21
3.779527559048802
 31
0.0
  0
LINE
  5
1B499
330
1B454
100
AcDbEntity
  8
02製品
  6
Continuous
370
    15
100
AcDbLine
 10
3.779527559048802
 20
835.0078120146663
 30
0.0
 11
3.779527559048802
 21
832.4409448818933
 31
0.0
  0
LINE
  5
1B49A
330
1B454
100
AcDbEntity
  8
02製品
  6
Continuous
370
    15
100
AcDbLine
 10
6.614173228344953
 20
835.2755905511749
 30
0.0
 11
4.047306095571912
 21
835.2755905511749
 31
0.0
  0
LINE
  5
1B49B
330
1B454
100
AcDbEntity
  8
02製品
  6
Continuous
370
    15
100
AcDbLine
 10
1019.527559055119
 20
41.57480314960594
 30
0.0
 11
1019.527559055119
 21
797.4803149606323
 31
0.0
  0
LINE
  5
1B49C
330
1B454
100
AcDbEntity
  8
02製品
  6
Continuous
370
    15
100
AcDbLine
 10
1047.874015748022
 20
41.57480314960594
 30
0.0
 11
1047.874015748022
 21
797.4803149606323
 31
0.0
  0
LINE
  5
1B49D
330
1B454
100
AcDbEntity
  8
02製品
  6
Continuous
370
    15
100
AcDbLine
 10
547.0866141732276
 20
797.4803149606323
 30
0.0
 11
547.0866141732276
 21
41.57480314960594
 31
0.0
  0
LINE
  5
1B49E
330
1B454
100
AcDbEntity
  8
02製品
  6
Continuous
370
    15
100
AcDbLine
 10
518.7401574803098
 20
797.4803149606323
 30
0.0
 11
518.7401574803098
 21
41.57480314960594
 31
0.0
  0
LINE
  5
1B49F
330
1B454
100
AcDbEntity
  8
02製品
  6
Continuous
370
    15
100
AcDbLine
 10
1525.039370078741
 20
797.4803149606323
 30
0.0
 11
1525.039370078741
 21
41.57480314960594
 31
0.0
  0
LINE
  5
1B4A0
330
1B454
100
AcDbEntity
  8
02製品
  6
Continuous
370
    15
100
AcDbLine
 10
1525.039370078741
 20
797.4803149606323
 30
0.0
 11
1562.834645669298
 21
797.4803149606323
 31
0.0
  0
LINE
  5
1B4A1
330
1B454
100
AcDbEntity
  8
02製品
  6
Continuous
370
    15
100
AcDbLine
 10
1525.039370078741
 20
41.57480314960594
 30
0.0
 11
1562.834645669298
 21
41.57480314960594
 31
0.0
  0
LINE
  5
1B4A2
330
1B454
100
AcDbEntity
  8
02製品
  6
Continuous
370
    15
100
AcDbLine
 10
1562.834645669298
 20
797.4803149606323
 30
0.0
 11
1562.834645669298
 21
41.57480314960594
 31
0.0
  0
LINE
  5
1B4A3
330
1B454
100
AcDbEntity
  8
02製品
  6
Continuous
370
    15
100
AcDbLine
 10
41.57480314960594
 20
41.57480314960594
 30
0.0
 11
41.57480314960594
 21
797.4803149606323
 31
0.0
  0
LINE
  5
1B4A4
330
1B454
100
AcDbEntity
  8
02製品
  6
Continuous
370
    15
100
AcDbLine
 10
41.57480314960594
 20
797.4803149606323
 30
0.0
 11
3.779527559048802
 21
797.4803149606323
 31
0.0
  0
LINE
  5
1B4A5
330
1B454
100
AcDbEntity
  8
02製品
  6
Continuous
370
    15
100
AcDbLine
 10
41.57480314960594
 20
41.57480314960594
 30
0.0
 11
3.779527559048802
 21
41.57480314960594
 31
0.0
  0
LINE
  5
1B4A6
330
1B454
100
AcDbEntity
  8
02製品
  6
Continuous
370
    15
100
AcDbLine
 10
3.779527559048802
 20
41.57480314960594
 30
0.0
 11
3.779527559048802
 21
797.4803149606323
 31
0.0
  0
LINE
  5
1B4A7
330
1B454
100
AcDbEntity
  8
02製品
  6
Continuous
370
    15
100
AcDbLine
 10
3.779527559048802
 20
41.57480314960594
 30
0.0
 11
3.779527559048802
 21
6.614173228344953
 31
0.0
  0
LINE
  5
1B4A8
330
1B454
100
AcDbEntity
  8
02製品
  6
Continuous
370
    15
100
AcDbLine
 10
1562.834645669298
 20
41.57480314960594
 30
0.0
 11
1562.834645669298
 21
6.614173228344953
 31
0.0
  0
LINE
  5
1B4A9
330
1B454
100
AcDbEntity
  8
02製品
  6
Continuous
370
    15
100
AcDbLine
 10
1562.834645669298
 20
6.614173228344953
 30
0.0
 11
1560.000000000002
 21
3.779527559048802
 31
0.0
  0
LINE
  5
1B4AA
330
1B454
100
AcDbEntity
  8
02製品
  6
Continuous
370
    15
100
AcDbLine
 10
6.614173228344953
 20
3.779527559048802
 30
0.0
 11
1560.000000000002
 21
3.779527559048802
 31
0.0
  0
LINE
  5
1B4AB
330
1B454
100
AcDbEntity
  8
02製品
  6
Continuous
370
    15
100
AcDbLine
 10
6.614173228344953
 20
3.779527559048802
 30
0.0
 11
3.779527559048802
 21
6.614173228344953
 31
0.0
  0
LINE
  5
1B4AC
330
1B454
100
AcDbEntity
  8
02製品
  6
Continuous
370
    15
100
AcDbLine
 10
3.779527559048802
 20
41.57480314960594
 30
0.0
 11
1562.834645669298
 21
41.57480314960594
 31
0.0
  0
LINE
  5
1B4AD
330
1B454
100
AcDbEntity
  8
02製品
  6
Continuous
370
    15
100
AcDbLine
 10
1562.834645669298
 20
797.4803149606323
 30
0.0
 11
1562.834645669298
 21
832.4409448818933
 31
0.0
  0
LINE
  5
1B4AE
330
1B454
100
AcDbEntity
  8
02製品
  6
Continuous
370
    15
100
AcDbLine
 10
1562.834645669298
 20
797.4803149606323
 30
0.0
 11
3.779527559048802
 21
797.4803149606323
 31
0.0
  0
LINE
  5
1B4AF
330
1B454
100
AcDbEntity
  8
02製品
  6
Continuous
370
    15
100
AcDbLine
 10
3.779527559048802
 20
832.4409448818933
 30
0.0
 11
6.614173228344953
 21
835.2755905511749
 31
0.0
  0
LINE
  5
1B4B0
330
1B454
100
AcDbEntity
  8
02製品
  6
Continuous
370
    15
100
AcDbLine
 10
1560.000000000002
 20
835.2755905511749
 30
0.0
 11
6.614173228344953
 21
835.2755905511749
 31
0.0
  0
LINE
  5
1B4B1
330
1B454
100
AcDbEntity
  8
02製品
  6
Continuous
370
    15
100
AcDbLine
 10
1560.000000000002
 20
835.2755905511749
 30
0.0
 11
1562.834645669298
 21
832.4409448818933
 31
0.0
  0
LINE
  5
1B4B2
330
1B454
100
AcDbEntity
  8
02製品
  6
Continuous
370
    15
100
AcDbLine
 10
3.779527559048802
 20
797.4803149606323
 30
0.0
 11
3.779527559048802
 21
832.4409448818933
 31
0.0
  0
ENDBLK
  5
1B4B4
330
1B454
100
AcDbEntity
  8
0
100
AcDbBlockEnd
  0
BLOCK
  5
1B512
330
1B4B6
100
AcDbEntity
  8
0
100
AcDbBlockBegin
  2
A$C19219
 70
     0
 10
0.0
 20
0.0
 30
0.0
  3
A$C19219
  1

  0
LINE
  5
1B4CD
330
1B4B6
100
AcDbEntity
  8
02製品
  6
Continuous
370
    15
100
AcDbLine
 10
802.2047244094429
 20
330.7086614173313
 30
0.0
 11
844.7244094488124
 21
434.6456692913343
 31
0.0
  0
LINE
  5
1B4CE
330
1B4B6
100
AcDbEntity
  8
02製品
  6
Continuous
370
    15
100
AcDbLine
 10
764.4094488188857
 20
330.7086614173313
 30
0.0
 11
802.2047244094429
 21
330.7086614173313
 31
0.0
  0
LINE
  5
1B4CF
330
1B4B6
100
AcDbEntity
  8
02製品
  6
Continuous
370
    15
100
AcDbLine
 10
721.8897637795162
 20
472.4409448818915
 30
0.0
 11
721.8897637795162
 21
434.6456692913343
 31
0.0
  0
CIRCLE
  5
1B4D0
330
1B4B6
100
AcDbEntity
  8
02製品
  6
Continuous
370
    15
100
AcDbCircle
 10
736.0629921259824
 20
453.5433070866129
 30
0.0
 40
4.724409448818847
  0
CIRCLE
  5
1B4D1
330
1B4B6
100
AcDbEntity
  8
02製品
  6
Continuous
370
    15
100
AcDbCircle
 10
783.3070866141788
 20
406.2992125984165
 30
0.0
 40
4.724409448818847
  0
CIRCLE
  5
1B4D2
330
1B4B6
100
AcDbEntity
  8
02製品
  6
Continuous
370
    15
100
AcDbCircle
 10
783.3070866141788
 20
349.6062992125953
 30
0.0
 40
4.724409448818847
  0
LINE
  5
1B4D3
330
1B4B6
100
AcDbEntity
  8
02製品
  6
Continuous
370
    15
100
AcDbLine
 10
721.8897637795162
 20
434.6456692913343
 30
0.0
 11
764.4094488188857
 21
330.7086614173313
 31
0.0
  0
LINE
  5
1B4D4
330
1B4B6
100
AcDbEntity
  8
02製品
  6
Continuous
370
    15
100
AcDbLine
 10
844.7244094488124
 20
434.6456692913343
 30
0.0
 11
844.7244094488124
 21
472.4409448818915
 31
0.0
  0
CIRCLE
  5
1B4D5
330
1B4B6
100
AcDbEntity
  8
02製品
  6
Continuous
370
    15
100
AcDbCircle
 10
830.5511811023607
 20
453.5433070866129
 30
0.0
 40
4.724409448819188
  0
LINE
  5
1B4D6
330
1B4B6
100
AcDbEntity
  8
02製品
  6
Continuous
370
    15
100
AcDbLine
 10
844.7244094488124
 20
472.4409448818915
 30
0.0
 11
721.8897637795162
 21
472.4409448818915
 31
0.0
  0
LINE
  5
1B4D7
330
1B4B6
100
AcDbEntity
  8
02製品
  6
Continuous
370
    15
100
AcDbLine
 10
6.047244094486814
 20
330.7086614173313
 30
0.0
 11
6.047244094486814
 21
472.4409448818915
 31
0.0
  0
LINE
  5
1B4D8
330
1B4B6
100
AcDbEntity
  8
02製品
  6
Continuous
370
    15
100
AcDbLine
 10
6.047244094486814
 20
330.7086614173313
 30
0.0
 11
0.0
 21
330.7086614173313
 31
0.0
  0
LINE
  5
1B4D9
330
1B4B6
100
AcDbEntity
  8
02製品
  6
Continuous
370
    15
100
AcDbLine
 10
0.0
 20
330.7086614173313
 30
0.0
 11
0.0
 21
472.4409448818915
 31
0.0
  0
LINE
  5
1B4DA
330
1B4B6
100
AcDbEntity
  8
02製品
  6
Continuous
370
    15
100
AcDbLine
 10
6.047244094486814
 20
472.4409448818915
 30
0.0
 11
0.0
 21
472.4409448818915
 31
0.0
  0
CIRCLE
  5
1B4DB
330
1B4B6
100
AcDbEntity
  8
02製品
  6
Continuous
370
    15
100
AcDbCircle
 10
121.8897637795162
 20
453.5433070866129
 30
0.0
 40
4.724409448818676
  0
CIRCLE
  5
1B4DC
330
1B4B6
100
AcDbEntity
  8
02製品
  6
Continuous
370
    15
100
AcDbCircle
 10
27.40157480315247
 20
406.2992125984165
 30
0.0
 40
4.724409448818847
  0
LINE
  5
1B4DD
330
1B4B6
100
AcDbEntity
  8
02製品
  6
Continuous
370
    15
100
AcDbLine
 10
141.7322834645602
 20
434.6456692913343
 30
0.0
 11
141.7322834645602
 21
472.4409448818915
 31
0.0
  0
LINE
  5
1B4DE
330
1B4B6
100
AcDbEntity
  8
02製品
  6
Continuous
370
    15
100
AcDbLine
 10
37.79527559054259
 20
330.7086614173313
 30
0.0
 11
6.047244094486814
 21
330.7086614173313
 31
0.0
  0
LINE
  5
1B4DF
330
1B4B6
100
AcDbEntity
  8
02製品
  6
Continuous
370
    15
100
AcDbLine
 10
37.79527559054259
 20
330.7086614173313
 30
0.0
 11
141.7322834645602
 21
434.6456692913343
 31
0.0
  0
CIRCLE
  5
1B4E0
330
1B4B6
100
AcDbEntity
  8
02製品
  6
Continuous
370
    15
100
AcDbCircle
 10
32.12598425196484
 20
453.5433070866129
 30
0.0
 40
4.724409448818847
  0
CIRCLE
  5
1B4E1
330
1B4B6
100
AcDbEntity
  8
02製品
  6
Continuous
370
    15
100
AcDbCircle
 10
27.40157480315247
 20
349.6062992125953
 30
0.0
 40
4.724409448818847
  0
LINE
  5
1B4E2
330
1B4B6
100
AcDbEntity
  8
02製品
  6
Continuous
370
    15
100
AcDbLine
 10
141.7322834645602
 20
472.4409448818915
 30
0.0
 11
6.047244094486814
 21
472.4409448818915
 31
0.0
  0
LINE
  5
1B4E3
330
1B4B6
100
AcDbEntity
  8
02製品
  6
Continuous
370
    15
100
AcDbLine
 10
1566.614173228343
 20
330.7086614173313
 30
0.0
 11
1566.614173228343
 21
472.4409448818915
 31
0.0
  0
LINE
  5
1B4E4
330
1B4B6
100
AcDbEntity
  8
02製品
  6
Continuous
370
    15
100
AcDbLine
 10
1560.566929133856
 20
330.7086614173313
 30
0.0
 11
1560.566929133856
 21
472.4409448818915
 31
0.0
  0
LINE
  5
1B4E5
330
1B4B6
100
AcDbEntity
  8
02製品
  6
Continuous
370
    15
100
AcDbLine
 10
1560.566929133856
 20
472.4409448818915
 30
0.0
 11
1566.614173228343
 21
472.4409448818915
 31
0.0
  0
LINE
  5
1B4E6
330
1B4B6
100
AcDbEntity
  8
02製品
  6
Continuous
370
    15
100
AcDbLine
 10
1560.566929133856
 20
330.7086614173313
 30
0.0
 11
1566.614173228343
 21
330.7086614173313
 31
0.0
  0
LINE
  5
1B4E7
330
1B4B6
100
AcDbEntity
  8
02製品
  6
Continuous
370
    15
100
AcDbLine
 10
1424.881889763783
 20
434.6456692913343
 30
0.0
 11
1424.881889763783
 21
472.4409448818915
 31
0.0
  0
LINE
  5
1B4E8
330
1B4B6
100
AcDbEntity
  8
02製品
  6
Continuous
370
    15
100
AcDbLine
 10
1528.818897637786
 20
330.7086614173313
 30
0.0
 11
1424.881889763783
 21
434.6456692913343
 31
0.0
  0
CIRCLE
  5
1B4E9
330
1B4B6
100
AcDbEntity
  8
02製品
  6
Continuous
370
    15
100
AcDbCircle
 10
1534.488188976378
 20
453.5433070866129
 30
0.0
 40
4.724409448818847
  0
CIRCLE
  5
1B4EA
330
1B4B6
100
AcDbEntity
  8
02製品
  6
Continuous
370
    15
100
AcDbCircle
 10
1539.212598425205
 20
406.2992125984165
 30
0.0
 40
4.724409448818847
  0
CIRCLE
  5
1B4EB
330
1B4B6
100
AcDbEntity
  8
02製品
  6
Continuous
370
    15
100
AcDbCircle
 10
1539.212598425205
 20
349.6062992125953
 30
0.0
 40
4.724409448818847
  0
CIRCLE
  5
1B4EC
330
1B4B6
100
AcDbEntity
  8
02製品
  6
Continuous
370
    15
100
AcDbCircle
 10
1444.724409448812
 20
453.5433070866129
 30
0.0
 40
4.724409448818847
  0
LINE
  5
1B4ED
330
1B4B6
100
AcDbEntity
  8
02製品
  6
Continuous
370
    15
100
AcDbLine
 10
1424.881889763783
 20
472.4409448818915
 30
0.0
 11
1560.566929133856
 21
472.4409448818915
 31
0.0
  0
LINE
  5
1B4EE
330
1B4B6
100
AcDbEntity
  8
02製品
  6
Continuous
370
    15
100
AcDbLine
 10
1528.818897637786
 20
330.7086614173313
 30
0.0
 11
1560.566929133856
 21
330.7086614173313
 31
0.0
  0
LINE
  5
1B4EF
330
1B4B6
100
AcDbEntity
  8
02製品
  6
Continuous
370
    15
100
AcDbLine
 10
764.4094488188857
 20
2.834645669296151
 30
0.0
 11
764.4094488188857
 21
330.7086614173313
 31
0.0
  0
LINE
  5
1B4F0
330
1B4B6
100
AcDbEntity
  8
02製品
  6
Continuous
370
    15
100
AcDbLine
 10
764.4094488188857
 20
2.834645669296151
 30
0.0
 11
802.2047244094429
 21
2.834645669296151
 31
0.0
  0
LINE
  5
1B4F1
330
1B4B6
100
AcDbEntity
  8
02製品
  6
Continuous
370
    15
100
AcDbLine
 10
802.2047244094429
 20
2.834645669296151
 30
0.0
 11
802.2047244094429
 21
330.7086614173313
 31
0.0
  0
LINE
  5
1B4F2
330
1B4B6
100
AcDbEntity
  8
02製品
  6
Continuous
370
    15
100
AcDbLine
 10
929.7637795275514
 20
0.0
 30
0.0
 11
929.7637795275514
 21
2.834645669296151
 31
0.0
  0
LINE
  5
1B4F3
330
1B4B6
100
AcDbEntity
  8
02製品
  6
Continuous
370
    15
100
AcDbLine
 10
929.7637795275514
 20
0.0
 30
0.0
 11
636.8503937007772
 21
0.0
 31
0.0
  0
LINE
  5
1B4F4
330
1B4B6
100
AcDbEntity
  8
02製品
  6
Continuous
370
    15
100
AcDbLine
 10
636.8503937007772
 20
0.0
 30
0.0
 11
636.8503937007772
 21
2.834645669296151
 31
0.0
  0
LINE
  5
1B4F5
330
1B4B6
100
AcDbEntity
  8
02製品
  6
Continuous
370
    15
100
AcDbLine
 10
929.7637795275514
 20
2.834645669296151
 30
0.0
 11
636.8503937007772
 21
2.834645669296151
 31
0.0
  0
LINE
  5
1B4F6
330
1B4B6
100
AcDbEntity
  8
02製品
  6
Continuous
370
    15
100
AcDbLine
 10
934.4881889763783
 20
0.0
 30
0.0
 11
934.4881889763783
 21
2.834645669296151
 31
0.0
  0
LINE
  5
1B4F7
330
1B4B6
100
AcDbEntity
  8
02製品
  6
Continuous
370
    15
100
AcDbLine
 10
934.4881889763783
 20
0.0
 30
0.0
 11
929.7637795275514
 21
0.0
 31
0.0
  0
LINE
  5
1B4F8
330
1B4B6
100
AcDbEntity
  8
02製品
  6
Continuous
370
    15
100
AcDbLine
 10
934.4881889763783
 20
2.834645669296151
 30
0.0
 11
929.7637795275514
 21
2.834645669296151
 31
0.0
  0
LINE
  5
1B4F9
330
1B4B6
100
AcDbEntity
  8
02製品
  6
Continuous
370
    15
100
AcDbLine
 10
632.1259842519648
 20
0.0
 30
0.0
 11
632.1259842519648
 21
2.834645669296151
 31
0.0
  0
LINE
  5
1B4FA
330
1B4B6
100
AcDbEntity
  8
02製品
  6
Continuous
370
    15
100
AcDbLine
 10
636.8503937007772
 20
0.0
 30
0.0
 11
632.1259842519648
 21
0.0
 31
0.0
  0
LINE
  5
1B4FB
330
1B4B6
100
AcDbEntity
  8
02製品
  6
Continuous
370
    15
100
AcDbLine
 10
636.8503937007772
 20
2.834645669296151
 30
0.0
 11
632.1259842519648
 21
2.834645669296151
 31
0.0
  0
LINE
  5
1B4FC
330
1B4B6
100
AcDbEntity
  8
02製品
  6
Continuous
370
    15
100
AcDbLine
 10
41.57480314960412
 20
2.834645669296151
 30
0.0
 11
41.57480314960412
 21
334.4881889763783
 31
0.0
  0
LINE
  5
1B4FD
330
1B4B6
100
AcDbEntity
  8
02製品
  6
Continuous
370
    15
100
AcDbLine
 10
41.57480314960412
 20
2.834645669296151
 30
0.0
 11
3.779527559046983
 21
2.834645669296151
 31
0.0
  0
LINE
  5
1B4FE
330
1B4B6
100
AcDbEntity
  8
02製品
  6
Continuous
370
    15
100
AcDbLine
 10
3.779527559046983
 20
2.834645669296151
 30
0.0
 11
3.779527559046983
 21
325.9842519685044
 31
0.0
  0
LINE
  5
1B4FF
330
1B4B6
100
AcDbEntity
  8
02製品
  6
Continuous
370
    15
100
AcDbLine
 10
6.614173228343134
 20
325.9842519685044
 30
0.0
 11
3.779527559046983
 21
325.9842519685044
 31
0.0
  0
LINE
  5
1B500
330
1B4B6
100
AcDbEntity
  8
02製品
  6
Continuous
370
    15
100
AcDbLine
 10
6.614173228343134
 20
325.9842519685044
 30
0.0
 11
6.614173228343134
 21
330.7086614173313
 31
0.0
  0
LINE
  5
1B501
330
1B4B6
100
AcDbEntity
  8
02製品
  6
Continuous
370
    15
100
AcDbLine
 10
3.779527559046983
 20
325.9842519685044
 30
0.0
 11
3.779527559046983
 21
330.7086614173313
 31
0.0
  0
LINE
  5
1B502
330
1B4B6
100
AcDbEntity
  8
02製品
  6
Continuous
370
    15
100
AcDbLine
 10
3.779527559046983
 20
0.0
 30
0.0
 11
41.57480314960412
 21
0.0
 31
0.0
  0
LINE
  5
1B503
330
1B4B6
100
AcDbEntity
  8
02製品
  6
Continuous
370
    15
100
AcDbLine
 10
41.57480314960412
 20
0.0
 30
0.0
 11
41.57480314960412
 21
2.834645669296151
 31
0.0
  0
LINE
  5
1B504
330
1B4B6
100
AcDbEntity
  8
02製品
  6
Continuous
370
    15
100
AcDbLine
 10
3.779527559046983
 20
0.0
 30
0.0
 11
3.779527559046983
 21
2.834645669296151
 31
0.0
  0
LINE
  5
1B505
330
1B4B6
100
AcDbEntity
  8
02製品
  6
Continuous
370
    15
100
AcDbLine
 10
1525.039370078739
 20
2.834645669296151
 30
0.0
 11
1562.834645669296
 21
2.834645669296151
 31
0.0
  0
LINE
  5
1B506
330
1B4B6
100
AcDbEntity
  8
02製品
  6
Continuous
370
    15
100
AcDbLine
 10
1525.039370078739
 20
2.834645669296151
 30
0.0
 11
1525.039370078739
 21
334.4881889763783
 31
0.0
  0
LINE
  5
1B507
330
1B4B6
100
AcDbEntity
  8
02製品
  6
Continuous
370
    15
100
AcDbLine
 10
1560.0
 20
325.9842519685044
 30
0.0
 11
1560.0
 21
330.7086614173313
 31
0.0
  0
LINE
  5
1B508
330
1B4B6
100
AcDbEntity
  8
02製品
  6
Continuous
370
    15
100
AcDbLine
 10
1560.0
 20
325.9842519685044
 30
0.0
 11
1562.834645669296
 21
325.9842519685044
 31
0.0
  0
LINE
  5
1B509
330
1B4B6
100
AcDbEntity
  8
02製品
  6
Continuous
370
    15
100
AcDbLine
 10
1562.834645669296
 20
2.834645669296151
 30
0.0
 11
1562.834645669296
 21
325.9842519685044
 31
0.0
  0
LINE
  5
1B50A
330
1B4B6
100
AcDbEntity
  8
02製品
  6
Continuous
370
    15
100
AcDbLine
 10
1562.834645669296
 20
325.9842519685044
 30
0.0
 11
1562.834645669296
 21
330.7086614173313
 31
0.0
  0
LINE
  5
1B50B
330
1B4B6
100
AcDbEntity
  8
02製品
  6
Continuous
370
    15
100
AcDbLine
 10
1562.834645669296
 20
0.0
 30
0.0
 11
1562.834645669296
 21
2.834645669296151
 31
0.0
  0
LINE
  5
1B50C
330
1B4B6
100
AcDbEntity
  8
02製品
  6
Continuous
370
    15
100
AcDbLine
 10
1562.834645669296
 20
0.0
 30
0.0
 11
1525.039370078739
 21
0.0
 31
0.0
  0
LINE
  5
1B50D
330
1B4B6
100
AcDbEntity
  8
02製品
  6
Continuous
370
    15
100
AcDbLine
 10
1525.039370078739
 20
0.0
 30
0.0
 11
1525.039370078739
 21
2.834645669296151
 31
0.0
  0
LINE
  5
1B50E
330
1B4B6
100
AcDbEntity
  8
02製品
  6
Continuous
370
    15
100
AcDbLine
 10
141.7322834645602
 20
472.4409448818915
 30
0.0
 11
721.8897637795162
 21
472.4409448818915
 31
0.0
  0
LINE
  5
1B50F
330
1B4B6
100
AcDbEntity
  8
02製品
  6
Continuous
370
    15
100
AcDbLine
 10
844.7244094488124
 20
472.4409448818915
 30
0.0
 11
1424.881889763783
 21
472.4409448818915
 31
0.0
  0
LINE
  5
1B510
330
1B4B6
100
AcDbEntity
  8
02製品
  6
Continuous
370
    15
100
AcDbLine
 10
141.7322834645602
 20
434.6456692913343
 30
0.0
 11
721.8897637795162
 21
434.6456692913343
 31
0.0
  0
LINE
  5
1B511
330
1B4B6
100
AcDbEntity
  8
02製品
  6
Continuous
370
    15
100
AcDbLine
 10
844.7244094488124
 20
434.6456692913343
 30
0.0
 11
1424.881889763783
 21
434.6456692913343
 31
0.0
  0
ENDBLK
  5
1B513
330
1B4B6
100
AcDbEntity
  8
0
100
AcDbBlockEnd
  0
BLOCK
  5
1B6EC
330
1B60A
100
AcDbEntity
  8
0
100
AcDbBlockBegin
  2
A$C9882
 70
     0
 10
0.0
 20
0.0
 30
0.0
  3
A$C9882
  1

  0
INSERT
  5
1B621
330
1B60A
100
AcDbEntity
  8
02製品
100
AcDbBlockReference
  2
A$C19219
 10
7.100078743767426
 20
0.0
 30
0.0
 41
1.05833489393674
 42
1.05833489393674
 43
1.05833489393674
  0
LINE
  5
1B66C
330
1B60A
100
AcDbEntity
  8
02製品
  6
ByBlock
100
AcDbLine
 10
5.500000000001364
 20
471.4990355962473
 30
0.0
 11
7.100000003516016
 21
471.4990355962473
 31
0.0
  0
LINE
  5
1B66D
330
1B60A
100
AcDbEntity
  8
02製品
  6
ByBlock
100
AcDbLine
 10
5.500000000001364
 20
488.4990355962473
 30
0.0
 11
7.100000003516016
 21
488.4990355962473
 31
0.0
  0
LINE
  5
1B66E
330
1B60A
100
AcDbEntity
  8
02製品
  6
ByBlock
100
AcDbLine
 10
7.100000003516016
 20
488.4990355962473
 30
0.0
 11
7.100000003516016
 21
471.4990355962473
 31
0.0
  0
LINE
  5
1B66F
330
1B60A
100
AcDbEntity
  8
02製品
  6
ByBlock
100
AcDbLine
 10
5.500000000001364
 20
488.4990355962473
 30
0.0
 11
5.500000000001364
 21
471.4990355962473
 31
0.0
  0
LINE
  5
1B670
330
1B60A
100
AcDbEntity
  8
02製品
  6
ByBlock
100
AcDbLine
 10
0.6960296630854828
 20
472.4934966558176
 30
0.0
 11
5.500000000001364
 21
472.4934966558176
 31
0.0
  0
LINE
  5
1B671
330
1B60A
100
AcDbEntity
  8
02製品
  6
ByBlock
100
AcDbLine
 10
-0.0000000000004547
 20
486.2991208038438
 30
0.0
 11
-0.0000000000004547
 21
473.6990247752583
 31
0.0
  0
ARC
  5
1B672
330
1B60A
100
AcDbEntity
  8
02製品
  6
ByBlock
100
AcDbCircle
 10
12.00000000000136
 20
479.9990355962491
 30
0.0
 40
12.0
100
AcDbArc
 50
161.7759804502466
 51
198.2237823143882
  0
LINE
  5
1B673
330
1B60A
100
AcDbEntity
  8
02製品
  6
ByBlock
100
AcDbLine
 10
0.6018981933589203
 20
476.2462890142178
 30
0.0
 11
5.500000000001364
 21
476.2462890142178
 31
0.0
  0
LINE
  5
1B674
330
1B60A
100
AcDbEntity
  8
02製品
  6
ByBlock
100
AcDbLine
 10
0.6019134521498017
 20
483.7518432134348
 30
0.0
 11
5.500000000001364
 21
483.7518432134348
 31
0.0
  0
LINE
  5
1B675
330
1B60A
100
AcDbEntity
  8
02製品
  6
ByBlock
100
AcDbLine
 10
0.6960296630854828
 20
487.5046050542551
 30
0.0
 11
5.500000000001364
 21
487.5046050542551
 31
0.0
  0
LINE
  5
1B676
330
1B60A
100
AcDbEntity
  8
02製品
  6
ByBlock
100
AcDbLine
 10
0.6019017629491827
 20
483.751866868557
 30
0.0
 11
-0.0000000000004547
 21
486.2991208038438
 31
0.0
  0
LINE
  5
1B677
330
1B60A
100
AcDbEntity
  8
02製品
  6
ByBlock
100
AcDbLine
 10
-0.0000000000004547
 20
473.6990247752583
 30
0.0
 11
0.601876033449571
 21
476.2463361475584
 31
0.0
  0
LINE
  5
1B678
330
1B60A
100
AcDbEntity
  8
02製品
  6
ByBlock
100
AcDbLine
 10
-0.0000000000004547
 20
473.6990247752583
 30
0.0
 11
0.6959975911627225
 21
472.493521452232
 31
0.0
  0
LINE
  5
1B679
330
1B60A
100
AcDbEntity
  8
02製品
  6
ByBlock
100
AcDbLine
 10
0.6960187865765874
 20
487.5046608384055
 30
0.0
 11
-0.0000000000004547
 21
486.2991208038438
 31
0.0
  0
LINE
  5
1B67A
330
1B60A
100
AcDbEntity
  8
02製品
  6
ByBlock
100
AcDbLine
 10
5.500000000001364
 20
421.4990355962473
 30
0.0
 11
7.100000003516016
 21
421.4990355962473
 31
0.0
  0
LINE
  5
1B67B
330
1B60A
100
AcDbEntity
  8
02製品
  6
ByBlock
100
AcDbLine
 10
5.500000000001364
 20
438.4990355962473
 30
0.0
 11
7.100000003516016
 21
438.4990355962473
 31
0.0
  0
LINE
  5
1B67C
330
1B60A
100
AcDbEntity
  8
02製品
  6
ByBlock
100
AcDbLine
 10
7.100000003516016
 20
438.4990355962473
 30
0.0
 11
7.100000003516016
 21
421.4990355962473
 31
0.0
  0
LINE
  5
1B67D
330
1B60A
100
AcDbEntity
  8
02製品
  6
ByBlock
100
AcDbLine
 10
5.500000000001364
 20
438.4990355962473
 30
0.0
 11
5.500000000001364
 21
421.4990355962473
 31
0.0
  0
LINE
  5
1B67E
330
1B60A
100
AcDbEntity
  8
02製品
  6
ByBlock
100
AcDbLine
 10
0.6960296630854828
 20
422.4934966558176
 30
0.0
 11
5.500000000001364
 21
422.4934966558176
 31
0.0
  0
LINE
  5
1B67F
330
1B60A
100
AcDbEntity
  8
02製品
  6
ByBlock
100
AcDbLine
 10
-0.0000000000004547
 20
436.2991208038438
 30
0.0
 11
-0.0000000000004547
 21
423.6990247752583
 31
0.0
  0
ARC
  5
1B680
330
1B60A
100
AcDbEntity
  8
02製品
  6
ByBlock
100
AcDbCircle
 10
12.00000000000136
 20
429.9990355962491
 30
0.0
 40
12.0
100
AcDbArc
 50
161.7759804502466
 51
198.2237823143882
  0
LINE
  5
1B681
330
1B60A
100
AcDbEntity
  8
02製品
  6
ByBlock
100
AcDbLine
 10
0.6018981933589203
 20
426.2462890142178
 30
0.0
 11
5.500000000001364
 21
426.2462890142178
 31
0.0
  0
LINE
  5
1B682
330
1B60A
100
AcDbEntity
  8
02製品
  6
ByBlock
100
AcDbLine
 10
0.6019134521498017
 20
433.7518432134348
 30
0.0
 11
5.500000000001364
 21
433.7518432134348
 31
0.0
  0
LINE
  5
1B683
330
1B60A
100
AcDbEntity
  8
02製品
  6
ByBlock
100
AcDbLine
 10
0.6960296630854828
 20
437.5046050542551
 30
0.0
 11
5.500000000001364
 21
437.5046050542551
 31
0.0
  0
LINE
  5
1B684
330
1B60A
100
AcDbEntity
  8
02製品
  6
ByBlock
100
AcDbLine
 10
0.6019017629491827
 20
433.751866868557
 30
0.0
 11
-0.0000000000004547
 21
436.2991208038438
 31
0.0
  0
LINE
  5
1B685
330
1B60A
100
AcDbEntity
  8
02製品
  6
ByBlock
100
AcDbLine
 10
-0.0000000000004547
 20
423.6990247752583
 30
0.0
 11
0.601876033449571
 21
426.2463361475584
 31
0.0
  0
LINE
  5
1B686
330
1B60A
100
AcDbEntity
  8
02製品
  6
ByBlock
100
AcDbLine
 10
-0.0000000000004547
 20
423.6990247752583
 30
0.0
 11
0.6959975911627225
 21
422.493521452232
 31
0.0
  0
LINE
  5
1B687
330
1B60A
100
AcDbEntity
  8
02製品
  6
ByBlock
100
AcDbLine
 10
0.6960187865765874
 20
437.5046608384055
 30
0.0
 11
-0.0000000000004547
 21
436.2991208038438
 31
0.0
  0
LINE
  5
1B688
330
1B60A
100
AcDbEntity
  8
02製品
  6
ByBlock
100
AcDbLine
 10
5.500000000001364
 20
361.4990355962473
 30
0.0
 11
7.100000003516016
 21
361.4990355962473
 31
0.0
  0
LINE
  5
1B689
330
1B60A
100
AcDbEntity
  8
02製品
  6
ByBlock
100
AcDbLine
 10
5.500000000001364
 20
378.4990355962473
 30
0.0
 11
7.100000003516016
 21
378.4990355962473
 31
0.0
  0
LINE
  5
1B68A
330
1B60A
100
AcDbEntity
  8
02製品
  6
ByBlock
100
AcDbLine
 10
7.100000003516016
 20
378.4990355962473
 30
0.0
 11
7.100000003516016
 21
361.4990355962473
 31
0.0
  0
LINE
  5
1B68B
330
1B60A
100
AcDbEntity
  8
02製品
  6
ByBlock
100
AcDbLine
 10
5.500000000001364
 20
378.4990355962473
 30
0.0
 11
5.500000000001364
 21
361.4990355962473
 31
0.0
  0
LINE
  5
1B68C
330
1B60A
100
AcDbEntity
  8
02製品
  6
ByBlock
100
AcDbLine
 10
0.6960296630854828
 20
362.4934966558176
 30
0.0
 11
5.500000000001364
 21
362.4934966558176
 31
0.0
  0
LINE
  5
1B68D
330
1B60A
100
AcDbEntity
  8
02製品
  6
ByBlock
100
AcDbLine
 10
-0.0000000000004547
 20
376.2991208038438
 30
0.0
 11
-0.0000000000004547
 21
363.6990247752583
 31
0.0
  0
ARC
  5
1B68E
330
1B60A
100
AcDbEntity
  8
02製品
  6
ByBlock
100
AcDbCircle
 10
12.00000000000318
 20
369.9990355962491
 30
0.0
 40
12.0
100
AcDbArc
 50
161.7759804502466
 51
198.2237823143882
  0
LINE
  5
1B68F
330
1B60A
100
AcDbEntity
  8
02製品
  6
ByBlock
100
AcDbLine
 10
0.6018981933589203
 20
366.2462890142178
 30
0.0
 11
5.500000000001364
 21
366.2462890142178
 31
0.0
  0
LINE
  5
1B690
330
1B60A
100
AcDbEntity
  8
02製品
  6
ByBlock
100
AcDbLine
 10
0.6019134521516207
 20
373.7518432134348
 30
0.0
 11
5.500000000001364
 21
373.7518432134348
 31
0.0
  0
LINE
  5
1B691
330
1B60A
100
AcDbEntity
  8
02製品
  6
ByBlock
100
AcDbLine
 10
0.6960296630854828
 20
377.5046050542551
 30
0.0
 11
5.500000000001364
 21
377.5046050542551
 31
0.0
  0
LINE
  5
1B692
330
1B60A
100
AcDbEntity
  8
02製品
  6
ByBlock
100
AcDbLine
 10
0.6019017629491827
 20
373.751866868557
 30
0.0
 11
-0.0000000000004547
 21
376.2991208038438
 31
0.0
  0
LINE
  5
1B693
330
1B60A
100
AcDbEntity
  8
02製品
  6
ByBlock
100
AcDbLine
 10
-0.0000000000004547
 20
363.6990247752583
 30
0.0
 11
0.601876033449571
 21
366.2463361475584
 31
0.0
  0
LINE
  5
1B694
330
1B60A
100
AcDbEntity
  8
02製品
  6
ByBlock
100
AcDbLine
 10
-0.0000000000004547
 20
363.6990247752583
 30
0.0
 11
0.6959975911627225
 21
362.493521452232
 31
0.0
  0
LINE
  5
1B695
330
1B60A
100
AcDbEntity
  8
02製品
  6
ByBlock
100
AcDbLine
 10
0.6960187865765874
 20
377.5046608384055
 30
0.0
 11
-0.0000000000004547
 21
376.2991208038438
 31
0.0
  0
LINE
  5
1B696
330
1B60A
100
AcDbEntity
  8
02製品
100
AcDbLine
 10
26.10000000353057
 20
369.9990355962454
 30
0.0
 11
46.10000000353057
 21
369.9990355962454
 31
0.0
  0
LINE
  5
1B697
330
1B60A
100
AcDbEntity
  8
02製品
100
AcDbLine
 10
36.10000000353057
 20
379.9990355962454
 30
0.0
 11
36.10000000353057
 21
359.9990355962454
 31
0.0
  0
LINE
  5
1B698
330
1B60A
100
AcDbEntity
  8
02製品
100
AcDbLine
 10
26.10000000353057
 20
429.9990355962454
 30
0.0
 11
46.10000000353057
 21
429.9990355962454
 31
0.0
  0
LINE
  5
1B699
330
1B60A
100
AcDbEntity
  8
02製品
100
AcDbLine
 10
36.10000000353057
 20
439.9990355962454
 30
0.0
 11
36.10000000353057
 21
419.9990355962454
 31
0.0
  0
LINE
  5
1B69A
330
1B60A
100
AcDbEntity
  8
02製品
100
AcDbLine
 10
26.10000000351602
 20
369.9990355962454
 30
0.0
 11
46.10000000351602
 21
369.9990355962454
 31
0.0
  0
LINE
  5
1B69B
330
1B60A
100
AcDbEntity
  8
02製品
100
AcDbLine
 10
36.10000000351602
 20
379.9990355962454
 30
0.0
 11
36.10000000351602
 21
359.9990355962454
 31
0.0
  0
LINE
  5
1B69C
330
1B60A
100
AcDbEntity
  8
02製品
100
AcDbLine
 10
26.10000000351602
 20
429.9990355962454
 30
0.0
 11
46.10000000351602
 21
429.9990355962454
 31
0.0
  0
LINE
  5
1B69D
330
1B60A
100
AcDbEntity
  8
02製品
100
AcDbLine
 10
36.10000000351602
 20
439.9990355962454
 30
0.0
 11
36.10000000351602
 21
419.9990355962454
 31
0.0
  0
LINE
  5
1B69E
330
1B60A
100
AcDbEntity
  8
02製品
100
AcDbLine
 10
136.100000003516
 20
489.9990355962454
 30
0.0
 11
136.100000003516
 21
469.9990355962454
 31
0.0
  0
LINE
  5
1B69F
330
1B60A
100
AcDbEntity
  8
02製品
100
AcDbLine
 10
126.100000003516
 20
479.9990355962454
 30
0.0
 11
146.100000003516
 21
479.9990355962454
 31
0.0
  0
LINE
  5
1B6A0
330
1B60A
100
AcDbEntity
  8
02製品
100
AcDbLine
 10
41.10000000351602
 20
489.9990355962454
 30
0.0
 11
41.10000000351602
 21
469.9990355962454
 31
0.0
  0
LINE
  5
1B6A1
330
1B60A
100
AcDbEntity
  8
02製品
100
AcDbLine
 10
31.10000000351602
 20
479.9990355962454
 30
0.0
 11
51.10000000351602
 21
479.9990355962454
 31
0.0
  0
LINE
  5
1B6A2
330
1B60A
100
AcDbEntity
  8
02製品
100
AcDbLine
 10
136.100000003516
 20
489.9990355962454
 30
0.0
 11
136.100000003516
 21
469.9990355962454
 31
0.0
  0
LINE
  5
1B6A3
330
1B60A
100
AcDbEntity
  8
02製品
100
AcDbLine
 10
126.100000003516
 20
479.9990355962454
 30
0.0
 11
146.100000003516
 21
479.9990355962454
 31
0.0
  0
LINE
  5
1B6A4
330
1B60A
100
AcDbEntity
  8
02製品
  6
ByBlock
100
AcDbLine
 10
1666.696742015294
 20
471.4990355962473
 30
0.0
 11
1665.096742011779
 21
471.4990355962473
 31
0.0
  0
LINE
  5
1B6A5
330
1B60A
100
AcDbEntity
  8
02製品
  6
ByBlock
100
AcDbLine
 10
1666.696742015294
 20
488.4990355962473
 30
0.0
 11
1665.096742011779
 21
488.4990355962473
 31
0.0
  0
LINE
  5
1B6A6
330
1B60A
100
AcDbEntity
  8
02製品
  6
ByBlock
100
AcDbLine
 10
1665.096742011779
 20
488.4990355962473
 30
0.0
 11
1665.096742011779
 21
471.4990355962473
 31
0.0
  0
LINE
  5
1B6A7
330
1B60A
100
AcDbEntity
  8
02製品
  6
ByBlock
100
AcDbLine
 10
1666.696742015294
 20
488.4990355962473
 30
0.0
 11
1666.696742015294
 21
471.4990355962473
 31
0.0
  0
LINE
  5
1B6A8
330
1B60A
100
AcDbEntity
  8
02製品
  6
ByBlock
100
AcDbLine
 10
1671.50071235221
 20
472.4934966558176
 30
0.0
 11
1666.696742015294
 21
472.4934966558176
 31
0.0
  0
LINE
  5
1B6A9
330
1B60A
100
AcDbEntity
  8
02製品
  6
ByBlock
100
AcDbLine
 10
1672.196742015296
 20
486.2991208038438
 30
0.0
 11
1672.196742015296
 21
473.6990247752583
 31
0.0
  0
ARC
  5
1B6AA
330
1B60A
100
AcDbEntity
  8
02製品
  6
ByBlock
100
AcDbCircle
 10
1660.196742015294
 20
479.9990355962491
 30
0.0
 40
12.0
100
AcDbArc
 50
341.7762176856119
 51
18.22401954975336
  0
LINE
  5
1B6AB
330
1B60A
100
AcDbEntity
  8
02製品
  6
ByBlock
100
AcDbLine
 10
1671.594843821937
 20
476.2462890142178
 30
0.0
 11
1666.696742015294
 21
476.2462890142178
 31
0.0
  0
LINE
  5
1B6AC
330
1B60A
100
AcDbEntity
  8
02製品
  6
ByBlock
100
AcDbLine
 10
1671.594828563146
 20
483.7518432134348
 30
0.0
 11
1666.696742015294
 21
483.7518432134348
 31
0.0
  0
LINE
  5
1B6AD
330
1B60A
100
AcDbEntity
  8
02製品
  6
ByBlock
100
AcDbLine
 10
1671.50071235221
 20
487.5046050542551
 30
0.0
 11
1666.696742015294
 21
487.5046050542551
 31
0.0
  0
LINE
  5
1B6AE
330
1B60A
100
AcDbEntity
  8
02製品
  6
ByBlock
100
AcDbLine
 10
1671.594840252346
 20
483.751866868557
 30
0.0
 11
1672.196742015296
 21
486.2991208038438
 31
0.0
  0
LINE
  5
1B6AF
330
1B60A
100
AcDbEntity
  8
02製品
  6
ByBlock
100
AcDbLine
 10
1672.196742015296
 20
473.6990247752583
 30
0.0
 11
1671.594865981846
 21
476.2463361475584
 31
0.0
  0
LINE
  5
1B6B0
330
1B60A
100
AcDbEntity
  8
02製品
  6
ByBlock
100
AcDbLine
 10
1672.196742015296
 20
473.6990247752583
 30
0.0
 11
1671.500744424133
 21
472.493521452232
 31
0.0
  0
LINE
  5
1B6B1
330
1B60A
100
AcDbEntity
  8
02製品
  6
ByBlock
100
AcDbLine
 10
1671.500723228719
 20
487.5046608384055
 30
0.0
 11
1672.196742015296
 21
486.2991208038438
 31
0.0
  0
LINE
  5
1B6B2
330
1B60A
100
AcDbEntity
  8
02製品
  6
ByBlock
100
AcDbLine
 10
1666.696742015294
 20
421.4990355962473
 30
0.0
 11
1665.096742011779
 21
421.4990355962473
 31
0.0
  0
LINE
  5
1B6B3
330
1B60A
100
AcDbEntity
  8
02製品
  6
ByBlock
100
AcDbLine
 10
1666.696742015294
 20
438.4990355962473
 30
0.0
 11
1665.096742011779
 21
438.4990355962473
 31
0.0
  0
LINE
  5
1B6B4
330
1B60A
100
AcDbEntity
  8
02製品
  6
ByBlock
100
AcDbLine
 10
1665.096742011779
 20
438.4990355962473
 30
0.0
 11
1665.096742011779
 21
421.4990355962473
 31
0.0
  0
LINE
  5
1B6B5
330
1B60A
100
AcDbEntity
  8
02製品
  6
ByBlock
100
AcDbLine
 10
1666.696742015294
 20
438.4990355962473
 30
0.0
 11
1666.696742015294
 21
421.4990355962473
 31
0.0
  0
LINE
  5
1B6B6
330
1B60A
100
AcDbEntity
  8
02製品
  6
ByBlock
100
AcDbLine
 10
1671.50071235221
 20
422.4934966558176
 30
0.0
 11
1666.696742015294
 21
422.4934966558176
 31
0.0
  0
LINE
  5
1B6B7
330
1B60A
100
AcDbEntity
  8
02製品
  6
ByBlock
100
AcDbLine
 10
1672.196742015296
 20
436.2991208038438
 30
0.0
 11
1672.196742015296
 21
423.6990247752583
 31
0.0
  0
ARC
  5
1B6B8
330
1B60A
100
AcDbEntity
  8
02製品
  6
ByBlock
100
AcDbCircle
 10
1660.196742015294
 20
429.9990355962491
 30
0.0
 40
12.0
100
AcDbArc
 50
341.7762176856119
 51
18.22401954975336
  0
LINE
  5
1B6B9
330
1B60A
100
AcDbEntity
  8
02製品
  6
ByBlock
100
AcDbLine
 10
1671.594843821937
 20
426.2462890142178
 30
0.0
 11
1666.696742015294
 21
426.2462890142178
 31
0.0
  0
LINE
  5
1B6BA
330
1B60A
100
AcDbEntity
  8
02製品
  6
ByBlock
100
AcDbLine
 10
1671.594828563146
 20
433.7518432134348
 30
0.0
 11
1666.696742015294
 21
433.7518432134348
 31
0.0
  0
LINE
  5
1B6BB
330
1B60A
100
AcDbEntity
  8
02製品
  6
ByBlock
100
AcDbLine
 10
1671.50071235221
 20
437.5046050542551
 30
0.0
 11
1666.696742015294
 21
437.5046050542551
 31
0.0
  0
LINE
  5
1B6BC
330
1B60A
100
AcDbEntity
  8
02製品
  6
ByBlock
100
AcDbLine
 10
1671.594840252346
 20
433.751866868557
 30
0.0
 11
1672.196742015296
 21
436.2991208038438
 31
0.0
  0
LINE
  5
1B6BD
330
1B60A
100
AcDbEntity
  8
02製品
  6
ByBlock
100
AcDbLine
 10
1672.196742015296
 20
423.6990247752583
 30
0.0
 11
1671.594865981846
 21
426.2463361475584
 31
0.0
  0
LINE
  5
1B6BE
330
1B60A
100
AcDbEntity
  8
02製品
  6
ByBlock
100
AcDbLine
 10
1672.196742015296
 20
423.6990247752583
 30
0.0
 11
1671.500744424133
 21
422.493521452232
 31
0.0
  0
LINE
  5
1B6BF
330
1B60A
100
AcDbEntity
  8
02製品
  6
ByBlock
100
AcDbLine
 10
1671.500723228719
 20
437.5046608384055
 30
0.0
 11
1672.196742015296
 21
436.2991208038438
 31
0.0
  0
LINE
  5
1B6C0
330
1B60A
100
AcDbEntity
  8
02製品
  6
ByBlock
100
AcDbLine
 10
1666.696742015294
 20
361.4990355962473
 30
0.0
 11
1665.096742011779
 21
361.4990355962473
 31
0.0
  0
LINE
  5
1B6C1
330
1B60A
100
AcDbEntity
  8
02製品
  6
ByBlock
100
AcDbLine
 10
1666.696742015294
 20
378.4990355962473
 30
0.0
 11
1665.096742011779
 21
378.4990355962473
 31
0.0
  0
LINE
  5
1B6C2
330
1B60A
100
AcDbEntity
  8
02製品
  6
ByBlock
100
AcDbLine
 10
1665.096742011779
 20
378.4990355962473
 30
0.0
 11
1665.096742011779
 21
361.4990355962473
 31
0.0
  0
LINE
  5
1B6C3
330
1B60A
100
AcDbEntity
  8
02製品
  6
ByBlock
100
AcDbLine
 10
1666.696742015294
 20
378.4990355962473
 30
0.0
 11
1666.696742015294
 21
361.4990355962473
 31
0.0
  0
LINE
  5
1B6C4
330
1B60A
100
AcDbEntity
  8
02製品
  6
ByBlock
100
AcDbLine
 10
1671.50071235221
 20
362.4934966558176
 30
0.0
 11
1666.696742015294
 21
362.4934966558176
 31
0.0
  0
LINE
  5
1B6C5
330
1B60A
100
AcDbEntity
  8
02製品
  6
ByBlock
100
AcDbLine
 10
1672.196742015296
 20
376.2991208038438
 30
0.0
 11
1672.196742015296
 21
363.6990247752583
 31
0.0
  0
ARC
  5
1B6C6
330
1B60A
100
AcDbEntity
  8
02製品
  6
ByBlock
100
AcDbCircle
 10
1660.196742015292
 20
369.9990355962491
 30
0.0
 40
12.0
100
AcDbArc
 50
341.7762176856119
 51
18.22401954975336
  0
LINE
  5
1B6C7
330
1B60A
100
AcDbEntity
  8
02製品
  6
ByBlock
100
AcDbLine
 10
1671.594843821937
 20
366.2462890142178
 30
0.0
 11
1666.696742015294
 21
366.2462890142178
 31
0.0
  0
LINE
  5
1B6C8
330
1B60A
100
AcDbEntity
  8
02製品
  6
ByBlock
100
AcDbLine
 10
1671.594828563144
 20
373.7518432134348
 30
0.0
 11
1666.696742015294
 21
373.7518432134348
 31
0.0
  0
LINE
  5
1B6C9
330
1B60A
100
AcDbEntity
  8
02製品
  6
ByBlock
100
AcDbLine
 10
1671.50071235221
 20
377.5046050542551
 30
0.0
 11
1666.696742015294
 21
377.5046050542551
 31
0.0
  0
LINE
  5
1B6CA
330
1B60A
100
AcDbEntity
  8
02製品
  6
ByBlock
100
AcDbLine
 10
1671.594840252346
 20
373.751866868557
 30
0.0
 11
1672.196742015296
 21
376.2991208038438
 31
0.0
  0
LINE
  5
1B6CB
330
1B60A
100
AcDbEntity
  8
02製品
  6
ByBlock
100
AcDbLine
 10
1672.196742015296
 20
363.6990247752583
 30
0.0
 11
1671.594865981846
 21
366.2463361475584
 31
0.0
  0
LINE
  5
1B6CC
330
1B60A
100
AcDbEntity
  8
02製品
  6
ByBlock
100
AcDbLine
 10
1672.196742015296
 20
363.6990247752583
 30
0.0
 11
1671.500744424133
 21
362.493521452232
 31
0.0
  0
LINE
  5
1B6CD
330
1B60A
100
AcDbEntity
  8
02製品
  6
ByBlock
100
AcDbLine
 10
1671.500723228719
 20
377.5046608384055
 30
0.0
 11
1672.196742015296
 21
376.2991208038438
 31
0.0
  0
LINE
  5
1B6CE
330
1B60A
100
AcDbEntity
  8
02製品
100
AcDbLine
 10
1646.096742011765
 20
369.9990355962454
 30
0.0
 11
1626.096742011765
 21
369.9990355962454
 31
0.0
  0
LINE
  5
1B6CF
330
1B60A
100
AcDbEntity
  8
02製品
100
AcDbLine
 10
1636.096742011765
 20
379.9990355962454
 30
0.0
 11
1636.096742011765
 21
359.9990355962454
 31
0.0
  0
LINE
  5
1B6D0
330
1B60A
100
AcDbEntity
  8
02製品
100
AcDbLine
 10
1646.096742011765
 20
429.9990355962454
 30
0.0
 11
1626.096742011765
 21
429.9990355962454
 31
0.0
  0
LINE
  5
1B6D1
330
1B60A
100
AcDbEntity
  8
02製品
100
AcDbLine
 10
1636.096742011765
 20
439.9990355962454
 30
0.0
 11
1636.096742011765
 21
419.9990355962454
 31
0.0
  0
LINE
  5
1B6D2
330
1B60A
100
AcDbEntity
  8
02製品
100
AcDbLine
 10
1646.096742011779
 20
369.9990355962454
 30
0.0
 11
1626.096742011779
 21
369.9990355962454
 31
0.0
  0
LINE
  5
1B6D3
330
1B60A
100
AcDbEntity
  8
02製品
100
AcDbLine
 10
1636.096742011779
 20
379.9990355962454
 30
0.0
 11
1636.096742011779
 21
359.9990355962454
 31
0.0
  0
LINE
  5
1B6D4
330
1B60A
100
AcDbEntity
  8
02製品
100
AcDbLine
 10
1646.096742011779
 20
429.9990355962454
 30
0.0
 11
1626.096742011779
 21
429.9990355962454
 31
0.0
  0
LINE
  5
1B6D5
330
1B60A
100
AcDbEntity
  8
02製品
100
AcDbLine
 10
1636.096742011779
 20
439.9990355962454
 30
0.0
 11
1636.096742011779
 21
419.9990355962454
 31
0.0
  0
LINE
  5
1B6D6
330
1B60A
100
AcDbEntity
  8
02製品
100
AcDbLine
 10
1536.096742011779
 20
489.9990355962454
 30
0.0
 11
1536.096742011779
 21
469.9990355962454
 31
0.0
  0
LINE
  5
1B6D7
330
1B60A
100
AcDbEntity
  8
02製品
100
AcDbLine
 10
1546.096742011779
 20
479.9990355962454
 30
0.0
 11
1526.096742011779
 21
479.9990355962454
 31
0.0
  0
LINE
  5
1B6D8
330
1B60A
100
AcDbEntity
  8
02製品
100
AcDbLine
 10
1631.096742011779
 20
489.9990355962454
 30
0.0
 11
1631.096742011779
 21
469.9990355962454
 31
0.0
  0
LINE
  5
1B6D9
330
1B60A
100
AcDbEntity
  8
02製品
100
AcDbLine
 10
1641.096742011779
 20
479.9990355962454
 30
0.0
 11
1621.096742011779
 21
479.9990355962454
 31
0.0
  0
LINE
  5
1B6DA
330
1B60A
100
AcDbEntity
  8
02製品
100
AcDbLine
 10
1536.096742011779
 20
489.9990355962454
 30
0.0
 11
1536.096742011779
 21
469.9990355962454
 31
0.0
  0
LINE
  5
1B6DB
330
1B60A
100
AcDbEntity
  8
02製品
100
AcDbLine
 10
1546.096742011779
 20
479.9990355962454
 30
0.0
 11
1526.096742011779
 21
479.9990355962454
 31
0.0
  0
LINE
  5
1B6DC
330
1B60A
100
AcDbEntity
  8
02製品
100
AcDbLine
 10
786.1012274461791
 20
490.0007078012286
 30
0.0
 11
786.1012274461773
 21
470.0007078012286
 31
0.0
  0
LINE
  5
1B6DD
330
1B60A
100
AcDbEntity
  8
02製品
100
AcDbLine
 10
796.1012274461791
 20
480.0007078012286
 30
0.0
 11
776.1012274461791
 21
480.0007078012304
 31
0.0
  0
LINE
  5
1B6DE
330
1B60A
100
AcDbEntity
  8
02製品
100
AcDbLine
 10
786.1012274461791
 20
490.0007078012286
 30
0.0
 11
786.1012274461773
 21
470.0007078012286
 31
0.0
  0
LINE
  5
1B6DF
330
1B60A
100
AcDbEntity
  8
02製品
100
AcDbLine
 10
796.1012274461791
 20
480.0007078012286
 30
0.0
 11
776.1012274461791
 21
480.0007078012304
 31
0.0
  0
LINE
  5
1B6E0
330
1B60A
100
AcDbEntity
  8
02製品
100
AcDbLine
 10
886.1013749047688
 20
490.0007078012277
 30
0.0
 11
886.1013749047688
 21
470.0007078012277
 31
0.0
  0
LINE
  5
1B6E1
330
1B60A
100
AcDbEntity
  8
02製品
100
AcDbLine
 10
896.1013749047688
 20
480.0007078012277
 30
0.0
 11
876.1013749047688
 21
480.0007078012295
 31
0.0
  0
LINE
  5
1B6E2
330
1B60A
100
AcDbEntity
  8
02製品
100
AcDbLine
 10
886.1013749047688
 20
490.0007078012277
 30
0.0
 11
886.1013749047688
 21
470.0007078012277
 31
0.0
  0
LINE
  5
1B6E3
330
1B60A
100
AcDbEntity
  8
02製品
100
AcDbLine
 10
896.1013749047688
 20
480.0007078012277
 30
0.0
 11
876.1013749047688
 21
480.0007078012295
 31
0.0
  0
LINE
  5
1B6E4
330
1B60A
100
AcDbEntity
  8
02製品
100
AcDbLine
 10
836.1013011754821
 20
440.0004240035787
 30
0.0
 11
836.1013011754803
 21
420.0004240035787
 31
0.0
  0
LINE
  5
1B6E5
330
1B60A
100
AcDbEntity
  8
02製品
100
AcDbLine
 10
846.1013011754821
 20
430.0004240035787
 30
0.0
 11
826.1013011754821
 21
430.0004240035805
 31
0.0
  0
LINE
  5
1B6E6
330
1B60A
100
AcDbEntity
  8
02製品
100
AcDbLine
 10
836.1013011754821
 20
440.0004240035787
 30
0.0
 11
836.1013011754803
 21
420.0004240035787
 31
0.0
  0
LINE
  5
1B6E7
330
1B60A
100
AcDbEntity
  8
02製品
100
AcDbLine
 10
846.1013011754821
 20
430.0004240035787
 30
0.0
 11
826.1013011754821
 21
430.0004240035805
 31
0.0
  0
LINE
  5
1B6E8
330
1B60A
100
AcDbEntity
  8
02製品
100
AcDbLine
 10
836.1013011754821
 20
380.0005455967785
 30
0.0
 11
836.1013011754803
 21
360.0005455967785
 31
0.0
  0
LINE
  5
1B6E9
330
1B60A
100
AcDbEntity
  8
02製品
100
AcDbLine
 10
846.1013011754821
 20
370.0005455967785
 30
0.0
 11
826.1013011754821
 21
370.0005455967803
 31
0.0
  0
LINE
  5
1B6EA
330
1B60A
100
AcDbEntity
  8
02製品
100
AcDbLine
 10
836.1013011754821
 20
380.0005455967785
 30
0.0
 11
836.1013011754803
 21
360.0005455967785
 31
0.0
  0
LINE
  5
1B6EB
330
1B60A
100
AcDbEntity
  8
02製品
100
AcDbLine
 10
846.1013011754821
 20
370.0005455967785
 30
0.0
 11
826.1013011754821
 21
370.0005455967803
 31
0.0
  0
ENDBLK
  5
1B6ED
330
1B60A
100
AcDbEntity
  8
0
100
AcDbBlockEnd
  0
ENDSEC
  0
SECTION
  2
ENTITIES
  0
INSERT
  5
1B32D
330
1F
100
AcDbEntity
  8
02製品
100
AcDbBlockReference
  2
A$C24898
 10
8867.242931619267
 20
4715.618266124703
 30
0.0
  0
INSERT
  5
1B4B5
330
1F
100
AcDbEntity
  8
02製品
100
AcDbBlockReference
  2
A$C3361
 10
6698.121746211735
 20
5648.501417324493
 30
0.0
 41
1.05833489393674
 42
1.05833489393674
 43
1.05833489393674
  0
INSERT
  5
1B516
330
1F
100
AcDbEntity
  8
02製品
100
AcDbBlockReference
  2
A$C3C7277DA
 10
7064.700979173363
 20
6492.499709738834
 30
0.0
 41
1.058331188558249
 42
1.058331188558249
 43
1.058331188558249
 50
180.0
  0
INSERT
  5
1B517
330
1F
100
AcDbEntity
  8
02製品
100
AcDbBlockReference
  2
A$C3C7277DA
 10
7989.539120129557
 20
5692.501351743772
 30
0.0
 41
1.058331188558249
 42
1.058331188558249
 43
1.058331188558249
  0
INSERT
  5
1B518
330
1F
100
AcDbEntity
  8
02製品
100
AcDbBlockReference
  2
A$C25349
 10
7101.705899412183
 20
5979.209950024466
 30
0.0
 41
1.058331188558249
 42
1.058331188558249
 43
1.058331188558249
  0
INSERT
  5
1B519
330
1F
100
AcDbEntity
  8
02製品
100
AcDbBlockReference
  2
A$C25349
 10
7631.704856330189
 20
5979.209950024466
 30
0.0
 41
1.058331188558249
 42
1.058331188558249
 43
1.058331188558249
  0
INSERT
  5
1B6EE
330
1F
100
AcDbEntity
  8
02製品
100
AcDbBlockReference
  2
A$C9882
 10
6691.025750377225
 20
4715.618266124696
 30
0.0
  0
ENDSEC
  0
SECTION
  2
OBJECTS
  0
DICTIONARY
  5
C
330
0
100
AcDbDictionary
281
     1
  3
ACAD_DETAILVIEWSTYLE
350
ADAF
  3
ACAD_GROUP
350
D
  3
ACAD_IMAGE_VARS
350
6A88
  3
ACAD_LAYOUT
350
1A
  3
ACAD_MLINESTYLE
350
17
  3
ACAD_PLOTSETTINGS
350
19
  3
ACAD_PLOTSTYLENAME
350
E
  3
ACAD_SCALELIST
350
6A4E
  3
ACAD_SECTIONVIEWSTYLE
350
ADB0
  3
AcadDim
350
813A
  3
AcDbVariableDictionary
350
79E
  3
AEC_DISP_REPS
350
8259
  3
AEC_DISPLAY_PROPS_DEFAULTS
350
825B
  3
AEC_VARS
350
8257
  3
APPDATA
350
6A87
  3
DWGPROPS
350
1B73F
  0
DICTIONARY
  5
7A6F
330
2
100
AcDbDictionary
280
     1
281
     1
  3
ACAD_LAYERFILTERS
360
A22F
  3
ACAD_LAYERSTATES
360
7A70
  3
ACLYDICTIONARY
360
163AB
  0
DICTIONARY
  5
CBD6
330
1F
100
AcDbDictionary
280
     1
281
     1
  3
ACAD_SORTENTS
360
CBD7
  0
DICTIONARY
  5
1A9F1
330
1A9DF
100
AcDbDictionary
280
     1
281
     1
  3
ACAD_SORTENTS
360
1A9F2
  0
DICTIONARY
  5
1B28C
330
1B28B
100
AcDbDictionary
280
     1
281
     1
  3
ACAD_SORTENTS
360
1B28D
  0
DICTIONARY
  5
1B291
330
1B290
100
AcDbDictionary
280
     1
281
     1
  3
ACAD_SORTENTS
360
1B292
  0
DICTIONARY
  5
1B469
330
1B454
100
AcDbDictionary
280
     1
281
     1
  3
ACAD_SORTENTS
360
1B46A
  0
DICTIONARY
  5
1B4CB
330
1B4B6
100
AcDbDictionary
280
     1
281
     1
  3
ACAD_SORTENTS
360
1B4CC
  0
DICTIONARY
  5
1B61F
330
1B60A
100
AcDbDictionary
280
     1
281
     1
  3
ACAD_SORTENTS
360
1B620
  0
DICTIONARY
  5
ADAF
102
{ACAD_REACTORS
330
C
102
}
330
C
100
AcDbDictionary
281
     1
  0
DICTIONARY
  5
D
102
{ACAD_REACTORS
330
C
102
}
330
C
100
AcDbDictionary
281
     1
  0
RASTERVARIABLES
  5
6A88
102
{ACAD_REACTORS
330
C
102
}
330
C
100
AcDbRasterVariables
 90
        0
 70
     1
 71
     1
 72
     1
  0
DICTIONARY
  5
1A
102
{ACAD_REACTORS
330
C
102
}
330
C
100
AcDbDictionary
281
     1
  3
Layout1
350
1E
  3
Layout2
350
26
  3
Model
350
22
  0
DICTIONARY
  5
17
102
{ACAD_REACTORS
330
C
102
}
330
C
100
AcDbDictionary
281
     1
  3
Standard
350
18
  0
DICTIONARY
  5
19
102
{ACAD_REACTORS
330
C
102
}
330
C
100
AcDbDictionary
281
     1
  0
ACDBDICTIONARYWDFLT
  5
E
102
{ACAD_REACTORS
330
C
102
}
330
C
100
AcDbDictionary
281
     1
  3
Normal
350
F
100
AcDbDictionaryWithDefault
340
F
  0
DICTIONARY
  5
6A4E
102
{ACAD_REACTORS
330
C
102
}
330
C
100
AcDbDictionary
281
     1
  3
A0
350
6A4F
  3
A1
350
6A50
  3
A2
350
6A51
  3
A3
350
6A52
  3
A4
350
6A53
  3
A5
350
6A54
  3
A6
350
6A55
  3
A7
350
6A56
  3
A8
350
6A57
  3
A9
350
6A58
  3
B0
350
6A59
  3
B1
350
6A5A
  3
B2
350
6A5B
  3
B3
350
6A5C
  3
B4
350
6A5D
  3
B5
350
6A5E
  3
B6
350
6A5F
  3
B7
350
6A60
  3
B8
350
6A61
  3
B9
350
6A62
  3
C0
350
6A63
  3
C1
350
6A64
  3
C2
350
6A65
  3
C3
350
6A66
  3
C4
350
6A67
  3
C5
350
6A68
  3
C6
350
6A69
  3
C7
350
6A6A
  3
C8
350
6A6B
  3
C9
350
6A6C
  3
D0
350
6A6D
  3
D1
350
6A6E
  3
D2
350
6A6F
  0
DICTIONARY
  5
ADB0
102
{ACAD_REACTORS
330
C
102
}
330
C
100
AcDbDictionary
281
     1
  0
XRECORD
  5
813A
102
{ACAD_REACTORS
330
C
102
}
330
C
100
AcDbXrecord
280
     1
340
0
 72
     0
 71
     0
 70
     0
 69
     0
 68
     1
 67
     3
 66
     0
 65
     0
 64
     0
 63
     3
 62
     1
 61
     0
 60
     0
 40
0.0
  0
DICTIONARY
  5
79E
102
{ACAD_REACTORS
330
C
102
}
330
C
100
AcDbDictionary
281
     1
  3
DIMASSOC
350
79F
  3
SORTENTS
350
264F
  0
DICTIONARY
  5
8259
102
{ACAD_REACTORS
330
C
102
}
330
C
100
AcDbDictionary
281
     1
  3
AecDbDispRep2dSection
350
825A
  3
AecDbDispRepAnchor
350
8294
  3
AecDbDispRepAnchorEntToNode
350
8295
  3
AecDbDispRepClipVolModel
350
8261
  3
AecDbDispRepClipVolPlan
350
8263
  3
AecDbDispRepClipVolResSubDiv
350
8266
  3
AecDbDispRepClipVolResult
350
8265
  3
AecDbDispRepDisplayTheme
350
8268
  3
AecDbDispRepEditInPlaceProfile
350
8299
  3
AecDbDispRepEntRef
350
826A
  3
AecDbDispRepLayoutCurve
350
826C
  3
AecDbDispRepLayoutGrid2d
350
826E
  3
AecDbDispRepLayoutGrid3d
350
8270
  3
AecDbDispRepMaskBlockRef
350
8272
  3
AecDbDispRepMaskBlockRefRcp
350
8274
  3
AecDbDispRepMassElemModel
350
8276
  3
AecDbDispRepMassElemPlan100
350
827C
  3
AecDbDispRepMassElemPlan50
350
827A
  3
AecDbDispRepMassElemRcp
350
827E
  3
AecDbDispRepMassElemSchem
350
8278
  3
AecDbDispRepMassGroupModel
350
8280
  3
AecDbDispRepMassGroupPlan
350
8282
  3
AecDbDispRepMassGroupPlan100
350
8286
  3
AecDbDispRepMassGroupPlan50
350
8284
  3
AecDbDispRepMassGroupRcp
350
8288
  3
AecDbDispRepMaterial
350
8297
  3
AecDbDispRepMvBlockRef
350
828A
  3
AecDbDispRepMvBlockRefModel
350
828B
  3
AecDbDispRepMvBlockRefPlan100
350
828C
  3
AecDbDispRepMvBlockRefPlan50
350
828D
  3
AecDbDispRepPolygonModel
350
828E
  3
AecDbDispRepPolygonTrueColour
350
8290
  3
AecDbDispRepSlice
350
8292
  0
DICTIONARY
  5
825B
102
{ACAD_REACTORS
330
C
102
}
330
C
100
AcDbDictionary
281
     1
  3
*A1
350
825C
  3
*A10
350
827D
  3
*A11
350
827F
  3
*A12
350
8296
  3
*A13
350
8281
  3
*A14
350
8285
  3
*A15
350
8262
  3
*A16
350
8287
  3
*A17
350
8289
  3
*A18
350
828F
  3
*A19
350
8291
  3
*A2
350
826D
  3
*A20
350
8293
  3
*A21
350
8298
  3
*A22
350
8273
  3
*A23
350
829A
  3
*A24
350
8264
  3
*A25
350
8267
  3
*A26
350
8269
  3
*A27
350
826B
  3
*A3
350
826F
  3
*A4
350
8283
  3
*A5
350
8271
  3
*A6
350
8275
  3
*A7
350
8277
  3
*A8
350
8279
  3
*A9
350
827B
  0
DICTIONARY
  5
8257
102
{ACAD_REACTORS
330
C
102
}
330
C
100
AcDbDictionary
281
     1
  3
AEC_VARS_DWG_SETUP
350
8258
  0
DICTIONARY
  5
6A87
102
{ACAD_REACTORS
330
C
102
}
330
C
100
AcDbDictionary
281
     1
  0
XRECORD
  5
1B73F
102
{ACAD_REACTORS
330
C
102
}
330
C
100
AcDbXrecord
280
     1
  1
DWGPROPS COOKIE
  2

  3

  4

  6

  7

  8
Sales
  9

300
=
301
=
302
=
303
=
304
=
305
=
306
=
307
=
308
=
309
=
 40
0.0
 41
2455859.030048461
 42
2458968.233797477
  1

 90
        0
  0
DICTIONARY
  5
A22F
102
{ACAD_REACTORS
330
7A6F
102
}
330
7A6F
100
AcDbDictionary
280
     1
281
     1
  0
DICTIONARY
  5
7A70
102
{ACAD_REACTORS
330
7A6F
102
}
330
7A6F
100
AcDbDictionary
281
     1
  0
DICTIONARY
  5
163AB
102
{ACAD_REACTORS
330
7A6F
102
}
330
7A6F
100
AcDbDictionary
281
     1
1001
ACAD
1000
<All
  0
SORTENTSTABLE
  5
CBD7
102
{ACAD_REACTORS
330
CBD6
102
}
330
CBD6
100
AcDbSortentsTable
330
1F
331
0
  5
17EB9
331
1B32D
  5
17EB8
331
1B4B5
  5
17EB7
  0
SORTENTSTABLE
  5
1A9F2
102
{ACAD_REACTORS
330
1A9F1
102
}
330
1A9F1
100
AcDbSortentsTable
330
1A9DF
  0
SORTENTSTABLE
  5
1B28D
102
{ACAD_REACTORS
330
1B28C
102
}
330
1B28C
100
AcDbSortentsTable
330
1B28B
  0
SORTENTSTABLE
  5
1B292
102
{ACAD_REACTORS
330
1B291
102
}
330
1B291
100
AcDbSortentsTable
330
1B290
  0
SORTENTSTABLE
  5
1B46A
102
{ACAD_REACTORS
330
1B469
102
}
330
1B469
100
AcDbSortentsTable
330
1B454
  0
SORTENTSTABLE
  5
1B4CC
102
{ACAD_REACTORS
330
1B4CB
102
}
330
1B4CB
100
AcDbSortentsTable
330
1B4B6
  0
SORTENTSTABLE
  5
1B620
102
{ACAD_REACTORS
330
1B61F
102
}
330
1B61F
100
AcDbSortentsTable
330
1B60A
  0
LAYOUT
  5
1E
102
{ACAD_REACTORS
330
1A
102
}
330
1A
100
AcDbPlotSettings
  1

  2

  4

  6

 40
0.0
 41
0.0
 42
0.0
 43
0.0
 44
0.0
 45
0.0
 46
0.0
 47
0.0
 48
0.0
 49
0.0
140
0.0
141
0.0
142
1.0
143
1.0
 70
   688
 72
     0
 73
     0
 74
     5
  7
monochrome.ctb
 75
    16
147
1.0
148
0.0
149
0.0
100
AcDbLayout
  1
Layout1
 70
     1
 71
     1
 10
0.0
 20
0.0
 11
420.0
 21
297.0
 12
0.0
 22
0.0
 32
0.0
 14
1.000000000000000E+20
 24
1.000000000000000E+20
 34
1.000000000000000E+20
 15
-1.000000000000000E+20
 25
-1.000000000000000E+20
 35
-1.000000000000000E+20
146
0.0
 13
0.0
 23
0.0
 33
0.0
 16
1.0
 26
0.0
 36
0.0
 17
0.0
 27
1.0
 37
0.0
 76
     0
330
1B
  0
LAYOUT
  5
26
102
{ACAD_REACTORS
330
1A
102
}
330
1A
100
AcDbPlotSettings
  1

  2

  4

  6

 40
0.0
 41
0.0
 42
0.0
 43
0.0
 44
0.0
 45
0.0
 46
0.0
 47
0.0
 48
0.0
 49
0.0
140
0.0
141
0.0
142
1.0
143
1.0
 70
   688
 72
     0
 73
     0
 74
     5
  7
monochrome.ctb
 75
    16
147
1.0
148
0.0
149
0.0
100
AcDbLayout
  1
Layout2
 70
     1
 71
     2
 10
0.0
 20
0.0
 11
12.0
 21
9.0
 12
0.0
 22
0.0
 32
0.0
 14
0.0
 24
0.0
 34
0.0
 15
0.0
 25
0.0
 35
0.0
146
0.0
 13
0.0
 23
0.0
 33
0.0
 16
1.0
 26
0.0
 36
0.0
 17
0.0
 27
1.0
 37
0.0
 76
     0
330
23
  0
LAYOUT
  5
22
102
{ACAD_REACTORS
330
1A
102
}
330
1A
100
AcDbPlotSettings
  1

  2
none_device
  4
A3
  6

 40
3.174999952316284
 41
3.174999952316284
 42
3.17498779296875
 43
3.17498779296875
 44
297.0318298339844
 45
420.1583251953125
 46
-3.16
 47
-3.1
 48
-90.0
 49
-90.0
140
329.9999999999998
141
207.0
142
1.0
143
1.0
 70
 11940
 72
     1
 73
     1
 74
     4
  7
monochrome.ctb
 75
     0
147
1.0
148
90.0
149
90.0
100
AcDbLayout
  1
Model
 70
     1
 71
     0
 10
6182.786264405324
 20
3736.084079595646
 11
11222.78626440532
 21
7300.084079595646
 12
0.0
 22
0.0
 32
0.0
 14
6691.025750377225
 24
4715.618266124696
 34
0.0
 15
9769.441123933133
 25
6536.50272675677
 35
0.0
146
0.0
 13
0.0
 23
0.0
 33
0.0
 16
1.0
 26
0.0
 36
0.0
 17
0.0
 27
1.0
 37
0.0
 76
     0
330
1F
331
A2A1
  0
MLINESTYLE
  5
18
102
{ACAD_REACTORS
330
17
102
}
330
17
100
AcDbMlineStyle
  2
STANDARD
 70
     0
  3

 62
   256
 51
90.0
 52
90.0
 71
     2
 49
0.5
 62
   256
  6
BYLAYER
 49
-0.5
 62
   256
  6
BYLAYER
  0
ACDBPLACEHOLDER
  5
F
102
{ACAD_REACTORS
330
E
102
}
330
E
  0
SCALE
  5
6A4F
102
{ACAD_REACTORS
330
6A4E
102
}
330
6A4E
100
AcDbScale
 70
     0
300
1:1
140
1.0
141
1.0
290
     1
  0
SCALE
  5
6A50
102
{ACAD_REACTORS
330
6A4E
102
}
330
6A4E
100
AcDbScale
 70
     0
300
1:2
140
1.0
141
2.0
290
     0
  0
SCALE
  5
6A51
102
{ACAD_REACTORS
330
6A4E
102
}
330
6A4E
100
AcDbScale
 70
     0
300
1:4
140
1.0
141
4.0
290
     0
  0
SCALE
  5
6A52
102
{ACAD_REACTORS
330
6A4E
102
}
330
6A4E
100
AcDbScale
 70
     0
300
1:5
140
1.0
141
5.0
290
     0
  0
SCALE
  5
6A53
102
{ACAD_REACTORS
330
6A4E
102
}
330
6A4E
100
AcDbScale
 70
     0
300
1:8
140
1.0
141
8.0
290
     0
  0
SCALE
  5
6A54
102
{ACAD_REACTORS
330
6A4E
102
}
330
6A4E
100
AcDbScale
 70
     0
300
1:10
140
1.0
141
10.0
290
     0
  0
SCALE
  5
6A55
102
{ACAD_REACTORS
330
6A4E
102
}
330
6A4E
100
AcDbScale
 70
     0
300
1:16
140
1.0
141
16.0
290
     0
  0
SCALE
  5
6A56
102
{ACAD_REACTORS
330
6A4E
102
}
330
6A4E
100
AcDbScale
 70
     0
300
1:20
140
1.0
141
20.0
290
     0
  0
SCALE
  5
6A57
102
{ACAD_REACTORS
330
6A4E
102
}
330
6A4E
100
AcDbScale
 70
     0
300
1:30
140
1.0
141
30.0
290
     0
  0
SCALE
  5
6A58
102
{ACAD_REACTORS
330
6A4E
102
}
330
6A4E
100
AcDbScale
 70
     0
300
1:40
140
1.0
141
40.0
290
     0
  0
SCALE
  5
6A59
102
{ACAD_REACTORS
330
6A4E
102
}
330
6A4E
100
AcDbScale
 70
     0
300
1:50
140
1.0
141
50.0
290
     0
  0
SCALE
  5
6A5A
102
{ACAD_REACTORS
330
6A4E
102
}
330
6A4E
100
AcDbScale
 70
     0
300
1:100
140
1.0
141
100.0
290
     0
  0
SCALE
  5
6A5B
102
{ACAD_REACTORS
330
6A4E
102
}
330
6A4E
100
AcDbScale
 70
     0
300
2:1
140
2.0
141
1.0
290
     0
  0
SCALE
  5
6A5C
102
{ACAD_REACTORS
330
6A4E
102
}
330
6A4E
100
AcDbScale
 70
     0
300
4:1
140
4.0
141
1.0
290
     0
  0
SCALE
  5
6A5D
102
{ACAD_REACTORS
330
6A4E
102
}
330
6A4E
100
AcDbScale
 70
     0
300
8:1
140
8.0
141
1.0
290
     0
  0
SCALE
  5
6A5E
102
{ACAD_REACTORS
330
6A4E
102
}
330
6A4E
100
AcDbScale
 70
     0
300
10:1
140
10.0
141
1.0
290
     0
  0
SCALE
  5
6A5F
102
{ACAD_REACTORS
330
6A4E
102
}
330
6A4E
100
AcDbScale
 70
     0
300
100:1
140
100.0
141
1.0
290
     0
  0
SCALE
  5
6A60
102
{ACAD_REACTORS
330
6A4E
102
}
330
6A4E
100
AcDbScale
 70
     0
300
1/128" = 1'-0"
140
0.0078125
141
12.0
290
     0
  0
SCALE
  5
6A61
102
{ACAD_REACTORS
330
6A4E
102
}
330
6A4E
100
AcDbScale
 70
     0
300
1/64" = 1'-0"
140
0.015625
141
12.0
290
     0
  0
SCALE
  5
6A62
102
{ACAD_REACTORS
330
6A4E
102
}
330
6A4E
100
AcDbScale
 70
     0
300
1/32" = 1'-0"
140
0.03125
141
12.0
290
     0
  0
SCALE
  5
6A63
102
{ACAD_REACTORS
330
6A4E
102
}
330
6A4E
100
AcDbScale
 70
     0
300
1/16" = 1'-0"
140
0.0625
141
12.0
290
     0
  0
SCALE
  5
6A64
102
{ACAD_REACTORS
330
6A4E
102
}
330
6A4E
100
AcDbScale
 70
     0
300
3/32" = 1'-0"
140
0.09375
141
12.0
290
     0
  0
SCALE
  5
6A65
102
{ACAD_REACTORS
330
6A4E
102
}
330
6A4E
100
AcDbScale
 70
     0
300
1/8" = 1'-0"
140
0.125
141
12.0
290
     0
  0
SCALE
  5
6A66
102
{ACAD_REACTORS
330
6A4E
102
}
330
6A4E
100
AcDbScale
 70
     0
300
3/16" = 1'-0"
140
0.1875
141
12.0
290
     0
  0
SCALE
  5
6A67
102
{ACAD_REACTORS
330
6A4E
102
}
330
6A4E
100
AcDbScale
 70
     0
300
1/4" = 1'-0"
140
0.25
141
12.0
290
     0
  0
SCALE
  5
6A68
102
{ACAD_REACTORS
330
6A4E
102
}
330
6A4E
100
AcDbScale
 70
     0
300
3/8" = 1'-0"
140
0.375
141
12.0
290
     0
  0
SCALE
  5
6A69
102
{ACAD_REACTORS
330
6A4E
102
}
330
6A4E
100
AcDbScale
 70
     0
300
1/2" = 1'-0"
140
0.5
141
12.0
290
     0
  0
SCALE
  5
6A6A
102
{ACAD_REACTORS
330
6A4E
102
}
330
6A4E
100
AcDbScale
 70
     0
300
3/4" = 1'-0"
140
0.75
141
12.0
290
     0
  0
SCALE
  5
6A6B
102
{ACAD_REACTORS
330
6A4E
102
}
330
6A4E
100
AcDbScale
 70
     0
300
1" = 1'-0"
140
1.0
141
12.0
290
     0
  0
SCALE
  5
6A6C
102
{ACAD_REACTORS
330
6A4E
102
}
330
6A4E
100
AcDbScale
 70
     0
300
1-1/2" = 1'-0"
140
1.5
141
12.0
290
     0
  0
SCALE
  5
6A6D
102
{ACAD_REACTORS
330
6A4E
102
}
330
6A4E
100
AcDbScale
 70
     0
300
3" = 1'-0"
140
3.0
141
12.0
290
     0
  0
SCALE
  5
6A6E
102
{ACAD_REACTORS
330
6A4E
102
}
330
6A4E
100
AcDbScale
 70
     0
300
6" = 1'-0"
140
6.0
141
12.0
290
     0
  0
SCALE
  5
6A6F
102
{ACAD_REACTORS
330
6A4E
102
}
330
6A4E
100
AcDbScale
 70
     0
300
1'-0" = 1'-0"
140
12.0
141
12.0
290
     0
  0
DICTIONARYVAR
  5
79F
102
{ACAD_REACTORS
330
79E
102
}
330
79E
100
DictionaryVariables
280
     0
  1
1
  0
DICTIONARYVAR
  5
264F
102
{ACAD_REACTORS
330
79E
102
}
330
79E
100
DictionaryVariables
280
     0
  1
96
  0
ACAD_PROXY_OBJECT
  5
8258
102
{ACAD_REACTORS
330
8257
102
}
330
8257
100
AcDbProxyObject
 90
      499
 91
      509
 95
   262177
 70
     0
 93
     1864
310
5434D15054000541505428FC812095550000000000000B08000000000000008200000000000001807E8F2048F205000200001204000000000000581F8000000000000B0807EC3FA6DEBC0E99F8000000000001C07FE8FCC029594224E2D20CA600E2005C008C00E8005C008321803A80170023003A00170020898006200640
310
06001202DA008C2080248020801000140019001A801B00100021803780360037803900148010001000100010002080220019001A801B0021082008600820088008200A4008600900087A08032803180260030803C803280390029803A003200170032003B80338049C09
330
0
 94
        0
  0
ENDSEC
  0
EOF
