  0
SECTION
  2
HEADER
  9
$ACADVER
  1
AC1015
  9
$ACADMAINTVER
 70
     6
  9
$DWGCODEPAGE
  3
ANSI_932
  9
$INSBASE
 10
0.0
 20
0.0
 30
0.0
  9
$EXTMIN
 10
-7471.591999602872
 20
1295.52084729379
 30
0.0
  9
$EXTMAX
 10
-3489.593777832245
 20
3510.689243412761
 30
0.0
  9
$LIMMIN
 10
4.099999999999999
 20
4.1
  9
$LIMMAX
 10
415.9
 20
292.9
  9
$ORTHOMODE
 70
     1
  9
$REGENMODE
 70
     1
  9
$FILLMODE
 70
     1
  9
$QTEXTMODE
 70
     0
  9
$MIRRTEXT
 70
     1
  9
$LTSCALE
 40
0.3
  9
$ATTMODE
 70
     1
  9
$TEXTSIZE
 40
3.0
  9
$TRACEWID
 40
1.0
  9
$TEXTSTYLE
  7
Standard
  9
$CLAYER
  8
2　寸法
  9
$CELTYPE
  6
ByLayer
  9
$CECOLOR
 62
   256
  9
$CELTSCALE
 40
1.0
  9
$DISPSILH
 70
     0
  9
$DIMSCALE
 40
1.0
  9
$DIMASZ
 40
45.0
  9
$DIMEXO
 40
22.5
  9
$DIMDLI
 40
150.0
  9
$DIMRND
 40
0.0
  9
$DIMDLE
 40
0.0
  9
$DIMEXE
 40
15.0
  9
$DIMTP
 40
0.0
  9
$DIMTM
 40
0.0
  9
$DIMTXT
 40
45.0
  9
$DIMCEN
 40
22.5
  9
$DIMTSZ
 40
0.0
  9
$DIMTOL
 70
     0
  9
$DIMLIM
 70
     0
  9
$DIMTIH
 70
     0
  9
$DIMTOH
 70
     0
  9
$DIMSE1
 70
     0
  9
$DIMSE2
 70
     0
  9
$DIMTAD
 70
     1
  9
$DIMZIN
 70
     8
  9
$DIMBLK
  1
Open
  9
$DIMASO
 70
     1
  9
$DIMSHO
 70
     1
  9
$DIMPOST
  1

  9
$DIMAPOST
  1

  9
$DIMALT
 70
     0
  9
$DIMALTD
 70
     3
  9
$DIMALTF
 40
0.03937007874016
  9
$DIMLFAC
 40
1.0
  9
$DIMTOFL
 70
     1
  9
$DIMTVP
 40
0.0
  9
$DIMTIX
 70
     0
  9
$DIMSOXD
 70
     0
  9
$DIMSAH
 70
     0
  9
$DIMBLK1
  1

  9
$DIMBLK2
  1

  9
$DIMSTYLE
  2
NEMY-15
  9
$DIMCLRD
 70
     0
  9
$DIMCLRE
 70
     0
  9
$DIMCLRT
 70
     0
  9
$DIMTFAC
 40
1.0
  9
$DIMGAP
 40
15.0
  9
$DIMJUST
 70
     0
  9
$DIMSD1
 70
     0
  9
$DIMSD2
 70
     0
  9
$DIMTOLJ
 70
     0
  9
$DIMTZIN
 70
     8
  9
$DIMALTZ
 70
     0
  9
$DIMALTTZ
 70
     0
  9
$DIMUPT
 70
     0
  9
$DIMDEC
 70
     2
  9
$DIMTDEC
 70
     2
  9
$DIMALTU
 70
     2
  9
$DIMALTTD
 70
     3
  9
$DIMTXSTY
  7
Standard
  9
$DIMAUNIT
 70
     0
  9
$DIMADEC
 70
     0
  9
$DIMALTRND
 40
0.0
  9
$DIMAZIN
 70
     0
  9
$DIMDSEP
 70
    46
  9
$DIMATFIT
 70
     3
  9
$DIMFRAC
 70
     0
  9
$DIMLDRBLK
  1
Open
  9
$DIMLUNIT
 70
     2
  9
$DIMLWD
 70
    -2
  9
$DIMLWE
 70
    -2
  9
$DIMTMOVE
 70
     0
  9
$LUNITS
 70
     2
  9
$LUPREC
 70
     4
  9
$SKETCHINC
 40
1.0
  9
$FILLETRAD
 40
0.0
  9
$AUNITS
 70
     0
  9
$AUPREC
 70
     0
  9
$MENU
  1
.
  9
$ELEVATION
 40
0.0
  9
$PELEVATION
 40
0.0
  9
$THICKNESS
 40
0.0
  9
$LIMCHECK
 70
     0
  9
$CHAMFERA
 40
10.0
  9
$CHAMFERB
 40
10.0
  9
$CHAMFERC
 40
20.0
  9
$CHAMFERD
 40
0.0
  9
$SKPOLY
 70
     0
  9
$TDCREATE
 40
2454740.593452685
  9
$TDUCREATE
 40
2454740.218452685
  9
$TDUPDATE
 40
2458968.609661967
  9
$TDUUPDATE
 40
2458968.234661967
  9
$TDINDWG
 40
1.2257866667
  9
$TDUSRTIMER
 40
0.0001203356
  9
$USRTIMER
 70
     1
  9
$ANGBASE
 50
0.0
  9
$ANGDIR
 70
     0
  9
$PDMODE
 70
     0
  9
$PDSIZE
 40
0.0
  9
$PLINEWID
 40
0.0
  9
$SPLFRAME
 70
     0
  9
$SPLINETYPE
 70
     6
  9
$SPLINESEGS
 70
     8
  9
$HANDSEED
  5
DD9D
  9
$SURFTAB1
 70
     6
  9
$SURFTAB2
 70
     6
  9
$SURFTYPE
 70
     6
  9
$SURFU
 70
     6
  9
$SURFV
 70
     6
  9
$UCSBASE
  2

  9
$UCSNAME
  2

  9
$UCSORG
 10
0.0
 20
0.0
 30
0.0
  9
$UCSXDIR
 10
1.0
 20
0.0
 30
0.0
  9
$UCSYDIR
 10
0.0
 20
1.0
 30
0.0
  9
$UCSORTHOREF
  2

  9
$UCSORTHOVIEW
 70
     0
  9
$UCSORGTOP
 10
0.0
 20
0.0
 30
0.0
  9
$UCSORGBOTTOM
 10
0.0
 20
0.0
 30
0.0
  9
$UCSORGLEFT
 10
0.0
 20
0.0
 30
0.0
  9
$UCSORGRIGHT
 10
0.0
 20
0.0
 30
0.0
  9
$UCSORGFRONT
 10
0.0
 20
0.0
 30
0.0
  9
$UCSORGBACK
 10
0.0
 20
0.0
 30
0.0
  9
$PUCSBASE
  2

  9
$PUCSNAME
  2

  9
$PUCSORG
 10
0.0
 20
0.0
 30
0.0
  9
$PUCSXDIR
 10
1.0
 20
0.0
 30
0.0
  9
$PUCSYDIR
 10
0.0
 20
1.0
 30
0.0
  9
$PUCSORTHOREF
  2

  9
$PUCSORTHOVIEW
 70
     0
  9
$PUCSORGTOP
 10
0.0
 20
0.0
 30
0.0
  9
$PUCSORGBOTTOM
 10
0.0
 20
0.0
 30
0.0
  9
$PUCSORGLEFT
 10
0.0
 20
0.0
 30
0.0
  9
$PUCSORGRIGHT
 10
0.0
 20
0.0
 30
0.0
  9
$PUCSORGFRONT
 10
0.0
 20
0.0
 30
0.0
  9
$PUCSORGBACK
 10
0.0
 20
0.0
 30
0.0
  9
$USERI1
 70
     0
  9
$USERI2
 70
     0
  9
$USERI3
 70
     0
  9
$USERI4
 70
     0
  9
$USERI5
 70
     0
  9
$USERR1
 40
0.0
  9
$USERR2
 40
0.0
  9
$USERR3
 40
0.0
  9
$USERR4
 40
0.0
  9
$USERR5
 40
0.0
  9
$WORLDVIEW
 70
     1
  9
$SHADEDGE
 70
     3
  9
$SHADEDIF
 70
    70
  9
$TILEMODE
 70
     1
  9
$MAXACTVP
 70
    48
  9
$PINSBASE
 10
0.0
 20
0.0
 30
0.0
  9
$PLIMCHECK
 70
     0
  9
$PEXTMIN
 10
1.000000000000000E+20
 20
1.000000000000000E+20
 30
1.000000000000000E+20
  9
$PEXTMAX
 10
-1.000000000000000E+20
 20
-1.000000000000000E+20
 30
-1.000000000000000E+20
  9
$PLIMMIN
 10
0.0
 20
0.0
  9
$PLIMMAX
 10
0.0
 20
0.0
  9
$UNITMODE
 70
     0
  9
$VISRETAIN
 70
     1
  9
$PLINEGEN
 70
     0
  9
$PSLTSCALE
 70
     1
  9
$TREEDEPTH
 70
  3020
  9
$CMLSTYLE
  2
Standard
  9
$CMLJUST
 70
     0
  9
$CMLSCALE
 40
20.0
  9
$PROXYGRAPHICS
 70
     1
  9
$MEASUREMENT
 70
     1
  9
$CELWEIGHT
370
    -1
  9
$ENDCAPS
280
     0
  9
$JOINSTYLE
280
     0
  9
$LWDISPLAY
290
     0
  9
$INSUNITS
 70
     4
  9
$HYPERLINKBASE
  1

  9
$STYLESHEET
  1
monochrome.ctb
  9
$XEDIT
290
     1
  9
$CEPSNTYPE
380
     0
  9
$PSTYLEMODE
290
     1
  9
$FINGERPRINTGUID
  2
{FDEAD578-A652-11D2-9A35-0060089B3A3F}
  9
$VERSIONGUID
  2
{6978B938-4269-4859-9660-63764133322D}
  9
$EXTNAMES
290
     1
  9
$PSVPSCALE
 40
0.0
  9
$OLESTARTUP
290
     0
  0
ENDSEC
  0
SECTION
  2
CLASSES
  0
CLASS
  1
ACDBDICTIONARYWDFLT
  2
AcDbDictionaryWithDefault
  3
ObjectDBX Classes
 90
        0
280
     0
281
     0
  0
CLASS
  1
ACDBPLACEHOLDER
  2
AcDbPlaceHolder
  3
ObjectDBX Classes
 90
        0
280
     0
281
     0
  0
CLASS
  1
LAYOUT
  2
AcDbLayout
  3
ObjectDBX Classes
 90
        0
280
     0
281
     0
  0
CLASS
  1
DICTIONARYVAR
  2
AcDbDictionaryVar
  3
ObjectDBX Classes
 90
        0
280
     0
281
     0
  0
CLASS
  1
LONG_TRANSACTION
  2
AcDbLongTransaction
  3
ObjectDBX Classes
 90
        0
280
     0
281
     0
  0
CLASS
  1
LWPOLYLINE
  2
AcDbPolyline
  3
ObjectDBX Classes
 90
        0
280
     0
281
     1
  0
CLASS
  1
HATCH
  2
AcDbHatch
  3
ObjectDBX Classes
 90
        0
280
     0
281
     1
  0
CLASS
  1
XRECORD
  2
AcDbXrecord
  3
ObjectDBX Classes
 90
        0
280
     0
281
     0
  0
CLASS
  1
VISUALSTYLE
  2
AcDbVisualStyle
  3
ObjectDBX Classes
 90
     4095
280
     0
281
     0
  0
CLASS
  1
SCALE
  2
AcDbScale
  3
ObjectDBX Classes
 90
     1153
280
     0
281
     0
  0
CLASS
  1
MATERIAL
  2
AcDbMaterial
  3
ObjectDBX Classes
 90
     1153
280
     0
281
     0
  0
CLASS
  1
TABLESTYLE
  2
AcDbTableStyle
  3
ObjectDBX Classes
 90
     4095
280
     0
281
     0
  0
CLASS
  1
MLEADERSTYLE
  2
AcDbMLeaderStyle
  3
ACDB_MLEADERSTYLE_CLASS
 90
     4095
280
     0
281
     0
  0
CLASS
  1
SUN
  2
AcDbSun
  3
SCENEOE
 90
     1153
280
     0
281
     0
  0
CLASS
  1
SORTENTSTABLE
  2
AcDbSortentsTable
  3
ObjectDBX Classes
 90
        0
280
     0
281
     0
  0
ENDSEC
  0
SECTION
  2
TABLES
  0
TABLE
  2
VPORT
  5
8
330
0
100
AcDbSymbolTable
 70
     1
  0
VPORT
  5
DC05
330
8
100
AcDbSymbolTableRecord
100
AcDbViewportTableRecord
  2
*Active
 70
     0
 10
0.0
 20
0.0
 11
1.0
 21
1.0
 12
-5508.285071590292
 22
2592.589775782595
 13
0.0
 23
0.0
 14
10.0
 24
10.0
 15
10.0
 25
10.0
 16
0.0
 26
0.0
 36
1.0
 17
0.0
 27
0.0
 37
0.0
 40
3102.652903149792
 41
1.479876160990712
 42
50.0
 43
0.0
 44
0.0
 50
0.0
 51
0.0
 71
    16
 72
   100
 73
     1
 74
     2
 75
     0
 76
     0
 77
     0
 78
     1
281
     0
 65
     1
110
0.0
120
0.0
130
0.0
111
1.0
121
0.0
131
0.0
112
0.0
122
1.0
132
0.0
 79
     0
146
0.0
  0
ENDTAB
  0
TABLE
  2
LTYPE
  5
5
330
0
100
AcDbSymbolTable
 70
     8
  0
LTYPE
  5
14
330
5
100
AcDbSymbolTableRecord
100
AcDbLinetypeTableRecord
  2
ByBlock
 70
     0
  3

 72
    65
 73
     0
 40
0.0
  0
LTYPE
  5
15
330
5
100
AcDbSymbolTableRecord
100
AcDbLinetypeTableRecord
  2
ByLayer
 70
     0
  3

 72
    65
 73
     0
 40
0.0
  0
LTYPE
  5
16
330
5
100
AcDbSymbolTableRecord
100
AcDbLinetypeTableRecord
  2
Continuous
 70
     0
  3
Solid line
 72
    65
 73
     0
 40
0.0
  0
LTYPE
  5
BA
330
5
100
AcDbSymbolTableRecord
100
AcDbLinetypeTableRecord
  2
HIDDEN
 70
     0
  3
Hidden __ __ __ __ __ __ __ __ __ __ __ __ __ _
 72
    65
 73
     2
 40
9.524999999999999
 49
6.35
 74
     0
 49
-3.175
 74
     0
  0
LTYPE
  5
BB
330
5
100
AcDbSymbolTableRecord
100
AcDbLinetypeTableRecord
  2
PHANTOM
 70
     0
  3
Phantom ______  __  __  ______  __  __  ______
 72
    65
 73
     6
 40
63.5
 49
31.75
 74
     0
 49
-6.35
 74
     0
 49
6.35
 74
     0
 49
-6.35
 74
     0
 49
6.35
 74
     0
 49
-6.35
 74
     0
  0
LTYPE
  5
BC
330
5
100
AcDbSymbolTableRecord
100
AcDbLinetypeTableRecord
  2
CENTER
 70
     0
  3
Center ____ _ ____ _ ____ _ ____ _ ____ _ ____
 72
    65
 73
     4
 40
50.8
 49
31.75
 74
     0
 49
-6.35
 74
     0
 49
6.35
 74
     0
 49
-6.35
 74
     0
  0
LTYPE
  5
47C
330
5
100
AcDbSymbolTableRecord
100
AcDbLinetypeTableRecord
  2
DOT
 70
     0
  3
Dot . . . . . . . . . . . . . . . . . . . . . .
 72
    65
 73
     2
 40
6.35
 49
0.0
 74
     0
 49
-6.35
 74
     0
  0
LTYPE
  5
F11
330
5
100
AcDbSymbolTableRecord
100
AcDbLinetypeTableRecord
  2
HIDDEN2
 70
     0
  3
Hidden (.5x) _ _ _ _ _ _ _ _ _ _ _ _ _ _ _ _ _
 72
    65
 73
     2
 40
0.1875
 49
0.125
 74
     0
 49
-0.0625
 74
     0
  0
LTYPE
  5
F12
330
5
100
AcDbSymbolTableRecord
100
AcDbLinetypeTableRecord
  2
CENTER2
 70
     0
  3
Center (.5x) ___ _ ___ _ ___ _ ___ _ ___ _ ___
 72
    65
 73
     4
 40
28.575
 49
19.05
 74
     0
 49
-3.175
 74
     0
 49
3.175
 74
     0
 49
-3.175
 74
     0
  0
LTYPE
  5
CB92
330
5
100
AcDbSymbolTableRecord
100
AcDbLinetypeTableRecord
  2
DASHED
 70
     0
  3
__ __ __ __ __ __ __ __ __ __ __ __ __ __ __
 72
    65
 73
     2
 40
0.75
 49
0.5
 74
     0
 49
-0.25
 74
     0
  0
ENDTAB
  0
TABLE
  2
LAYER
  5
2
102
{ACAD_XDICTIONARY
360
CAED
102
}
330
0
100
AcDbSymbolTable
 70
    12
  0
LAYER
  5
10
330
2
100
AcDbSymbolTableRecord
100
AcDbLayerTableRecord
  2
0
 70
     0
 62
     7
  6
Continuous
370
    -3
390
F
  0
LAYER
  5
44
330
2
100
AcDbSymbolTableRecord
100
AcDbLayerTableRecord
  2
1　製品
 70
     0
 62
     2
  6
Continuous
370
    15
390
F
  0
LAYER
  5
45
330
2
100
AcDbSymbolTableRecord
100
AcDbLayerTableRecord
  2
2　寸法
 70
     0
 62
     7
  6
Continuous
370
     9
390
F
  0
LAYER
  5
46
330
2
100
AcDbSymbolTableRecord
100
AcDbLayerTableRecord
  2
4　注記
 70
     0
 62
     7
  6
Continuous
370
     9
390
F
  0
LAYER
  5
47
330
2
100
AcDbSymbolTableRecord
100
AcDbLayerTableRecord
  2
3　補助線
 70
     0
 62
     3
  6
Continuous
290
     0
370
     9
390
F
  0
LAYER
  5
48
330
2
100
AcDbSymbolTableRecord
100
AcDbLayerTableRecord
  2
5　図枠
 70
     0
 62
     1
  6
Continuous
370
    30
390
F
  0
LAYER
  5
49
330
2
100
AcDbSymbolTableRecord
100
AcDbLayerTableRecord
  2
6　その他（細）
 70
     0
 62
     6
  6
Continuous
370
     9
390
F
  0
LAYER
  5
59
330
2
100
AcDbSymbolTableRecord
100
AcDbLayerTableRecord
  2
8　用紙
 70
     0
 62
     4
  6
Continuous
290
     0
370
     5
390
F
  0
LAYER
  5
5F
330
2
100
AcDbSymbolTableRecord
100
AcDbLayerTableRecord
  2
Defpoints
 70
     0
 62
     7
  6
Continuous
290
     0
370
    -3
390
F
  0
LAYER
  5
553
330
2
100
AcDbSymbolTableRecord
100
AcDbLayerTableRecord
  2
7　その他（太）
 70
     0
 62
     5
  6
Continuous
370
    15
390
F
  0
LAYER
  5
F13
330
2
100
AcDbSymbolTableRecord
100
AcDbLayerTableRecord
  2
SS400
 70
     0
 62
     7
  6
Continuous
370
    -3
390
F
  0
LAYER
  5
F14
330
2
100
AcDbSymbolTableRecord
100
AcDbLayerTableRecord
  2
注記
 70
     0
 62
     7
  6
Continuous
290
     0
370
    -3
390
F
  0
ENDTAB
  0
TABLE
  2
STYLE
  5
3
330
0
100
AcDbSymbolTable
 70
     5
  0
STYLE
  5
11
330
3
100
AcDbSymbolTableRecord
100
AcDbTextStyleTableRecord
  2
Standard
 70
     0
 40
0.0
 41
1.0
 50
0.0
 71
     0
 42
3.0
  3
MS Gothic.ttf
  4

1001
ACAD
1000
MS Gothic
1071
    32817
  0
STYLE
  5
47B
330
3
100
AcDbSymbolTableRecord
100
AcDbTextStyleTableRecord
  2

 70
     1
 40
0.0
 41
1.0
 50
0.0
 71
     0
 42
3.0
  3
ltypeshp.shx
  4

  0
STYLE
  5
F15
330
3
100
AcDbSymbolTableRecord
100
AcDbTextStyleTableRecord
  2
STYLE1
 70
     0
 40
0.0
 41
0.9
 50
0.0
 71
     0
 42
39.375
  3
TXT.shx
  4
extfont.shx
  0
STYLE
  5
2860
330
3
100
AcDbSymbolTableRecord
100
AcDbTextStyleTableRecord
  2
StCustom
 70
     0
 40
0.0
 41
0.8
 50
0.0
 71
     0
 42
3.2
  3
txt.shx
  4
extfont.shx
  0
STYLE
  5
CB93
330
3
100
AcDbSymbolTableRecord
100
AcDbTextStyleTableRecord
  2
ST_CUSTOM
 70
     0
 40
0.0
 41
0.8
 50
0.0
 71
     0
 42
32.1717305
  3
txt.shx
  4
extfont.shx
  0
ENDTAB
  0
TABLE
  2
VIEW
  5
6
330
0
100
AcDbSymbolTable
 70
     0
  0
ENDTAB
  0
TABLE
  2
UCS
  5
7
330
0
100
AcDbSymbolTable
 70
     0
  0
ENDTAB
  0
TABLE
  2
APPID
  5
9
330
0
100
AcDbSymbolTable
 70
     4
  0
APPID
  5
12
330
9
100
AcDbSymbolTableRecord
100
AcDbRegAppTableRecord
  2
ACAD
 70
     0
  0
APPID
  5
F19
330
9
100
AcDbSymbolTableRecord
100
AcDbRegAppTableRecord
  2
ACAD_PSEXT
 70
     0
  0
APPID
  5
CACE
330
9
100
AcDbSymbolTableRecord
100
AcDbRegAppTableRecord
  2
CONTENTBLOCKICON
 70
     0
  0
APPID
  5
DD9B
330
9
100
AcDbSymbolTableRecord
100
AcDbRegAppTableRecord
  2
PE_URL
 70
     0
  0
ENDTAB
  0
TABLE
  2
DIMSTYLE
  5
A
330
0
100
AcDbSymbolTable
 70
    17
100
AcDbDimStyleTable
  0
DIMSTYLE
105
73
330
A
100
AcDbSymbolTableRecord
100
AcDbDimStyleTableRecord
  2
NEMY-1
 70
     0
 41
3.0
 42
1.5
 43
10.0
 44
1.0
 73
     0
 74
     0
 77
     1
 78
     8
140
3.0
141
1.5
143
0.03937007874016
147
1.0
171
     3
172
     1
178
     0
271
     2
272
     2
274
     3
283
     0
284
     8
340
11
341
8F
342
8F
  0
DIMSTYLE
105
405
330
A
100
AcDbSymbolTableRecord
100
AcDbDimStyleTableRecord
  2
NEMY-5
 70
     0
 40
5.0
 41
3.0
 42
1.5
 43
10.0
 44
1.0
 73
     0
 74
     0
 77
     1
 78
     8
140
3.0
141
1.5
143
0.03937007874016
147
1.0
171
     3
172
     1
178
     0
271
     2
272
     2
274
     3
283
     0
284
     8
340
11
341
8F
342
8F
  0
DIMSTYLE
105
66E
330
A
100
AcDbSymbolTableRecord
100
AcDbDimStyleTableRecord
  2
NEMY-10
 70
     0
 40
10.0
 41
3.0
 42
1.5
 43
10.0
 44
1.0
 73
     0
 74
     0
 77
     1
 78
     8
140
3.0
141
1.5
143
0.03937007874016
147
1.0
171
     3
172
     1
178
     0
271
     2
272
     2
274
     3
283
     0
284
     8
340
11
341
8F
342
8F
  0
DIMSTYLE
105
BB5
330
A
100
AcDbSymbolTableRecord
100
AcDbDimStyleTableRecord
  2
NEMY-8
 70
     0
 41
24.0
 42
12.0
 43
80.0
 44
8.0
 73
     0
 74
     0
 77
     1
 78
     8
140
24.0
141
12.0
143
0.03937007874016
147
8.0
171
     3
172
     1
178
     0
271
     2
272
     2
274
     3
283
     0
284
     8
340
11
341
8F
342
8F
  0
DIMSTYLE
105
BF3
330
A
100
AcDbSymbolTableRecord
100
AcDbDimStyleTableRecord
  2
NEMY-20
 70
     0
 41
60.0
 42
30.0
 43
200.0
 44
20.0
 73
     0
 74
     0
 77
     1
 78
     8
140
60.0
141
30.0
143
0.03937007874016
147
20.0
171
     3
172
     1
178
     0
271
     2
272
     2
274
     3
283
     0
284
     8
340
11
341
8F
342
8F
  0
DIMSTYLE
105
D9B
330
A
100
AcDbSymbolTableRecord
100
AcDbDimStyleTableRecord
  2
NEMY-100
 70
     0
 41
300.0
 42
150.0
 43
1000.0
 44
100.0
 73
     0
 74
     0
 77
     1
 78
     8
140
300.0
141
150.0
143
0.03937007874016
147
100.0
171
     3
172
     1
178
     0
271
     2
272
     2
274
     3
283
     0
284
     8
340
11
341
8F
342
8F
  0
DIMSTYLE
105
D9C
330
A
100
AcDbSymbolTableRecord
100
AcDbDimStyleTableRecord
  2
NEMY-15
 70
     0
 41
45.0
 42
22.5
 43
150.0
 44
15.0
 73
     0
 74
     0
 77
     1
 78
     8
140
45.0
141
22.5
143
0.03937007874016
147
15.0
171
     3
172
     1
178
     0
271
     2
272
     2
274
     3
283
     0
284
     8
340
11
341
8F
342
8F
  0
DIMSTYLE
105
D9D
330
A
100
AcDbSymbolTableRecord
100
AcDbDimStyleTableRecord
  2
NEMY-2
 70
     0
 41
6.0
 42
3.0
 43
20.0
 44
2.0
 73
     0
 74
     0
 77
     1
 78
     8
140
6.0
141
3.0
143
0.03937007874016
147
2.0
171
     3
172
     1
174
     1
178
     0
271
     2
272
     2
274
     3
283
     0
284
     8
340
11
341
8F
342
8F
  0
DIMSTYLE
105
D9E
330
A
100
AcDbSymbolTableRecord
100
AcDbDimStyleTableRecord
  2
NEMY-25
 70
     0
 41
75.0
 42
37.5
 43
250.0
 44
25.0
 73
     0
 74
     0
 77
     1
 78
     8
140
75.0
141
37.5
143
0.03937007874016
147
25.0
171
     3
172
     1
178
     0
271
     2
272
     2
274
     3
283
     0
284
     8
340
11
341
8F
342
8F
  0
DIMSTYLE
105
D9F
330
A
100
AcDbSymbolTableRecord
100
AcDbDimStyleTableRecord
  2
NEMY-3
 70
     0
 41
9.0
 42
4.5
 43
30.0
 44
4.0
 73
     0
 74
     0
 77
     1
 78
     8
140
9.0
141
4.5
143
0.03937007874016
147
3.0
171
     3
172
     1
174
     1
178
     0
271
     2
272
     2
274
     3
283
     0
284
     8
340
11
341
8F
342
8F
  0
DIMSTYLE
105
DA0
330
A
100
AcDbSymbolTableRecord
100
AcDbDimStyleTableRecord
  2
NEMY-30
 70
     0
 41
90.0
 42
45.0
 43
300.0
 44
30.0
 73
     0
 74
     0
 77
     1
 78
     8
140
90.0
141
45.0
143
0.03937007874016
147
30.0
171
     3
172
     1
178
     0
271
     2
272
     2
274
     3
283
     0
284
     8
340
11
341
8F
342
8F
  0
DIMSTYLE
105
DA1
330
A
100
AcDbSymbolTableRecord
100
AcDbDimStyleTableRecord
  2
NEMY-50
 70
     0
 41
150.0
 42
75.0
 43
500.0
 44
50.0
 73
     0
 74
     0
 77
     1
 78
     8
140
150.0
141
75.0
143
0.03937007874016
147
50.0
171
     3
172
     1
178
     0
271
     2
272
     2
274
     3
283
     0
284
     8
340
11
341
8F
342
8F
  0
DIMSTYLE
105
F16
330
A
100
AcDbSymbolTableRecord
100
AcDbDimStyleTableRecord
  2
STANDARD-WS-15
 70
     0
 40
11.25
 41
2.5
 42
2.0
 43
3.75
 44
1.25
 73
     0
 74
     0
 77
     1
 78
     8
140
3.75
141
2.0
143
0.0394
147
1.5
171
     4
172
     1
173
     1
176
     7
177
     7
271
     2
178
   256
271
     2
272
     2
273
     8
274
     4
284
     8
340
F15
341
643
343
8F
344
8F
  0
DIMSTYLE
105
F17
330
A
100
AcDbSymbolTableRecord
100
AcDbDimStyleTableRecord
  2
STANDARD-WS-20
 70
     0
 40
15.0
 41
2.5
 42
2.0
 43
3.75
 44
1.25
 73
     0
 74
     0
 77
     1
 78
     8
140
3.75
141
2.0
143
0.0394
147
1.5
171
     4
172
     1
173
     1
176
     7
177
     7
271
     2
178
   256
271
     2
272
     2
273
     8
274
     4
284
     8
340
F15
341
643
343
8F
344
8F
  0
DIMSTYLE
105
F18
330
A
100
AcDbSymbolTableRecord
100
AcDbDimStyleTableRecord
  2
STANDARD-WS-20黒丸1
 70
     0
 40
14.0
 41
2.5
 42
2.0
 43
3.75
 44
1.25
 73
     0
 74
     0
 77
     1
 78
     8
140
3.75
141
2.5
147
1.5
172
     1
176
   256
177
   256
271
     1
178
   256
271
     1
272
     1
284
     8
340
F15
341
8F
342
8F
343
8F
344
626
  0
DIMSTYLE
105
CB94
330
A
100
AcDbSymbolTableRecord
100
AcDbDimStyleTableRecord
  2
STANDARD-WS-10
 70
     0
 40
7.070710000000001
 41
2.5
 42
1.0
 43
3.75
 44
1.25
 73
     0
 74
     0
 77
     1
 78
     8
140
3.75
141
2.5
147
1.25
172
     1
173
     1
176
   256
177
   256
271
     1
178
   256
271
     1
272
     1
284
     8
340
F15
341
8F
343
8F
344
8F
  0
DIMSTYLE
105
DC92
330
A
100
AcDbSymbolTableRecord
100
AcDbDimStyleTableRecord
  2
NEMY-12
 70
     0
 40
12.0
 41
3.0
 42
1.5
 43
10.0
 44
1.0
 73
     0
 74
     0
 77
     1
 78
     8
140
3.0
141
1.5
143
0.03937007874016
147
1.0
171
     3
172
     1
178
     0
271
     1
272
     1
274
     3
283
     0
284
     8
340
11
341
8F
342
8F
  0
ENDTAB
  0
TABLE
  2
BLOCK_RECORD
  5
1
330
0
100
AcDbSymbolTable
 70
     9
  0
BLOCK_RECORD
  5
1F
330
1
100
AcDbSymbolTableRecord
100
AcDbBlockTableRecord
  2
*Model_Space
340
22
  0
BLOCK_RECORD
  5
1B
330
1
100
AcDbSymbolTableRecord
100
AcDbBlockTableRecord
  2
*Paper_Space
340
1E
  0
BLOCK_RECORD
  5
23
330
1
100
AcDbSymbolTableRecord
100
AcDbBlockTableRecord
  2
*Paper_Space0
340
26
  0
BLOCK_RECORD
  5
8F
330
1
100
AcDbSymbolTableRecord
100
AcDbBlockTableRecord
  2
_Open
340
0
102
{BLKREFS
331
DBF1
331
DBF2
331
DBDF
331
DBE0
331
D8A5
331
D8A6
331
DB2B
331
DB2C
331
DB34
331
DB35
331
DB3F
331
DB40
331
DB4A
331
DB4B
331
DA8A
331
DA8B
331
DAB4
331
DAB5
331
DADB
331
DADC
331
DAEA
331
DAEB
331
DBCB
331
DBCC
331
DB88
331
DB89
331
DB95
331
DB96
331
DBA2
331
DBA3
331
DBAF
331
DBB0
331
DBD6
331
DBD7
102
}
  0
BLOCK_RECORD
  5
626
330
1
100
AcDbSymbolTableRecord
100
AcDbBlockTableRecord
  2
_DotSmall
340
0
  0
BLOCK_RECORD
  5
643
330
1
100
AcDbSymbolTableRecord
100
AcDbBlockTableRecord
  2
_None
340
0
  0
BLOCK_RECORD
  5
BCD
330
1
100
AcDbSymbolTableRecord
100
AcDbBlockTableRecord
  2
矢印
340
0
310
2800000020000000200000000100080000000000000400000000000000000000000000000000000000000000000080000080000000808000800000008000800080800000C0C0C000C0DCC000F0CAA6000020400000206000002080000020A0000020C0000020E00000400000004020000040400000406000004080000040A0
310
000040C0000040E00000600000006020000060400000606000006080000060A0000060C0000060E00000800000008020000080400000806000008080000080A0000080C0000080E00000A0000000A0200000A0400000A0600000A0800000A0A00000A0C00000A0E00000C0000000C0200000C0400000C0600000C0800000C0
310
A00000C0C00000C0E00000E0000000E0200000E0400000E0600000E0800000E0A00000E0C00000E0E00040000000400020004000400040006000400080004000A0004000C0004000E00040200000402020004020400040206000402080004020A0004020C0004020E000404000004040200040404000404060004040800040
310
40A0004040C0004040E00040600000406020004060400040606000406080004060A0004060C0004060E00040800000408020004080400040806000408080004080A0004080C0004080E00040A0000040A0200040A0400040A0600040A0800040A0A00040A0C00040A0E00040C0000040C0200040C0400040C0600040C08000
310
40C0A00040C0C00040C0E00040E0000040E0200040E0400040E0600040E0800040E0A00040E0C00040E0E00080000000800020008000400080006000800080008000A0008000C0008000E00080200000802020008020400080206000802080008020A0008020C0008020E00080400000804020008040400080406000804080
310
008040A0008040C0008040E00080600000806020008060400080606000806080008060A0008060C0008060E00080800000808020008080400080806000808080008080A0008080C0008080E00080A0000080A0200080A0400080A0600080A0800080A0A00080A0C00080A0E00080C0000080C0200080C0400080C0600080C0
310
800080C0A00080C0C00080C0E00080E0000080E0200080E0400080E0600080E0800080E0A00080E0C00080E0E000C0000000C0002000C0004000C0006000C0008000C000A000C000C000C000E000C0200000C0202000C0204000C0206000C0208000C020A000C020C000C020E000C0400000C0402000C0404000C0406000C0
310
408000C040A000C040C000C040E000C0600000C0602000C0604000C0606000C0608000C060A000C060C000C060E000C0800000C0802000C0804000C0806000C0808000C080A000C080C000C080E000C0A00000C0A02000C0A04000C0A06000C0A08000C0A0A000C0A0C000C0A0E000C0C00000C0C02000C0C04000C0C06000
310
C0C08000C0C0A000F0FBFF00A4A0A000808080000000FF0000FF000000FFFF00FF000000FF00FF00FFFF0000FFFFFF0000000000000000000000000000000000000000000000000000000000000000000000000000000000000000000000000000000000000000000000000000000000000000000000000000000000000000
310
00000000000000000000000000000000000000000000000000000000000000000000000000000000000000000000000000000000000000000000000000000000000000000000000000000000000000000000000000000000000000000000000000000000000000000000000000000000000000000000000000000000000000
310
000000000000000000000000000000000000000000000000000000000000000000000000000000000000000000000000000000000000000000000000000000000000000000000000000000000000000000000000000000000000000000000000000000000000000000000000000000000000000000000000000000000000FD
310
FD00000000000000000000000000000000000000000000000000000000FDFD00FD0000000000000000000000000000000000000000000000000000FDFD000000FD0000000000000000000000000000000000000000000000FDFDFD0000000000FDFDFDFDFDFDFDFDFDFDFDFDFDFDFDFDFDFD00000000FDFD00000000000000
310
000000000000000000000000000000000000FD0000FDFD000000000000000000000000000000000000000000000000000000FD000000FDFD0000000000000000000000000000000000000000000000000000FD0000000000FDFD000000000000000000000000000000000000000000000000FD00000000000000FDFD000000
310
0000FDFDFDFDFDFDFDFDFDFDFDFDFDFDFDFDFDFD000000000000000000FDFD000000FD00000000000000000000000000000000000000000000000000000000FDFD00FD000000000000000000000000000000000000000000000000000000000000FDFD00000000000000000000000000000000000000000000000000000000
310
00000000000000000000000000000000000000000000000000000000000000000000000000000000000000000000000000000000000000000000000000000000000000000000000000000000000000000000000000000000000000000000000000000000000000000000000000000000000000000000000000000000000000
310
00000000000000000000000000000000000000000000000000000000000000000000000000000000000000000000000000000000000000000000000000000000000000000000000000000000000000000000000000000000000000000000000000000000000000000000000000000000000000000000000000000000000000
310
0000000000000000000000000000000000000000000000000000000000000000000000000000000000000000000000000000000000000000
1001
ACAD
1000
DesignCenter Data
1002
{
1070
     1
1070
     4
1002
}
  0
BLOCK_RECORD
  5
2859
330
1
100
AcDbSymbolTableRecord
100
AcDbBlockTableRecord
  2
Rev1
340
0
  0
BLOCK_RECORD
  5
8757
330
1
100
AcDbSymbolTableRecord
100
AcDbBlockTableRecord
  2
A$C65633760
340
0
  0
BLOCK_RECORD
  5
BF44
330
1
100
AcDbSymbolTableRecord
100
AcDbBlockTableRecord
  2
Rev3
340
0
  0
BLOCK_RECORD
  5
D5FA
330
1
100
AcDbSymbolTableRecord
100
AcDbBlockTableRecord
  2
A$C2B8831AF
340
0
  0
ENDTAB
  0
ENDSEC
  0
SECTION
  2
BLOCKS
  0
BLOCK
  5
20
330
1F
100
AcDbEntity
  8
0
370
    -1
100
AcDbBlockBegin
  2
*Model_Space
 70
     0
 10
0.0
 20
0.0
 30
0.0
  3
*Model_Space
  1

  0
ENDBLK
  5
21
330
1F
100
AcDbEntity
  8
0
370
    -1
100
AcDbBlockEnd
  0
BLOCK
  5
1C
330
1B
100
AcDbEntity
 67
     1
  8
0
370
    -1
100
AcDbBlockBegin
  2
*Paper_Space
 70
     0
 10
0.0
 20
0.0
 30
0.0
  3
*Paper_Space
  1

  0
ENDBLK
  5
1D
330
1B
100
AcDbEntity
 67
     1
  8
0
370
    -1
100
AcDbBlockEnd
  0
BLOCK
  5
24
330
23
100
AcDbEntity
  8
0
370
    -1
100
AcDbBlockBegin
  2
*Paper_Space0
 70
     0
 10
0.0
 20
0.0
 30
0.0
  3
*Paper_Space0
  1

  0
ENDBLK
  5
25
330
23
100
AcDbEntity
  8
0
370
    -1
100
AcDbBlockEnd
  0
BLOCK
  5
93
330
8F
100
AcDbEntity
  8
0
370
    -1
100
AcDbBlockBegin
  2
_Open
 70
     0
 10
0.0
 20
0.0
 30
0.0
  3
_Open
  1

  0
LINE
  5
90
330
8F
100
AcDbEntity
  8
2　寸法
 62
     0
370
    -2
100
AcDbLine
 10
-1.0
 20
0.1666666666666667
 30
0.0
 11
0.0
 21
0.0
 31
0.0
  0
LINE
  5
91
330
8F
100
AcDbEntity
  8
2　寸法
 62
     0
370
    -2
100
AcDbLine
 10
-1.0
 20
-0.1666666666666667
 30
0.0
 11
0.0
 21
0.0
 31
0.0
  0
LINE
  5
92
330
8F
100
AcDbEntity
  8
2　寸法
 62
     0
370
    -2
100
AcDbLine
 10
0.0
 20
0.0
 30
0.0
 11
-1.0
 21
0.0
 31
0.0
  0
ENDBLK
  5
94
330
8F
100
AcDbEntity
  8
0
370
    -1
100
AcDbBlockEnd
  0
BLOCK
  5
628
330
626
100
AcDbEntity
  8
0
370
    -1
100
AcDbBlockBegin
  2
_DotSmall
 70
     0
 10
0.0
 20
0.0
 30
0.0
  3
_DotSmall
  1

  0
LWPOLYLINE
  5
627
330
626
100
AcDbEntity
  8
2　寸法
 62
     0
370
    -1
100
AcDbPolyline
 90
        2
 70
     1
 43
0.5
 10
-0.0625
 20
0.0
 42
1.0
 10
0.0625
 20
0.0
 42
1.0
  0
ENDBLK
  5
629
330
626
100
AcDbEntity
  8
0
370
    -1
100
AcDbBlockEnd
  0
BLOCK
  5
644
330
643
100
AcDbEntity
  8
0
370
    -1
100
AcDbBlockBegin
  2
_None
 70
     0
 10
0.0
 20
0.0
 30
0.0
  3
_None
  1

  0
ENDBLK
  5
645
330
643
100
AcDbEntity
  8
0
370
    -1
100
AcDbBlockEnd
  0
BLOCK
  5
BCE
330
BCD
100
AcDbEntity
  8
0
370
    -1
100
AcDbBlockBegin
  2
矢印
 70
     0
 10
0.0
 20
0.0
 30
0.0
  3
矢印
  1

  0
LINE
  5
BD0
330
BCD
100
AcDbEntity
  8
6　その他（細）
370
    -1
100
AcDbLine
 10
254.0616470530396
 20
130.975183949022
 30
0.0
 11
248.0616470530396
 21
133.975183949022
 31
0.0
  0
LINE
  5
BD1
330
BCD
100
AcDbEntity
  8
6　その他（細）
370
    -1
100
AcDbLine
 10
248.0616470530396
 20
133.975183949022
 30
0.0
 11
254.0616470530396
 21
136.975183949022
 31
0.0
  0
LINE
  5
BD2
330
BCD
100
AcDbEntity
  8
6　その他（細）
370
    -1
100
AcDbLine
 10
263.0616470530396
 20
132.775183949022
 30
0.0
 11
254.0616470530396
 21
132.775183949022
 31
0.0
  0
LINE
  5
BD3
330
BCD
100
AcDbEntity
  8
6　その他（細）
370
    -1
100
AcDbLine
 10
263.0616470530396
 20
135.175183949022
 30
0.0
 11
254.0616470530396
 21
135.175183949022
 31
0.0
  0
LINE
  5
BD4
330
BCD
100
AcDbEntity
  8
6　その他（細）
370
    -1
100
AcDbLine
 10
254.0616470530396
 20
130.975183949022
 30
0.0
 11
254.0616470530396
 21
132.775183949022
 31
0.0
  0
LINE
  5
BD5
330
BCD
100
AcDbEntity
  8
6　その他（細）
370
    -1
100
AcDbLine
 10
254.0616470530396
 20
135.175183949022
 30
0.0
 11
254.0616470530396
 21
136.975183949022
 31
0.0
  0
LINE
  5
BD6
330
BCD
100
AcDbEntity
  8
6　その他（細）
370
    -1
100
AcDbLine
 10
263.0616470530396
 20
132.775183949022
 30
0.0
 11
263.0616470530396
 21
135.175183949022
 31
0.0
  0
ENDBLK
  5
BCF
330
BCD
100
AcDbEntity
  8
0
370
    -1
100
AcDbBlockEnd
  0
BLOCK
  5
285E
330
2859
100
AcDbEntity
  8
0
370
    -1
100
AcDbBlockBegin
  2
Rev1
 70
     0
 10
0.0
 20
0.0
 30
0.0
  3
Rev1
  1

  0
LINE
  5
285A
330
2859
100
AcDbEntity
  8
0
  6
Continuous
 62
     0
370
    -1
100
AcDbLine
 10
-2.5
 20
-1.443375672974099
 30
0.0
 11
2.5
 21
-1.443375672974099
 31
0.0
  0
LINE
  5
285B
330
2859
100
AcDbEntity
  8
0
  6
Continuous
 62
     0
370
    -1
100
AcDbLine
 10
2.5
 20
-1.443375672974099
 30
0.0
 11
0.0
 21
2.886751345948085
 31
0.0
  0
LINE
  5
285C
330
2859
100
AcDbEntity
  8
0
  6
Continuous
 62
     0
370
    -1
100
AcDbLine
 10
0.0
 20
2.886751345948085
 30
0.0
 11
-2.5
 21
-1.443375672974099
 31
0.0
  0
TEXT
  5
285D
330
2859
100
AcDbEntity
  8
0
  6
Continuous
 62
     0
370
    -1
100
AcDbText
 10
-0.3588902191379475
 20
-0.9549006065115293
 30
0.0
 40
2.5
  1
1
 41
0.8
  7
StCustom
100
AcDbText
  0
ENDBLK
  5
285F
330
2859
100
AcDbEntity
  8
0
370
    -1
100
AcDbBlockEnd
  0
BLOCK
  5
875B
330
8757
100
AcDbEntity
  8
0
370
    -1
100
AcDbBlockBegin
  2
A$C65633760
 70
     0
 10
0.0
 20
0.0
 30
0.0
  3
A$C65633760
  1

  0
LEADER
  5
8758
330
8757
100
AcDbEntity
  8
2　寸法
370
    -1
100
AcDbLeader
  3
STANDARD-WS-15
 73
     0
 75
     1
 40
51.83764224084031
 41
517.5225084406652
 76
     3
 10
613.7236632796703
 20
282.7080552999159
 30
0.0
 10
539.0450549053639
 20
85.92025383465807
 30
0.0
 10
536.5450549053639
 20
85.92025383465807
 30
0.0
340
8759
213
-11.76886515444494
223
0.8825107630436833
233
0.0
1001
ACAD
1000
DSTYLE
1002
{
1070
     6
1000
NONE
1070
    77
1070
     1
1070
   147
1040
1.5
1070
   343
1005
643
1002
}
  0
MTEXT
  5
8759
102
{ACAD_REACTORS
330
8758
102
}
330
8757
100
AcDbEntity
  8
2　寸法
370
    -1
100
AcDbMText
 10
531.4389200598089
 20
101.9127430716144
 30
0.0
 40
45.0
 41
0.0
 71
     9
 72
     1
  1
\A1;エキスパンドメタル
 73
     1
 44
1.0
  0
TEXT
  5
875A
330
8757
100
AcDbEntity
  8
2　寸法
370
    -1
100
AcDbText
 10
125.394068526517
 20
10.08277083292705
 30
0.0
 40
45.0
  1
XS-61
100
AcDbText
  0
ENDBLK
  5
875C
330
8757
100
AcDbEntity
  8
0
370
    -1
100
AcDbBlockEnd
  0
BLOCK
  5
BF49
330
BF44
100
AcDbEntity
  8
0
 62
     1
370
    -1
100
AcDbBlockBegin
  2
Rev3
 70
     0
 10
0.0
 20
0.0
 30
0.0
  3
Rev3
  1

  0
LINE
  5
BF45
330
BF44
100
AcDbEntity
  8
0
  6
Continuous
 62
     0
370
    -1
100
AcDbLine
 10
2.5
 20
-1.443375672974042
 30
0.0
 11
0.0
 21
2.886751345948142
 31
0.0
  0
LINE
  5
BF46
330
BF44
100
AcDbEntity
  8
0
  6
Continuous
 62
     0
370
    -1
100
AcDbLine
 10
0.0
 20
2.886751345948142
 30
0.0
 11
-2.5
 21
-1.443375672974042
 31
0.0
  0
TEXT
  5
BF47
330
BF44
100
AcDbEntity
  8
0
  6
Continuous
 62
     0
370
    -1
100
AcDbText
 10
-0.6942909795577634
 20
-1.044770969406756
 30
0.0
 40
2.5
  1
3
 41
0.8
  7
StCustom
100
AcDbText
  0
LINE
  5
BF48
330
BF44
100
AcDbEntity
  8
0
  6
Continuous
 62
     0
370
    -1
100
AcDbLine
 10
-2.5
 20
-1.443375672974042
 30
0.0
 11
2.5
 21
-1.443375672974042
 31
0.0
  0
ENDBLK
  5
BF4A
330
BF44
100
AcDbEntity
  8
0
 62
     1
370
    -1
100
AcDbBlockEnd
  0
BLOCK
  5
D5FE
330
D5FA
100
AcDbEntity
  8
0
100
AcDbBlockBegin
  2
A$C2B8831AF
 70
     0
 10
0.0
 20
0.0
 30
0.0
  3
A$C2B8831AF
  1

  0
LINE
  5
D5FB
330
D5FA
100
AcDbEntity
  8
1　製品
100
AcDbLine
 10
-43.19999999999891
 20
-150.0
 30
0.0
 11
0.0
 21
-150.0
 31
0.0
  0
LINE
  5
D5FC
330
D5FA
100
AcDbEntity
  8
1　製品
100
AcDbLine
 10
-150.0
 20
-40.0
 30
0.0
 11
-43.19999999999891
 21
-150.0
 31
0.0
  0
LINE
  5
D5FD
330
D5FA
100
AcDbEntity
  8
1　製品
100
AcDbLine
 10
-150.0
 20
0.0
 30
0.0
 11
-150.0
 21
-40.00000000000091
 31
0.0
  0
ENDBLK
  5
D5FF
330
D5FA
100
AcDbEntity
  8
0
100
AcDbBlockEnd
  0
ENDSEC
  0
SECTION
  2
ENTITIES
  0
TEXT
  5
D43
330
1F
100
AcDbEntity
  8
4　注記
370
    -1
100
AcDbText
 10
210.2343249531853
 20
3113.932530533866
 30
0.0
 40
45.0
  1

 72
     2
 11
210.2343249531853
 21
3136.432530533866
 31
0.0
100
AcDbText
 73
     2
  0
LINE
  5
CD3D
330
1F
100
AcDbEntity
  8
1　製品
100
AcDbLine
 10
-5115.891999602869
 20
1305.520847293781
 30
0.0
 11
-5115.891999602871
 21
1655.520847293781
 31
0.0
  0
LINE
  5
CD3E
330
1F
100
AcDbEntity
  8
1　製品
100
AcDbLine
 10
-6260.891999602871
 20
1655.520847293781
 30
0.0
 11
-6260.891999602871
 21
1305.520847293791
 31
0.0
  0
LINE
  5
CD40
330
1F
100
AcDbEntity
  8
1　製品
100
AcDbLine
 10
-7365.891999602871
 20
1305.520847293781
 30
0.0
 11
-7365.891999602871
 21
1655.520847293781
 31
0.0
  0
LINE
  5
CD43
330
1F
100
AcDbEntity
  8
1　製品
100
AcDbLine
 10
-5075.891999602871
 20
1305.520847293781
 30
0.0
 11
-5075.891999602871
 21
1655.520847293781
 31
0.0
  0
LINE
  5
CD44
330
1F
100
AcDbEntity
  8
1　製品
100
AcDbLine
 10
-7405.891999602871
 20
1357.320847293781
 30
0.0
 11
-7405.891999602871
 21
1655.520847293781
 31
0.0
  0
LINE
  5
CD45
330
1F
100
AcDbEntity
  8
1　製品
100
AcDbLine
 10
-6220.891999602871
 20
1655.520847293781
 30
0.0
 11
-6220.891999602871
 21
1357.320847293781
 31
0.0
  0
LINE
  5
CD4C
330
1F
100
AcDbEntity
  8
1　製品
 48
10.0
100
AcDbLine
 10
-7405.891999602871
 20
1357.320847293781
 30
0.0
 11
-7405.891999602871
 21
1305.520847293781
 31
0.0
  0
LINE
  5
CD4D
330
1F
100
AcDbEntity
  8
1　製品
 48
10.0
100
AcDbLine
 10
-7365.891999602873
 20
1305.520847293781
 30
0.0
 11
-7405.891999602871
 21
1305.520847293781
 31
0.0
  0
LINE
  5
CD4F
330
1F
100
AcDbEntity
  8
6　その他（細）
 48
5.0
100
AcDbLine
 10
-7380.891999602871
 20
1315.520847293791
 30
0.0
 11
-7380.891999602871
 21
1295.520847293791
 31
0.0
  0
LINE
  5
CD56
330
1F
100
AcDbEntity
  8
1　製品
 48
10.0
100
AcDbLine
 10
-6220.891999602871
 20
1357.320847293781
 30
0.0
 11
-6220.891999602873
 21
1305.520847293791
 31
0.0
  0
LINE
  5
CD6A
330
1F
100
AcDbEntity
  8
1　製品
 48
10.0
100
AcDbLine
 10
-5115.891999602869
 20
1305.520847293781
 30
0.0
 11
-5075.891999602871
 21
1305.520847293781
 31
0.0
  0
LINE
  5
CD6C
330
1F
100
AcDbEntity
  8
6　その他（細）
 48
5.0
100
AcDbLine
 10
-5100.891999602871
 20
1315.520847293791
 30
0.0
 11
-5100.891999602871
 21
1295.520847293791
 31
0.0
  0
LINE
  5
CD71
330
1F
100
AcDbEntity
  8
1　製品
100
AcDbLine
 10
-5138.391999602873
 20
3506.689243412763
 30
0.0
 11
-7468.391999602873
 21
3506.689243412762
 31
0.0
  0
LINE
  5
CD72
330
1F
100
AcDbEntity
  8
1　製品
100
AcDbLine
 10
-7468.391999602873
 20
2542.689243412762
 30
0.0
 11
-5138.391999602873
 21
2542.689243412762
 31
0.0
  0
LINE
  5
CD73
330
1F
100
AcDbEntity
  8
1　製品
100
AcDbLine
 10
-5141.591999602873
 20
3466.689243412761
 30
0.0
 11
-7145.391999602873
 21
3466.689243412775
 31
0.0
  0
LINE
  5
CD76
330
1F
100
AcDbEntity
  8
1　製品
100
AcDbLine
 10
-7468.391999602873
 20
2582.689243412763
 30
0.0
 11
-5477.891999602873
 21
2582.689243412749
 31
0.0
  0
LINE
  5
CD77
330
1F
100
AcDbEntity
  8
1　製品
100
AcDbLine
 10
-5138.391999602873
 20
2582.689243412763
 30
0.0
 11
-7145.391999602873
 21
2582.689243412749
 31
0.0
  0
LINE
  5
CD78
330
1F
100
AcDbEntity
  8
1　製品
100
AcDbLine
 10
-5138.391999602873
 20
3466.689243412762
 30
0.0
 11
-7468.391999602873
 21
3466.689243412778
 31
0.0
  0
LINE
  5
CD7E
330
1F
100
AcDbEntity
  8
1　製品
100
AcDbLine
 10
-5075.891999602871
 20
1805.520847293781
 30
0.0
 11
-7405.891999602871
 21
1805.520847293781
 31
0.0
  0
LINE
  5
CD7F
330
1F
100
AcDbEntity
  8
1　製品
100
AcDbLine
 10
-6305.891999602871
 20
1765.520847293781
 30
0.0
 11
-7259.09199960287
 21
1765.520847293781
 31
0.0
  0
LINE
  5
CD80
330
1F
100
AcDbEntity
  8
1　製品
100
AcDbLine
 10
-7468.391999602873
 20
3504.689243412763
 30
0.0
 11
-7468.391999602873
 21
2542.689243412762
 31
0.0
  0
LINE
  5
CD81
330
1F
100
AcDbEntity
  8
1　製品
100
AcDbLine
 10
-7428.391999602854
 20
2582.689243412761
 30
0.0
 11
-7428.391999602873
 21
3464.689243412763
 31
0.0
  0
LINE
  5
CD85
330
1F
100
AcDbEntity
  8
1　製品
 48
15.0
100
AcDbLine
 10
-7409.09199960287
 20
1805.520847293781
 30
0.0
 11
-7409.09199960287
 21
1655.520847293781
 31
0.0
  0
LINE
  5
CD86
330
1F
100
AcDbEntity
  8
1　製品
 48
15.0
100
AcDbLine
 10
-7365.891999602871
 20
1655.520847293781
 30
0.0
 11
-7259.891999602871
 21
1765.520847293781
 31
0.0
  0
LINE
  5
CD89
330
1F
100
AcDbEntity
  8
6　その他（細）
 48
5.0
100
AcDbLine
 10
-7380.891999602871
 20
1685.520847293781
 30
0.0
 11
-7380.891999602871
 21
1665.520847293781
 31
0.0
  0
LINE
  5
CD8A
330
1F
100
AcDbEntity
  8
1　製品
 48
15.0
100
AcDbLine
 10
-7409.09199960287
 20
1655.520847293781
 30
0.0
 11
-7365.891999602871
 21
1655.520847293781
 31
0.0
  0
CIRCLE
  5
CD8B
330
1F
100
AcDbEntity
  8
1　製品
 48
15.0
100
AcDbCircle
 10
-7380.891999602871
 20
1735.520847293781
 30
0.0
 40
5.0
  0
LINE
  5
CD8C
330
1F
100
AcDbEntity
  8
6　その他（細）
 48
5.0
100
AcDbLine
 10
-7390.891999602871
 20
1735.520847293781
 30
0.0
 11
-7370.891999602871
 21
1735.520847293781
 31
0.0
  0
CIRCLE
  5
CD8D
330
1F
100
AcDbEntity
  8
1　製品
 48
15.0
100
AcDbCircle
 10
-7380.891999602871
 20
1675.520847293781
 30
0.0
 40
5.0
  0
LINE
  5
CD8E
330
1F
100
AcDbEntity
  8
6　その他（細）
 48
5.0
100
AcDbLine
 10
-7390.891999602871
 20
1675.520847293781
 30
0.0
 11
-7370.891999602871
 21
1675.520847293781
 31
0.0
  0
LINE
  5
CD8F
330
1F
100
AcDbEntity
  8
6　その他（細）
 48
5.0
100
AcDbLine
 10
-7380.891999602871
 20
1745.520847293781
 30
0.0
 11
-7380.891999602871
 21
1725.520847293781
 31
0.0
  0
LINE
  5
CD92
330
1F
100
AcDbEntity
  8
1　製品
 48
15.0
100
AcDbLine
 10
-7409.09199960287
 20
1805.520847293781
 30
0.0
 11
-7259.891999602871
 21
1805.520847293781
 31
0.0
  0
LINE
  5
CD93
330
1F
100
AcDbEntity
  8
6　その他（細）
 48
5.0
100
AcDbLine
 10
-7385.891999602871
 20
1785.520847293781
 30
0.0
 11
-7365.891999602871
 21
1785.520847293781
 31
0.0
  0
CIRCLE
  5
CD95
330
1F
100
AcDbEntity
  8
1　製品
 48
15.0
100
AcDbCircle
 10
-7375.891999602871
 20
1785.520847293781
 30
0.0
 40
5.0
  0
LINE
  5
CD96
330
1F
100
AcDbEntity
  8
6　その他（細）
 48
5.0
100
AcDbLine
 10
-7375.891999602871
 20
1795.520847293781
 30
0.0
 11
-7375.891999602871
 21
1775.520847293781
 31
0.0
  0
LINE
  5
CD97
330
1F
100
AcDbEntity
  8
6　その他（細）
 48
5.0
100
AcDbLine
 10
-7280.891999602871
 20
1795.520847293781
 30
0.0
 11
-7280.891999602871
 21
1775.520847293781
 31
0.0
  0
LINE
  5
CD98
330
1F
100
AcDbEntity
  8
6　その他（細）
 48
5.0
100
AcDbLine
 10
-7290.891999602871
 20
1785.520847293781
 30
0.0
 11
-7270.891999602871
 21
1785.520847293781
 31
0.0
  0
CIRCLE
  5
CD99
330
1F
100
AcDbEntity
  8
1　製品
 48
15.0
100
AcDbCircle
 10
-7280.891999602871
 20
1785.520847293781
 30
0.0
 40
5.0
  0
LINE
  5
CD9A
330
1F
100
AcDbEntity
  8
1　製品
100
AcDbLine
 10
-7255.891999602871
 20
1765.520847293781
 30
0.0
 11
-7233.391999602873
 21
1765.520847293781
 31
0.0
  0
LINE
  5
CD9B
330
1F
100
AcDbEntity
  8
1　製品
 48
15.0
100
AcDbLine
 10
-7259.09199960287
 20
1805.520847293781
 30
0.0
 11
-7259.09199960287
 21
1765.520847293781
 31
0.0
  0
LINE
  5
CDA3
330
1F
100
AcDbEntity
  8
1　製品
100
AcDbLine
 10
-7330.855999602873
 20
3466.689243412815
 30
0.0
 11
-7233.319999602869
 21
3423.169243412812
 31
0.0
  0
LINE
  5
CDA4
330
1F
100
AcDbEntity
  8
1　製品
100
AcDbLine
 10
-7379.623999602873
 20
3466.689243412815
 30
0.0
 11
-7257.703999602869
 21
3412.289243412813
 31
0.0
  0
LINE
  5
CDA5
330
1F
100
AcDbEntity
  8
1　製品
100
AcDbLine
 10
-7428.391999602864
 20
3379.649243412815
 30
0.0
 11
-7233.319999602862
 21
3466.689243412814
 31
0.0
  0
LINE
  5
CDA6
330
1F
100
AcDbEntity
  8
1　製品
100
AcDbLine
 10
-7282.087999602873
 20
3466.689243412815
 30
0.0
 11
-7208.935999602869
 21
3434.049243412813
 31
0.0
  0
LINE
  5
CDA7
330
1F
100
AcDbEntity
  8
1　製品
100
AcDbLine
 10
-7428.391999602864
 20
3357.889243412815
 30
0.0
 11
-7184.551999602862
 21
3466.689243412814
 31
0.0
  0
LINE
  5
CDAA
330
1F
100
AcDbEntity
  8
1　製品
100
AcDbLine
 10
-7428.391999602864
 20
3444.929243412815
 30
0.0
 11
-7379.623999602863
 21
3466.689243412815
 31
0.0
  0
LINE
  5
CDAB
330
1F
100
AcDbEntity
  8
1　製品
100
AcDbLine
 10
-7428.391999602864
 20
3379.649243412811
 30
0.0
 11
-7379.623999602867
 21
3357.889243412812
 31
0.0
  0
LINE
  5
CDAC
330
1F
100
AcDbEntity
  8
1　製品
100
AcDbLine
 10
-7428.391999602864
 20
3401.409243412811
 30
0.0
 11
-7355.239999602867
 21
3368.769243412813
 31
0.0
  0
LINE
  5
CDAD
330
1F
100
AcDbEntity
  8
1　製品
100
AcDbLine
 10
-7428.391999602864
 20
3423.169243412815
 30
0.0
 11
-7330.855999602862
 21
3466.689243412814
 31
0.0
  0
LINE
  5
CDAE
330
1F
100
AcDbEntity
  8
1　製品
100
AcDbLine
 10
-7428.391999602864
 20
3401.409243412815
 30
0.0
 11
-7282.087999602862
 21
3466.689243412814
 31
0.0
  0
LINE
  5
CDAF
330
1F
100
AcDbEntity
  8
1　製品
100
AcDbLine
 10
-7428.391999602873
 20
3466.689243412815
 30
0.0
 11
-7282.087999602867
 21
3401.409243412812
 31
0.0
  0
LINE
  5
CDB0
330
1F
100
AcDbEntity
  8
1　製品
100
AcDbLine
 10
-7428.391999602864
 20
3444.929243412812
 30
0.0
 11
-7306.471999602869
 21
3390.529243412812
 31
0.0
  0
LINE
  5
CDB1
330
1F
100
AcDbEntity
  8
1　製品
100
AcDbLine
 10
-7428.391999602864
 20
3423.169243412809
 30
0.0
 11
-7330.855999602867
 21
3379.649243412813
 31
0.0
  0
LINE
  5
CDB2
330
1F
100
AcDbEntity
  8
1　製品
100
AcDbLine
 10
-7428.391999602873
 20
3412.489243412816
 30
0.0
 11
-7428.391999602873
 21
3466.689243412815
 31
0.0
  0
LINE
  5
CDB3
330
1F
100
AcDbEntity
  8
1　製品
100
AcDbLine
 10
-7428.391999602867
 20
3402.889243412816
 30
0.0
 11
-7428.391999602873
 21
3466.689243412815
 31
0.0
  0
LINE
  5
CDB4
330
1F
100
AcDbEntity
  8
1　製品
100
AcDbLine
 10
-7428.391999602864
 20
3357.889243412811
 30
0.0
 11
-7404.007999602867
 21
3347.009243412812
 31
0.0
  0
LINE
  5
CDB9
330
1F
100
AcDbEntity
  8
1　製品
100
AcDbLine
 10
-7233.319999602876
 20
3466.689243412815
 30
0.0
 11
-7184.551999602871
 21
3444.929243412812
 31
0.0
  0
LINE
  5
CDBA
330
1F
100
AcDbEntity
  8
1　製品
100
AcDbLine
 10
-7184.551999602876
 20
3466.689243412815
 30
0.0
 11
-7160.167999602869
 21
3455.809243412813
 31
0.0
  0
LINE
  5
CDBD
330
1F
100
AcDbEntity
  8
1　製品
100
AcDbLine
 10
-5928.391999602873
 20
2582.689243412771
 30
0.0
 11
-5928.391999602873
 21
3464.689243412771
 31
0.0
  0
LINE
  5
CDBF
330
1F
100
AcDbEntity
  8
1　製品
100
AcDbLine
 10
-5958.391999602873
 20
2582.689243412771
 30
0.0
 11
-5958.391999602873
 21
3464.689243412771
 31
0.0
  0
LINE
  5
CDC0
330
1F
100
AcDbEntity
  8
1　製品
100
AcDbLine
 10
-5138.391999602873
 20
2542.689243412762
 30
0.0
 11
-5138.391999602873
 21
3504.689243412763
 31
0.0
  0
LINE
  5
CDC2
330
1F
100
AcDbEntity
  8
1　製品
100
AcDbLine
 10
-5178.391999602893
 20
2582.689243412761
 30
0.0
 11
-5178.391999602874
 21
3464.689243412763
 31
0.0
  0
LINE
  5
CDC3
330
1F
100
AcDbEntity
  8
1　製品
100
AcDbLine
 10
-6678.391999602873
 20
2582.689243412772
 30
0.0
 11
-6678.391999602873
 21
3464.689243412774
 31
0.0
  0
LINE
  5
CDC5
330
1F
100
AcDbEntity
  8
1　製品
100
AcDbLine
 10
-6648.391999602873
 20
2582.689243412772
 30
0.0
 11
-6648.391999602873
 21
3464.689243412772
 31
0.0
  0
LINE
  5
CDC8
330
1F
100
AcDbEntity
  8
1　製品
100
AcDbLine
 10
-5222.691999602872
 20
1765.520847293781
 30
0.0
 11
-6175.891999602871
 21
1765.520847293781
 31
0.0
  0
LINE
  5
CDC9
330
1F
100
AcDbEntity
  8
1　製品
100
AcDbLine
 10
-6175.891999602871
 20
1765.520847293781
 30
0.0
 11
-6220.891999602871
 21
1655.520847293781
 31
0.0
  0
LINE
  5
CDCA
330
1F
100
AcDbEntity
  8
1　製品
100
AcDbLine
 10
-6305.891999602871
 20
1805.520847293781
 30
0.0
 11
-6175.891999602871
 21
1805.520847293781
 31
0.0
  0
LINE
  5
CDCD
330
1F
100
AcDbEntity
  8
1　製品
100
AcDbLine
 10
-6260.891999602871
 20
1655.520847293781
 30
0.0
 11
-6305.891999602871
 21
1765.520847293781
 31
0.0
  0
LINE
  5
CDD4
330
1F
100
AcDbEntity
  8
6　その他（細）
 48
5.0
100
AcDbLine
 10
-6240.891999602871
 20
1685.520847293781
 30
0.0
 11
-6240.891999602871
 21
1665.520847293781
 31
0.0
  0
LINE
  5
CDD5
330
1F
100
AcDbEntity
  8
6　その他（細）
 48
5.0
100
AcDbLine
 10
-6240.891999602871
 20
1685.520847293781
 30
0.0
 11
-6240.891999602871
 21
1665.520847293781
 31
0.0
  0
LINE
  5
CDD6
330
1F
100
AcDbEntity
  8
1　製品
100
AcDbLine
 10
-6220.891999602871
 20
1655.520847293781
 30
0.0
 11
-6260.891999602871
 21
1655.520847293781
 31
0.0
  0
LINE
  5
CDD7
330
1F
100
AcDbEntity
  8
6　その他（細）
 48
5.0
100
AcDbLine
 10
-6240.891999602871
 20
1745.520847293781
 30
0.0
 11
-6240.891999602871
 21
1725.520847293781
 31
0.0
  0
LINE
  5
CDD8
330
1F
100
AcDbEntity
  8
6　その他（細）
 48
5.0
100
AcDbLine
 10
-6240.891999602871
 20
1745.520847293781
 30
0.0
 11
-6240.891999602871
 21
1725.520847293781
 31
0.0
  0
LINE
  5
CDD9
330
1F
100
AcDbEntity
  8
6　その他（細）
 48
5.0
100
AcDbLine
 10
-6250.891999602871
 20
1735.520847293781
 30
0.0
 11
-6230.891999602871
 21
1735.520847293781
 31
0.0
  0
CIRCLE
  5
CDDA
330
1F
100
AcDbEntity
  8
1　製品
100
AcDbCircle
 10
-6240.891999602871
 20
1735.520847293781
 30
0.0
 40
5.0
  0
CIRCLE
  5
CDDB
330
1F
100
AcDbEntity
  8
1　製品
100
AcDbCircle
 10
-6240.891999602871
 20
1735.520847293781
 30
0.0
 40
5.0
  0
LINE
  5
CDDC
330
1F
100
AcDbEntity
  8
6　その他（細）
 48
5.0
100
AcDbLine
 10
-6250.891999602871
 20
1735.520847293781
 30
0.0
 11
-6230.891999602871
 21
1735.520847293781
 31
0.0
  0
CIRCLE
  5
CDDD
330
1F
100
AcDbEntity
  8
1　製品
100
AcDbCircle
 10
-6240.891999602871
 20
1675.520847293781
 30
0.0
 40
5.0
  0
CIRCLE
  5
CDDE
330
1F
100
AcDbEntity
  8
1　製品
100
AcDbCircle
 10
-6240.891999602873
 20
1675.520847293781
 30
0.0
 40
5.0
  0
LINE
  5
CDDF
330
1F
100
AcDbEntity
  8
6　その他（細）
 48
5.0
100
AcDbLine
 10
-6250.891999602871
 20
1675.520847293781
 30
0.0
 11
-6230.891999602871
 21
1675.520847293781
 31
0.0
  0
LINE
  5
CDE0
330
1F
100
AcDbEntity
  8
6　その他（細）
 48
5.0
100
AcDbLine
 10
-6250.891999602873
 20
1675.520847293781
 30
0.0
 11
-6230.891999602873
 21
1675.520847293781
 31
0.0
  0
LINE
  5
CDEA
330
1F
100
AcDbEntity
  8
6　その他（細）
 48
5.0
100
AcDbLine
 10
-6300.891999602871
 20
1785.520847293781
 30
0.0
 11
-6280.891999602871
 21
1785.520847293781
 31
0.0
  0
LINE
  5
CDEB
330
1F
100
AcDbEntity
  8
6　その他（細）
 48
5.0
100
AcDbLine
 10
-6300.891999602871
 20
1785.520847293781
 30
0.0
 11
-6280.891999602871
 21
1785.520847293781
 31
0.0
  0
LINE
  5
CDEC
330
1F
100
AcDbEntity
  8
1　製品
100
AcDbLine
 10
-6305.891999602871
 20
1805.520847293781
 30
0.0
 11
-6305.891999602871
 21
1765.520847293781
 31
0.0
  0
LINE
  5
CDED
330
1F
100
AcDbEntity
  8
6　その他（細）
 48
5.0
100
AcDbLine
 10
-6290.891999602871
 20
1795.520847293781
 30
0.0
 11
-6290.891999602871
 21
1775.520847293781
 31
0.0
  0
CIRCLE
  5
CDEE
330
1F
100
AcDbEntity
  8
1　製品
100
AcDbCircle
 10
-6290.891999602871
 20
1785.520847293781
 30
0.0
 40
4.999999999999999
  0
LINE
  5
CDEF
330
1F
100
AcDbEntity
  8
6　その他（細）
 48
5.0
100
AcDbLine
 10
-6290.891999602871
 20
1795.520847293781
 30
0.0
 11
-6290.891999602871
 21
1775.520847293781
 31
0.0
  0
CIRCLE
  5
CDF0
330
1F
100
AcDbEntity
  8
1　製品
100
AcDbCircle
 10
-6290.891999602871
 20
1785.520847293781
 30
0.0
 40
5.0
  0
LINE
  5
CDF5
330
1F
100
AcDbEntity
  8
1　製品
100
AcDbLine
 10
-6175.891999602871
 20
1805.520847293781
 30
0.0
 11
-6175.891999602871
 21
1765.520847293781
 31
0.0
  0
LINE
  5
CDF6
330
1F
100
AcDbEntity
  8
6　その他（細）
 48
5.0
100
AcDbLine
 10
-6200.891999602871
 20
1785.520847293781
 30
0.0
 11
-6180.891999602871
 21
1785.520847293781
 31
0.0
  0
LINE
  5
CDF7
330
1F
100
AcDbEntity
  8
6　その他（細）
 48
5.0
100
AcDbLine
 10
-6200.891999602871
 20
1785.520847293781
 30
0.0
 11
-6180.891999602871
 21
1785.520847293781
 31
0.0
  0
LINE
  5
CDF8
330
1F
100
AcDbEntity
  8
6　その他（細）
 48
5.0
100
AcDbLine
 10
-6190.891999602871
 20
1795.520847293781
 30
0.0
 11
-6190.891999602871
 21
1775.520847293781
 31
0.0
  0
CIRCLE
  5
CDF9
330
1F
100
AcDbEntity
  8
1　製品
100
AcDbCircle
 10
-6190.891999602871
 20
1785.520847293781
 30
0.0
 40
5.0
  0
LINE
  5
CDFA
330
1F
100
AcDbEntity
  8
6　その他（細）
 48
5.0
100
AcDbLine
 10
-6190.891999602871
 20
1795.520847293781
 30
0.0
 11
-6190.891999602871
 21
1775.520847293781
 31
0.0
  0
CIRCLE
  5
CDFB
330
1F
100
AcDbEntity
  8
1　製品
100
AcDbCircle
 10
-6190.891999602871
 20
1785.520847293781
 30
0.0
 40
5.0
  0
LINE
  5
CE05
330
1F
100
AcDbEntity
  8
1　製品
100
AcDbLine
 10
-6368.391999602873
 20
2541.889243412762
 30
0.0
 11
-6238.391999602873
 21
2541.889243412762
 31
0.0
  0
LINE
  5
CE06
330
1F
100
AcDbEntity
  8
1　製品
100
AcDbLine
 10
-6368.391999602873
 20
2538.689243412764
 30
0.0
 11
-6238.391999602873
 21
2538.689243412764
 31
0.0
  0
LINE
  5
CE0F
330
1F
100
AcDbEntity
  8
1　製品
100
AcDbLine
 10
-6368.391999602873
 20
2538.689243412764
 30
0.0
 11
-6368.391999602873
 21
2541.889243412762
 31
0.0
  0
LINE
  5
CE17
330
1F
100
AcDbEntity
  8
1　製品
100
AcDbLine
 10
-6721.051618028685
 20
2988.552900325556
 30
0.0
 11
-6578.176618028685
 21
3052.302900325555
 31
0.0
  0
LINE
  5
CE18
330
1F
100
AcDbEntity
  8
1　製品
100
AcDbLine
 10
-6721.051618028685
 20
3065.052900325556
 30
0.0
 11
-6578.176618028685
 21
3001.302900325555
 31
0.0
  0
LINE
  5
CE19
330
1F
100
AcDbEntity
  8
1　製品
100
AcDbLine
 10
-6692.476618028686
 20
3077.802900325555
 30
0.0
 11
-6549.601618028686
 21
3014.052900325554
 31
0.0
  0
LINE
  5
CE1A
330
1F
100
AcDbEntity
  8
1　製品
100
AcDbLine
 10
-6692.476618028684
 20
2975.802900325556
 30
0.0
 11
-6549.601618028686
 21
3039.552900325554
 31
0.0
  0
LINE
  5
CE1B
330
1F
100
AcDbEntity
  8
1　製品
100
AcDbLine
 10
-6778.201618028686
 20
3014.052900325556
 30
0.0
 11
-6635.326618028686
 21
3077.802900325556
 31
0.0
  0
LINE
  5
CE1C
330
1F
100
AcDbEntity
  8
1　製品
100
AcDbLine
 10
-6749.626618028686
 20
3001.302900325556
 30
0.0
 11
-6606.751618028688
 21
3065.052900325555
 31
0.0
  0
LINE
  5
CE1D
330
1F
100
AcDbEntity
  8
1　製品
100
AcDbLine
 10
-6778.201618028685
 20
3039.552900325556
 30
0.0
 11
-6635.326618028686
 21
2975.802900325555
 31
0.0
  0
LINE
  5
CE1E
330
1F
100
AcDbEntity
  8
1　製品
100
AcDbLine
 10
-6749.626618028684
 20
3052.302900325556
 30
0.0
 11
-6606.751618028686
 21
2988.552900325555
 31
0.0
  0
LINE
  5
CE21
330
1F
100
AcDbEntity
  8
1　製品
100
AcDbLine
 10
-6238.391999602873
 20
2538.689243412764
 30
0.0
 11
-6238.391999602873
 21
2541.889243412762
 31
0.0
  0
LINE
  5
CE25
330
1F
100
AcDbEntity
  8
1　製品
100
AcDbLine
 10
-6001.051618028685
 20
2988.552900325534
 30
0.0
 11
-5858.176618028685
 21
3052.302900325533
 31
0.0
  0
LINE
  5
CE26
330
1F
100
AcDbEntity
  8
1　製品
100
AcDbLine
 10
-6001.051618028685
 20
3065.052900325534
 30
0.0
 11
-5858.176618028685
 21
3001.302900325533
 31
0.0
  0
LINE
  5
CE27
330
1F
100
AcDbEntity
  8
1　製品
100
AcDbLine
 10
-5972.476618028686
 20
3077.802900325533
 30
0.0
 11
-5829.601618028686
 21
3014.052900325532
 31
0.0
  0
LINE
  5
CE28
330
1F
100
AcDbEntity
  8
1　製品
100
AcDbLine
 10
-5972.476618028684
 20
2975.802900325534
 30
0.0
 11
-5829.601618028686
 21
3039.552900325532
 31
0.0
  0
LINE
  5
CE29
330
1F
100
AcDbEntity
  8
1　製品
100
AcDbLine
 10
-6029.626618028686
 20
3001.302900325534
 30
0.0
 11
-5886.751618028688
 21
3065.052900325533
 31
0.0
  0
LINE
  5
CE2A
330
1F
100
AcDbEntity
  8
1　製品
100
AcDbLine
 10
-6058.201618028685
 20
3039.552900325534
 30
0.0
 11
-5915.326618028686
 21
2975.802900325533
 31
0.0
  0
LINE
  5
CE2B
330
1F
100
AcDbEntity
  8
1　製品
100
AcDbLine
 10
-6029.626618028684
 20
3052.302900325535
 30
0.0
 11
-5886.751618028686
 21
2988.552900325533
 31
0.0
  0
LINE
  5
CE2C
330
1F
100
AcDbEntity
  8
1　製品
100
AcDbLine
 10
-6058.201618028686
 20
3014.052900325534
 30
0.0
 11
-5915.326618028686
 21
3077.802900325534
 31
0.0
  0
LINE
  5
CE2F
330
1F
100
AcDbEntity
  8
1　製品
 48
15.0
100
AcDbLine
 10
-5072.691999602872
 20
1805.520847293781
 30
0.0
 11
-5072.691999602872
 21
1655.520847293781
 31
0.0
  0
LINE
  5
CE32
330
1F
100
AcDbEntity
  8
1　製品
 48
15.0
100
AcDbLine
 10
-5115.891999602871
 20
1655.520847293781
 30
0.0
 11
-5222.691999602872
 21
1765.520847293781
 31
0.0
  0
LINE
  5
CE36
330
1F
100
AcDbEntity
  8
6　その他（細）
 48
5.0
100
AcDbLine
 10
-5100.891999602871
 20
1685.520847293781
 30
0.0
 11
-5100.891999602871
 21
1665.520847293781
 31
0.0
  0
LINE
  5
CE37
330
1F
100
AcDbEntity
  8
6　その他（細）
 48
5.0
100
AcDbLine
 10
-5100.891999602871
 20
1685.520847293781
 30
0.0
 11
-5100.891999602871
 21
1665.520847293781
 31
0.0
  0
LINE
  5
CE38
330
1F
100
AcDbEntity
  8
1　製品
 48
15.0
100
AcDbLine
 10
-5072.691999602872
 20
1655.520847293781
 30
0.0
 11
-5115.891999602871
 21
1655.520847293781
 31
0.0
  0
LINE
  5
CE39
330
1F
100
AcDbEntity
  8
6　その他（細）
 48
5.0
100
AcDbLine
 10
-5090.891999602871
 20
1735.520847293781
 30
0.0
 11
-5110.891999602871
 21
1735.520847293781
 31
0.0
  0
CIRCLE
  5
CE3A
330
1F
100
AcDbEntity
  8
1　製品
 48
15.0
100
AcDbCircle
 10
-5100.891999602871
 20
1735.520847293781
 30
0.0
 40
5.0
  0
LINE
  5
CE3B
330
1F
100
AcDbEntity
  8
6　その他（細）
 48
5.0
100
AcDbLine
 10
-5110.891999602871
 20
1735.520847293781
 30
0.0
 11
-5090.891999602871
 21
1735.520847293781
 31
0.0
  0
CIRCLE
  5
CE3C
330
1F
100
AcDbEntity
  8
1　製品
100
AcDbCircle
 10
-5100.891999602871
 20
1735.520847293781
 30
0.0
 40
5.0
  0
LINE
  5
CE3D
330
1F
100
AcDbEntity
  8
6　その他（細）
 48
5.0
100
AcDbLine
 10
-5100.891999602871
 20
1745.520847293781
 30
0.0
 11
-5100.891999602871
 21
1725.520847293781
 31
0.0
  0
LINE
  5
CE3E
330
1F
100
AcDbEntity
  8
6　その他（細）
 48
5.0
100
AcDbLine
 10
-5100.891999602871
 20
1745.520847293781
 30
0.0
 11
-5100.891999602871
 21
1725.520847293781
 31
0.0
  0
CIRCLE
  5
CE3F
330
1F
100
AcDbEntity
  8
1　製品
 48
15.0
100
AcDbCircle
 10
-5100.891999602871
 20
1675.520847293781
 30
0.0
 40
5.0
  0
CIRCLE
  5
CE40
330
1F
100
AcDbEntity
  8
1　製品
100
AcDbCircle
 10
-5100.891999602871
 20
1675.520847293781
 30
0.0
 40
5.0
  0
LINE
  5
CE41
330
1F
100
AcDbEntity
  8
6　その他（細）
 48
5.0
100
AcDbLine
 10
-5090.891999602871
 20
1675.520847293781
 30
0.0
 11
-5110.891999602871
 21
1675.520847293781
 31
0.0
  0
LINE
  5
CE42
330
1F
100
AcDbEntity
  8
6　その他（細）
 48
5.0
100
AcDbLine
 10
-5110.891999602871
 20
1675.520847293781
 30
0.0
 11
-5090.891999602871
 21
1675.520847293781
 31
0.0
  0
LINE
  5
CE43
330
1F
100
AcDbEntity
  8
6　その他（細）
 48
5.0
100
AcDbLine
 10
-5095.891999602871
 20
1785.520847293781
 30
0.0
 11
-5115.891999602871
 21
1785.520847293781
 31
0.0
  0
LINE
  5
CE44
330
1F
100
AcDbEntity
  8
6　その他（細）
 48
5.0
100
AcDbLine
 10
-5115.891999602871
 20
1785.520847293781
 30
0.0
 11
-5095.891999602871
 21
1785.520847293781
 31
0.0
  0
LINE
  5
CE47
330
1F
100
AcDbEntity
  8
1　製品
 48
15.0
100
AcDbLine
 10
-5072.691999602872
 20
1805.520847293781
 30
0.0
 11
-5221.891999602871
 21
1805.520847293781
 31
0.0
  0
LINE
  5
CE48
330
1F
100
AcDbEntity
  8
6　その他（細）
 48
5.0
100
AcDbLine
 10
-5200.891999602871
 20
1795.520847293781
 30
0.0
 11
-5200.891999602871
 21
1775.520847293781
 31
0.0
  0
LINE
  5
CE49
330
1F
100
AcDbEntity
  8
6　その他（細）
 48
5.0
100
AcDbLine
 10
-5200.891999602871
 20
1795.520847293781
 30
0.0
 11
-5200.891999602871
 21
1775.520847293781
 31
0.0
  0
LINE
  5
CE4A
330
1F
100
AcDbEntity
  8
1　製品
 48
15.0
100
AcDbLine
 10
-5222.691999602872
 20
1805.520847293781
 30
0.0
 11
-5222.691999602872
 21
1765.520847293781
 31
0.0
  0
CIRCLE
  5
CE4B
330
1F
100
AcDbEntity
  8
1　製品
 48
15.0
100
AcDbCircle
 10
-5200.891999602871
 20
1785.520847293781
 30
0.0
 40
5.0
  0
LINE
  5
CE4C
330
1F
100
AcDbEntity
  8
6　その他（細）
 48
5.0
100
AcDbLine
 10
-5190.891999602871
 20
1785.520847293781
 30
0.0
 11
-5210.891999602871
 21
1785.520847293781
 31
0.0
  0
LINE
  5
CE4D
330
1F
100
AcDbEntity
  8
6　その他（細）
 48
5.0
100
AcDbLine
 10
-5210.891999602871
 20
1785.520847293781
 30
0.0
 11
-5190.891999602871
 21
1785.520847293781
 31
0.0
  0
CIRCLE
  5
CE4E
330
1F
100
AcDbEntity
  8
1　製品
100
AcDbCircle
 10
-5200.891999602871
 20
1785.520847293781
 30
0.0
 40
5.0
  0
CIRCLE
  5
CE4F
330
1F
100
AcDbEntity
  8
1　製品
 48
15.0
100
AcDbCircle
 10
-5105.891999602871
 20
1785.520847293781
 30
0.0
 40
5.0
  0
CIRCLE
  5
CE50
330
1F
100
AcDbEntity
  8
1　製品
100
AcDbCircle
 10
-5105.891999602871
 20
1785.520847293781
 30
0.0
 40
5.0
  0
LINE
  5
CE51
330
1F
100
AcDbEntity
  8
6　その他（細）
 48
5.0
100
AcDbLine
 10
-5105.891999602871
 20
1795.520847293781
 30
0.0
 11
-5105.891999602871
 21
1775.520847293781
 31
0.0
  0
LINE
  5
CE52
330
1F
100
AcDbEntity
  8
6　その他（細）
 48
5.0
100
AcDbLine
 10
-5105.891999602871
 20
1795.520847293781
 30
0.0
 11
-5105.891999602871
 21
1775.520847293781
 31
0.0
  0
LINE
  5
CE55
330
1F
100
AcDbEntity
  8
1　製品
100
AcDbLine
 10
-5275.927999602871
 20
2582.689243412709
 30
0.0
 11
-5379.050004601093
 21
2628.70168658777
 31
0.0
  0
LINE
  5
CE56
330
1F
100
AcDbEntity
  8
1　製品
100
AcDbLine
 10
-5178.391999602882
 20
2691.48924341271
 30
0.0
 11
-5438.731999602884
 21
2582.68924341271
 31
0.0
  0
LINE
  5
CE57
330
1F
100
AcDbEntity
  8
1　製品
100
AcDbLine
 10
-5178.391999602882
 20
2604.449243412713
 30
0.0
 11
-5303.504002458999
 21
2660.273496655602
 31
0.0
  0
LINE
  5
CE58
330
1F
100
AcDbEntity
  8
1　製品
100
AcDbLine
 10
-5178.391999602874
 20
2582.689243412709
 30
0.0
 11
-5328.686003173033
 21
2649.749559966325
 31
0.0
  0
LINE
  5
CE59
330
1F
100
AcDbEntity
  8
1　製品
100
AcDbLine
 10
-5178.391999602882
 20
2669.729243412709
 30
0.0
 11
-5373.463999602882
 21
2582.68924341271
 31
0.0
  0
LINE
  5
CE5A
330
1F
100
AcDbEntity
  8
1　製品
100
AcDbLine
 10
-5178.391999602882
 20
2647.96924341271
 30
0.0
 11
-5324.695999602884
 21
2582.68924341271
 31
0.0
  0
LINE
  5
CE5B
330
1F
100
AcDbEntity
  8
1　製品
100
AcDbLine
 10
-5227.159999602873
 20
2582.689243412709
 30
0.0
 11
-5353.868003887063
 21
2639.225623277047
 31
0.0
  0
LINE
  5
CE5C
330
1F
100
AcDbEntity
  8
1　製品
100
AcDbLine
 10
-5373.463999602871
 20
2582.689243412709
 30
0.0
 11
-5437.814189212205
 21
2604.1432503671
 31
0.0
  0
LINE
  5
CE5D
330
1F
100
AcDbEntity
  8
1　製品
100
AcDbLine
 10
-5438.731999602869
 20
2582.689243412709
 30
0.0
 11
-5463.115999602875
 21
2593.569243412713
 31
0.0
  0
LINE
  5
CE5E
330
1F
100
AcDbEntity
  8
1　製品
100
AcDbLine
 10
-5324.695999602873
 20
2582.689243412709
 30
0.0
 11
-5404.232005315124
 21
2618.177749898492
 31
0.0
  0
LINE
  5
CE5F
330
1F
100
AcDbEntity
  8
1　製品
100
AcDbLine
 10
-5178.391999602882
 20
2626.209243412715
 30
0.0
 11
-5278.32200174497
 21
2670.797433344879
 31
0.0
  0
LINE
  5
CE60
330
1F
100
AcDbEntity
  8
1　製品
100
AcDbLine
 10
-5178.391999602878
 20
2883.089243412709
 30
0.0
 11
-5178.391999602874
 21
2582.689243412709
 31
0.0
  0
LINE
  5
CE61
330
1F
100
AcDbEntity
  8
1　製品
100
AcDbLine
 10
-5178.391999602874
 20
2873.489243412709
 30
0.0
 11
-5178.391999602874
 21
2582.689243412709
 31
0.0
  0
LINE
  5
CE65
330
1F
100
AcDbEntity
  8
1　製品
100
AcDbLine
 10
-5178.391999602882
 20
2626.20924341271
 30
0.0
 11
-5275.927999602884
 21
2582.68924341271
 31
0.0
  0
LINE
  5
CE66
330
1F
100
AcDbEntity
  8
1　製品
100
AcDbLine
 10
-5178.391999602882
 20
2604.44924341271
 30
0.0
 11
-5227.159999602882
 21
2582.689243412709
 31
0.0
  0
LINE
  5
CE6A
330
1F
100
AcDbEntity
  8
1　製品
100
AcDbLine
 10
-5178.391999602882
 20
2647.969243412714
 30
0.0
 11
-5253.140001030938
 21
2681.321370034157
 31
0.0
  0
LINE
  5
CE6B
330
1F
100
AcDbEntity
  8
1　製品
100
AcDbLine
 10
-5178.391999602882
 20
2691.489243412714
 30
0.0
 11
-5202.775999602877
 21
2702.369243412712
 31
0.0
  0
LINE
  5
CE6C
330
1F
100
AcDbEntity
  8
1　製品
100
AcDbLine
 10
-5178.391999602882
 20
2669.729243412714
 30
0.0
 11
-5227.958000316908
 21
2691.845306723435
 31
0.0
  0
LINE
  5
CE6D
330
1F
100
AcDbEntity
  8
1　製品
100
AcDbLine
 10
-6368.391999602873
 20
3507.489243412763
 30
0.0
 11
-6238.391999602873
 21
3507.489243412763
 31
0.0
  0
LINE
  5
CE6E
330
1F
100
AcDbEntity
  8
1　製品
100
AcDbLine
 10
-6368.391999602873
 20
3510.689243412761
 30
0.0
 11
-6238.391999602873
 21
3510.689243412761
 31
0.0
  0
LINE
  5
CE7A
330
1F
100
AcDbEntity
  8
1　製品
100
AcDbLine
 10
-6368.391999602873
 20
3510.689243412761
 30
0.0
 11
-6368.391999602873
 21
3507.489243412763
 31
0.0
  0
LINE
  5
CE7C
330
1F
100
AcDbEntity
  8
1　製品
100
AcDbLine
 10
-6238.391999602873
 20
3510.689243412761
 30
0.0
 11
-6238.391999602873
 21
3507.489243412763
 31
0.0
  0
LINE
  5
CE8B
330
1F
100
AcDbEntity
  8
1　製品
100
AcDbLine
 10
-3497.793777832243
 20
1305.520847293809
 30
0.0
 11
-3497.793777832243
 21
1655.52084729379
 31
0.0
  0
LINE
  5
CE8D
330
1F
100
AcDbEntity
  8
1　製品
100
AcDbLine
 10
-3537.793777832232
 20
1305.5208472938
 30
0.0
 11
-3537.793777832242
 21
1655.52084729379
 31
0.0
  0
LINE
  5
CE8F
330
1F
100
AcDbEntity
  8
1　製品
100
AcDbLine
 10
-4461.793777832236
 20
1357.32084729379
 30
0.0
 11
-4461.793777832241
 21
1655.52084729379
 31
0.0
  0
LINE
  5
CE90
330
1F
100
AcDbEntity
  8
1　製品
100
AcDbLine
 10
-4421.793777832232
 20
1305.5208472938
 30
0.0
 11
-4421.79377783224
 21
1655.52084729379
 31
0.0
  0
LINE
  5
CE92
330
1F
100
AcDbEntity
  8
1　製品
100
AcDbLine
 10
-4419.793777832232
 20
1345.52084729381
 30
0.0
 11
-3537.793777832233
 21
1345.520847293848
 31
0.0
  0
LINE
  5
CE93
330
1F
100
AcDbEntity
  8
1　製品
100
AcDbLine
 10
-4459.793777832234
 20
1305.520847293809
 30
0.0
 11
-3497.793777832243
 21
1305.52084729385
 31
0.0
  0
LINE
  5
CE95
330
1F
100
AcDbEntity
  8
1　製品
100
AcDbLine
 10
-4461.793777832232
 20
1305.520847293809
 30
0.0
 11
-4421.793777832232
 21
1305.520847293807
 31
0.0
  0
LINE
  5
CE96
330
1F
100
AcDbEntity
  8
1　製品
100
AcDbLine
 10
-4461.793777832236
 20
1357.32084729379
 30
0.0
 11
-4461.793777832232
 21
1305.52084729379
 31
0.0
  0
LINE
  5
CE97
330
1F
100
AcDbEntity
  8
6　その他（細）
 48
5.0
100
AcDbLine
 10
-4279.793777832232
 20
1315.52084729379
 30
0.0
 11
-4279.793777832232
 21
1295.52084729379
 31
0.0
  0
LINE
  5
CE99
330
1F
100
AcDbEntity
  8
6　その他（細）
 48
5.0
100
AcDbLine
 10
-3979.793777832232
 20
1315.52084729379
 30
0.0
 11
-3979.793777832232
 21
1295.52084729379
 31
0.0
  0
LINE
  5
CE9C
330
1F
100
AcDbEntity
  8
1　製品
100
AcDbLine
 10
-4414.993777832244
 20
1765.520847293793
 30
0.0
 11
-3544.593777832243
 21
1765.520847293802
 31
0.0
  0
LINE
  5
CE9E
330
1F
100
AcDbEntity
  8
1　製品
100
AcDbLine
 10
-4459.793777832245
 20
1805.52084729379
 30
0.0
 11
-3499.793777832244
 21
1805.520847293809
 31
0.0
  0
LINE
  5
CE9F
330
1F
100
AcDbEntity
  8
1　製品
 48
15.0
100
AcDbLine
 10
-4414.993777832244
 20
1805.52084729379
 30
0.0
 11
-4414.993777832244
 21
1655.52084729379
 31
0.0
  0
LINE
  5
CEA0
330
1F
100
AcDbEntity
  8
1　製品
 48
15.0
100
AcDbLine
 10
-4464.993777832244
 20
1805.52084729379
 30
0.0
 11
-4464.993777832244
 21
1655.52084729379
 31
0.0
  0
LINE
  5
CEA2
330
1F
100
AcDbEntity
  8
6　その他（細）
 48
5.0
100
AcDbLine
 10
-4446.793777832245
 20
1675.52084729379
 30
0.0
 11
-4426.793777832245
 21
1675.52084729379
 31
0.0
  0
LINE
  5
CEA3
330
1F
100
AcDbEntity
  8
6　その他（細）
 48
5.0
100
AcDbLine
 10
-4446.793777832245
 20
1735.52084729379
 30
0.0
 11
-4426.793777832245
 21
1735.52084729379
 31
0.0
  0
LINE
  5
CEA4
330
1F
100
AcDbEntity
  8
6　その他（細）
 48
5.0
100
AcDbLine
 10
-4446.793777832245
 20
1735.52084729379
 30
0.0
 11
-4426.793777832245
 21
1735.52084729379
 31
0.0
  0
LINE
  5
CEA5
330
1F
100
AcDbEntity
  8
6　その他（細）
 48
5.0
100
AcDbLine
 10
-4446.793777832245
 20
1675.52084729379
 30
0.0
 11
-4426.793777832245
 21
1675.52084729379
 31
0.0
  0
LINE
  5
CEA6
330
1F
100
AcDbEntity
  8
1　製品
 48
15.0
100
AcDbLine
 10
-4464.993777832244
 20
1655.52084729379
 30
0.0
 11
-4414.993777832244
 21
1655.52084729379
 31
0.0
  0
LINE
  5
CEA7
330
1F
100
AcDbEntity
  8
6　その他（細）
 48
5.0
100
AcDbLine
 10
-4469.993777832242
 20
1735.52084729379
 30
0.0
 11
-4456.793777832245
 21
1735.52084729379
 31
0.0
  0
LINE
  5
CEA8
330
1F
100
AcDbEntity
  8
6　その他（細）
 48
5.0
100
AcDbLine
 10
-4469.993777832242
 20
1675.52084729379
 30
0.0
 11
-4456.793777832245
 21
1675.52084729379
 31
0.0
  0
LINE
  5
CEA9
330
1F
100
AcDbEntity
  8
6　その他（細）
 48
5.0
100
AcDbLine
 10
-4436.793777832245
 20
1685.52084729379
 30
0.0
 11
-4436.793777832245
 21
1665.52084729379
 31
0.0
  0
LINE
  5
CEAA
330
1F
100
AcDbEntity
  8
6　その他（細）
 48
5.0
100
AcDbLine
 10
-4436.793777832245
 20
1685.52084729379
 30
0.0
 11
-4436.793777832245
 21
1665.52084729379
 31
0.0
  0
LINE
  5
CEAB
330
1F
100
AcDbEntity
  8
6　その他（細）
 48
5.0
100
AcDbLine
 10
-4436.793777832245
 20
1745.52084729379
 30
0.0
 11
-4436.793777832245
 21
1725.52084729379
 31
0.0
  0
CIRCLE
  5
CEAC
330
1F
100
AcDbEntity
  8
1　製品
 48
15.0
100
AcDbCircle
 10
-4436.793777832245
 20
1735.52084729379
 30
0.0
 40
5.0
  0
CIRCLE
  5
CEAD
330
1F
100
AcDbEntity
  8
1　製品
100
AcDbCircle
 10
-4436.793777832245
 20
1735.52084729379
 30
0.0
 40
5.0
  0
LINE
  5
CEAE
330
1F
100
AcDbEntity
  8
6　その他（細）
 48
5.0
100
AcDbLine
 10
-4436.793777832245
 20
1745.52084729379
 30
0.0
 11
-4436.793777832245
 21
1725.52084729379
 31
0.0
  0
CIRCLE
  5
CEAF
330
1F
100
AcDbEntity
  8
1　製品
 48
15.0
100
AcDbCircle
 10
-4436.793777832245
 20
1675.52084729379
 30
0.0
 40
5.0
  0
CIRCLE
  5
CEB0
330
1F
100
AcDbEntity
  8
1　製品
100
AcDbCircle
 10
-4436.793777832245
 20
1675.52084729379
 30
0.0
 40
5.0
  0
LINE
  5
CEB1
330
1F
100
AcDbEntity
  8
6　その他（細）
 48
5.0
100
AcDbLine
 10
-4445.793777832245
 20
1785.52084729379
 30
0.0
 11
-4415.793777832245
 21
1785.52084729379
 31
0.0
  0
LINE
  5
CEB2
330
1F
100
AcDbEntity
  8
1　製品
 48
15.0
100
AcDbLine
 10
-4464.993777832244
 20
1805.52084729379
 30
0.0
 11
-4415.793777832245
 21
1805.52084729379
 31
0.0
  0
LINE
  5
CEB4
330
1F
100
AcDbEntity
  8
6　その他（細）
 48
5.0
100
AcDbLine
 10
-4469.993777832244
 20
1785.52084729379
 30
0.0
 11
-4456.793777832245
 21
1785.52084729379
 31
0.0
  0
ARC
  5
CEB6
330
1F
100
AcDbEntity
  8
1　製品
 48
15.0
100
AcDbCircle
 10
-4425.793777832245
 20
1785.52084729379
 30
0.0
 40
5.0
100
AcDbArc
 50
270.0
 51
90.0
  0
LINE
  5
CEB7
330
1F
100
AcDbEntity
  8
6　その他（細）
 48
5.0
100
AcDbLine
 10
-4430.793777832245
 20
1795.52084729379
 30
0.0
 11
-4430.793777832245
 21
1775.52084729379
 31
0.0
  0
ARC
  5
CEB8
330
1F
100
AcDbEntity
  8
1　製品
 48
15.0
100
AcDbCircle
 10
-4435.793777832245
 20
1785.52084729379
 30
0.0
 40
5.0
100
AcDbArc
 50
90.0
 51
270.0
  0
LINE
  5
CEB9
330
1F
100
AcDbEntity
  8
6　その他（細）
 48
5.0
100
AcDbLine
 10
-4431.793777832245
 20
1795.52084729379
 30
0.0
 11
-4431.793777832245
 21
1775.52084729379
 31
0.0
  0
LINE
  5
CEBA
330
1F
100
AcDbEntity
  8
1　製品
 48
15.0
100
AcDbLine
 10
-4435.793777832245
 20
1780.52084729379
 30
0.0
 11
-4425.793777832245
 21
1780.52084729379
 31
0.0
  0
LINE
  5
CEBB
330
1F
100
AcDbEntity
  8
1　製品
 48
15.0
100
AcDbLine
 10
-4435.793777832245
 20
1790.52084729379
 30
0.0
 11
-4425.793777832245
 21
1790.52084729379
 31
0.0
  0
LINE
  5
CEBC
330
1F
100
AcDbEntity
  8
6　その他（細）
 48
5.0
100
AcDbLine
 10
-4441.793777832245
 20
1785.52084729379
 30
0.0
 11
-4421.793777832245
 21
1785.52084729379
 31
0.0
  0
CIRCLE
  5
CEBD
330
1F
100
AcDbEntity
  8
1　製品
100
AcDbCircle
 10
-4431.793777832245
 20
1785.52084729379
 30
0.0
 40
5.0
  0
LINE
  5
CEBE
330
1F
100
AcDbEntity
  8
1　製品
 48
15.0
100
AcDbLine
 10
-3494.593777832245
 20
1805.52084729379
 30
0.0
 11
-3494.593777832245
 21
1655.52084729379
 31
0.0
  0
LINE
  5
CEC0
330
1F
100
AcDbEntity
  8
1　製品
 48
15.0
100
AcDbLine
 10
-3544.593777832243
 20
1805.52084729379
 30
0.0
 11
-3544.593777832243
 21
1655.52084729379
 31
0.0
  0
LINE
  5
CEC1
330
1F
100
AcDbEntity
  8
6　その他（細）
 48
5.0
100
AcDbLine
 10
-3522.793777832243
 20
1685.52084729379
 30
0.0
 11
-3522.793777832243
 21
1665.52084729379
 31
0.0
  0
LINE
  5
CEC2
330
1F
100
AcDbEntity
  8
6　その他（細）
 48
5.0
100
AcDbLine
 10
-3522.793777832243
 20
1685.52084729379
 30
0.0
 11
-3522.793777832243
 21
1665.52084729379
 31
0.0
  0
LINE
  5
CEC3
330
1F
100
AcDbEntity
  8
1　製品
 48
15.0
100
AcDbLine
 10
-3494.593777832245
 20
1655.52084729379
 30
0.0
 11
-3544.593777832243
 21
1655.52084729379
 31
0.0
  0
LINE
  5
CEC4
330
1F
100
AcDbEntity
  8
6　その他（細）
 48
5.0
100
AcDbLine
 10
-3522.793777832243
 20
1745.52084729379
 30
0.0
 11
-3522.793777832243
 21
1725.52084729379
 31
0.0
  0
CIRCLE
  5
CEC5
330
1F
100
AcDbEntity
  8
1　製品
100
AcDbCircle
 10
-3522.793777832241
 20
1735.52084729379
 30
0.0
 40
5.0
  0
LINE
  5
CEC6
330
1F
100
AcDbEntity
  8
6　その他（細）
 48
5.0
100
AcDbLine
 10
-3512.793777832241
 20
1735.52084729379
 30
0.0
 11
-3532.793777832241
 21
1735.52084729379
 31
0.0
  0
LINE
  5
CEC7
330
1F
100
AcDbEntity
  8
6　その他（細）
 48
5.0
100
AcDbLine
 10
-3512.793777832241
 20
1735.52084729379
 30
0.0
 11
-3532.793777832241
 21
1735.52084729379
 31
0.0
  0
LINE
  5
CEC8
330
1F
100
AcDbEntity
  8
6　その他（細）
 48
5.0
100
AcDbLine
 10
-3522.793777832243
 20
1745.52084729379
 30
0.0
 11
-3522.793777832243
 21
1725.52084729379
 31
0.0
  0
CIRCLE
  5
CEC9
330
1F
100
AcDbEntity
  8
1　製品
 48
15.0
100
AcDbCircle
 10
-3522.793777832241
 20
1735.52084729379
 30
0.0
 40
5.0
  0
LINE
  5
CECA
330
1F
100
AcDbEntity
  8
6　その他（細）
 48
5.0
100
AcDbLine
 10
-3489.593777832245
 20
1735.52084729379
 30
0.0
 11
-3502.793777832243
 21
1735.52084729379
 31
0.0
  0
CIRCLE
  5
CECB
330
1F
100
AcDbEntity
  8
1　製品
100
AcDbCircle
 10
-3522.793777832241
 20
1675.52084729379
 30
0.0
 40
5.0
  0
CIRCLE
  5
CECC
330
1F
100
AcDbEntity
  8
1　製品
 48
15.0
100
AcDbCircle
 10
-3522.793777832241
 20
1675.52084729379
 30
0.0
 40
5.0
  0
LINE
  5
CECD
330
1F
100
AcDbEntity
  8
6　その他（細）
 48
5.0
100
AcDbLine
 10
-3512.793777832241
 20
1675.52084729379
 30
0.0
 11
-3532.793777832241
 21
1675.52084729379
 31
0.0
  0
LINE
  5
CECF
330
1F
100
AcDbEntity
  8
6　その他（細）
 48
5.0
100
AcDbLine
 10
-3489.593777832245
 20
1675.52084729379
 30
0.0
 11
-3502.793777832243
 21
1675.52084729379
 31
0.0
  0
LINE
  5
CED0
330
1F
100
AcDbEntity
  8
6　その他（細）
 48
5.0
100
AcDbLine
 10
-3513.793777832241
 20
1785.52084729379
 30
0.0
 11
-3543.793777832243
 21
1785.52084729379
 31
0.0
  0
LINE
  5
CED1
330
1F
100
AcDbEntity
  8
1　製品
 48
15.0
100
AcDbLine
 10
-3494.593777832245
 20
1805.52084729379
 30
0.0
 11
-3543.793777832241
 21
1805.52084729379
 31
0.0
  0
LINE
  5
CED2
330
1F
100
AcDbEntity
  8
6　その他（細）
 48
5.0
100
AcDbLine
 10
-3517.793777832241
 20
1785.52084729379
 30
0.0
 11
-3537.793777832241
 21
1785.52084729379
 31
0.0
  0
ARC
  5
CED3
330
1F
100
AcDbEntity
  8
1　製品
 48
15.0
100
AcDbCircle
 10
-3533.793777832241
 20
1785.52084729379
 30
0.0
 40
5.0
100
AcDbArc
 50
90.0
 51
270.0
  0
LINE
  5
CED4
330
1F
100
AcDbEntity
  8
6　その他（細）
 48
5.0
100
AcDbLine
 10
-3527.793777832243
 20
1795.52084729379
 30
0.0
 11
-3527.793777832243
 21
1775.52084729379
 31
0.0
  0
CIRCLE
  5
CED5
330
1F
100
AcDbEntity
  8
1　製品
100
AcDbCircle
 10
-3527.793777832241
 20
1785.52084729379
 30
0.0
 40
5.0
  0
LINE
  5
CED6
330
1F
100
AcDbEntity
  8
6　その他（細）
 48
5.0
100
AcDbLine
 10
-3528.793777832243
 20
1795.52084729379
 30
0.0
 11
-3528.793777832243
 21
1775.52084729379
 31
0.0
  0
ARC
  5
CED7
330
1F
100
AcDbEntity
  8
1　製品
 48
15.0
100
AcDbCircle
 10
-3523.793777832241
 20
1785.52084729379
 30
0.0
 40
5.0
100
AcDbArc
 50
270.0
 51
90.0
  0
LINE
  5
CED8
330
1F
100
AcDbEntity
  8
1　製品
 48
15.0
100
AcDbLine
 10
-3523.793777832241
 20
1780.52084729379
 30
0.0
 11
-3533.793777832241
 21
1780.52084729379
 31
0.0
  0
LINE
  5
CED9
330
1F
100
AcDbEntity
  8
1　製品
 48
15.0
100
AcDbLine
 10
-3523.793777832241
 20
1790.52084729379
 30
0.0
 11
-3533.793777832241
 21
1790.52084729379
 31
0.0
  0
LINE
  5
CEDC
330
1F
100
AcDbEntity
  8
6　その他（細）
 48
5.0
100
AcDbLine
 10
-3489.593777832245
 20
1785.52084729379
 30
0.0
 11
-3502.793777832243
 21
1785.52084729379
 31
0.0
  0
LINE
  5
D60D
330
1F
100
AcDbEntity
  8
1　製品
100
AcDbLine
 10
-5135.191999602874
 20
2539.489243412762
 30
0.0
 11
-5285.191999602872
 21
2539.489243412761
 31
0.0
  0
LINE
  5
D60E
330
1F
100
AcDbEntity
  8
1　製品
100
AcDbLine
 10
-5285.191999602872
 20
2542.689243412762
 30
0.0
 11
-5285.191999602874
 21
2539.489243412762
 31
0.0
  0
LINE
  5
D60F
330
1F
100
AcDbEntity
  8
1　製品
100
AcDbLine
 10
-5135.191999602874
 20
2582.689243412762
 30
0.0
 11
-5135.191999602874
 21
2539.489243412762
 31
0.0
  0
LINE
  5
D610
330
1F
100
AcDbEntity
  8
1　製品
100
AcDbLine
 10
-5135.191999602874
 20
2582.689243412762
 30
0.0
 11
-5138.391999602873
 21
2582.689243412762
 31
0.0
  0
LINE
  5
D625
330
1F
100
AcDbEntity
  8
1　製品
100
AcDbLine
 10
-5135.191999602874
 20
3466.689243412762
 30
0.0
 11
-5135.191999602874
 21
3509.889243412763
 31
0.0
  0
LINE
  5
D626
330
1F
100
AcDbEntity
  8
1　製品
100
AcDbLine
 10
-5135.191999602874
 20
3466.689243412762
 30
0.0
 11
-5138.391999602873
 21
3466.689243412762
 31
0.0
  0
LINE
  5
D627
330
1F
100
AcDbEntity
  8
1　製品
100
AcDbLine
 10
-5135.191999602874
 20
3509.889243412763
 30
0.0
 11
-5285.191999602872
 21
3509.889243412763
 31
0.0
  0
LINE
  5
D628
330
1F
100
AcDbEntity
  8
1　製品
100
AcDbLine
 10
-5285.191999602872
 20
3506.689243412762
 30
0.0
 11
-5285.191999602874
 21
3509.889243412763
 31
0.0
  0
LINE
  5
D629
330
1F
100
AcDbEntity
  8
1　製品
100
AcDbLine
 10
-7471.591999602872
 20
3509.889243412763
 30
0.0
 11
-7321.591999602873
 21
3509.889243412763
 31
0.0
  0
LINE
  5
D62A
330
1F
100
AcDbEntity
  8
1　製品
100
AcDbLine
 10
-7321.591999602873
 20
3506.689243412762
 30
0.0
 11
-7321.591999602872
 21
3509.889243412763
 31
0.0
  0
LINE
  5
D62B
330
1F
100
AcDbEntity
  8
1　製品
100
AcDbLine
 10
-7471.591999602872
 20
3466.689243412762
 30
0.0
 11
-7468.391999602873
 21
3466.689243412762
 31
0.0
  0
LINE
  5
D62C
330
1F
100
AcDbEntity
  8
1　製品
100
AcDbLine
 10
-7471.591999602872
 20
3466.689243412762
 30
0.0
 11
-7471.591999602872
 21
3509.889243412763
 31
0.0
  0
LINE
  5
D62D
330
1F
100
AcDbEntity
  8
1　製品
100
AcDbLine
 10
-7471.591999602872
 20
2582.689243412762
 30
0.0
 11
-7471.591999602872
 21
2539.489243412762
 31
0.0
  0
LINE
  5
D62E
330
1F
100
AcDbEntity
  8
1　製品
100
AcDbLine
 10
-7471.591999602872
 20
2539.489243412762
 30
0.0
 11
-7321.591999602873
 21
2539.489243412761
 31
0.0
  0
LINE
  5
D62F
330
1F
100
AcDbEntity
  8
1　製品
100
AcDbLine
 10
-7321.591999602873
 20
2542.689243412762
 30
0.0
 11
-7321.591999602872
 21
2539.489243412762
 31
0.0
  0
LINE
  5
D630
330
1F
100
AcDbEntity
  8
1　製品
100
AcDbLine
 10
-7471.591999602872
 20
2582.689243412762
 30
0.0
 11
-7468.391999602873
 21
2582.689243412762
 31
0.0
  0
LINE
  5
D9B2
330
1F
100
AcDbEntity
  8
6　その他（細）
 48
5.0
100
AcDbLine
 10
-4436.793777832232
 20
1315.52084729379
 30
0.0
 11
-4436.793777832232
 21
1295.52084729379
 31
0.0
  0
LINE
  5
D9B3
330
1F
100
AcDbEntity
  8
6　その他（細）
 48
5.0
100
AcDbLine
 10
-3522.793777832232
 20
1315.52084729379
 30
0.0
 11
-3522.793777832232
 21
1295.52084729379
 31
0.0
  0
LINE
  5
D9B4
330
1F
100
AcDbEntity
  8
6　その他（細）
 48
5.0
100
AcDbLine
 10
-3679.793777832232
 20
1315.52084729379
 30
0.0
 11
-3679.793777832232
 21
1295.52084729379
 31
0.0
  0
LINE
  5
DA67
330
1F
100
AcDbEntity
  8
1　製品
100
AcDbLine
 10
-4421.793777832238
 20
1545.52084729381
 30
0.0
 11
-3537.793777832238
 21
1545.520847293848
 31
0.0
  0
LINE
  5
DA83
330
1F
100
AcDbEntity
  8
1　製品
100
AcDbLine
 10
-4421.793777832237
 20
1505.52084729381
 30
0.0
 11
-3537.793777832238
 21
1505.520847293848
 31
0.0
  0
LINE
  5
DA84
330
1F
100
AcDbEntity
  8
6　その他（細）
 48
5.0
100
AcDbLine
 10
-6240.891999602873
 20
1315.520847293791
 30
0.0
 11
-6240.891999602873
 21
1295.520847293791
 31
0.0
  0
LINE
  5
DB64
330
1F
100
AcDbEntity
  8
1　製品
100
AcDbLine
 10
-5178.391999602884
 20
3039.689243412763
 30
0.0
 11
-5928.391999602873
 21
3039.689243412762
 31
0.0
  0
LINE
  5
DB66
330
1F
100
AcDbEntity
  8
1　製品
100
AcDbLine
 10
-5178.391999602884
 20
3009.689243412764
 30
0.0
 11
-5928.391999602873
 21
3009.689243412763
 31
0.0
  0
LINE
  5
DB67
330
1F
100
AcDbEntity
  8
1　製品
100
AcDbLine
 10
-5958.391999602873
 20
3039.689243412763
 30
0.0
 11
-6648.391999602873
 21
3039.689243412763
 31
0.0
  0
LINE
  5
DB69
330
1F
100
AcDbEntity
  8
1　製品
100
AcDbLine
 10
-5958.391999602872
 20
3009.689243412763
 30
0.0
 11
-6648.391999602873
 21
3009.689243412763
 31
0.0
  0
LINE
  5
DB70
330
1F
100
AcDbEntity
  8
1　製品
100
AcDbLine
 10
-6678.391999602873
 20
3039.689243412763
 30
0.0
 11
-7428.391999602864
 21
3039.689243412763
 31
0.0
  0
LINE
  5
DB72
330
1F
100
AcDbEntity
  8
1　製品
100
AcDbLine
 10
-6678.391999602872
 20
3009.689243412762
 30
0.0
 11
-7428.391999602864
 21
3009.689243412762
 31
0.0
  0
LINE
  5
DD9A
330
1F
100
AcDbEntity
  8
1　製品
 48
10.0
100
AcDbLine
 10
-6260.891999602871
 20
1305.520847293791
 30
0.0
 11
-6220.891999602873
 21
1305.520847293791
 31
0.0
1001
PE_URL
1000

  0
ENDSEC
  0
SECTION
  2
OBJECTS
  0
DICTIONARY
  5
C
330
0
100
AcDbDictionary
281
     1
  3
ACAD_DETAILVIEWSTYLE
350
DC4E
  3
ACAD_GROUP
350
D
  3
ACAD_LAYOUT
350
1A
  3
ACAD_MLINESTYLE
350
17
  3
ACAD_PLOTSETTINGS
350
19
  3
ACAD_PLOTSTYLENAME
350
E
  3
ACAD_SCALELIST
350
DC1F
  3
ACAD_SECTIONVIEWSTYLE
350
DC4F
  3
AcadDim
350
3CE9
  3
AcDbVariableDictionary
350
6EF
  3
APPDATA
350
DC49
  3
DWGPROPS
350
DD9C
  0
DICTIONARY
  5
CAED
330
2
100
AcDbDictionary
280
     1
281
     1
  3
ACAD_LAYERSTATES
360
CAEE
  0
DICTIONARY
  5
DC4E
102
{ACAD_REACTORS
330
C
102
}
330
C
100
AcDbDictionary
281
     1
  0
DICTIONARY
  5
D
102
{ACAD_REACTORS
330
C
102
}
330
C
100
AcDbDictionary
281
     1
  0
DICTIONARY
  5
1A
102
{ACAD_REACTORS
330
C
102
}
330
C
100
AcDbDictionary
281
     1
  3
Layout1
350
1E
  3
Layout2
350
26
  3
Model
350
22
  0
DICTIONARY
  5
17
102
{ACAD_REACTORS
330
C
102
}
330
C
100
AcDbDictionary
281
     1
  3
Standard
350
18
  0
DICTIONARY
  5
19
102
{ACAD_REACTORS
330
C
102
}
330
C
100
AcDbDictionary
281
     1
  0
ACDBDICTIONARYWDFLT
  5
E
102
{ACAD_REACTORS
330
C
102
}
330
C
100
AcDbDictionary
281
     1
  3
Normal
350
F
100
AcDbDictionaryWithDefault
340
F
  0
DICTIONARY
  5
DC1F
102
{ACAD_REACTORS
330
C
102
}
330
C
100
AcDbDictionary
281
     1
  3
A0
350
DC20
  3
A1
350
DC21
  3
A2
350
DC22
  3
A3
350
DC23
  3
A4
350
DC24
  3
A5
350
DC25
  3
A6
350
DC26
  3
A7
350
DC27
  3
A8
350
DC28
  3
A9
350
DC29
  3
B0
350
DC2A
  3
B1
350
DC2B
  3
B2
350
DC2C
  3
B3
350
DC2D
  3
B4
350
DC2E
  3
B5
350
DC2F
  3
B6
350
DC30
  3
B7
350
DC31
  3
B8
350
DC32
  3
B9
350
DC33
  3
C0
350
DC34
  3
C1
350
DC35
  3
C2
350
DC36
  3
C3
350
DC37
  3
C4
350
DC38
  3
C5
350
DC39
  3
C6
350
DC3A
  3
C7
350
DC3B
  3
C8
350
DC3C
  3
C9
350
DC3D
  3
D0
350
DC3E
  3
D1
350
DC3F
  3
D2
350
DC40
  0
DICTIONARY
  5
DC4F
102
{ACAD_REACTORS
330
C
102
}
330
C
100
AcDbDictionary
281
     1
  0
XRECORD
  5
3CE9
102
{ACAD_REACTORS
330
C
102
}
330
C
100
AcDbXrecord
280
     1
 90
   990106
  3

 60
     0
 61
     0
 62
     4
 63
     4
 64
     1
 65
     0
 66
     0
 67
     3
 68
     1
 69
     0
 70
     0
 71
     0
 72
     0
 40
0.0
170
     1
340
0
  0
DICTIONARY
  5
6EF
102
{ACAD_REACTORS
330
C
102
}
330
C
100
AcDbDictionary
281
     1
  3
DIMASSOC
350
6F0
  0
DICTIONARY
  5
DC49
102
{ACAD_REACTORS
330
C
102
}
330
C
100
AcDbDictionary
281
     1
  0
XRECORD
  5
DD9C
102
{ACAD_REACTORS
330
C
102
}
330
C
100
AcDbXrecord
280
     1
  1
DWGPROPS COOKIE
  2

  3

  4

  6

  7

  8
Sales
  9

300
=
301
=
302
=
303
=
304
=
305
=
306
=
307
=
308
=
309
=
 40
0.0
 41
2454740.218452685
 42
2458968.234661967
  1

 90
        0
  0
DICTIONARY
  5
CAEE
102
{ACAD_REACTORS
330
CAED
102
}
330
CAED
100
AcDbDictionary
281
     1
  0
LAYOUT
  5
1E
102
{ACAD_REACTORS
330
1A
102
}
330
1A
100
AcDbPlotSettings
  1

  2

  4

  6

 40
0.0
 41
0.0
 42
0.0
 43
0.0
 44
0.0
 45
0.0
 46
0.0
 47
0.0
 48
0.0
 49
0.0
140
0.0
141
0.0
142
1.0
143
1.0
 70
   688
 72
     0
 73
     0
 74
     5
  7
monochrome.ctb
 75
    16
147
1.0
148
0.0
149
0.0
100
AcDbLayout
  1
Layout1
 70
     1
 71
     1
 10
0.0
 20
0.0
 11
420.0
 21
297.0
 12
0.0
 22
0.0
 32
0.0
 14
1.000000000000000E+20
 24
1.000000000000000E+20
 34
1.000000000000000E+20
 15
-1.000000000000000E+20
 25
-1.000000000000000E+20
 35
-1.000000000000000E+20
146
0.0
 13
0.0
 23
0.0
 33
0.0
 16
1.0
 26
0.0
 36
0.0
 17
0.0
 27
1.0
 37
0.0
 76
     0
330
1B
  0
LAYOUT
  5
26
102
{ACAD_REACTORS
330
1A
102
}
330
1A
100
AcDbPlotSettings
  1

  2

  4

  6

 40
0.0
 41
0.0
 42
0.0
 43
0.0
 44
0.0
 45
0.0
 46
0.0
 47
0.0
 48
0.0
 49
0.0
140
0.0
141
0.0
142
1.0
143
1.0
 70
   688
 72
     0
 73
     0
 74
     5
  7
monochrome.ctb
 75
    16
147
1.0
148
0.0
149
0.0
100
AcDbLayout
  1
Layout2
 70
     1
 71
     2
 10
0.0
 20
0.0
 11
12.0
 21
9.0
 12
0.0
 22
0.0
 32
0.0
 14
0.0
 24
0.0
 34
0.0
 15
0.0
 25
0.0
 35
0.0
146
0.0
 13
0.0
 23
0.0
 33
0.0
 16
1.0
 26
0.0
 36
0.0
 17
0.0
 27
1.0
 37
0.0
 76
     0
330
23
  0
LAYOUT
  5
22
102
{ACAD_REACTORS
330
1A
102
}
330
1A
100
AcDbPlotSettings
  1

  2
自動 tokyo01ApeosPort-III C4400 - 東京01ApeosPort-ⅢC4400 (NEMYFS01 上)
  4
A4
  6

 40
4.85775
 41
4.94239
 42
4.942413
 43
4.857758
 44
209.973328
 45
297.010651
 46
0.0
 47
0.89
 48
-5838.999999999999
 49
40.99999999999999
140
-1721.0
141
2929.0
142
1.0
143
14.42750830262388
 70
 11956
 72
     1
 73
     1
 74
     4
  7
monochrome.ctb
 75
     0
147
0.0693120377423823
148
5838.999999999999
149
-40.99999999999999
100
AcDbLayout
  1
Model
 70
     1
 71
     0
 10
0.0
 20
0.0
 11
12.0
 21
9.0
 12
0.0
 22
0.0
 32
0.0
 14
-7471.591999602872
 24
1295.52084729379
 34
0.0
 15
-3489.593777832245
 25
3510.689243412761
 35
0.0
146
0.0
 13
0.0
 23
0.0
 33
0.0
 16
1.0
 26
0.0
 36
0.0
 17
0.0
 27
1.0
 37
0.0
 76
     0
330
1F
331
DC05
  0
MLINESTYLE
  5
18
102
{ACAD_REACTORS
330
17
102
}
330
17
100
AcDbMlineStyle
  2
STANDARD
 70
     0
  3

 62
   256
 51
90.0
 52
90.0
 71
     2
 49
0.5
 62
   256
  6
BYLAYER
 49
-0.5
 62
   256
  6
BYLAYER
  0
ACDBPLACEHOLDER
  5
F
102
{ACAD_REACTORS
330
E
102
}
330
E
  0
SCALE
  5
DC20
102
{ACAD_REACTORS
330
DC1F
102
}
330
DC1F
100
AcDbScale
 70
     0
300
1:1
140
1.0
141
1.0
290
     1
  0
SCALE
  5
DC21
102
{ACAD_REACTORS
330
DC1F
102
}
330
DC1F
100
AcDbScale
 70
     0
300
1:2
140
1.0
141
2.0
290
     0
  0
SCALE
  5
DC22
102
{ACAD_REACTORS
330
DC1F
102
}
330
DC1F
100
AcDbScale
 70
     0
300
1:4
140
1.0
141
4.0
290
     0
  0
SCALE
  5
DC23
102
{ACAD_REACTORS
330
DC1F
102
}
330
DC1F
100
AcDbScale
 70
     0
300
1:5
140
1.0
141
5.0
290
     0
  0
SCALE
  5
DC24
102
{ACAD_REACTORS
330
DC1F
102
}
330
DC1F
100
AcDbScale
 70
     0
300
1:8
140
1.0
141
8.0
290
     0
  0
SCALE
  5
DC25
102
{ACAD_REACTORS
330
DC1F
102
}
330
DC1F
100
AcDbScale
 70
     0
300
1:10
140
1.0
141
10.0
290
     0
  0
SCALE
  5
DC26
102
{ACAD_REACTORS
330
DC1F
102
}
330
DC1F
100
AcDbScale
 70
     0
300
1:16
140
1.0
141
16.0
290
     0
  0
SCALE
  5
DC27
102
{ACAD_REACTORS
330
DC1F
102
}
330
DC1F
100
AcDbScale
 70
     0
300
1:20
140
1.0
141
20.0
290
     0
  0
SCALE
  5
DC28
102
{ACAD_REACTORS
330
DC1F
102
}
330
DC1F
100
AcDbScale
 70
     0
300
1:30
140
1.0
141
30.0
290
     0
  0
SCALE
  5
DC29
102
{ACAD_REACTORS
330
DC1F
102
}
330
DC1F
100
AcDbScale
 70
     0
300
1:40
140
1.0
141
40.0
290
     0
  0
SCALE
  5
DC2A
102
{ACAD_REACTORS
330
DC1F
102
}
330
DC1F
100
AcDbScale
 70
     0
300
1:50
140
1.0
141
50.0
290
     0
  0
SCALE
  5
DC2B
102
{ACAD_REACTORS
330
DC1F
102
}
330
DC1F
100
AcDbScale
 70
     0
300
1:100
140
1.0
141
100.0
290
     0
  0
SCALE
  5
DC2C
102
{ACAD_REACTORS
330
DC1F
102
}
330
DC1F
100
AcDbScale
 70
     0
300
2:1
140
2.0
141
1.0
290
     0
  0
SCALE
  5
DC2D
102
{ACAD_REACTORS
330
DC1F
102
}
330
DC1F
100
AcDbScale
 70
     0
300
4:1
140
4.0
141
1.0
290
     0
  0
SCALE
  5
DC2E
102
{ACAD_REACTORS
330
DC1F
102
}
330
DC1F
100
AcDbScale
 70
     0
300
8:1
140
8.0
141
1.0
290
     0
  0
SCALE
  5
DC2F
102
{ACAD_REACTORS
330
DC1F
102
}
330
DC1F
100
AcDbScale
 70
     0
300
10:1
140
10.0
141
1.0
290
     0
  0
SCALE
  5
DC30
102
{ACAD_REACTORS
330
DC1F
102
}
330
DC1F
100
AcDbScale
 70
     0
300
100:1
140
100.0
141
1.0
290
     0
  0
SCALE
  5
DC31
102
{ACAD_REACTORS
330
DC1F
102
}
330
DC1F
100
AcDbScale
 70
     0
300
1/128" = 1'-0"
140
0.0078125
141
12.0
290
     0
  0
SCALE
  5
DC32
102
{ACAD_REACTORS
330
DC1F
102
}
330
DC1F
100
AcDbScale
 70
     0
300
1/64" = 1'-0"
140
0.015625
141
12.0
290
     0
  0
SCALE
  5
DC33
102
{ACAD_REACTORS
330
DC1F
102
}
330
DC1F
100
AcDbScale
 70
     0
300
1/32" = 1'-0"
140
0.03125
141
12.0
290
     0
  0
SCALE
  5
DC34
102
{ACAD_REACTORS
330
DC1F
102
}
330
DC1F
100
AcDbScale
 70
     0
300
1/16" = 1'-0"
140
0.0625
141
12.0
290
     0
  0
SCALE
  5
DC35
102
{ACAD_REACTORS
330
DC1F
102
}
330
DC1F
100
AcDbScale
 70
     0
300
3/32" = 1'-0"
140
0.09375
141
12.0
290
     0
  0
SCALE
  5
DC36
102
{ACAD_REACTORS
330
DC1F
102
}
330
DC1F
100
AcDbScale
 70
     0
300
1/8" = 1'-0"
140
0.125
141
12.0
290
     0
  0
SCALE
  5
DC37
102
{ACAD_REACTORS
330
DC1F
102
}
330
DC1F
100
AcDbScale
 70
     0
300
3/16" = 1'-0"
140
0.1875
141
12.0
290
     0
  0
SCALE
  5
DC38
102
{ACAD_REACTORS
330
DC1F
102
}
330
DC1F
100
AcDbScale
 70
     0
300
1/4" = 1'-0"
140
0.25
141
12.0
290
     0
  0
SCALE
  5
DC39
102
{ACAD_REACTORS
330
DC1F
102
}
330
DC1F
100
AcDbScale
 70
     0
300
3/8" = 1'-0"
140
0.375
141
12.0
290
     0
  0
SCALE
  5
DC3A
102
{ACAD_REACTORS
330
DC1F
102
}
330
DC1F
100
AcDbScale
 70
     0
300
1/2" = 1'-0"
140
0.5
141
12.0
290
     0
  0
SCALE
  5
DC3B
102
{ACAD_REACTORS
330
DC1F
102
}
330
DC1F
100
AcDbScale
 70
     0
300
3/4" = 1'-0"
140
0.75
141
12.0
290
     0
  0
SCALE
  5
DC3C
102
{ACAD_REACTORS
330
DC1F
102
}
330
DC1F
100
AcDbScale
 70
     0
300
1" = 1'-0"
140
1.0
141
12.0
290
     0
  0
SCALE
  5
DC3D
102
{ACAD_REACTORS
330
DC1F
102
}
330
DC1F
100
AcDbScale
 70
     0
300
1-1/2" = 1'-0"
140
1.5
141
12.0
290
     0
  0
SCALE
  5
DC3E
102
{ACAD_REACTORS
330
DC1F
102
}
330
DC1F
100
AcDbScale
 70
     0
300
3" = 1'-0"
140
3.0
141
12.0
290
     0
  0
SCALE
  5
DC3F
102
{ACAD_REACTORS
330
DC1F
102
}
330
DC1F
100
AcDbScale
 70
     0
300
6" = 1'-0"
140
6.0
141
12.0
290
     0
  0
SCALE
  5
DC40
102
{ACAD_REACTORS
330
DC1F
102
}
330
DC1F
100
AcDbScale
 70
     0
300
1'-0" = 1'-0"
140
12.0
141
12.0
290
     0
  0
DICTIONARYVAR
  5
6F0
102
{ACAD_REACTORS
330
6EF
102
}
330
6EF
100
DictionaryVariables
280
     0
  1
1
  0
ENDSEC
  0
EOF
