  0
SECTION
  2
HEADER
  9
$ACADVER
  1
AC1015
  9
$ACADMAINTVER
 70
     6
  9
$DWGCODEPAGE
  3
ANSI_932
  9
$INSBASE
 10
0.0
 20
0.0
 30
0.0
  9
$EXTMIN
 10
-4041.796817551241
 20
-2031.522456119503
 30
0.0
  9
$EXTMAX
 10
-771.4173641281868
 20
304.390546956329
 30
0.0
  9
$LIMMIN
 10
0.0
 20
0.0
  9
$LIMMAX
 10
420.0
 20
297.0
  9
$ORTHOMODE
 70
     1
  9
$REGENMODE
 70
     1
  9
$FILLMODE
 70
     1
  9
$QTEXTMODE
 70
     0
  9
$MIRRTEXT
 70
     1
  9
$LTSCALE
 40
3.0
  9
$ATTMODE
 70
     1
  9
$TEXTSIZE
 40
3.0
  9
$TRACEWID
 40
1.0
  9
$TEXTSTYLE
  7
Standard
  9
$CLAYER
  8
Defpoints
  9
$CELTYPE
  6
ByLayer
  9
$CECOLOR
 62
   256
  9
$CELTSCALE
 40
1.0
  9
$DISPSILH
 70
     0
  9
$DIMSCALE
 40
10.0
  9
$DIMASZ
 40
3.0
  9
$DIMEXO
 40
1.5
  9
$DIMDLI
 40
10.0
  9
$DIMRND
 40
0.0
  9
$DIMDLE
 40
0.0
  9
$DIMEXE
 40
1.0
  9
$DIMTP
 40
0.0
  9
$DIMTM
 40
0.0
  9
$DIMTXT
 40
3.0
  9
$DIMCEN
 40
1.5
  9
$DIMTSZ
 40
0.0
  9
$DIMTOL
 70
     0
  9
$DIMLIM
 70
     0
  9
$DIMTIH
 70
     0
  9
$DIMTOH
 70
     0
  9
$DIMSE1
 70
     0
  9
$DIMSE2
 70
     0
  9
$DIMTAD
 70
     1
  9
$DIMZIN
 70
     8
  9
$DIMBLK
  1
Open
  9
$DIMASO
 70
     1
  9
$DIMSHO
 70
     1
  9
$DIMPOST
  1

  9
$DIMAPOST
  1

  9
$DIMALT
 70
     0
  9
$DIMALTD
 70
     3
  9
$DIMALTF
 40
0.03937007874016
  9
$DIMLFAC
 40
1.0
  9
$DIMTOFL
 70
     1
  9
$DIMTVP
 40
0.0
  9
$DIMTIX
 70
     0
  9
$DIMSOXD
 70
     0
  9
$DIMSAH
 70
     0
  9
$DIMBLK1
  1

  9
$DIMBLK2
  1

  9
$DIMSTYLE
  2
NEMY-10
  9
$DIMCLRD
 70
     0
  9
$DIMCLRE
 70
     0
  9
$DIMCLRT
 70
     0
  9
$DIMTFAC
 40
1.0
  9
$DIMGAP
 40
1.0
  9
$DIMJUST
 70
     0
  9
$DIMSD1
 70
     0
  9
$DIMSD2
 70
     0
  9
$DIMTOLJ
 70
     0
  9
$DIMTZIN
 70
     8
  9
$DIMALTZ
 70
     0
  9
$DIMALTTZ
 70
     0
  9
$DIMUPT
 70
     0
  9
$DIMDEC
 70
     1
  9
$DIMTDEC
 70
     1
  9
$DIMALTU
 70
     2
  9
$DIMALTTD
 70
     3
  9
$DIMTXSTY
  7
Standard
  9
$DIMAUNIT
 70
     0
  9
$DIMADEC
 70
     0
  9
$DIMALTRND
 40
0.0
  9
$DIMAZIN
 70
     0
  9
$DIMDSEP
 70
    46
  9
$DIMATFIT
 70
     3
  9
$DIMFRAC
 70
     0
  9
$DIMLDRBLK
  1
Open
  9
$DIMLUNIT
 70
     2
  9
$DIMLWD
 70
    -2
  9
$DIMLWE
 70
    -2
  9
$DIMTMOVE
 70
     0
  9
$LUNITS
 70
     2
  9
$LUPREC
 70
     4
  9
$SKETCHINC
 40
1.0
  9
$FILLETRAD
 40
0.0
  9
$AUNITS
 70
     0
  9
$AUPREC
 70
     0
  9
$MENU
  1
.
  9
$ELEVATION
 40
0.0
  9
$PELEVATION
 40
0.0
  9
$THICKNESS
 40
0.0
  9
$LIMCHECK
 70
     0
  9
$CHAMFERA
 40
10.0
  9
$CHAMFERB
 40
10.0
  9
$CHAMFERC
 40
20.0
  9
$CHAMFERD
 40
0.0
  9
$SKPOLY
 70
     0
  9
$TDCREATE
 40
2455859.405048461
  9
$TDUCREATE
 40
2455859.030048461
  9
$TDUPDATE
 40
2458863.442470845
  9
$TDUUPDATE
 40
2458863.067470845
  9
$TDINDWG
 40
1.9698048843
  9
$TDUSRTIMER
 40
2458863.066720174
  9
$USRTIMER
 70
     1
  9
$ANGBASE
 50
0.0
  9
$ANGDIR
 70
     0
  9
$PDMODE
 70
     0
  9
$PDSIZE
 40
0.0
  9
$PLINEWID
 40
0.0
  9
$SPLFRAME
 70
     0
  9
$SPLINETYPE
 70
     6
  9
$SPLINESEGS
 70
     8
  9
$HANDSEED
  5
1977C
  9
$SURFTAB1
 70
     6
  9
$SURFTAB2
 70
     6
  9
$SURFTYPE
 70
     6
  9
$SURFU
 70
     6
  9
$SURFV
 70
     6
  9
$UCSBASE
  2

  9
$UCSNAME
  2

  9
$UCSORG
 10
0.0
 20
0.0
 30
0.0
  9
$UCSXDIR
 10
1.0
 20
0.0
 30
0.0
  9
$UCSYDIR
 10
0.0
 20
1.0
 30
0.0
  9
$UCSORTHOREF
  2

  9
$UCSORTHOVIEW
 70
     0
  9
$UCSORGTOP
 10
0.0
 20
0.0
 30
0.0
  9
$UCSORGBOTTOM
 10
0.0
 20
0.0
 30
0.0
  9
$UCSORGLEFT
 10
0.0
 20
0.0
 30
0.0
  9
$UCSORGRIGHT
 10
0.0
 20
0.0
 30
0.0
  9
$UCSORGFRONT
 10
0.0
 20
0.0
 30
0.0
  9
$UCSORGBACK
 10
0.0
 20
0.0
 30
0.0
  9
$PUCSBASE
  2

  9
$PUCSNAME
  2

  9
$PUCSORG
 10
0.0
 20
0.0
 30
0.0
  9
$PUCSXDIR
 10
1.0
 20
0.0
 30
0.0
  9
$PUCSYDIR
 10
0.0
 20
1.0
 30
0.0
  9
$PUCSORTHOREF
  2

  9
$PUCSORTHOVIEW
 70
     0
  9
$PUCSORGTOP
 10
0.0
 20
0.0
 30
0.0
  9
$PUCSORGBOTTOM
 10
0.0
 20
0.0
 30
0.0
  9
$PUCSORGLEFT
 10
0.0
 20
0.0
 30
0.0
  9
$PUCSORGRIGHT
 10
0.0
 20
0.0
 30
0.0
  9
$PUCSORGFRONT
 10
0.0
 20
0.0
 30
0.0
  9
$PUCSORGBACK
 10
0.0
 20
0.0
 30
0.0
  9
$USERI1
 70
     0
  9
$USERI2
 70
     0
  9
$USERI3
 70
     0
  9
$USERI4
 70
     0
  9
$USERI5
 70
     0
  9
$USERR1
 40
0.0
  9
$USERR2
 40
0.0
  9
$USERR3
 40
0.0
  9
$USERR4
 40
0.0
  9
$USERR5
 40
0.0
  9
$WORLDVIEW
 70
     1
  9
$SHADEDGE
 70
     3
  9
$SHADEDIF
 70
    70
  9
$TILEMODE
 70
     1
  9
$MAXACTVP
 70
    64
  9
$PINSBASE
 10
0.0
 20
0.0
 30
0.0
  9
$PLIMCHECK
 70
     0
  9
$PEXTMIN
 10
1.000000000000000E+20
 20
1.000000000000000E+20
 30
1.000000000000000E+20
  9
$PEXTMAX
 10
-1.000000000000000E+20
 20
-1.000000000000000E+20
 30
-1.000000000000000E+20
  9
$PLIMMIN
 10
0.0
 20
0.0
  9
$PLIMMAX
 10
0.0
 20
0.0
  9
$UNITMODE
 70
     0
  9
$VISRETAIN
 70
     1
  9
$PLINEGEN
 70
     0
  9
$PSLTSCALE
 70
     1
  9
$TREEDEPTH
 70
  3020
  9
$CMLSTYLE
  2
Standard
  9
$CMLJUST
 70
     0
  9
$CMLSCALE
 40
20.0
  9
$PROXYGRAPHICS
 70
     1
  9
$MEASUREMENT
 70
     1
  9
$CELWEIGHT
370
    -1
  9
$ENDCAPS
280
     0
  9
$JOINSTYLE
280
     0
  9
$LWDISPLAY
290
     0
  9
$INSUNITS
 70
     4
  9
$HYPERLINKBASE
  1

  9
$STYLESHEET
  1
monochrome.ctb
  9
$XEDIT
290
     1
  9
$CEPSNTYPE
380
     0
  9
$PSTYLEMODE
290
     1
  9
$FINGERPRINTGUID
  2
{FDEAD578-A652-11D2-9A35-0060089B3A3F}
  9
$VERSIONGUID
  2
{FF53CD4B-1AF9-4F2F-ABC0-CA7DF949A403}
  9
$EXTNAMES
290
     1
  9
$PSVPSCALE
 40
0.0
  9
$OLESTARTUP
290
     0
  0
ENDSEC
  0
SECTION
  2
CLASSES
  0
CLASS
  1
ACDBDICTIONARYWDFLT
  2
AcDbDictionaryWithDefault
  3
ObjectDBX Classes
 90
        0
280
     0
281
     0
  0
CLASS
  1
ACDBPLACEHOLDER
  2
AcDbPlaceHolder
  3
ObjectDBX Classes
 90
        0
280
     0
281
     0
  0
CLASS
  1
LAYOUT
  2
AcDbLayout
  3
ObjectDBX Classes
 90
        0
280
     0
281
     0
  0
CLASS
  1
DICTIONARYVAR
  2
AcDbDictionaryVar
  3
ObjectDBX Classes
 90
        0
280
     0
281
     0
  0
CLASS
  1
SCALE
  2
AcDbScale
  3
ObjectDBX Classes
 90
     1153
280
     0
281
     0
  0
CLASS
  1
MATERIAL
  2
AcDbMaterial
  3
ObjectDBX Classes
 90
     1153
280
     0
281
     0
  0
CLASS
  1
VISUALSTYLE
  2
AcDbVisualStyle
  3
ObjectDBX Classes
 90
     4095
280
     0
281
     0
  0
CLASS
  1
TABLESTYLE
  2
AcDbTableStyle
  3
ObjectDBX Classes
 90
     4095
280
     0
281
     0
  0
CLASS
  1
RASTERVARIABLES
  2
AcDbRasterVariables
  3
ISM
 90
        0
280
     0
281
     0
  0
CLASS
  1
AEC_VARS_DWG_SETUP
  2
AecDbVarsDwgSetup
  3
AecBase60
 90
      129
280
     0
281
     0
  0
CLASS
  1
AEC_DISP_REP_2D_SECTION
  2
AecDbDispRep2dSection
  3
AecBase60
 90
      129
280
     0
281
     0
  0
CLASS
  1
AEC_DISP_PROPS_2D_SECTION
  2
AecDbDispProps2dSection
  3
AecBase60
 90
      129
280
     0
281
     0
  0
CLASS
  1
AEC_DISP_REP_CLIP_VOLUME_MODEL
  2
AecDbDispRepClipVolModel
  3
AecBase60
 90
      129
280
     0
281
     0
  0
CLASS
  1
AEC_DISP_PROPS_CLIP_VOLUME
  2
AecDbDispPropsClipVol
  3
AecBase60
 90
      129
280
     0
281
     0
  0
CLASS
  1
AEC_DISP_REP_CLIP_VOLUME_PLAN
  2
AecDbDispRepClipVolPlan
  3
AecBase60
 90
      129
280
     0
281
     0
  0
CLASS
  1
AEC_DISP_REP_CLIP_VOLUME_RESULT
  2
AecDbDispRepClipVolResult
  3
AecBase60
 90
      129
280
     0
281
     0
  0
CLASS
  1
AEC_DISP_REP_CLIP_VOLUME_RESULT_SUBDIV
  2
AecDbDispRepClipVolResSubDiv
  3
AecBase60
 90
      129
280
     0
281
     0
  0
CLASS
  1
AEC_DISP_PROPS_CLIP_VOLUME_RESULT
  2
AecDbDispPropsClipVolResSubDiv
  3
AecBase60
 90
      129
280
     0
281
     0
  0
CLASS
  1
AEC_DISP_REP_DISPLAYTHEME
  2
AecDbDispRepDisplayTheme
  3
AecBase60
 90
      129
280
     0
281
     0
  0
CLASS
  1
AEC_DISP_PROPS_DISPLAYTHEME
  2
AecDbDispPropsDisplayTheme
  3
AecBase60
 90
      129
280
     0
281
     0
  0
CLASS
  1
AEC_DISP_REP_ENT_REF
  2
AecDbDispRepEntRef
  3
AecBase60
 90
      129
280
     0
281
     0
  0
CLASS
  1
AEC_DISP_PROPS_ENT_REF
  2
AecDbDispPropsEntRef
  3
AecBase60
 90
      129
280
     0
281
     0
  0
CLASS
  1
AEC_DISP_REP_LAYOUT_CURVE
  2
AecDbDispRepLayoutCurve
  3
AecBase60
 90
      129
280
     0
281
     0
  0
CLASS
  1
AEC_DISP_PROPS_LAYOUT_CURVE
  2
AecDbDispPropsLayoutCurve
  3
AecBase60
 90
      129
280
     0
281
     0
  0
CLASS
  1
AEC_DISP_REP_LAYOUT_GRID2D
  2
AecDbDispRepLayoutGrid2d
  3
AecBase60
 90
      129
280
     0
281
     0
  0
CLASS
  1
AEC_DISP_PROPS_LAYOUT_GRID2D
  2
AecDbDispPropsLayoutGrid2d
  3
AecBase60
 90
      129
280
     0
281
     0
  0
CLASS
  1
AEC_DISP_REP_LAYOUT_GRID3D
  2
AecDbDispRepLayoutGrid3d
  3
AecBase60
 90
      129
280
     0
281
     0
  0
CLASS
  1
AEC_DISP_PROPS_LAYOUT_GRID3D
  2
AecDbDispPropsLayoutGrid3d
  3
AecBase60
 90
      129
280
     0
281
     0
  0
CLASS
  1
AEC_DISP_REP_MASKBLOCK_REF
  2
AecDbDispRepMaskBlockRef
  3
AecBase60
 90
      129
280
     0
281
     0
  0
CLASS
  1
AEC_DISP_PROPS_MASKBLOCK
  2
AecDbDispPropsMaskBlock
  3
AecBase60
 90
      129
280
     0
281
     0
  0
CLASS
  1
AEC_DISP_REP_MASKBLOCK_REF_RCP
  2
AecDbDispRepMaskBlockRefRcp
  3
AecArchBase60
 90
      129
280
     0
281
     0
  0
CLASS
  1
AEC_DISP_REP_MASS_ELEM_MODEL
  2
AecDbDispRepMassElemModel
  3
AecBase60
 90
      129
280
     0
281
     0
  0
CLASS
  1
AEC_DISP_PROPS_MASS_ELEM_MODEL
  2
AecDbDispPropsMassElem
  3
AecBase60
 90
      129
280
     0
281
     0
  0
CLASS
  1
AEC_DISP_REP_MASS_ELEM_SCHEM
  2
AecDbDispRepMassElemSchem
  3
AecBase60
 90
      129
280
     0
281
     0
  0
CLASS
  1
AEC_DISPREPAECDBDISPREPMASSELEMPLAN50
  2
AecDbDispRepMassElemPlan50
  3
AecArchDACHBase60
 90
      129
280
     0
281
     0
  0
CLASS
  1
AEC_DISPROPSMASSELEMPLANCOMMON
  2
AecDbDispPropsMassElemPlanCommon
  3
AecArchDACHBase60
 90
      129
280
     0
281
     0
  0
CLASS
  1
AEC_DISPREPAECDBDISPREPMASSELEMPLAN100
  2
AecDbDispRepMassElemPlan100
  3
AecArchDACHBase60
 90
      129
280
     0
281
     0
  0
CLASS
  1
AEC_DISP_REP_MASS_ELEM_RCP
  2
AecDbDispRepMassElemRcp
  3
AecArchBase60
 90
      129
280
     0
281
     0
  0
CLASS
  1
AEC_DISP_REP_MASS_GROUP_MODEL
  2
AecDbDispRepMassGroupModel
  3
AecBase60
 90
      129
280
     0
281
     0
  0
CLASS
  1
AEC_DISP_PROPS_MASS_GROUP
  2
AecDbDispPropsMassGroup
  3
AecBase60
 90
      129
280
     0
281
     0
  0
CLASS
  1
AEC_DISP_REP_MASS_GROUP_PLAN
  2
AecDbDispRepMassGroupPlan
  3
AecBase60
 90
      129
280
     0
281
     0
  0
CLASS
  1
AEC_DISPREPAECDBDISPREPMASSGROUPPLAN50
  2
AecDbDispRepMassGroupPlan50
  3
AecArchDACHBase60
 90
      129
280
     0
281
     0
  0
CLASS
  1
AEC_DISPROPSMASSGROUPPLANCOMMON
  2
AecDbDispPropsMassGroupPlanCommon
  3
AecArchDACHBase60
 90
      129
280
     0
281
     0
  0
CLASS
  1
AEC_DISPREPAECDBDISPREPMASSGROUPPLAN100
  2
AecDbDispRepMassGroupPlan100
  3
AecArchDACHBase60
 90
      129
280
     0
281
     0
  0
CLASS
  1
AEC_DISP_REP_MASS_GROUP_RCP
  2
AecDbDispRepMassGroupRcp
  3
AecArchBase60
 90
      129
280
     0
281
     0
  0
CLASS
  1
AEC_DISP_REP_MVBLOCK_REF
  2
AecDbDispRepMvBlockRef
  3
AecBase60
 90
      129
280
     0
281
     0
  0
CLASS
  1
AEC_DISP_REP_MVBLOCK_REF_MODEL
  2
AecDbDispRepMvBlockRefModel
  3
AecBase60
 90
      129
280
     0
281
     0
  0
CLASS
  1
AEC_AECDBDISPREPMVBLOCKREFPLAN100
  2
AecDbDispRepMvBlockRefPlan100
  3
AecBase60
 90
      129
280
     0
281
     0
  0
CLASS
  1
AEC_AECDBDISPREPMVBLOCKREFPLAN50
  2
AecDbDispRepMvBlockRefPlan50
  3
AecBase60
 90
      129
280
     0
281
     0
  0
CLASS
  1
AEC_DISP_REP_POLYGON_MODEL
  2
AecDbDispRepPolygonModel
  3
AecBase60
 90
      129
280
     0
281
     0
  0
CLASS
  1
AEC_DISP_PROPS_POLYGON_MODEL
  2
AecDbDispPropsPolygonModel
  3
AecBase60
 90
      129
280
     0
281
     0
  0
CLASS
  1
AEC_DISP_REP_POLYGON_TRUECOLOUR
  2
AecDbDispRepPolygonTrueColour
  3
AecBase60
 90
      129
280
     0
281
     0
  0
CLASS
  1
AEC_DISP_PROPS_POLYGON_TRUECOLOUR
  2
AecDbDispPropsPolygonTrueColour
  3
AecBase60
 90
      129
280
     0
281
     0
  0
CLASS
  1
AEC_DISP_REP_SLICE
  2
AecDbDispRepSlice
  3
AecBase60
 90
      129
280
     0
281
     0
  0
CLASS
  1
AEC_DISP_PROPS_SLICE
  2
AecDbDispPropsSlice
  3
AecBase60
 90
      129
280
     0
281
     0
  0
CLASS
  1
AEC_DISP_REP_ANCHOR
  2
AecDbDispRepAnchor
  3
AecBase60
 90
      129
280
     0
281
     0
  0
CLASS
  1
AEC_DISP_REP_ANCHOR_ENT_TO_NODE
  2
AecDbDispRepAnchorEntToNode
  3
AecBase60
 90
      129
280
     0
281
     0
  0
CLASS
  1
AEC_DISP_PROPS_ENT
  2
AecDbDispPropsEnt
  3
AecBase60
 90
      129
280
     0
281
     0
  0
CLASS
  1
AEC_DISP_REP_MATERIAL
  2
AecDbDispRepMaterial
  3
AecBase60
 90
      129
280
     0
281
     0
  0
CLASS
  1
AEC_DISP_PROPS_MATERIAL
  2
AecDbDispPropsMaterial
  3
AecBase60
 90
      129
280
     0
281
     0
  0
CLASS
  1
AEC_DISP_REP_EDITINPLACEPROFILE
  2
AecDbDispRepEditInPlaceProfile
  3
AecBase60
 90
      129
280
     0
281
     0
  0
CLASS
  1
AEC_DISP_PROPS_EDITINPLACEPROFILE_MODEL
  2
AecDbDispPropsEditInPlaceProfile
  3
AecBase60
 90
      129
280
     0
281
     0
  0
CLASS
  1
SUN
  2
AcDbSun
  3
SCENEOE
 90
     1153
280
     0
281
     0
  0
CLASS
  1
SORTENTSTABLE
  2
AcDbSortentsTable
  3
ObjectDBX Classes
 90
        0
280
     0
281
     0
  0
CLASS
  1
MLEADERSTYLE
  2
AcDbMLeaderStyle
  3
ACDB_MLEADERSTYLE_CLASS
 90
     4095
280
     0
281
     0
  0
ENDSEC
  0
SECTION
  2
TABLES
  0
TABLE
  2
VPORT
  5
8
330
0
100
AcDbSymbolTable
 70
     2
  0
VPORT
  5
A2A1
330
8
100
AcDbSymbolTableRecord
100
AcDbViewportTableRecord
  2
*Active
 70
     0
 10
0.0
 20
0.0
 11
1.0
 21
1.0
 12
-56680599509.87212
 22
103286842703.2742
 13
0.0
 23
0.0
 14
10.0
 24
10.0
 15
10.0
 25
10.0
 16
0.0
 26
0.0
 36
1.0
 17
56680597103.26502
 27
-103286843566.8401
 37
0.0
 40
2382.631263137348
 41
1.484848484848485
 42
50.0
 43
0.0
 44
0.0
 50
0.0
 51
0.0
 71
    16
 72
   100
 73
     1
 74
     2
 75
     0
 76
     0
 77
     0
 78
     0
281
     0
 65
     1
110
0.0
120
0.0
130
0.0
111
1.0
121
0.0
131
0.0
112
0.0
122
1.0
132
0.0
 79
     0
146
0.0
  0
ENDTAB
  0
TABLE
  2
LTYPE
  5
5
330
0
100
AcDbSymbolTable
 70
    10
  0
LTYPE
  5
14
330
5
100
AcDbSymbolTableRecord
100
AcDbLinetypeTableRecord
  2
ByBlock
 70
     0
  3

 72
    65
 73
     0
 40
0.0
  0
LTYPE
  5
15
330
5
100
AcDbSymbolTableRecord
100
AcDbLinetypeTableRecord
  2
ByLayer
 70
     0
  3
Solid line
 72
    65
 73
     0
 40
0.0
  0
LTYPE
  5
16
330
5
100
AcDbSymbolTableRecord
100
AcDbLinetypeTableRecord
  2
Continuous
 70
     0
  3
Solid line
 72
    65
 73
     0
 40
0.0
  0
LTYPE
  5
BA
330
5
100
AcDbSymbolTableRecord
100
AcDbLinetypeTableRecord
  2
HIDDEN
 70
     0
  3
Hidden __ __ __ __ __ __ __ __ __ __ __ __ __ _
 72
    65
 73
     2
 40
9.524999999999999
 49
6.35
 74
     0
 49
-3.175
 74
     0
  0
LTYPE
  5
BC
330
5
100
AcDbSymbolTableRecord
100
AcDbLinetypeTableRecord
  2
CENTER
 70
     0
  3
Center ____ _ ____ _ ____ _ ____ _ ____ _ ____
 72
    65
 73
     4
 40
50.8
 49
31.75
 74
     0
 49
-6.35
 74
     0
 49
6.35
 74
     0
 49
-6.35
 74
     0
  0
ENDTAB
  0
TABLE
  2
LAYER
  5
2
102
{ACAD_XDICTIONARY
360
7A6F
102
}
330
0
100
AcDbSymbolTable
 70
    16
  0
LAYER
  5
10
330
2
100
AcDbSymbolTableRecord
100
AcDbLayerTableRecord
  2
0
 70
     0
 62
     7
  6
Continuous
370
    -3
390
F
  0
LAYER
  5
45
330
2
100
AcDbSymbolTableRecord
100
AcDbLayerTableRecord
  2
01注記寸法
 70
     0
 62
     7
  6
Continuous
370
     9
390
F
  0
LAYER
  5
5F
330
2
100
AcDbSymbolTableRecord
100
AcDbLayerTableRecord
  2
Defpoints
 70
     0
 62
     7
  6
Continuous
290
     0
370
    -3
390
F
  0
LAYER
  5
82BC
330
2
100
AcDbSymbolTableRecord
100
AcDbLayerTableRecord
  2
02製品
 70
     0
 62
     2
  6
Continuous
370
    15
390
F
  0
LAYER
  5
147DF
330
2
100
AcDbSymbolTableRecord
100
AcDbLayerTableRecord
  2
99作図基準
 70
     0
 62
   211
  6
Continuous
290
     0
370
     9
390
F
1001
AcAecLayerStandard
1000

1000

  0
LAYER
  5
15088
330
2
100
AcDbSymbolTableRecord
100
AcDbLayerTableRecord
  2
1　製品
 70
     0
 62
     2
  6
Continuous
370
    15
390
F
  0
ENDTAB
  0
TABLE
  2
STYLE
  5
3
330
0
100
AcDbSymbolTable
 70
     6
  0
STYLE
  5
11
330
3
100
AcDbSymbolTableRecord
100
AcDbTextStyleTableRecord
  2
Standard
 70
     0
 40
0.0
 41
1.0
 50
0.0
 71
     0
 42
3.0
  3
MS Gothic.ttf
  4

1001
ACAD
1000
MS Gothic
1071
    32817
  0
STYLE
  5
19E
330
3
100
AcDbSymbolTableRecord
100
AcDbTextStyleTableRecord
  2
STYLE1
 70
     0
 40
0.0
 41
0.9
 50
0.0
 71
     0
 42
28.125
  3
TXT.shx
  4
extfont.shx
  0
STYLE
  5
C96B
330
3
100
AcDbSymbolTableRecord
100
AcDbTextStyleTableRecord
  2
Standard-tate
 70
     0
 40
0.0
 41
1.0
 50
0.0
 71
     0
 42
3.0
  3
@MS PGothic.ttf
  4

1001
ACAD
1000
@MS PGothic
1071
    32818
  0
ENDTAB
  0
TABLE
  2
VIEW
  5
6
330
0
100
AcDbSymbolTable
 70
     0
  0
ENDTAB
  0
TABLE
  2
UCS
  5
7
330
0
100
AcDbSymbolTable
 70
     0
  0
ENDTAB
  0
TABLE
  2
APPID
  5
9
330
0
100
AcDbSymbolTable
 70
    12
  0
APPID
  5
12
330
9
100
AcDbSymbolTableRecord
100
AcDbRegAppTableRecord
  2
ACAD
 70
     0
  0
APPID
  5
6A9E
330
9
100
AcDbSymbolTableRecord
100
AcDbRegAppTableRecord
  2
ACAD_DSTYLE_DIMRADIAL_EXTENSION
 70
     0
  0
APPID
  5
742C
330
9
100
AcDbSymbolTableRecord
100
AcDbRegAppTableRecord
  2
ACAD_PSEXT
 70
     0
  0
APPID
  5
742D
330
9
100
AcDbSymbolTableRecord
100
AcDbRegAppTableRecord
  2
ACAD_DSTYLE_DIMJAG
 70
     0
  0
APPID
  5
742E
330
9
100
AcDbSymbolTableRecord
100
AcDbRegAppTableRecord
  2
ACAD_DSTYLE_DIMTALN
 70
     0
  0
APPID
  5
8254
330
9
100
AcDbSymbolTableRecord
100
AcDbRegAppTableRecord
  2
AECBASE
 70
     0
  0
APPID
  5
8255
330
9
100
AcDbSymbolTableRecord
100
AcDbRegAppTableRecord
  2
AEC_2DSECTION_XDATA
 70
     0
  0
APPID
  5
8256
330
9
100
AcDbSymbolTableRecord
100
AcDbRegAppTableRecord
  2
AEC_MASSGROUP_XDADA
 70
     0
  0
APPID
  5
B0E5
330
9
100
AcDbSymbolTableRecord
100
AcDbRegAppTableRecord
  2
PE_DIMMEASUREMENT
 70
     0
  0
APPID
  5
147E0
330
9
100
AcDbSymbolTableRecord
100
AcDbRegAppTableRecord
  2
AcAecLayerStandard
 70
     0
  0
APPID
  5
15094
330
9
100
AcDbSymbolTableRecord
100
AcDbRegAppTableRecord
  2
PLOTTRANSPARENCY
 70
     0
  0
APPID
  5
187FF
330
9
100
AcDbSymbolTableRecord
100
AcDbRegAppTableRecord
  2
PE_URL
 70
     0
  0
ENDTAB
  0
TABLE
  2
DIMSTYLE
  5
A
330
0
100
AcDbSymbolTable
 70
    28
100
AcDbDimStyleTable
  0
DIMSTYLE
105
4DD3
102
{ACAD_REACTORS
330
14016
330
14023
330
14030
102
}
330
A
100
AcDbSymbolTableRecord
100
AcDbDimStyleTableRecord
  2
NEMY-10
 70
     0
 40
10.0
 41
3.0
 42
1.5
 43
10.0
 44
1.0
 73
     0
 74
     0
 77
     1
 78
     8
140
3.0
141
1.5
143
0.03937007874016
147
1.0
171
     3
172
     1
178
     0
271
     1
272
     1
274
     3
283
     0
284
     8
340
11
341
8F
342
8F
  0
DIMSTYLE
105
18249
330
A
100
AcDbSymbolTableRecord
100
AcDbDimStyleTableRecord
  2
Standard
 70
     0
178
     0
289
     0
340
11
  0
ENDTAB
  0
TABLE
  2
BLOCK_RECORD
  5
1
330
0
100
AcDbSymbolTable
 70
   542
  0
BLOCK_RECORD
  5
1F
102
{ACAD_XDICTIONARY
360
CBD6
102
}
330
1
100
AcDbSymbolTableRecord
100
AcDbBlockTableRecord
  2
*Model_Space
340
22
  0
BLOCK_RECORD
  5
1B
330
1
100
AcDbSymbolTableRecord
100
AcDbBlockTableRecord
  2
*Paper_Space
340
1E
  0
BLOCK_RECORD
  5
23
330
1
100
AcDbSymbolTableRecord
100
AcDbBlockTableRecord
  2
*Paper_Space0
340
26
  0
BLOCK_RECORD
  5
8F
330
1
100
AcDbSymbolTableRecord
100
AcDbBlockTableRecord
  2
_Open
340
0
102
{BLKREFS
331
1401C
331
1401D
331
14029
331
1402A
331
14036
331
14037
331
141AC
331
141AD
331
141B2
331
141B3
331
141B8
331
141B9
331
141BE
331
141BF
331
141C4
331
141C5
331
141CA
331
141CB
331
141D0
331
141D1
331
141D6
331
141D7
331
14596
331
14597
331
145A3
331
145A4
331
145B0
331
145B1
331
145BD
331
145BE
331
145CA
331
145CB
331
145D7
331
145D8
331
145E4
331
145E5
331
145F1
331
145F2
331
14600
331
14601
331
1478E
331
1478F
331
14794
331
14795
331
1479A
331
1479B
331
147A0
331
147A1
331
147A6
331
147A7
331
147AC
331
147AD
331
147B2
331
147B3
331
147B8
331
147B9
331
147BE
331
147BF
331
147C7
331
147C8
331
147CD
331
147CE
331
147D6
331
147D7
331
15C74
331
15C75
331
15C90
331
15C91
331
15CA0
331
15CA1
331
15DEA
331
15DEB
331
15DF7
331
15DF8
331
1831E
331
1831F
331
18345
331
18346
331
184E6
331
184E7
331
185DD
331
185DE
331
185EA
331
185EB
331
185F7
331
185F8
102
}
  0
BLOCK_RECORD
  5
152CE
102
{ACAD_XDICTIONARY
360
152CF
102
}
330
1
100
AcDbSymbolTableRecord
100
AcDbBlockTableRecord
  2
A$C20123
340
0
102
{BLKREFS
331
15C14
331
15C42
331
18401
331
18484
331
18575
102
}
  0
BLOCK_RECORD
  5
152FD
330
1
100
AcDbSymbolTableRecord
100
AcDbBlockTableRecord
  2
A$C3C7277DA
340
0
102
{BLKREFS
331
15C43
331
15C6B
331
15C6C
331
15C6D
331
1842F
331
1846F
331
18474
331
18475
331
1854C
331
18574
102
}
  0
BLOCK_RECORD
  5
181FF
330
1
100
AcDbSymbolTableRecord
100
AcDbBlockTableRecord
  2
1
340
0
102
{BLKREFS
331
190A4
331
193FF
331
194CB
331
19616
331
196DD
331
18240
331
182DB
331
182DC
331
194D2
331
196E4
331
19778
102
}
  0
BLOCK_RECORD
  5
18211
330
1
100
AcDbSymbolTableRecord
100
AcDbBlockTableRecord
  2
2
340
0
102
{BLKREFS
331
190B6
331
19411
331
194CC
331
19628
331
196DE
331
18241
331
194D3
331
196E5
331
19779
102
}
  0
BLOCK_RECORD
  5
18223
330
1
100
AcDbSymbolTableRecord
100
AcDbBlockTableRecord
  2
3
340
0
102
{BLKREFS
331
190C8
331
19423
331
194CD
331
1963A
331
196DF
331
18242
331
194D4
331
196E6
331
1977A
102
}
  0
BLOCK_RECORD
  5
1829E
102
{ACAD_XDICTIONARY
360
182CC
102
}
330
1
100
AcDbSymbolTableRecord
100
AcDbBlockTableRecord
  2
A$C3592
340
0
102
{BLKREFS
331
190DA
331
182D9
331
194D5
102
}
  0
BLOCK_RECORD
  5
1851D
102
{ACAD_XDICTIONARY
360
1854A
102
}
330
1
100
AcDbSymbolTableRecord
100
AcDbBlockTableRecord
  2
A$C23110
340
0
102
{BLKREFS
331
185D5
102
}
  0
ENDTAB
  0
ENDSEC
  0
SECTION
  2
BLOCKS
  0
BLOCK
  5
20
330
1F
100
AcDbEntity
  8
0
100
AcDbBlockBegin
  2
*Model_Space
 70
     0
 10
0.0
 20
0.0
 30
0.0
  3
*Model_Space
  1

  0
ENDBLK
  5
21
330
1F
100
AcDbEntity
  8
0
100
AcDbBlockEnd
  0
BLOCK
  5
1C
330
1B
100
AcDbEntity
 67
     1
  8
0
100
AcDbBlockBegin
  2
*Paper_Space
 70
     0
 10
0.0
 20
0.0
 30
0.0
  3
*Paper_Space
  1

  0
ENDBLK
  5
1D
330
1B
100
AcDbEntity
 67
     1
  8
0
100
AcDbBlockEnd
  0
BLOCK
  5
24
330
23
100
AcDbEntity
  8
0
100
AcDbBlockBegin
  2
*Paper_Space0
 70
     0
 10
0.0
 20
0.0
 30
0.0
  3
*Paper_Space0
  1

  0
ENDBLK
  5
25
330
23
100
AcDbEntity
  8
0
100
AcDbBlockEnd
  0
BLOCK
  5
93
330
8F
100
AcDbEntity
  8
0
100
AcDbBlockBegin
  2
_Open
 70
     0
 10
0.0
 20
0.0
 30
0.0
  3
_Open
  1

  0
LINE
  5
90
330
8F
100
AcDbEntity
  8
01注記寸法
 62
     0
370
    -2
100
AcDbLine
 10
-1.0
 20
0.1666666666666667
 30
0.0
 11
0.0
 21
0.0
 31
0.0
  0
LINE
  5
91
330
8F
100
AcDbEntity
  8
01注記寸法
 62
     0
370
    -2
100
AcDbLine
 10
-1.0
 20
-0.1666666666666667
 30
0.0
 11
0.0
 21
0.0
 31
0.0
  0
LINE
  5
92
330
8F
100
AcDbEntity
  8
01注記寸法
 62
     0
370
    -2
100
AcDbLine
 10
0.0
 20
0.0
 30
0.0
 11
-1.0
 21
0.0
 31
0.0
  0
ENDBLK
  5
94
330
8F
100
AcDbEntity
  8
0
100
AcDbBlockEnd
  0
BLOCK
  5
152D1
330
152CE
100
AcDbEntity
  8
0
100
AcDbBlockBegin
  2
A$C20123
 70
     0
 10
0.0
 20
0.0
 30
0.0
  3
A$C20123
  1

  0
LINE
  5
152D2
330
152CE
100
AcDbEntity
  8
1　製品
100
AcDbLine
 10
127.0000000000018
 20
0.0
 30
0.0
 11
101.6000000000004
 21
11.33333333333212
 31
0.0
  0
LINE
  5
152D3
330
152CE
100
AcDbEntity
  8
1　製品
100
AcDbLine
 10
76.19999999999891
 20
0.0
 30
0.0
 11
101.6000000000004
 21
11.33333333333212
 31
0.0
  0
LINE
  5
152D4
330
152CE
100
AcDbEntity
  8
1　製品
100
AcDbLine
 10
76.19999999999891
 20
68.0
 30
0.0
 11
50.80000000000109
 21
79.33333333333212
 31
0.0
  0
LINE
  5
152D5
330
152CE
100
AcDbEntity
  8
1　製品
100
AcDbLine
 10
76.19999999999891
 20
45.33333333333212
 30
0.0
 11
50.80000000000109
 21
56.66666666666424
 31
0.0
  0
LINE
  5
152D6
330
152CE
100
AcDbEntity
  8
1　製品
100
AcDbLine
 10
50.80000000000109
 20
34.0
 30
0.0
 11
76.19999999999891
 21
22.66666666666424
 31
0.0
  0
LINE
  5
152D7
330
152CE
100
AcDbEntity
  8
1　製品
100
AcDbLine
 10
76.19999999999891
 20
45.33333333333212
 30
0.0
 11
50.80000000000109
 21
34.0
 31
0.0
  0
LINE
  5
152D8
330
152CE
100
AcDbEntity
  8
1　製品
100
AcDbLine
 10
76.19999999999891
 20
22.66666666666424
 30
0.0
 11
50.80000000000109
 21
11.33333333333212
 31
0.0
  0
LINE
  5
152D9
330
152CE
100
AcDbEntity
  8
1　製品
100
AcDbLine
 10
50.80000000000109
 20
56.66666666666424
 30
0.0
 11
76.19999999999891
 21
68.0
 31
0.0
  0
LINE
  5
152DA
330
152CE
100
AcDbEntity
  8
1　製品
100
AcDbLine
 10
25.39999999999964
 20
45.33333333333212
 30
0.0
 11
0.0
 21
56.66666666666424
 31
0.0
  0
LINE
  5
152DB
330
152CE
100
AcDbEntity
  8
1　製品
100
AcDbLine
 10
25.39999999999964
 20
45.33333333333212
 30
0.0
 11
0.0
 21
34.0
 31
0.0
  0
LINE
  5
152DC
330
152CE
100
AcDbEntity
  8
1　製品
100
AcDbLine
 10
50.80000000000109
 20
34.0
 30
0.0
 11
25.39999999999964
 21
45.33333333333212
 31
0.0
  0
LINE
  5
152DD
330
152CE
100
AcDbEntity
  8
1　製品
100
AcDbLine
 10
25.39999999999964
 20
22.66666666666424
 30
0.0
 11
50.80000000000109
 21
34.0
 31
0.0
  0
LINE
  5
152DE
330
152CE
100
AcDbEntity
  8
1　製品
100
AcDbLine
 10
25.39999999999964
 20
68.0
 30
0.0
 11
50.80000000000109
 21
56.66666666666424
 31
0.0
  0
LINE
  5
152DF
330
152CE
100
AcDbEntity
  8
1　製品
100
AcDbLine
 10
50.80000000000109
 20
56.66666666666424
 30
0.0
 11
25.39999999999964
 21
45.33333333333212
 31
0.0
  0
LINE
  5
152E0
330
152CE
100
AcDbEntity
  8
1　製品
100
AcDbLine
 10
101.6000000000004
 20
79.33333333333212
 30
0.0
 11
127.0000000000018
 21
68.0
 31
0.0
  0
LINE
  5
152E1
330
152CE
100
AcDbEntity
  8
1　製品
100
AcDbLine
 10
101.6000000000004
 20
79.33333333333212
 30
0.0
 11
76.19999999999891
 21
68.0
 31
0.0
  0
LINE
  5
152E2
330
152CE
100
AcDbEntity
  8
1　製品
100
AcDbLine
 10
127.0000000000018
 20
68.0
 30
0.0
 11
152.4000000000015
 21
79.33333333333212
 31
0.0
  0
LINE
  5
152E3
330
152CE
100
AcDbEntity
  8
1　製品
100
AcDbLine
 10
127.0000000000018
 20
45.33333333333212
 30
0.0
 11
152.4000000000015
 21
56.66666666666424
 31
0.0
  0
LINE
  5
152E4
330
152CE
100
AcDbEntity
  8
1　製品
100
AcDbLine
 10
127.0000000000018
 20
22.66666666666424
 30
0.0
 11
152.4000000000015
 21
11.33333333333212
 31
0.0
  0
LINE
  5
152E5
330
152CE
100
AcDbEntity
  8
1　製品
100
AcDbLine
 10
152.4000000000015
 20
34.0
 30
0.0
 11
127.0000000000018
 21
22.66666666666424
 31
0.0
  0
LINE
  5
152E6
330
152CE
100
AcDbEntity
  8
1　製品
100
AcDbLine
 10
127.0000000000018
 20
45.33333333333212
 30
0.0
 11
152.4000000000015
 21
34.0
 31
0.0
  0
LINE
  5
152E7
330
152CE
100
AcDbEntity
  8
1　製品
100
AcDbLine
 10
152.4000000000015
 20
56.66666666666424
 30
0.0
 11
127.0000000000018
 21
68.0
 31
0.0
  0
LINE
  5
152E8
330
152CE
100
AcDbEntity
  8
1　製品
100
AcDbLine
 10
101.6000000000004
 20
56.66666666666424
 30
0.0
 11
127.0000000000018
 21
45.33333333333212
 31
0.0
  0
LINE
  5
152E9
330
152CE
100
AcDbEntity
  8
1　製品
100
AcDbLine
 10
127.0000000000018
 20
22.66666666666424
 30
0.0
 11
101.6000000000004
 21
34.0
 31
0.0
  0
LINE
  5
152EA
330
152CE
100
AcDbEntity
  8
1　製品
100
AcDbLine
 10
101.6000000000004
 20
34.0
 30
0.0
 11
127.0000000000018
 21
45.33333333333212
 31
0.0
  0
LINE
  5
152EB
330
152CE
100
AcDbEntity
  8
1　製品
100
AcDbLine
 10
101.6000000000004
 20
56.66666666666424
 30
0.0
 11
76.19999999999891
 21
45.33333333333212
 31
0.0
  0
LINE
  5
152EC
330
152CE
100
AcDbEntity
  8
1　製品
100
AcDbLine
 10
76.19999999999891
 20
22.66666666666424
 30
0.0
 11
101.6000000000004
 21
34.0
 31
0.0
  0
LINE
  5
152ED
330
152CE
100
AcDbEntity
  8
1　製品
100
AcDbLine
 10
101.6000000000004
 20
34.0
 30
0.0
 11
76.19999999999891
 21
45.33333333333212
 31
0.0
  0
LINE
  5
152EE
330
152CE
100
AcDbEntity
  8
1　製品
100
AcDbLine
 10
101.6000000000004
 20
11.33333333333212
 30
0.0
 11
76.19999999999891
 21
22.66666666666424
 31
0.0
  0
LINE
  5
152EF
330
152CE
100
AcDbEntity
  8
1　製品
100
AcDbLine
 10
101.6000000000004
 20
11.33333333333212
 30
0.0
 11
127.0000000000018
 21
22.66666666666424
 31
0.0
  0
LINE
  5
152F0
330
152CE
100
AcDbEntity
  8
1　製品
100
AcDbLine
 10
76.19999999999891
 20
68.0
 30
0.0
 11
101.6000000000004
 21
56.66666666666424
 31
0.0
  0
LINE
  5
152F1
330
152CE
100
AcDbEntity
  8
1　製品
100
AcDbLine
 10
127.0000000000018
 20
68.0
 30
0.0
 11
101.6000000000004
 21
56.66666666666424
 31
0.0
  0
LINE
  5
152F2
330
152CE
100
AcDbEntity
  8
1　製品
100
AcDbLine
 10
152.4000000000015
 20
56.66666666666424
 30
0.0
 11
177.8000000000029
 21
45.33333333333212
 31
0.0
  0
LINE
  5
152F3
330
152CE
100
AcDbEntity
  8
1　製品
100
AcDbLine
 10
177.8000000000029
 20
22.66666666666424
 30
0.0
 11
152.4000000000015
 21
34.0
 31
0.0
  0
LINE
  5
152F4
330
152CE
100
AcDbEntity
  8
1　製品
100
AcDbLine
 10
152.4000000000015
 20
34.0
 30
0.0
 11
177.8000000000029
 21
45.33333333333212
 31
0.0
  0
LINE
  5
152F5
330
152CE
100
AcDbEntity
  8
1　製品
100
AcDbLine
 10
177.8000000000029
 20
45.33333333333212
 30
0.0
 11
203.2000000000025
 21
56.66666666666424
 31
0.0
  0
LINE
  5
152F6
330
152CE
100
AcDbEntity
  8
1　製品
100
AcDbLine
 10
177.8000000000029
 20
45.33333333333212
 30
0.0
 11
203.2000000000025
 21
34.0
 31
0.0
  0
LINE
  5
152F7
330
152CE
100
AcDbEntity
  8
1　製品
100
AcDbLine
 10
177.8000000000029
 20
68.0
 30
0.0
 11
152.4000000000015
 21
56.66666666666424
 31
0.0
  0
LINE
  5
152F8
330
152CE
100
AcDbEntity
  8
1　製品
100
AcDbLine
 10
127.0000000000018
 20
90.66666666666424
 30
0.0
 11
101.6000000000004
 21
79.33333333333212
 31
0.0
  0
LINE
  5
152F9
330
152CE
100
AcDbEntity
  8
1　製品
100
AcDbLine
 10
76.19999999999891
 20
90.66666666666424
 30
0.0
 11
101.6000000000004
 21
79.33333333333212
 31
0.0
  0
ENDBLK
  5
152FA
330
152CE
100
AcDbEntity
  8
0
100
AcDbBlockEnd
  0
BLOCK
  5
152FE
330
152FD
100
AcDbEntity
  8
0
 48
20.0
100
AcDbBlockBegin
  2
A$C3C7277DA
 70
     0
 10
0.0
 20
0.0
 30
0.0
  3
A$C3C7277DA
  1

  0
LINE
  5
152FF
330
152FD
100
AcDbEntity
  8
0
100
AcDbLine
 10
266.7000199373761
 20
68.00000432218076
 30
0.0
 11
304.8000199373782
 21
51.00000432218076
 31
0.0
  0
LINE
  5
15300
330
152FD
100
AcDbEntity
  8
0
100
AcDbLine
 10
228.6000199373775
 20
51.00000432218076
 30
0.0
 11
266.7000199373761
 21
68.00000432218076
 31
0.0
  0
LINE
  5
15301
330
152FD
100
AcDbEntity
  8
0
100
AcDbLine
 10
152.4000199373768
 20
51.00000432218076
 30
0.0
 11
190.5000199373753
 21
68.00000432218076
 31
0.0
  0
LINE
  5
15302
330
152FD
100
AcDbEntity
  8
0
100
AcDbLine
 10
114.3000199373746
 20
68.00000432218076
 30
0.0
 11
152.4000199373768
 21
51.00000432218076
 31
0.0
  0
LINE
  5
15303
330
152FD
100
AcDbEntity
  8
0
100
AcDbLine
 10
190.5000199373753
 20
68.00000432218076
 30
0.0
 11
228.6000199373775
 21
51.00000432218076
 31
0.0
  0
LINE
  5
15304
330
152FD
100
AcDbEntity
  8
0
100
AcDbLine
 10
228.6000199373775
 20
51.00000432218076
 30
0.0
 11
190.5000199373753
 21
34.00000432218076
 31
0.0
  0
LINE
  5
15305
330
152FD
100
AcDbEntity
  8
0
100
AcDbLine
 10
190.5000199373753
 20
34.00000432218076
 30
0.0
 11
228.6000199373775
 21
17.00000432218076
 31
0.0
  0
LINE
  5
15306
330
152FD
100
AcDbEntity
  8
0
100
AcDbLine
 10
228.6000199373775
 20
17.00000432218076
 30
0.0
 11
190.5000199373753
 21
0.0000043221807573
 31
0.0
  0
LINE
  5
15307
330
152FD
100
AcDbEntity
  8
0
100
AcDbLine
 10
38.10001993737387
 20
34.00000432218076
 30
0.0
 11
76.20001993737606
 21
17.00000432218076
 31
0.0
  0
LINE
  5
15308
330
152FD
100
AcDbEntity
  8
0
100
AcDbLine
 10
76.20001993737606
 20
17.00000432218076
 30
0.0
 11
38.10001993737387
 21
0.0000043221807573
 31
0.0
  0
LINE
  5
15309
330
152FD
100
AcDbEntity
  8
0
100
AcDbLine
 10
38.10001993737387
 20
0.0000043221807573
 30
0.0
 11
0.0000199373753276
 21
17.00000432218076
 31
0.0
  0
LINE
  5
1530A
330
152FD
100
AcDbEntity
  8
0
100
AcDbLine
 10
114.3000199373746
 20
34.00000432218076
 30
0.0
 11
76.20001993737606
 21
51.00000432218076
 31
0.0
  0
LINE
  5
1530B
330
152FD
100
AcDbEntity
  8
0
100
AcDbLine
 10
190.5000199373753
 20
34.00000432218076
 30
0.0
 11
152.4000199373768
 21
51.00000432218076
 31
0.0
  0
LINE
  5
1530C
330
152FD
100
AcDbEntity
  8
0
100
AcDbLine
 10
152.4000199373768
 20
51.00000432218076
 30
0.0
 11
114.3000199373746
 21
34.00000432218076
 31
0.0
  0
LINE
  5
1530D
330
152FD
100
AcDbEntity
  8
0
100
AcDbLine
 10
114.3000199373746
 20
34.00000432218076
 30
0.0
 11
152.4000199373768
 21
17.00000432218076
 31
0.0
  0
LINE
  5
1530E
330
152FD
100
AcDbEntity
  8
0
100
AcDbLine
 10
76.20001993737606
 20
17.00000432218076
 30
0.0
 11
114.3000199373746
 21
34.00000432218076
 31
0.0
  0
LINE
  5
1530F
330
152FD
100
AcDbEntity
  8
0
100
AcDbLine
 10
114.3000199373746
 20
0.0000043221807573
 30
0.0
 11
76.20001993737606
 21
17.00000432218076
 31
0.0
  0
LINE
  5
15310
330
152FD
100
AcDbEntity
  8
0
100
AcDbLine
 10
152.4000199373768
 20
17.00000432218076
 30
0.0
 11
114.3000199373746
 21
0.0000043221807573
 31
0.0
  0
LINE
  5
15311
330
152FD
100
AcDbEntity
  8
0
100
AcDbLine
 10
152.4000199373768
 20
17.00000432218076
 30
0.0
 11
190.5000199373753
 21
34.00000432218076
 31
0.0
  0
LINE
  5
15312
330
152FD
100
AcDbEntity
  8
0
100
AcDbLine
 10
190.5000199373753
 20
0.0000043221807573
 30
0.0
 11
152.4000199373768
 21
17.00000432218076
 31
0.0
  0
LINE
  5
15313
330
152FD
100
AcDbEntity
  8
0
100
AcDbLine
 10
304.8000199373782
 20
51.00000432218076
 30
0.0
 11
266.7000199373761
 21
34.00000432218076
 31
0.0
  0
LINE
  5
15314
330
152FD
100
AcDbEntity
  8
0
100
AcDbLine
 10
266.7000199373761
 20
34.00000432218076
 30
0.0
 11
228.6000199373775
 21
51.00000432218076
 31
0.0
  0
LINE
  5
15315
330
152FD
100
AcDbEntity
  8
0
100
AcDbLine
 10
304.8000199373782
 20
17.00000432218076
 30
0.0
 11
266.7000199373761
 21
0.0000043221807573
 31
0.0
  0
LINE
  5
15316
330
152FD
100
AcDbEntity
  8
0
100
AcDbLine
 10
266.7000199373761
 20
0.0000043221807573
 30
0.0
 11
228.6000199373775
 21
17.00000432218076
 31
0.0
  0
LINE
  5
15317
330
152FD
100
AcDbEntity
  8
0
100
AcDbLine
 10
228.6000199373775
 20
17.00000432218076
 30
0.0
 11
266.7000199373761
 21
34.00000432218076
 31
0.0
  0
LINE
  5
15318
330
152FD
100
AcDbEntity
  8
0
100
AcDbLine
 10
266.7000199373761
 20
34.00000432218076
 30
0.0
 11
304.8000199373782
 21
17.00000432218076
 31
0.0
  0
LINE
  5
15319
330
152FD
100
AcDbEntity
  8
0
100
AcDbLine
 10
228.6000199373775
 20
85.00000432218076
 30
0.0
 11
190.5000199373753
 21
68.00000432218076
 31
0.0
  0
LINE
  5
1531A
330
152FD
100
AcDbEntity
  8
0
100
AcDbLine
 10
190.5000199373753
 20
102.0000043221808
 30
0.0
 11
228.6000199373775
 21
85.00000432218076
 31
0.0
  0
LINE
  5
1531B
330
152FD
100
AcDbEntity
  8
0
100
AcDbLine
 10
190.5000199373753
 20
68.00000432218076
 30
0.0
 11
152.4000199373768
 21
85.00000432218076
 31
0.0
  0
LINE
  5
1531C
330
152FD
100
AcDbEntity
  8
0
100
AcDbLine
 10
266.7000199373761
 20
136.0000043221808
 30
0.0
 11
304.8000199373782
 21
119.0000043221808
 31
0.0
  0
LINE
  5
1531D
330
152FD
100
AcDbEntity
  8
0
100
AcDbLine
 10
304.8000199373782
 20
119.0000043221808
 30
0.0
 11
266.7000199373761
 21
102.0000043221808
 31
0.0
  0
LINE
  5
1531E
330
152FD
100
AcDbEntity
  8
0
100
AcDbLine
 10
266.7000199373761
 20
102.0000043221808
 30
0.0
 11
228.6000199373775
 21
119.0000043221808
 31
0.0
  0
LINE
  5
1531F
330
152FD
100
AcDbEntity
  8
0
100
AcDbLine
 10
266.7000199373761
 20
102.0000043221808
 30
0.0
 11
304.8000199373782
 21
85.00000432218076
 31
0.0
  0
LINE
  5
15320
330
152FD
100
AcDbEntity
  8
0
100
AcDbLine
 10
304.8000199373782
 20
85.00000432218076
 30
0.0
 11
266.7000199373761
 21
68.00000432218076
 31
0.0
  0
LINE
  5
15321
330
152FD
100
AcDbEntity
  8
0
100
AcDbLine
 10
228.6000199373775
 20
85.00000432218076
 30
0.0
 11
266.7000199373761
 21
102.0000043221808
 31
0.0
  0
LINE
  5
15322
330
152FD
100
AcDbEntity
  8
0
100
AcDbLine
 10
266.7000199373761
 20
68.00000432218076
 30
0.0
 11
228.6000199373775
 21
85.00000432218076
 31
0.0
  0
ENDBLK
  5
15323
330
152FD
100
AcDbEntity
  8
0
 48
20.0
100
AcDbBlockEnd
  0
BLOCK
  5
18200
330
181FF
100
AcDbEntity
  8
0
100
AcDbBlockBegin
  2
1
 70
     0
 10
0.0
 20
0.0
 30
0.0
  3
1
  1

  0
LINE
  5
18201
330
181FF
100
AcDbEntity
  8
02製品
  6
ByBlock
100
AcDbLine
 10
-3058.186770356359
 20
30786.6700088612
 30
0.0
 11
-3059.786770359874
 21
30786.6700088612
 31
0.0
  0
LINE
  5
18202
330
181FF
100
AcDbEntity
  8
02製品
  6
ByBlock
100
AcDbLine
 10
-3058.186770356359
 20
30803.6700088612
 30
0.0
 11
-3059.786770359874
 21
30803.6700088612
 31
0.0
  0
LINE
  5
18203
330
181FF
100
AcDbEntity
  8
02製品
  6
ByBlock
100
AcDbLine
 10
-3059.786770359874
 20
30803.6700088612
 30
0.0
 11
-3059.786770359874
 21
30786.6700088612
 31
0.0
  0
LINE
  5
18204
330
181FF
100
AcDbEntity
  8
02製品
  6
ByBlock
100
AcDbLine
 10
-3058.186770356359
 20
30803.6700088612
 30
0.0
 11
-3058.186770356359
 21
30786.6700088612
 31
0.0
  0
LINE
  5
18205
330
181FF
100
AcDbEntity
  8
02製品
  6
ByBlock
100
AcDbLine
 10
-3053.382800019444
 20
30787.66446992077
 30
0.0
 11
-3058.186770356359
 21
30787.66446992077
 31
0.0
  0
LINE
  5
18206
330
181FF
100
AcDbEntity
  8
02製品
  6
ByBlock
100
AcDbLine
 10
-3052.686770356358
 20
30801.47009406879
 30
0.0
 11
-3052.686770356358
 21
30788.86999804021
 31
0.0
  0
ARC
  5
18207
330
181FF
100
AcDbEntity
  8
02製品
  6
ByBlock
100
AcDbCircle
 10
-3064.68677035636
 20
30795.1700088612
 30
0.0
 40
12.0
100
AcDbArc
 50
341.7762176856304
 51
18.2240195497719
  0
LINE
  5
18208
330
181FF
100
AcDbEntity
  8
02製品
  6
ByBlock
100
AcDbLine
 10
-3053.288668549717
 20
30791.41726227917
 30
0.0
 11
-3058.186770356359
 21
30791.41726227917
 31
0.0
  0
LINE
  5
18209
330
181FF
100
AcDbEntity
  8
02製品
  6
ByBlock
100
AcDbLine
 10
-3053.288683808509
 20
30798.92281647839
 30
0.0
 11
-3058.186770356359
 21
30798.92281647839
 31
0.0
  0
LINE
  5
1820A
330
181FF
100
AcDbEntity
  8
02製品
  6
ByBlock
100
AcDbLine
 10
-3053.382800019444
 20
30802.67557831921
 30
0.0
 11
-3058.186770356359
 21
30802.67557831921
 31
0.0
  0
LINE
  5
1820B
330
181FF
100
AcDbEntity
  8
02製品
  6
ByBlock
100
AcDbLine
 10
-3053.288672119307
 20
30798.92284013351
 30
0.0
 11
-3052.686770356358
 21
30801.47009406879
 31
0.0
  0
LINE
  5
1820C
330
181FF
100
AcDbEntity
  8
02製品
  6
ByBlock
100
AcDbLine
 10
-3052.686770356358
 20
30788.86999804021
 30
0.0
 11
-3053.288646389808
 21
30791.41730941251
 31
0.0
  0
LINE
  5
1820D
330
181FF
100
AcDbEntity
  8
02製品
  6
ByBlock
100
AcDbLine
 10
-3052.686770356358
 20
30788.86999804021
 30
0.0
 11
-3053.382767947521
 21
30787.66449471718
 31
0.0
  0
LINE
  5
1820E
330
181FF
100
AcDbEntity
  8
02製品
  6
ByBlock
100
AcDbLine
 10
-3053.382789142935
 20
30802.67563410336
 30
0.0
 11
-3052.686770356358
 21
30801.47009406879
 31
0.0
  0
ENDBLK
  5
1820F
330
181FF
100
AcDbEntity
  8
0
100
AcDbBlockEnd
  0
BLOCK
  5
18212
330
18211
100
AcDbEntity
  8
0
100
AcDbBlockBegin
  2
2
 70
     0
 10
0.0
 20
0.0
 30
0.0
  3
2
  1

  0
LINE
  5
18213
330
18211
100
AcDbEntity
  8
02製品
  6
ByBlock
100
AcDbLine
 10
-3058.186770356359
 20
30846.6700088612
 30
0.0
 11
-3059.786770359874
 21
30846.6700088612
 31
0.0
  0
LINE
  5
18214
330
18211
100
AcDbEntity
  8
02製品
  6
ByBlock
100
AcDbLine
 10
-3058.186770356359
 20
30863.6700088612
 30
0.0
 11
-3059.786770359874
 21
30863.6700088612
 31
0.0
  0
LINE
  5
18215
330
18211
100
AcDbEntity
  8
02製品
  6
ByBlock
100
AcDbLine
 10
-3059.786770359874
 20
30863.6700088612
 30
0.0
 11
-3059.786770359874
 21
30846.6700088612
 31
0.0
  0
LINE
  5
18216
330
18211
100
AcDbEntity
  8
02製品
  6
ByBlock
100
AcDbLine
 10
-3058.186770356359
 20
30863.6700088612
 30
0.0
 11
-3058.186770356359
 21
30846.6700088612
 31
0.0
  0
LINE
  5
18217
330
18211
100
AcDbEntity
  8
02製品
  6
ByBlock
100
AcDbLine
 10
-3053.382800019443
 20
30847.66446992077
 30
0.0
 11
-3058.186770356359
 21
30847.66446992077
 31
0.0
  0
LINE
  5
18218
330
18211
100
AcDbEntity
  8
02製品
  6
ByBlock
100
AcDbLine
 10
-3052.686770356357
 20
30861.47009406879
 30
0.0
 11
-3052.686770356357
 21
30848.86999804021
 31
0.0
  0
ARC
  5
18219
330
18211
100
AcDbEntity
  8
02製品
  6
ByBlock
100
AcDbCircle
 10
-3064.68677035636
 20
30855.1700088612
 30
0.0
 40
12.0
100
AcDbArc
 50
341.7762176856304
 51
18.2240195497719
  0
LINE
  5
1821A
330
18211
100
AcDbEntity
  8
02製品
  6
ByBlock
100
AcDbLine
 10
-3053.288668549716
 20
30851.41726227917
 30
0.0
 11
-3058.186770356359
 21
30851.41726227917
 31
0.0
  0
LINE
  5
1821B
330
18211
100
AcDbEntity
  8
02製品
  6
ByBlock
100
AcDbLine
 10
-3053.288683808509
 20
30858.92281647839
 30
0.0
 11
-3058.186770356359
 21
30858.92281647839
 31
0.0
  0
LINE
  5
1821C
330
18211
100
AcDbEntity
  8
02製品
  6
ByBlock
100
AcDbLine
 10
-3053.382800019443
 20
30862.67557831921
 30
0.0
 11
-3058.186770356359
 21
30862.67557831921
 31
0.0
  0
LINE
  5
1821D
330
18211
100
AcDbEntity
  8
02製品
  6
ByBlock
100
AcDbLine
 10
-3053.288672119307
 20
30858.92284013351
 30
0.0
 11
-3052.686770356357
 21
30861.47009406879
 31
0.0
  0
LINE
  5
1821E
330
18211
100
AcDbEntity
  8
02製品
  6
ByBlock
100
AcDbLine
 10
-3052.686770356357
 20
30848.86999804021
 30
0.0
 11
-3053.288646389808
 21
30851.41730941251
 31
0.0
  0
LINE
  5
1821F
330
18211
100
AcDbEntity
  8
02製品
  6
ByBlock
100
AcDbLine
 10
-3052.686770356357
 20
30848.86999804021
 30
0.0
 11
-3053.38276794752
 21
30847.66449471718
 31
0.0
  0
LINE
  5
18220
330
18211
100
AcDbEntity
  8
02製品
  6
ByBlock
100
AcDbLine
 10
-3053.382789142934
 20
30862.67563410336
 30
0.0
 11
-3052.686770356357
 21
30861.47009406879
 31
0.0
  0
ENDBLK
  5
18221
330
18211
100
AcDbEntity
  8
0
100
AcDbBlockEnd
  0
BLOCK
  5
18224
330
18223
100
AcDbEntity
  8
0
100
AcDbBlockBegin
  2
3
 70
     0
 10
0.0
 20
0.0
 30
0.0
  3
3
  1

  0
LINE
  5
18225
330
18223
100
AcDbEntity
  8
02製品
  6
ByBlock
100
AcDbLine
 10
-3058.186770356359
 20
30896.6700088612
 30
0.0
 11
-3059.786770359874
 21
30896.6700088612
 31
0.0
  0
LINE
  5
18226
330
18223
100
AcDbEntity
  8
02製品
  6
ByBlock
100
AcDbLine
 10
-3058.186770356359
 20
30913.6700088612
 30
0.0
 11
-3059.786770359874
 21
30913.6700088612
 31
0.0
  0
LINE
  5
18227
330
18223
100
AcDbEntity
  8
02製品
  6
ByBlock
100
AcDbLine
 10
-3059.786770359874
 20
30913.6700088612
 30
0.0
 11
-3059.786770359874
 21
30896.6700088612
 31
0.0
  0
LINE
  5
18228
330
18223
100
AcDbEntity
  8
02製品
  6
ByBlock
100
AcDbLine
 10
-3058.186770356359
 20
30913.6700088612
 30
0.0
 11
-3058.186770356359
 21
30896.6700088612
 31
0.0
  0
LINE
  5
18229
330
18223
100
AcDbEntity
  8
02製品
  6
ByBlock
100
AcDbLine
 10
-3053.382800019443
 20
30897.66446992077
 30
0.0
 11
-3058.186770356359
 21
30897.66446992077
 31
0.0
  0
LINE
  5
1822A
330
18223
100
AcDbEntity
  8
02製品
  6
ByBlock
100
AcDbLine
 10
-3052.686770356357
 20
30911.47009406879
 30
0.0
 11
-3052.686770356357
 21
30898.86999804021
 31
0.0
  0
ARC
  5
1822B
330
18223
100
AcDbEntity
  8
02製品
  6
ByBlock
100
AcDbCircle
 10
-3064.68677035636
 20
30905.1700088612
 30
0.0
 40
12.0
100
AcDbArc
 50
341.7762176856304
 51
18.2240195497719
  0
LINE
  5
1822C
330
18223
100
AcDbEntity
  8
02製品
  6
ByBlock
100
AcDbLine
 10
-3053.288668549716
 20
30901.41726227917
 30
0.0
 11
-3058.186770356359
 21
30901.41726227917
 31
0.0
  0
LINE
  5
1822D
330
18223
100
AcDbEntity
  8
02製品
  6
ByBlock
100
AcDbLine
 10
-3053.288683808509
 20
30908.92281647839
 30
0.0
 11
-3058.186770356359
 21
30908.92281647839
 31
0.0
  0
LINE
  5
1822E
330
18223
100
AcDbEntity
  8
02製品
  6
ByBlock
100
AcDbLine
 10
-3053.382800019443
 20
30912.67557831921
 30
0.0
 11
-3058.186770356359
 21
30912.67557831921
 31
0.0
  0
LINE
  5
1822F
330
18223
100
AcDbEntity
  8
02製品
  6
ByBlock
100
AcDbLine
 10
-3053.288672119307
 20
30908.92284013351
 30
0.0
 11
-3052.686770356357
 21
30911.47009406879
 31
0.0
  0
LINE
  5
18230
330
18223
100
AcDbEntity
  8
02製品
  6
ByBlock
100
AcDbLine
 10
-3052.686770356357
 20
30898.86999804021
 30
0.0
 11
-3053.288646389808
 21
30901.41730941251
 31
0.0
  0
LINE
  5
18231
330
18223
100
AcDbEntity
  8
02製品
  6
ByBlock
100
AcDbLine
 10
-3052.686770356357
 20
30898.86999804021
 30
0.0
 11
-3053.38276794752
 21
30897.66449471718
 31
0.0
  0
LINE
  5
18232
330
18223
100
AcDbEntity
  8
02製品
  6
ByBlock
100
AcDbLine
 10
-3053.382789142934
 20
30912.67563410336
 30
0.0
 11
-3052.686770356357
 21
30911.47009406879
 31
0.0
  0
ENDBLK
  5
18233
330
18223
100
AcDbEntity
  8
0
100
AcDbBlockEnd
  0
BLOCK
  5
182D7
330
1829E
100
AcDbEntity
  8
0
100
AcDbBlockBegin
  2
A$C3592
 70
     0
 10
0.0
 20
0.0
 30
0.0
  3
A$C3592
  1

  0
LINE
  5
182CE
330
1829E
100
AcDbEntity
  8
02製品
  6
Continuous
370
     0
390
F
100
AcDbLine
 10
1.5725190854414
 20
6.5
 30
0.0
 11
1.5725190854414
 21
5.299999999999955
 31
0.0
  0
LINE
  5
182CF
330
1829E
100
AcDbEntity
  8
02製品
  6
Continuous
370
     0
390
F
100
AcDbLine
 10
1.5725190854414
 20
6.5
 30
0.0
 11
0.0000014292413653
 21
6.5
 31
0.0
  0
LINE
  5
182D0
330
1829E
100
AcDbEntity
  8
02製品
  6
Continuous
370
     0
390
F
100
AcDbLine
 10
0.0000014292413653
 20
5.299999999999955
 30
0.0
 11
1.572519085541444
 21
5.299999999999955
 31
0.0
  0
LINE
  5
182D1
330
1829E
100
AcDbEntity
  8
02製品
  6
Continuous
370
     0
390
F
100
AcDbLine
 10
3.07347888914137
 20
11.79999999999995
 30
0.0
 11
2.773478889141188
 21
11.79999999999995
 31
0.0
  0
LINE
  5
182D2
330
1829E
100
AcDbEntity
  8
02製品
  6
Continuous
370
     0
390
F
100
AcDbLine
 10
2.773478889141188
 20
0.0
 30
0.0
 11
2.773478889141188
 21
11.79999999999995
 31
0.0
  0
ARC
  5
182D3
330
1829E
100
AcDbEntity
  8
02製品
  6
Continuous
370
     0
390
F
100
AcDbCircle
 10
7.673376123141225
 20
5.939781738200054
 30
0.0
 40
7.7
100
AcDbArc
 50
184.7659900507994
 51
230.4797949409994
  0
LINE
  5
182D4
330
1829E
100
AcDbEntity
  8
02製品
  6
Continuous
370
     0
390
F
100
AcDbLine
 10
2.773478889141188
 20
0.0
 30
0.0
 11
3.07347888914137
 21
0.0
 31
0.0
  0
ARC
  5
182D5
330
1829E
100
AcDbEntity
  8
02製品
  6
Continuous
370
     0
390
F
100
AcDbCircle
 10
7.673376123141225
 20
5.860218261899945
 30
0.0
 40
7.7
100
AcDbArc
 50
129.5202050590006
 51
175.233958755799
  0
LINE
  5
182D6
330
1829E
100
AcDbEntity
  8
02製品
  6
Continuous
370
     0
390
F
100
AcDbLine
 10
3.07347888914137
 20
0.0
 30
0.0
 11
3.07347888914137
 21
11.79999999999995
 31
0.0
  0
ENDBLK
  5
182D8
330
1829E
100
AcDbEntity
  8
0
100
AcDbBlockEnd
  0
BLOCK
  5
185D3
330
1851D
100
AcDbEntity
  8
0
100
AcDbBlockBegin
  2
A$C23110
 70
     0
 10
0.0
 20
0.0
 30
0.0
  3
A$C23110
  1

  0
INSERT
  5
1854C
330
1851D
100
AcDbEntity
  8
02製品
100
AcDbBlockReference
  2
A$C3C7277DA
 10
734.7038519853959
 20
44.00000258314066
 30
0.0
 41
0.6666666666666666
 42
0.6666666666666666
 43
0.6666666666666666
  0
INSERT
  5
18574
330
1851D
100
AcDbEntity
  8
02製品
100
AcDbBlockReference
  2
A$C3C7277DA
 10
247.2961480146168
 20
697.9999974168561
 30
0.0
 41
0.6666666666666666
 42
0.6666666666666666
 43
0.6666666666666666
 50
180.0
  0
INSERT
  5
18575
330
1851D
100
AcDbEntity
  8
02製品
100
AcDbBlockReference
  2
A$C20123
 10
592.6962620172053
 20
325.6666756669304
 30
0.0
 41
-1.0
  0
LINE
  5
185A3
330
1851D
100
AcDbEntity
  8
02製品
100
AcDbLine
 10
4.0
 20
738.0000000000011
 30
0.0
 11
4.0
 21
4.00000000000108
 31
0.0
  0
LINE
  5
185A4
330
1851D
100
AcDbEntity
  8
02製品
100
AcDbLine
 10
4.0
 20
4.00000000000108
 30
0.0
 11
978.0
 21
4.00000000000108
 31
0.0
  0
LINE
  5
185A5
330
1851D
100
AcDbEntity
  8
02製品
100
AcDbLine
 10
978.0
 20
4.00000000000108
 30
0.0
 11
978.0
 21
738.0000000000011
 31
0.0
  0
LINE
  5
185A6
330
1851D
100
AcDbEntity
  8
02製品
100
AcDbLine
 10
978.0
 20
738.0000000000011
 30
0.0
 11
4.0
 21
738.0000000000011
 31
0.0
  0
LINE
  5
185A7
330
1851D
100
AcDbEntity
  8
02製品
100
AcDbLine
 10
44.0
 20
698.0000000000011
 30
0.0
 11
44.0
 21
44.00000000000108
 31
0.0
  0
LINE
  5
185A8
330
1851D
100
AcDbEntity
  8
02製品
100
AcDbLine
 10
978.0
 20
698.0000000000011
 30
0.0
 11
4.0
 21
698.0000000000011
 31
0.0
  0
LINE
  5
185A9
330
1851D
100
AcDbEntity
  8
02製品
100
AcDbLine
 10
938.0
 20
44.00000000000108
 30
0.0
 11
938.0
 21
698.0000000000011
 31
0.0
  0
LINE
  5
185AA
330
1851D
100
AcDbEntity
  8
02製品
100
AcDbLine
 10
4.0
 20
44.00000000000108
 30
0.0
 11
978.0
 21
44.00000000000108
 31
0.0
  0
LINE
  5
185AB
330
1851D
100
AcDbEntity
  8
02製品
100
AcDbLine
 10
476.0
 20
698.0000000000011
 30
0.0
 11
476.0
 21
44.00000000000108
 31
0.0
  0
LINE
  5
185AC
330
1851D
100
AcDbEntity
  8
02製品
100
AcDbLine
 10
506.0
 20
698.0000000000011
 30
0.0
 11
506.0
 21
44.00000000000108
 31
0.0
  0
LINE
  5
185AD
330
1851D
100
AcDbEntity
  8
02製品
100
AcDbLine
 10
44.00000000001273
 20
697.9999999999957
 30
0.0
 11
44.00000000001273
 21
44.00000000000108
 31
0.0
  0
LINE
  5
185AE
330
1851D
100
AcDbEntity
  8
02製品
100
AcDbLine
 10
938.5
 20
698.0000000000002
 30
0.0
 11
43.5
 21
698.0000000000011
 31
0.0
  0
LINE
  5
185AF
330
1851D
100
AcDbEntity
  8
02製品
100
AcDbLine
 10
44.0
 20
698.0000000000011
 30
0.0
 11
44.0
 21
44.00000000000108
 31
0.0
  0
LINE
  5
185B0
330
1851D
100
AcDbEntity
  8
02製品
100
AcDbLine
 10
43.5
 20
44.00000000000108
 30
0.0
 11
938.5
 21
44.00000000000108
 31
0.0
  0
LINE
  5
185B1
330
1851D
100
AcDbEntity
  8
02製品
100
AcDbLine
 10
937.9999999999873
 20
44.00000000000108
 30
0.0
 11
937.9999999999873
 21
698.0000000000066
 31
0.0
  0
LINE
  5
185B2
330
1851D
100
AcDbEntity
  8
02製品
100
AcDbLine
 10
938.0
 20
44.00000000000108
 30
0.0
 11
938.0
 21
698.0000000000011
 31
0.0
  0
LINE
  5
185B3
330
1851D
100
AcDbEntity
  8
02製品
 48
15.0
100
AcDbLine
 10
3.200000000000728
 20
735.8000000000022
 30
0.0
 11
3.200000000000728
 21
692.000000000002
 31
0.0
  0
LINE
  5
185B4
330
1851D
100
AcDbEntity
  8
02製品
 48
15.0
100
AcDbLine
 10
0.0
 20
735.8000000000022
 30
0.0
 11
0.0
 21
692.000000000002
 31
0.0
  0
LINE
  5
185B5
330
1851D
100
AcDbEntity
  8
02製品
 48
15.0
100
AcDbLine
 10
0.0
 20
692.000000000002
 30
0.0
 11
3.200000000000728
 21
692.000000000002
 31
0.0
  0
LINE
  5
185B6
330
1851D
100
AcDbEntity
  8
02製品
 48
15.0
100
AcDbLine
 10
6.200000000000728
 20
738.8000000000022
 30
0.0
 11
150.0
 21
738.8000000000022
 31
0.0
  0
LINE
  5
185B7
330
1851D
100
AcDbEntity
  8
02製品
 48
15.0
100
AcDbLine
 10
6.200000000000728
 20
742.000000000002
 30
0.0
 11
150.0
 21
742.000000000002
 31
0.0
  0
ARC
  5
185B8
330
1851D
100
AcDbEntity
  8
02製品
 48
15.0
100
AcDbCircle
 10
6.200000000000728
 20
735.8000000000022
 30
0.0
 40
6.2
100
AcDbArc
 50
90.0
 51
180.0
  0
ARC
  5
185B9
330
1851D
100
AcDbEntity
  8
02製品
 48
15.0
100
AcDbCircle
 10
6.200000000000728
 20
735.8000000000022
 30
0.0
 40
3.0
100
AcDbArc
 50
90.0
 51
180.0
  0
LINE
  5
185BA
330
1851D
100
AcDbEntity
  8
02製品
 48
15.0
100
AcDbLine
 10
150.0
 20
742.000000000002
 30
0.0
 11
150.0
 21
738.8000000000022
 31
0.0
  0
LINE
  5
185BB
330
1851D
100
AcDbEntity
  8
02製品
 48
15.0
100
AcDbLine
 10
978.8000000000002
 20
735.8000000000022
 30
0.0
 11
978.8000000000002
 21
692.000000000002
 31
0.0
  0
LINE
  5
185BC
330
1851D
100
AcDbEntity
  8
02製品
 48
15.0
100
AcDbLine
 10
981.9999999999991
 20
735.8000000000022
 30
0.0
 11
981.9999999999991
 21
692.000000000002
 31
0.0
  0
LINE
  5
185BD
330
1851D
100
AcDbEntity
  8
02製品
 48
15.0
100
AcDbLine
 10
981.9999999999991
 20
692.000000000002
 30
0.0
 11
978.8000000000002
 21
692.000000000002
 31
0.0
  0
LINE
  5
185BE
330
1851D
100
AcDbEntity
  8
02製品
 48
15.0
100
AcDbLine
 10
975.8000000000002
 20
738.8000000000022
 30
0.0
 11
831.9999999999991
 21
738.8000000000022
 31
0.0
  0
LINE
  5
185BF
330
1851D
100
AcDbEntity
  8
02製品
 48
15.0
100
AcDbLine
 10
975.8000000000002
 20
742.000000000002
 30
0.0
 11
831.9999999999991
 21
742.000000000002
 31
0.0
  0
ARC
  5
185C0
330
1851D
100
AcDbEntity
  8
02製品
 48
15.0
100
AcDbCircle
 10
975.8000000000002
 20
735.8000000000022
 30
0.0
 40
6.2
100
AcDbArc
 50
0.0
 51
90.0
  0
ARC
  5
185C1
330
1851D
100
AcDbEntity
  8
02製品
 48
15.0
100
AcDbCircle
 10
975.8000000000002
 20
735.8000000000022
 30
0.0
 40
3.0
100
AcDbArc
 50
0.0
 51
90.0
  0
LINE
  5
185C2
330
1851D
100
AcDbEntity
  8
02製品
 48
15.0
100
AcDbLine
 10
831.9999999999991
 20
742.000000000002
 30
0.0
 11
831.9999999999991
 21
738.8000000000022
 31
0.0
  0
LINE
  5
185C3
330
1851D
100
AcDbEntity
  8
02製品
 48
15.0
100
AcDbLine
 10
3.200000000000728
 20
6.199999999999989
 30
0.0
 11
3.200000000000728
 21
50.00000000000017
 31
0.0
  0
LINE
  5
185C4
330
1851D
100
AcDbEntity
  8
02製品
 48
15.0
100
AcDbLine
 10
0.0
 20
6.199999999999989
 30
0.0
 11
0.0
 21
50.00000000000017
 31
0.0
  0
LINE
  5
185C5
330
1851D
100
AcDbEntity
  8
02製品
 48
15.0
100
AcDbLine
 10
0.0
 20
50.00000000000017
 30
0.0
 11
3.200000000000728
 21
50.00000000000017
 31
0.0
  0
LINE
  5
185C6
330
1851D
100
AcDbEntity
  8
02製品
 48
15.0
100
AcDbLine
 10
6.200000000000728
 20
3.199999999999989
 30
0.0
 11
150.0
 21
3.199999999999989
 31
0.0
  0
LINE
  5
185C7
330
1851D
100
AcDbEntity
  8
02製品
 48
15.0
100
AcDbLine
 10
6.200000000000728
 20
0.0000000000001705
 30
0.0
 11
150.0
 21
0.0000000000001705
 31
0.0
  0
ARC
  5
185C8
330
1851D
100
AcDbEntity
  8
02製品
 48
15.0
100
AcDbCircle
 10
6.200000000000728
 20
6.199999999999989
 30
0.0
 40
6.2
100
AcDbArc
 50
180.0
 51
270.0
  0
ARC
  5
185C9
330
1851D
100
AcDbEntity
  8
02製品
 48
15.0
100
AcDbCircle
 10
6.200000000000728
 20
6.199999999999989
 30
0.0
 40
3.0
100
AcDbArc
 50
180.0
 51
270.0
  0
LINE
  5
185CA
330
1851D
100
AcDbEntity
  8
02製品
 48
15.0
100
AcDbLine
 10
150.0
 20
0.0000000000001705
 30
0.0
 11
150.0
 21
3.199999999999989
 31
0.0
  0
LINE
  5
185CB
330
1851D
100
AcDbEntity
  8
02製品
 48
15.0
100
AcDbLine
 10
978.8000000000002
 20
6.200000000001808
 30
0.0
 11
978.8000000000002
 21
50.00000000000199
 31
0.0
  0
LINE
  5
185CC
330
1851D
100
AcDbEntity
  8
02製品
 48
15.0
100
AcDbLine
 10
981.9999999999991
 20
6.200000000001808
 30
0.0
 11
981.9999999999991
 21
50.00000000000199
 31
0.0
  0
LINE
  5
185CD
330
1851D
100
AcDbEntity
  8
02製品
 48
15.0
100
AcDbLine
 10
981.9999999999991
 20
50.00000000000199
 30
0.0
 11
978.8000000000002
 21
50.00000000000199
 31
0.0
  0
LINE
  5
185CE
330
1851D
100
AcDbEntity
  8
02製品
 48
15.0
100
AcDbLine
 10
975.8000000000002
 20
3.200000000001808
 30
0.0
 11
831.9999999999991
 21
3.200000000001808
 31
0.0
  0
LINE
  5
185CF
330
1851D
100
AcDbEntity
  8
02製品
 48
15.0
100
AcDbLine
 10
975.8000000000002
 20
0.0000000000019895
 30
0.0
 11
831.9999999999991
 21
0.0000000000019895
 31
0.0
  0
ARC
  5
185D0
330
1851D
100
AcDbEntity
  8
02製品
 48
15.0
100
AcDbCircle
 10
975.8000000000002
 20
6.200000000001808
 30
0.0
 40
6.2
100
AcDbArc
 50
270.0
 51
0.0
  0
ARC
  5
185D1
330
1851D
100
AcDbEntity
  8
02製品
 48
15.0
100
AcDbCircle
 10
975.8000000000002
 20
6.200000000001808
 30
0.0
 40
3.0
100
AcDbArc
 50
270.0
 51
0.0
  0
LINE
  5
185D2
330
1851D
100
AcDbEntity
  8
02製品
 48
15.0
100
AcDbLine
 10
831.9999999999991
 20
0.0000000000019895
 30
0.0
 11
831.9999999999991
 21
3.200000000001808
 31
0.0
  0
ENDBLK
  5
185D4
330
1851D
100
AcDbEntity
  8
0
100
AcDbBlockEnd
  0
ENDSEC
  0
SECTION
  2
ENTITIES
  0
TEXT
  5
13462
330
1F
100
AcDbEntity
  8
01注記寸法
100
AcDbText
 10
-969.257364128187
 20
-2031.922456119503
 30
0.0
 40
40.0
  1
3-TCL031
 72
     1
 11
-865.257364128187
 21
-2011.922456119503
 31
0.0
100
AcDbText
 73
     2
  0
INSERT
  5
18240
330
1F
100
AcDbEntity
  8
02製品
100
AcDbBlockReference
  2
1
 10
-5628.480324195756
 20
-31797.52394504745
 30
0.0
 41
-1.0
 50
359.9999999999994
  0
INSERT
  5
18241
330
1F
100
AcDbEntity
  8
02製品
100
AcDbBlockReference
  2
2
 10
-5628.480324195756
 20
-31797.52394504745
 30
0.0
 41
-1.0
 50
359.9999999999994
  0
INSERT
  5
18242
330
1F
100
AcDbEntity
  8
02製品
100
AcDbBlockReference
  2
3
 10
-5628.480324195756
 20
-31797.52394504745
 30
0.0
 41
-1.0
 50
359.9999999999994
  0
INSERT
  5
182D9
330
1F
100
AcDbEntity
  8
99作図基準
100
AcDbBlockReference
  2
A$C3592
 10
-2576.96703272471
 20
-1363.253936186291
 30
0.0
  0
INSERT
  5
182DB
330
1F
100
AcDbEntity
  8
02製品
100
AcDbBlockReference
  2
1
 10
-5632.180324195779
 20
-32152.52394504745
 30
0.0
 41
-1.0
 50
359.9999999999994
  0
INSERT
  5
182DC
330
1F
100
AcDbEntity
  8
02製品
100
AcDbBlockReference
  2
1
 10
1236.793216524307
 20
-32152.52394504749
 30
0.0
  0
INSERT
  5
185D5
330
1F
100
AcDbEntity
  8
02製品
100
AcDbBlockReference
  2
A$C23110
 10
-4034.696817547754
 20
-437.6094530436733
 30
0.0
  0
LINE
  5
19018
330
1F
100
AcDbEntity
  8
02製品
 48
15.0
100
AcDbLine
 10
-2573.893553835569
 20
-1347.35393618629
 30
0.0
 11
-2573.893553835569
 21
-1490.353936186293
 31
0.0
  0
LINE
  5
1901A
330
1F
100
AcDbEntity
  8
02製品
 48
15.0
100
AcDbLine
 10
-2573.893553835569
 20
-1490.353936186293
 30
0.0
 11
-2572.393553835569
 21
-1490.353936186293
 31
0.0
  0
LINE
  5
1901B
330
1F
100
AcDbEntity
  8
02製品
 48
15.0
100
AcDbLine
 10
-2573.893553835569
 20
-1347.35393618629
 30
0.0
 11
-2572.393553835569
 21
-1347.35393618629
 31
0.0
  0
LINE
  5
19021
330
1F
100
AcDbEntity
  8
02製品
 48
15.0
100
AcDbLine
 10
-2559.857975281498
 20
-1357.35393618629
 30
0.0
 11
-2577.393553835568
 21
-1357.35393618629
 31
0.0
  0
LINE
  5
1902A
330
1F
100
AcDbEntity
  8
02製品
 48
15.0
100
AcDbLine
 10
-1835.229132389638
 20
-1357.35393618629
 30
0.0
 11
-1817.693553835568
 21
-1357.35393618629
 31
0.0
  0
INSERT
  5
194D2
330
1F
100
AcDbEntity
  8
02製品
100
AcDbBlockReference
  2
1
 10
1233.093216524293
 20
-31797.52394504748
 30
0.0
  0
INSERT
  5
194D3
330
1F
100
AcDbEntity
  8
02製品
100
AcDbBlockReference
  2
2
 10
1233.093216524293
 20
-31797.52394504748
 30
0.0
  0
INSERT
  5
194D4
330
1F
100
AcDbEntity
  8
02製品
100
AcDbBlockReference
  2
3
 10
1233.093216524293
 20
-31797.52394504748
 30
0.0
  0
INSERT
  5
194D5
330
1F
100
AcDbEntity
  8
99作図基準
100
AcDbBlockReference
  2
A$C3592
 10
-1818.420074946429
 20
-1363.253936186294
 30
0.0
 41
-1.0
 50
359.9999999999996
  0
LWPOLYLINE
  5
194D6
330
1F
100
AcDbEntity
  8
02製品
100
AcDbPolyline
 90
        4
 70
     1
 43
0.0
 10
-1830.693553835568
 20
-1369.153936186289
 10
-1830.693553835568
 20
-1342.35393618629
 10
-1826.193553835568
 20
-1342.35393618629
 10
-1826.193553835568
 20
-1369.153936186289
  0
LINE
  5
194D7
330
1F
100
AcDbEntity
  8
02製品
100
AcDbLine
 10
-2564.693553835568
 20
-872.3539361862895
 30
0.0
 11
-1830.693553835568
 21
-872.3539361862895
 31
0.0
  0
LINE
  5
194D8
330
1F
100
AcDbEntity
  8
02製品
100
AcDbLine
 10
-2544.693553835568
 20
-892.3539361862895
 30
0.0
 11
-2524.693553835568
 21
-892.3539361862895
 31
0.0
  0
LINE
  5
194D9
330
1F
100
AcDbEntity
  8
02製品
100
AcDbLine
 10
-2534.693553835568
 20
-882.3539361862895
 30
0.0
 11
-2534.693553835568
 21
-902.3539361862895
 31
0.0
  0
LINE
  5
194DA
330
1F
100
AcDbEntity
  8
02製品
100
AcDbLine
 10
-1860.693553835568
 20
-882.3539361862895
 30
0.0
 11
-1860.693553835568
 21
-902.3539361862895
 31
0.0
  0
CIRCLE
  5
194DB
330
1F
100
AcDbEntity
  8
02製品
100
AcDbCircle
 10
-1860.693553835568
 20
-892.3539361862895
 30
0.0
 40
5.0
  0
CIRCLE
  5
194DC
330
1F
100
AcDbEntity
  8
02製品
100
AcDbCircle
 10
-2534.693553835568
 20
-892.3539361862895
 30
0.0
 40
5.0
  0
LINE
  5
194DD
330
1F
100
AcDbEntity
  8
02製品
100
AcDbLine
 10
-1870.693553835568
 20
-892.3539361862895
 30
0.0
 11
-1850.693553835568
 21
-892.3539361862895
 31
0.0
  0
LINE
  5
194DE
330
1F
100
AcDbEntity
  8
02製品
 48
15.0
100
AcDbLine
 10
-2564.693553835568
 20
-1469.15393618629
 30
0.0
 11
-2524.693553835568
 21
-1469.15393618629
 31
0.0
  0
LINE
  5
194DF
330
1F
100
AcDbEntity
  8
02製品
 48
15.0
100
AcDbLine
 10
-2564.693553835568
 20
-1472.35393618629
 30
0.0
 11
-2524.693553835568
 21
-1472.35393618629
 31
0.0
  0
LINE
  5
194E0
330
1F
100
AcDbEntity
  8
02製品
 48
15.0
100
AcDbLine
 10
-2554.693553835568
 20
-1357.35393618629
 30
0.0
 11
-2534.693553835568
 21
-1357.35393618629
 31
0.0
  0
LINE
  5
194E1
330
1F
100
AcDbEntity
  8
02製品
 48
15.0
100
AcDbLine
 10
-2544.693553835568
 20
-1347.35393618629
 30
0.0
 11
-2544.693553835568
 21
-1367.35393618629
 31
0.0
  0
CIRCLE
  5
194E2
330
1F
100
AcDbEntity
  8
02製品
 48
15.0
100
AcDbCircle
 10
-2544.693553835568
 20
-1357.35393618629
 30
0.0
 40
5.0
  0
LINE
  5
194E3
330
1F
100
AcDbEntity
  8
02製品
 48
15.0
100
AcDbLine
 10
-2529.693553835568
 20
-1002.35393618629
 30
0.0
 11
-2549.693553835568
 21
-1002.35393618629
 31
0.0
  0
LINE
  5
194E4
330
1F
100
AcDbEntity
  8
02製品
 48
15.0
100
AcDbLine
 10
-2529.693553835568
 20
-942.35393618629
 30
0.0
 11
-2549.693553835568
 21
-942.35393618629
 31
0.0
  0
CIRCLE
  5
194E5
330
1F
100
AcDbEntity
  8
02製品
 48
15.0
100
AcDbCircle
 10
-2539.693553835568
 20
-1002.35393618629
 30
0.0
 40
5.0
  0
CIRCLE
  5
194E6
330
1F
100
AcDbEntity
  8
02製品
 48
15.0
100
AcDbCircle
 10
-2539.693553835568
 20
-942.35393618629
 30
0.0
 40
5.0
  0
LINE
  5
194E7
330
1F
100
AcDbEntity
  8
02製品
 48
15.0
100
AcDbLine
 10
-2561.693553835568
 20
-1027.35393618629
 30
0.0
 11
-2564.693553835568
 21
-1027.35393618629
 31
0.0
  0
LINE
  5
194E8
330
1F
100
AcDbEntity
  8
02製品
 48
15.0
100
AcDbLine
 10
-2539.693553835568
 20
-992.35393618629
 30
0.0
 11
-2539.693553835568
 21
-1012.35393618629
 31
0.0
  0
LINE
  5
194E9
330
1F
100
AcDbEntity
  8
02製品
 48
15.0
100
AcDbLine
 10
-2539.693553835568
 20
-932.35393618629
 30
0.0
 11
-2539.693553835568
 21
-952.35393618629
 31
0.0
  0
LINE
  5
194EA
330
1F
100
AcDbEntity
  8
02製品
 48
15.0
100
AcDbLine
 10
-2524.693553835568
 20
-1347.35393618629
 30
0.0
 11
-2524.693553835568
 21
-1367.35393618629
 31
0.0
  0
LINE
  5
194EB
330
1F
100
AcDbEntity
  8
02製品
 48
15.0
100
AcDbLine
 10
-2572.393553835569
 20
-1342.35393618629
 30
0.0
 11
-2572.393553835569
 21
-1372.35393618629
 31
0.0
  0
LINE
  5
194EC
330
1F
100
AcDbEntity
  8
02製品
 48
15.0
100
AcDbLine
 10
-2534.693553835568
 20
-1357.35393618629
 30
0.0
 11
-2554.693553835568
 21
-1357.35393618629
 31
0.0
  0
LINE
  5
194ED
330
1F
100
AcDbEntity
  8
02製品
 48
15.0
100
AcDbLine
 10
-2544.693553835568
 20
-1347.35393618629
 30
0.0
 11
-2544.693553835568
 21
-1367.35393618629
 31
0.0
  0
CIRCLE
  5
194EE
330
1F
100
AcDbEntity
  8
02製品
 48
15.0
100
AcDbCircle
 10
-2544.693553835568
 20
-1357.35393618629
 30
0.0
 40
5.0
  0
LINE
  5
194EF
330
1F
100
AcDbEntity
  8
02製品
 48
15.0
100
AcDbLine
 10
-1826.693553835568
 20
-872.3539361862904
 30
0.0
 11
-1876.693553835568
 21
-872.3539361862904
 31
0.0
  0
LINE
  5
194F0
330
1F
100
AcDbEntity
  8
02製品
 48
15.0
100
AcDbLine
 10
-1826.693553835568
 20
-1022.35393618629
 30
0.0
 11
-1876.693553835568
 21
-1022.35393618629
 31
0.0
  0
LINE
  5
194F1
330
1F
100
AcDbEntity
  8
02製品
 48
15.0
100
AcDbLine
 10
-1826.693553835568
 20
-872.3539361862904
 30
0.0
 11
-1826.693553835568
 21
-1022.35393618629
 31
0.0
  0
LINE
  5
194F2
330
1F
100
AcDbEntity
  8
02製品
 48
15.0
100
AcDbLine
 10
-1876.693553835568
 20
-872.3539361862904
 30
0.0
 11
-1876.693553835568
 21
-1022.35393618629
 31
0.0
  0
LINE
  5
194F3
330
1F
100
AcDbEntity
  8
02製品
 48
15.0
100
AcDbLine
 10
-1861.693553835568
 20
-882.3539361862904
 30
0.0
 11
-1861.693553835568
 21
-902.3539361862904
 31
0.0
  0
LINE
  5
194F4
330
1F
100
AcDbEntity
  8
02製品
 48
15.0
100
AcDbLine
 10
-1846.693553835567
 20
-892.3539361862904
 30
0.0
 11
-1876.693553835568
 21
-892.3539361862904
 31
0.0
  0
ARC
  5
194F5
330
1F
100
AcDbEntity
  8
02製品
 48
15.0
100
AcDbCircle
 10
-1856.693553835567
 20
-892.3539361862904
 30
0.0
 40
5.0
100
AcDbArc
 50
270.0
 51
90.0
  0
ARC
  5
194F6
330
1F
100
AcDbEntity
  8
02製品
 48
15.0
100
AcDbCircle
 10
-1866.693553835567
 20
-892.3539361862904
 30
0.0
 40
5.0
100
AcDbArc
 50
90.0
 51
270.0
  0
LINE
  5
194F7
330
1F
100
AcDbEntity
  8
02製品
 48
15.0
100
AcDbLine
 10
-1856.693553835567
 20
-887.3539361862904
 30
0.0
 11
-1866.693553835567
 21
-887.3539361862904
 31
0.0
  0
LINE
  5
194F8
330
1F
100
AcDbEntity
  8
02製品
 48
15.0
100
AcDbLine
 10
-1856.693553835567
 20
-897.3539361862904
 30
0.0
 11
-1866.693553835567
 21
-897.3539361862904
 31
0.0
  0
LINE
  5
194F9
330
1F
100
AcDbEntity
  8
02製品
 48
15.0
100
AcDbLine
 10
-1855.693553835568
 20
-932.3539361862904
 30
0.0
 11
-1855.693553835568
 21
-952.3539361862904
 31
0.0
  0
LINE
  5
194FA
330
1F
100
AcDbEntity
  8
02製品
 48
15.0
100
AcDbLine
 10
-1845.693553835567
 20
-1002.35393618629
 30
0.0
 11
-1865.693553835567
 21
-1002.35393618629
 31
0.0
  0
LINE
  5
194FB
330
1F
100
AcDbEntity
  8
02製品
 48
15.0
100
AcDbLine
 10
-1845.693553835567
 20
-942.3539361862904
 30
0.0
 11
-1865.693553835567
 21
-942.3539361862904
 31
0.0
  0
CIRCLE
  5
194FC
330
1F
100
AcDbEntity
  8
02製品
 48
15.0
100
AcDbCircle
 10
-1855.693553835567
 20
-942.3539361862904
 30
0.0
 40
5.0
  0
CIRCLE
  5
194FD
330
1F
100
AcDbEntity
  8
02製品
 48
15.0
100
AcDbCircle
 10
-1855.693553835567
 20
-1002.35393618629
 30
0.0
 40
5.0
  0
LINE
  5
194FE
330
1F
100
AcDbEntity
  8
02製品
 48
15.0
100
AcDbLine
 10
-1855.693553835568
 20
-992.3539361862904
 30
0.0
 11
-1855.693553835568
 21
-1012.35393618629
 31
0.0
  0
LINE
  5
194FF
330
1F
100
AcDbEntity
  8
02製品
 48
15.0
100
AcDbLine
 10
-2568.693553835568
 20
-872.3539361862895
 30
0.0
 11
-2568.693553835568
 21
-1022.35393618629
 31
0.0
  0
LINE
  5
19500
330
1F
100
AcDbEntity
  8
02製品
 48
15.0
100
AcDbLine
 10
-2518.693553835568
 20
-872.3539361862895
 30
0.0
 11
-2518.693553835568
 21
-1022.35393618629
 31
0.0
  0
LINE
  5
19501
330
1F
100
AcDbEntity
  8
02製品
 48
15.0
100
AcDbLine
 10
-2549.693553835568
 20
-1002.35393618629
 30
0.0
 11
-2529.693553835568
 21
-1002.35393618629
 31
0.0
  0
LINE
  5
19502
330
1F
100
AcDbEntity
  8
02製品
 48
15.0
100
AcDbLine
 10
-2568.693553835568
 20
-1022.35393618629
 30
0.0
 11
-2518.693553835568
 21
-1022.35393618629
 31
0.0
  0
LINE
  5
19503
330
1F
100
AcDbEntity
  8
02製品
 48
15.0
100
AcDbLine
 10
-2539.693553835568
 20
-992.35393618629
 30
0.0
 11
-2539.693553835568
 21
-1012.35393618629
 31
0.0
  0
CIRCLE
  5
19504
330
1F
100
AcDbEntity
  8
02製品
 48
15.0
100
AcDbCircle
 10
-2539.693553835568
 20
-1002.35393618629
 30
0.0
 40
5.0
  0
LINE
  5
19505
330
1F
100
AcDbEntity
  8
02製品
 48
15.0
100
AcDbLine
 10
-2533.693553835568
 20
-882.3539361862895
 30
0.0
 11
-2533.693553835568
 21
-902.3539361862895
 31
0.0
  0
LINE
  5
19506
330
1F
100
AcDbEntity
  8
02製品
 48
15.0
100
AcDbLine
 10
-2548.693553835568
 20
-892.3539361862895
 30
0.0
 11
-2518.693553835568
 21
-892.3539361862895
 31
0.0
  0
LINE
  5
19507
330
1F
100
AcDbEntity
  8
02製品
 48
15.0
100
AcDbLine
 10
-2549.693553835568
 20
-942.35393618629
 30
0.0
 11
-2529.693553835568
 21
-942.35393618629
 31
0.0
  0
LINE
  5
19508
330
1F
100
AcDbEntity
  8
02製品
 48
15.0
100
AcDbLine
 10
-2539.693553835568
 20
-932.35393618629
 30
0.0
 11
-2539.693553835568
 21
-952.35393618629
 31
0.0
  0
CIRCLE
  5
19509
330
1F
100
AcDbEntity
  8
02製品
 48
15.0
100
AcDbCircle
 10
-2539.693553835568
 20
-942.35393618629
 30
0.0
 40
5.0
  0
ARC
  5
1950A
330
1F
100
AcDbEntity
  8
02製品
 48
15.0
100
AcDbCircle
 10
-2538.693553835568
 20
-892.3539361862895
 30
0.0
 40
5.0
100
AcDbArc
 50
90.0
 51
270.0
  0
ARC
  5
1950B
330
1F
100
AcDbEntity
  8
02製品
 48
15.0
100
AcDbCircle
 10
-2528.693553835568
 20
-892.3539361862895
 30
0.0
 40
5.0
100
AcDbArc
 50
270.0
 51
90.0
  0
LINE
  5
1950C
330
1F
100
AcDbEntity
  8
02製品
 48
15.0
100
AcDbLine
 10
-2538.693553835568
 20
-897.3539361862895
 30
0.0
 11
-2528.693553835568
 21
-897.3539361862895
 31
0.0
  0
LINE
  5
1950D
330
1F
100
AcDbEntity
  8
02製品
 48
15.0
100
AcDbLine
 10
-2538.693553835568
 20
-887.3539361862895
 30
0.0
 11
-2528.693553835568
 21
-887.3539361862895
 31
0.0
  0
LINE
  5
1950E
330
1F
100
AcDbEntity
  8
02製品
 48
15.0
100
AcDbLine
 10
-2568.693553835568
 20
-872.3539361862895
 30
0.0
 11
-2518.693553835568
 21
-872.3539361862895
 31
0.0
  0
LINE
  5
1950F
330
1F
100
AcDbEntity
  8
02製品
 48
15.0
100
AcDbLine
 10
-1830.693553835568
 20
-1469.15393618629
 30
0.0
 11
-1870.693553835568
 21
-1469.15393618629
 31
0.0
  0
LINE
  5
19510
330
1F
100
AcDbEntity
  8
02製品
 48
15.0
100
AcDbLine
 10
-1830.693553835568
 20
-1472.35393618629
 30
0.0
 11
-1870.693553835568
 21
-1472.35393618629
 31
0.0
  0
LINE
  5
19511
330
1F
100
AcDbEntity
  8
02製品
 48
15.0
100
AcDbLine
 10
-1840.693553835568
 20
-1357.35393618629
 30
0.0
 11
-1860.693553835568
 21
-1357.35393618629
 31
0.0
  0
LINE
  5
19512
330
1F
100
AcDbEntity
  8
02製品
 48
15.0
100
AcDbLine
 10
-1850.693553835568
 20
-1347.35393618629
 30
0.0
 11
-1850.693553835568
 21
-1367.35393618629
 31
0.0
  0
CIRCLE
  5
19513
330
1F
100
AcDbEntity
  8
02製品
 48
15.0
100
AcDbCircle
 10
-1850.693553835568
 20
-1357.35393618629
 30
0.0
 40
5.0
  0
LINE
  5
19514
330
1F
100
AcDbEntity
  8
02製品
 48
15.0
100
AcDbLine
 10
-1865.693553835568
 20
-1002.35393618629
 30
0.0
 11
-1845.693553835568
 21
-1002.35393618629
 31
0.0
  0
LINE
  5
19515
330
1F
100
AcDbEntity
  8
02製品
 48
15.0
100
AcDbLine
 10
-1865.693553835568
 20
-942.35393618629
 30
0.0
 11
-1845.693553835568
 21
-942.35393618629
 31
0.0
  0
CIRCLE
  5
19516
330
1F
100
AcDbEntity
  8
02製品
 48
15.0
100
AcDbCircle
 10
-1855.693553835568
 20
-1002.35393618629
 30
0.0
 40
5.0
  0
CIRCLE
  5
19517
330
1F
100
AcDbEntity
  8
02製品
 48
15.0
100
AcDbCircle
 10
-1855.693553835568
 20
-942.35393618629
 30
0.0
 40
5.0
  0
LINE
  5
19518
330
1F
100
AcDbEntity
  8
02製品
 48
15.0
100
AcDbLine
 10
-1833.693553835568
 20
-1027.35393618629
 30
0.0
 11
-1830.693553835568
 21
-1027.35393618629
 31
0.0
  0
LINE
  5
19519
330
1F
100
AcDbEntity
  8
02製品
 48
15.0
100
AcDbLine
 10
-1855.693553835568
 20
-992.35393618629
 30
0.0
 11
-1855.693553835568
 21
-1012.35393618629
 31
0.0
  0
LINE
  5
1951A
330
1F
100
AcDbEntity
  8
02製品
 48
15.0
100
AcDbLine
 10
-1855.693553835568
 20
-932.35393618629
 30
0.0
 11
-1855.693553835568
 21
-952.35393618629
 31
0.0
  0
LINE
  5
1951B
330
1F
100
AcDbEntity
  8
02製品
 48
15.0
100
AcDbLine
 10
-1870.693553835568
 20
-1347.35393618629
 30
0.0
 11
-1870.693553835567
 21
-1367.35393618629
 31
0.0
  0
LINE
  5
1951C
330
1F
100
AcDbEntity
  8
02製品
 48
15.0
100
AcDbLine
 10
-1822.993553835568
 20
-1342.35393618629
 30
0.0
 11
-1822.993553835568
 21
-1372.35393618629
 31
0.0
  0
LINE
  5
1951D
330
1F
100
AcDbEntity
  8
02製品
 48
15.0
100
AcDbLine
 10
-1860.693553835568
 20
-1357.35393618629
 30
0.0
 11
-1840.693553835568
 21
-1357.35393618629
 31
0.0
  0
LINE
  5
1951E
330
1F
100
AcDbEntity
  8
02製品
 48
15.0
100
AcDbLine
 10
-1850.693553835568
 20
-1347.35393618629
 30
0.0
 11
-1850.693553835568
 21
-1367.35393618629
 31
0.0
  0
CIRCLE
  5
1951F
330
1F
100
AcDbEntity
  8
02製品
 48
15.0
100
AcDbCircle
 10
-1850.693553835568
 20
-1357.35393618629
 30
0.0
 40
5.0
  0
LINE
  5
19520
330
1F
100
AcDbEntity
  8
02製品
100
AcDbLine
 10
-2561.693553835568
 20
-1027.35393618629
 30
0.0
 11
-2561.693553835568
 21
-1022.35393618629
 31
0.0
  0
LINE
  5
19521
330
1F
100
AcDbEntity
  8
02製品
100
AcDbLine
 10
-1833.693553835568
 20
-1027.35393618629
 30
0.0
 11
-1833.693553835568
 21
-1022.35393618629
 31
0.0
  0
LINE
  5
19522
330
1F
100
AcDbEntity
  8
02製品
 48
15.0
100
AcDbLine
 10
-2524.693553835568
 20
-1472.35393618629
 30
0.0
 11
-2524.693553835568
 21
-1022.35393618629
 31
0.0
  0
LINE
  5
19523
330
1F
100
AcDbEntity
  8
02製品
 48
15.0
100
AcDbLine
 10
-2564.693553835568
 20
-1022.35393618629
 30
0.0
 11
-2564.693553835568
 21
-1472.35393618629
 31
0.0
  0
LINE
  5
19524
330
1F
100
AcDbEntity
  8
02製品
100
AcDbLine
 10
-2518.693553835568
 20
-912.3539361862895
 30
0.0
 11
-1876.693553835568
 21
-912.3539361862895
 31
0.0
  0
LINE
  5
19525
330
1F
100
AcDbEntity
  8
02製品
 48
15.0
100
AcDbLine
 10
-1830.693553835568
 20
-1022.35393618629
 30
0.0
 11
-1830.693553835568
 21
-1472.35393618629
 31
0.0
  0
LINE
  5
19526
330
1F
100
AcDbEntity
  8
02製品
 48
15.0
100
AcDbLine
 10
-1870.693553835568
 20
-1472.35393618629
 30
0.0
 11
-1870.693553835568
 21
-1022.35393618629
 31
0.0
  0
LINE
  5
19527
330
1F
100
AcDbEntity
  8
02製品
 48
15.0
100
AcDbLine
 10
-2572.393553835569
 20
-1347.35393618629
 30
0.0
 11
-2572.393553835569
 21
-1490.353936186293
 31
0.0
  0
LINE
  5
19528
330
1F
100
AcDbEntity
  8
02製品
 48
15.0
100
AcDbLine
 10
-1822.993553835571
 20
-1347.353936186293
 30
0.0
 11
-1822.993553835572
 21
-1490.353936186293
 31
0.0
  0
LINE
  5
19529
330
1F
100
AcDbEntity
  8
02製品
 48
15.0
100
AcDbLine
 10
-1821.493553835571
 20
-1347.353936186293
 30
0.0
 11
-1821.493553835572
 21
-1490.353936186293
 31
0.0
  0
LINE
  5
1952A
330
1F
100
AcDbEntity
  8
02製品
 48
15.0
100
AcDbLine
 10
-1821.493553835572
 20
-1490.353936186293
 30
0.0
 11
-1822.993553835572
 21
-1490.353936186293
 31
0.0
  0
LINE
  5
1952B
330
1F
100
AcDbEntity
  8
02製品
 48
15.0
100
AcDbLine
 10
-1821.493553835571
 20
-1347.353936186293
 30
0.0
 11
-1822.993553835571
 21
-1347.353936186293
 31
0.0
  0
LINE
  5
1952C
330
1F
100
AcDbEntity
  8
02製品
 48
15.0
100
AcDbLine
 10
-2572.393553835568
 20
-1342.35393618629
 30
0.0
 11
-2572.393553835569
 21
-1372.35393618629
 31
0.0
  0
LINE
  5
1952D
330
1F
100
AcDbEntity
  8
02製品
  6
HIDDEN
 48
2.5
100
AcDbLine
 10
-2569.193553835568
 20
-1342.35393618629
 30
0.0
 11
-2569.193553835569
 21
-1372.35393618629
 31
0.0
  0
LINE
  5
1952E
330
1F
100
AcDbEntity
  8
02製品
 48
15.0
100
AcDbLine
 10
-2572.393553835568
 20
-1342.35393618629
 30
0.0
 11
-2569.193553835568
 21
-1342.35393618629
 31
0.0
  0
LINE
  5
1952F
330
1F
100
AcDbEntity
  8
02製品
100
AcDbLine
 10
-2564.693553835568
 20
-1372.35393618629
 30
0.0
 11
-2572.393553835569
 21
-1372.35393618629
 31
0.0
  0
LINE
  5
19530
330
1F
100
AcDbEntity
  8
02製品
 48
15.0
100
AcDbLine
 10
-1822.993553835568
 20
-1342.35393618629
 30
0.0
 11
-1822.993553835568
 21
-1372.35393618629
 31
0.0
  0
LINE
  5
19531
330
1F
100
AcDbEntity
  8
02製品
  6
HIDDEN
 48
2.5
100
AcDbLine
 10
-1826.193553835568
 20
-1342.35393618629
 30
0.0
 11
-1826.193553835568
 21
-1372.35393618629
 31
0.0
  0
LINE
  5
19532
330
1F
100
AcDbEntity
  8
02製品
 48
15.0
100
AcDbLine
 10
-1822.993553835568
 20
-1342.35393618629
 30
0.0
 11
-1826.193553835568
 21
-1342.35393618629
 31
0.0
  0
LINE
  5
19533
330
1F
100
AcDbEntity
  8
02製品
 48
2.5
100
AcDbLine
 10
-2564.993553835567
 20
-1369.153936186264
 30
0.0
 11
-2564.693553835568
 21
-1369.153936186264
 31
0.0
  0
LINE
  5
19534
330
1F
100
AcDbEntity
  8
02製品
 48
15.0
100
AcDbLine
 10
-1830.693553835568
 20
-1372.35393618629
 30
0.0
 11
-1822.993553835568
 21
-1372.35393618629
 31
0.0
  0
LWPOLYLINE
  5
19535
330
1F
100
AcDbEntity
  8
02製品
100
AcDbPolyline
 90
        4
 70
     1
 43
0.0
 10
-2569.193553835568
 20
-1369.153936186289
 10
-2569.193553835568
 20
-1342.35393618629
 10
-2564.693553835568
 20
-1342.35393618629
 10
-2564.693553835568
 20
-1369.153936186289
  0
INSERT
  5
196E4
330
1F
100
AcDbEntity
  8
02製品
100
AcDbBlockReference
  2
1
 10
7.089952812119009
 20
-31797.52394504748
 30
0.0
  0
INSERT
  5
196E5
330
1F
100
AcDbEntity
  8
02製品
100
AcDbBlockReference
  2
2
 10
7.089952812119009
 20
-31797.52394504748
 30
0.0
  0
INSERT
  5
196E6
330
1F
100
AcDbEntity
  8
02製品
100
AcDbBlockReference
  2
3
 10
7.089952812119009
 20
-31797.52394504748
 30
0.0
  0
LINE
  5
196E7
330
1F
100
AcDbEntity
  8
02製品
100
AcDbLine
 10
-4030.69681754774
 20
-872.35393618629
 30
0.0
 11
-3056.696817547741
 21
-872.35393618629
 31
0.0
  0
LINE
  5
196E8
330
1F
100
AcDbEntity
  8
02製品
100
AcDbLine
 10
-3086.696817547741
 20
-882.35393618629
 30
0.0
 11
-3086.696817547741
 21
-902.35393618629
 31
0.0
  0
LINE
  5
196E9
330
1F
100
AcDbEntity
  8
02製品
100
AcDbLine
 10
-3181.696817547741
 20
-882.35393618629
 30
0.0
 11
-3181.696817547741
 21
-902.35393618629
 31
0.0
  0
CIRCLE
  5
196EA
330
1F
100
AcDbEntity
  8
02製品
100
AcDbCircle
 10
-3181.696817547741
 20
-892.35393618629
 30
0.0
 40
5.0
  0
CIRCLE
  5
196EB
330
1F
100
AcDbEntity
  8
02製品
100
AcDbCircle
 10
-3086.696817547741
 20
-892.35393618629
 30
0.0
 40
5.0
  0
LINE
  5
196EC
330
1F
100
AcDbEntity
  8
02製品
100
AcDbLine
 10
-3191.696817547741
 20
-892.35393618629
 30
0.0
 11
-3171.696817547741
 21
-892.35393618629
 31
0.0
  0
LINE
  5
196ED
330
1F
100
AcDbEntity
  8
02製品
100
AcDbLine
 10
-3096.696817547741
 20
-892.35393618629
 30
0.0
 11
-3076.696817547741
 21
-892.35393618629
 31
0.0
  0
CIRCLE
  5
196EE
330
1F
100
AcDbEntity
  8
02製品
100
AcDbCircle
 10
-3905.69681754774
 20
-892.35393618629
 30
0.0
 40
5.0
  0
LINE
  5
196EF
330
1F
100
AcDbEntity
  8
02製品
100
AcDbLine
 10
-3915.69681754774
 20
-892.35393618629
 30
0.0
 11
-3895.69681754774
 21
-892.35393618629
 31
0.0
  0
LINE
  5
196F0
330
1F
100
AcDbEntity
  8
02製品
100
AcDbLine
 10
-3905.69681754774
 20
-882.35393618629
 30
0.0
 11
-3905.69681754774
 21
-902.35393618629
 31
0.0
  0
LINE
  5
196F1
330
1F
100
AcDbEntity
  8
02製品
100
AcDbLine
 10
-4010.69681754774
 20
-892.35393618629
 30
0.0
 11
-3990.69681754774
 21
-892.35393618629
 31
0.0
  0
LINE
  5
196F2
330
1F
100
AcDbEntity
  8
02製品
100
AcDbLine
 10
-4000.69681754774
 20
-882.35393618629
 30
0.0
 11
-4000.69681754774
 21
-902.35393618629
 31
0.0
  0
CIRCLE
  5
196F3
330
1F
100
AcDbEntity
  8
02製品
100
AcDbCircle
 10
-4000.69681754774
 20
-892.35393618629
 30
0.0
 40
5.0
  0
LINE
  5
196F4
330
1F
100
AcDbEntity
  8
02製品
 48
15.0
100
AcDbLine
 10
-4030.69681754774
 20
-1472.35393618629
 30
0.0
 11
-3990.69681754774
 21
-1472.35393618629
 31
0.0
  0
LINE
  5
196F5
330
1F
100
AcDbEntity
  8
02製品
 48
15.0
100
AcDbLine
 10
-4030.69681754774
 20
-1469.15393618629
 30
0.0
 11
-3990.69681754774
 21
-1469.15393618629
 31
0.0
  0
LINE
  5
196F6
330
1F
100
AcDbEntity
  8
02製品
 48
15.0
100
AcDbLine
 10
-4005.69681754774
 20
-932.35393618629
 30
0.0
 11
-4005.69681754774
 21
-952.35393618629
 31
0.0
  0
LINE
  5
196F7
330
1F
100
AcDbEntity
  8
02製品
 48
15.0
100
AcDbLine
 10
-3995.69681754774
 20
-942.35393618629
 30
0.0
 11
-4015.69681754774
 21
-942.35393618629
 31
0.0
  0
LINE
  5
196F8
330
1F
100
AcDbEntity
  8
02製品
 48
15.0
100
AcDbLine
 10
-3995.69681754774
 20
-1002.35393618629
 30
0.0
 11
-4015.69681754774
 21
-1002.35393618629
 31
0.0
  0
CIRCLE
  5
196F9
330
1F
100
AcDbEntity
  8
02製品
 48
15.0
100
AcDbCircle
 10
-4005.69681754774
 20
-942.35393618629
 30
0.0
 40
5.0
  0
CIRCLE
  5
196FA
330
1F
100
AcDbEntity
  8
02製品
 48
15.0
100
AcDbCircle
 10
-4005.69681754774
 20
-1002.35393618629
 30
0.0
 40
5.0
  0
LINE
  5
196FB
330
1F
100
AcDbEntity
  8
02製品
 48
15.0
100
AcDbLine
 10
-4005.69681754774
 20
-992.35393618629
 30
0.0
 11
-4005.69681754774
 21
-1012.35393618629
 31
0.0
  0
LINE
  5
196FC
330
1F
100
AcDbEntity
  8
02製品
 48
15.0
100
AcDbLine
 10
-4027.69681754774
 20
-1027.35393618629
 30
0.0
 11
-4030.69681754774
 21
-1027.35393618629
 31
0.0
  0
CIRCLE
  5
196FD
330
1F
100
AcDbEntity
  8
02製品
 48
15.0
100
AcDbCircle
 10
-3798.69681754774
 20
-1357.35393618629
 30
0.0
 40
3.5
  0
CIRCLE
  5
196FE
330
1F
100
AcDbEntity
  8
02製品
 48
15.0
100
AcDbCircle
 10
-3643.69681754774
 20
-1357.35393618629
 30
0.0
 40
3.5
  0
CIRCLE
  5
196FF
330
1F
100
AcDbEntity
  8
02製品
 48
15.0
100
AcDbCircle
 10
-3443.696817547741
 20
-1357.35393618629
 30
0.0
 40
3.5
  0
CIRCLE
  5
19700
330
1F
100
AcDbEntity
  8
02製品
 48
15.0
100
AcDbCircle
 10
-3288.696817547741
 20
-1357.35393618629
 30
0.0
 40
3.5
  0
LINE
  5
19701
330
1F
100
AcDbEntity
  8
02製品
100
AcDbLine
 10
-3840.69681754774
 20
-1490.353936186293
 30
0.0
 11
-3246.696817547741
 21
-1490.353936186293
 31
0.0
  0
LINE
  5
19702
330
1F
100
AcDbEntity
  8
02製品
100
AcDbLine
 10
-3840.69681754774
 20
-1347.35393618629
 30
0.0
 11
-3246.696817547741
 21
-1347.35393618629
 31
0.0
  0
LINE
  5
19703
330
1F
100
AcDbEntity
  8
02製品
100
AcDbLine
 10
-3840.69681754774
 20
-1347.35393618629
 30
0.0
 11
-3843.69681754774
 21
-1350.35393618629
 31
0.0
  0
LINE
  5
19704
330
1F
100
AcDbEntity
  8
02製品
100
AcDbLine
 10
-3840.69681754774
 20
-1490.353936186293
 30
0.0
 11
-3843.69681754774
 21
-1487.353936186293
 31
0.0
  0
LINE
  5
19705
330
1F
100
AcDbEntity
  8
02製品
100
AcDbLine
 10
-3843.69681754774
 20
-1350.35393618629
 30
0.0
 11
-3843.69681754774
 21
-1366.35393618629
 31
0.0
  0
CIRCLE
  5
19706
330
1F
100
AcDbEntity
  8
02製品
100
AcDbCircle
 10
-3798.69681754774
 20
-1474.877789563678
 30
0.0
 40
3.5
  0
CIRCLE
  5
19707
330
1F
100
AcDbEntity
  8
02製品
100
AcDbCircle
 10
-3798.69681754774
 20
-1357.35393618629
 30
0.0
 40
3.5
  0
CIRCLE
  5
19708
330
1F
100
AcDbEntity
  8
02製品
100
AcDbCircle
 10
-3643.69681754774
 20
-1474.877789563678
 30
0.0
 40
3.5
  0
CIRCLE
  5
19709
330
1F
100
AcDbEntity
  8
02製品
100
AcDbCircle
 10
-3643.69681754774
 20
-1357.35393618629
 30
0.0
 40
3.5
  0
CIRCLE
  5
1970A
330
1F
100
AcDbEntity
  8
02製品
100
AcDbCircle
 10
-3443.696817547741
 20
-1474.877789563678
 30
0.0
 40
3.5
  0
CIRCLE
  5
1970B
330
1F
100
AcDbEntity
  8
02製品
100
AcDbCircle
 10
-3443.696817547741
 20
-1357.35393618629
 30
0.0
 40
3.5
  0
LINE
  5
1970C
330
1F
100
AcDbEntity
  8
02製品
100
AcDbLine
 10
-3243.696817547741
 20
-1350.35393618629
 30
0.0
 11
-3246.696817547741
 21
-1347.35393618629
 31
0.0
  0
CIRCLE
  5
1970D
330
1F
100
AcDbEntity
  8
02製品
100
AcDbCircle
 10
-3288.696817547741
 20
-1474.877789563678
 30
0.0
 40
3.5
  0
CIRCLE
  5
1970E
330
1F
100
AcDbEntity
  8
02製品
100
AcDbCircle
 10
-3288.696817547741
 20
-1357.35393618629
 30
0.0
 40
3.5
  0
LINE
  5
1970F
330
1F
100
AcDbEntity
  8
02製品
100
AcDbLine
 10
-3246.696817547741
 20
-1490.353936186293
 30
0.0
 11
-3243.696817547741
 21
-1487.353936186293
 31
0.0
  0
LINE
  5
19710
330
1F
100
AcDbEntity
  8
02製品
100
AcDbLine
 10
-3243.696817547741
 20
-1350.35393618629
 30
0.0
 11
-3243.696817547741
 21
-1366.35393618629
 31
0.0
  0
LINE
  5
19711
330
1F
100
AcDbEntity
  8
02製品
100
AcDbLine
 10
-3788.69681754774
 20
-1474.877789563678
 30
0.0
 11
-3808.69681754774
 21
-1474.877789563678
 31
0.0
  0
LINE
  5
19712
330
1F
100
AcDbEntity
  8
02製品
100
AcDbLine
 10
-3798.69681754774
 20
-1464.877789563678
 30
0.0
 11
-3798.69681754774
 21
-1484.877789563678
 31
0.0
  0
LINE
  5
19713
330
1F
100
AcDbEntity
  8
02製品
100
AcDbLine
 10
-3633.69681754774
 20
-1474.877789563678
 30
0.0
 11
-3653.69681754774
 21
-1474.877789563678
 31
0.0
  0
LINE
  5
19714
330
1F
100
AcDbEntity
  8
02製品
100
AcDbLine
 10
-3643.69681754774
 20
-1464.877789563678
 30
0.0
 11
-3643.69681754774
 21
-1484.877789563678
 31
0.0
  0
LINE
  5
19715
330
1F
100
AcDbEntity
  8
02製品
100
AcDbLine
 10
-3433.696817547741
 20
-1474.877789563678
 30
0.0
 11
-3453.696817547741
 21
-1474.877789563678
 31
0.0
  0
LINE
  5
19716
330
1F
100
AcDbEntity
  8
02製品
100
AcDbLine
 10
-3443.696817547741
 20
-1464.877789563678
 30
0.0
 11
-3443.696817547741
 21
-1484.877789563678
 31
0.0
  0
LINE
  5
19717
330
1F
100
AcDbEntity
  8
02製品
100
AcDbLine
 10
-3278.696817547741
 20
-1474.877789563678
 30
0.0
 11
-3298.696817547741
 21
-1474.877789563678
 31
0.0
  0
LINE
  5
19718
330
1F
100
AcDbEntity
  8
02製品
100
AcDbLine
 10
-3288.696817547741
 20
-1464.877789563678
 30
0.0
 11
-3288.696817547741
 21
-1484.877789563678
 31
0.0
  0
LINE
  5
19719
330
1F
100
AcDbEntity
  8
02製品
 48
15.0
100
AcDbLine
 10
-3884.69681754774
 20
-872.35393618629
 30
0.0
 11
-3884.69681754774
 21
-912.35393618629
 31
0.0
  0
LINE
  5
1971A
330
1F
100
AcDbEntity
  8
02製品
 48
15.0
100
AcDbLine
 10
-3994.69681754774
 20
-1022.35393618629
 30
0.0
 11
-3884.69681754774
 21
-912.35393618629
 31
0.0
  0
LINE
  5
1971B
330
1F
100
AcDbEntity
  8
02製品
 48
15.0
100
AcDbLine
 10
-4010.69681754774
 20
-892.35393618629
 30
0.0
 11
-3990.69681754774
 21
-892.35393618629
 31
0.0
  0
LINE
  5
1971C
330
1F
100
AcDbEntity
  8
02製品
 48
15.0
100
AcDbLine
 10
-3905.69681754774
 20
-882.35393618629
 30
0.0
 11
-3905.69681754774
 21
-902.35393618629
 31
0.0
  0
LINE
  5
1971D
330
1F
100
AcDbEntity
  8
02製品
 48
15.0
100
AcDbLine
 10
-4000.69681754774
 20
-882.35393618629
 30
0.0
 11
-4000.69681754774
 21
-902.35393618629
 31
0.0
  0
CIRCLE
  5
1971E
330
1F
100
AcDbEntity
  8
02製品
 48
15.0
100
AcDbCircle
 10
-3905.69681754774
 20
-892.35393618629
 30
0.0
 40
5.0
  0
CIRCLE
  5
1971F
330
1F
100
AcDbEntity
  8
02製品
 48
15.0
100
AcDbCircle
 10
-4000.69681754774
 20
-892.35393618629
 30
0.0
 40
5.0
  0
LINE
  5
19720
330
1F
100
AcDbEntity
  8
02製品
 48
15.0
100
AcDbLine
 10
-4005.69681754774
 20
-932.35393618629
 30
0.0
 11
-4005.69681754774
 21
-952.35393618629
 31
0.0
  0
CIRCLE
  5
19721
330
1F
100
AcDbEntity
  8
02製品
 48
15.0
100
AcDbCircle
 10
-4005.69681754774
 20
-942.35393618629
 30
0.0
 40
5.0
  0
CIRCLE
  5
19722
330
1F
100
AcDbEntity
  8
02製品
 48
15.0
100
AcDbCircle
 10
-4005.69681754774
 20
-1002.35393618629
 30
0.0
 40
5.0
  0
LINE
  5
19723
330
1F
100
AcDbEntity
  8
02製品
 48
15.0
100
AcDbLine
 10
-3915.69681754774
 20
-892.35393618629
 30
0.0
 11
-3895.69681754774
 21
-892.35393618629
 31
0.0
  0
LINE
  5
19724
330
1F
100
AcDbEntity
  8
02製品
 48
15.0
100
AcDbLine
 10
-4005.69681754774
 20
-992.35393618629
 30
0.0
 11
-4005.69681754774
 21
-1012.35393618629
 31
0.0
  0
LINE
  5
19725
330
1F
100
AcDbEntity
  8
02製品
 48
15.0
100
AcDbLine
 10
-4034.69681754774
 20
-872.35393618629
 30
0.0
 11
-4034.69681754774
 21
-1022.35393618629
 31
0.0
  0
LINE
  5
19726
330
1F
100
AcDbEntity
  8
02製品
 48
15.0
100
AcDbLine
 10
-4034.69681754774
 20
-1022.35393618629
 30
0.0
 11
-3994.69681754774
 21
-1022.35393618629
 31
0.0
  0
LINE
  5
19727
330
1F
100
AcDbEntity
  8
02製品
 48
15.0
100
AcDbLine
 10
-4034.69681754774
 20
-872.35393618629
 30
0.0
 11
-3884.69681754774
 21
-872.35393618629
 31
0.0
  0
LINE
  5
19728
330
1F
100
AcDbEntity
  8
02製品
 48
15.0
100
AcDbLine
 10
-4015.69681754774
 20
-1002.35393618629
 30
0.0
 11
-3995.69681754774
 21
-1002.35393618629
 31
0.0
  0
LINE
  5
19729
330
1F
100
AcDbEntity
  8
02製品
 48
15.0
100
AcDbLine
 10
-4015.69681754774
 20
-942.35393618629
 30
0.0
 11
-3995.69681754774
 21
-942.35393618629
 31
0.0
  0
LINE
  5
1972A
330
1F
100
AcDbEntity
  8
02製品
 48
15.0
100
AcDbLine
 10
-3052.696817547741
 20
-872.35393618629
 30
0.0
 11
-3052.696817547741
 21
-1022.35393618629
 31
0.0
  0
LINE
  5
1972B
330
1F
100
AcDbEntity
  8
02製品
 48
15.0
100
AcDbLine
 10
-3092.696817547741
 20
-1022.35393618629
 30
0.0
 11
-3202.696817547741
 21
-912.35393618629
 31
0.0
  0
LINE
  5
1972C
330
1F
100
AcDbEntity
  8
02製品
 48
15.0
100
AcDbLine
 10
-3052.696817547741
 20
-1022.35393618629
 30
0.0
 11
-3092.696817547741
 21
-1022.35393618629
 31
0.0
  0
LINE
  5
1972D
330
1F
100
AcDbEntity
  8
02製品
 48
15.0
100
AcDbLine
 10
-3071.696817547741
 20
-1002.35393618629
 30
0.0
 11
-3091.696817547741
 21
-1002.35393618629
 31
0.0
  0
CIRCLE
  5
1972E
330
1F
100
AcDbEntity
  8
02製品
 48
15.0
100
AcDbCircle
 10
-3081.696817547741
 20
-1002.35393618629
 30
0.0
 40
5.0
  0
LINE
  5
1972F
330
1F
100
AcDbEntity
  8
02製品
 48
15.0
100
AcDbLine
 10
-3081.696817547741
 20
-992.35393618629
 30
0.0
 11
-3081.696817547741
 21
-1012.35393618629
 31
0.0
  0
LINE
  5
19730
330
1F
100
AcDbEntity
  8
02製品
 48
15.0
100
AcDbLine
 10
-3052.696817547741
 20
-872.35393618629
 30
0.0
 11
-3202.696817547741
 21
-872.35393618629
 31
0.0
  0
LINE
  5
19731
330
1F
100
AcDbEntity
  8
02製品
 48
15.0
100
AcDbLine
 10
-3086.696817547741
 20
-882.35393618629
 30
0.0
 11
-3086.696817547741
 21
-902.35393618629
 31
0.0
  0
LINE
  5
19732
330
1F
100
AcDbEntity
  8
02製品
 48
15.0
100
AcDbLine
 10
-3071.696817547741
 20
-942.35393618629
 30
0.0
 11
-3091.696817547741
 21
-942.35393618629
 31
0.0
  0
CIRCLE
  5
19733
330
1F
100
AcDbEntity
  8
02製品
 48
15.0
100
AcDbCircle
 10
-3081.696817547741
 20
-942.35393618629
 30
0.0
 40
5.0
  0
LINE
  5
19734
330
1F
100
AcDbEntity
  8
02製品
 48
15.0
100
AcDbLine
 10
-3081.696817547741
 20
-932.35393618629
 30
0.0
 11
-3081.696817547741
 21
-952.35393618629
 31
0.0
  0
LINE
  5
19735
330
1F
100
AcDbEntity
  8
02製品
 48
15.0
100
AcDbLine
 10
-3076.696817547741
 20
-892.35393618629
 30
0.0
 11
-3096.696817547741
 21
-892.35393618629
 31
0.0
  0
CIRCLE
  5
19736
330
1F
100
AcDbEntity
  8
02製品
 48
15.0
100
AcDbCircle
 10
-3086.696817547741
 20
-892.35393618629
 30
0.0
 40
5.0
  0
LINE
  5
19737
330
1F
100
AcDbEntity
  8
02製品
 48
15.0
100
AcDbLine
 10
-3181.696817547741
 20
-882.35393618629
 30
0.0
 11
-3181.696817547741
 21
-902.35393618629
 31
0.0
  0
LINE
  5
19738
330
1F
100
AcDbEntity
  8
02製品
 48
15.0
100
AcDbLine
 10
-3202.696817547741
 20
-872.35393618629
 30
0.0
 11
-3202.696817547741
 21
-912.35393618629
 31
0.0
  0
CIRCLE
  5
19739
330
1F
100
AcDbEntity
  8
02製品
 48
15.0
100
AcDbCircle
 10
-3181.696817547741
 20
-892.35393618629
 30
0.0
 40
5.0
  0
LINE
  5
1973A
330
1F
100
AcDbEntity
  8
02製品
 48
15.0
100
AcDbLine
 10
-3171.696817547741
 20
-892.35393618629
 30
0.0
 11
-3191.696817547741
 21
-892.35393618629
 31
0.0
  0
LINE
  5
1973B
330
1F
100
AcDbEntity
  8
02製品
 48
15.0
100
AcDbLine
 10
-3056.696817547741
 20
-1472.35393618629
 30
0.0
 11
-3096.696817547741
 21
-1472.35393618629
 31
0.0
  0
LINE
  5
1973C
330
1F
100
AcDbEntity
  8
02製品
 48
15.0
100
AcDbLine
 10
-3056.696817547741
 20
-1469.15393618629
 30
0.0
 11
-3096.696817547741
 21
-1469.15393618629
 31
0.0
  0
LINE
  5
1973D
330
1F
100
AcDbEntity
  8
02製品
 48
15.0
100
AcDbLine
 10
-3081.696817547741
 20
-932.35393618629
 30
0.0
 11
-3081.696817547741
 21
-952.35393618629
 31
0.0
  0
LINE
  5
1973E
330
1F
100
AcDbEntity
  8
02製品
 48
15.0
100
AcDbLine
 10
-3091.696817547741
 20
-942.35393618629
 30
0.0
 11
-3071.696817547741
 21
-942.35393618629
 31
0.0
  0
LINE
  5
1973F
330
1F
100
AcDbEntity
  8
02製品
 48
15.0
100
AcDbLine
 10
-3091.696817547741
 20
-1002.35393618629
 30
0.0
 11
-3071.696817547741
 21
-1002.35393618629
 31
0.0
  0
CIRCLE
  5
19740
330
1F
100
AcDbEntity
  8
02製品
 48
15.0
100
AcDbCircle
 10
-3081.696817547741
 20
-942.35393618629
 30
0.0
 40
5.0
  0
CIRCLE
  5
19741
330
1F
100
AcDbEntity
  8
02製品
 48
15.0
100
AcDbCircle
 10
-3081.696817547741
 20
-1002.35393618629
 30
0.0
 40
5.0
  0
LINE
  5
19742
330
1F
100
AcDbEntity
  8
02製品
 48
15.0
100
AcDbLine
 10
-3081.696817547741
 20
-992.35393618629
 30
0.0
 11
-3081.696817547741
 21
-1012.35393618629
 31
0.0
  0
LINE
  5
19743
330
1F
100
AcDbEntity
  8
02製品
 48
15.0
100
AcDbLine
 10
-3066.696817547741
 20
-1357.35393618629
 30
0.0
 11
-3086.696817547741
 21
-1357.35393618629
 31
0.0
  0
LINE
  5
19744
330
1F
100
AcDbEntity
  8
02製品
 48
15.0
100
AcDbLine
 10
-3076.696817547741
 20
-1347.35393618629
 30
0.0
 11
-3076.696817547741
 21
-1367.35393618629
 31
0.0
  0
LINE
  5
19745
330
1F
100
AcDbEntity
  8
02製品
 48
15.0
100
AcDbLine
 10
-3059.696817547741
 20
-1027.35393618629
 30
0.0
 11
-3056.696817547741
 21
-1027.35393618629
 31
0.0
  0
LINE
  5
19746
330
1F
100
AcDbEntity
  8
02製品
 48
15.0
100
AcDbLine
 10
-3990.69681754774
 20
-1342.35393618629
 30
0.0
 11
-3990.69681754774
 21
-1018.35393618629
 31
0.0
  0
LINE
  5
19747
330
1F
100
AcDbEntity
  8
02製品
100
AcDbLine
 10
-3884.69681754774
 20
-912.35393618629
 30
0.0
 11
-3202.696817547741
 21
-912.35393618629
 31
0.0
  0
LINE
  5
19748
330
1F
100
AcDbEntity
  8
02製品
 48
15.0
100
AcDbLine
 10
-3990.69681754774
 20
-1472.35393618629
 30
0.0
 11
-3990.69681754774
 21
-1369.153936186286
 31
0.0
  0
LINE
  5
19749
330
1F
100
AcDbEntity
  8
02製品
 48
15.0
100
AcDbLine
 10
-4030.69681754774
 20
-1022.35393618629
 30
0.0
 11
-4030.69681754774
 21
-1472.35393618629
 31
0.0
  0
LINE
  5
1974A
330
1F
100
AcDbEntity
  8
02製品
 48
15.0
100
AcDbLine
 10
-3096.696817547741
 20
-1342.35393618629
 30
0.0
 11
-3096.696817547741
 21
-1018.35393618629
 31
0.0
  0
LINE
  5
1974B
330
1F
100
AcDbEntity
  8
02製品
 48
15.0
100
AcDbLine
 10
-3056.696817547741
 20
-1022.35393618629
 30
0.0
 11
-3056.696817547741
 21
-1472.35393618629
 31
0.0
  0
LINE
  5
1974C
330
1F
100
AcDbEntity
  8
02製品
100
AcDbLine
 10
-4027.69681754774
 20
-1027.35393618629
 30
0.0
 11
-4027.69681754774
 21
-1022.35393618629
 31
0.0
  0
LINE
  5
1974D
330
1F
100
AcDbEntity
  8
02製品
 48
15.0
100
AcDbLine
 10
-3096.696817547741
 20
-1472.35393618629
 30
0.0
 11
-3096.696817547741
 21
-1369.153936186286
 31
0.0
  0
LINE
  5
1974E
330
1F
100
AcDbEntity
  8
02製品
100
AcDbLine
 10
-3059.696817547741
 20
-1027.35393618629
 30
0.0
 11
-3059.696817547741
 21
-1022.35393618629
 31
0.0
  0
LINE
  5
1974F
330
1F
100
AcDbEntity
  8
02製品
 48
15.0
100
AcDbLine
 10
-4020.696817547738
 20
-1357.353936186281
 30
0.0
 11
-4000.696817547738
 21
-1357.353936186281
 31
0.0
  0
LINE
  5
19750
330
1F
100
AcDbEntity
  8
02製品
 48
15.0
100
AcDbLine
 10
-4010.696817547738
 20
-1347.353936186281
 30
0.0
 11
-4010.696817547738
 21
-1367.353936186281
 31
0.0
  0
CIRCLE
  5
19751
330
1F
100
AcDbEntity
  8
02製品
 48
15.0
100
AcDbCircle
 10
-4010.696817547738
 20
-1357.353936186281
 30
0.0
 40
5.0
  0
CIRCLE
  5
19752
330
1F
100
AcDbEntity
  8
02製品
100
AcDbCircle
 10
-3798.696817547738
 20
-1357.353936186283
 30
0.0
 40
3.5
  0
CIRCLE
  5
19753
330
1F
100
AcDbEntity
  8
02製品
100
AcDbCircle
 10
-3643.696817547738
 20
-1357.353936186283
 30
0.0
 40
3.5
  0
CIRCLE
  5
19754
330
1F
100
AcDbEntity
  8
02製品
100
AcDbCircle
 10
-3443.696817547738
 20
-1357.353936186283
 30
0.0
 40
3.5
  0
CIRCLE
  5
19755
330
1F
100
AcDbEntity
  8
02製品
100
AcDbCircle
 10
-3288.696817547738
 20
-1357.353936186283
 30
0.0
 40
3.5
  0
LINE
  5
19756
330
1F
100
AcDbEntity
  8
02製品
 48
15.0
100
AcDbLine
 10
-3066.696817547738
 20
-1357.353936186281
 30
0.0
 11
-3086.696817547738
 21
-1357.353936186281
 31
0.0
  0
LINE
  5
19757
330
1F
100
AcDbEntity
  8
02製品
 48
15.0
100
AcDbLine
 10
-3076.696817547738
 20
-1347.353936186281
 30
0.0
 11
-3076.696817547738
 21
-1367.353936186281
 31
0.0
  0
CIRCLE
  5
19758
330
1F
100
AcDbEntity
  8
02製品
 48
15.0
100
AcDbCircle
 10
-3076.696817547738
 20
-1357.353936186281
 30
0.0
 40
5.0
  0
LINE
  5
19759
330
1F
100
AcDbEntity
  8
02製品
100
AcDbLine
 10
-3059.196817547741
 20
-1342.353936186286
 30
0.0
 11
-4028.196817547738
 21
-1342.353936186286
 31
0.0
  0
LINE
  5
1975A
330
1F
100
AcDbEntity
  8
02製品
100
AcDbLine
 10
-3099.196817547741
 20
-1372.353936186286
 30
0.0
 11
-3099.196817547741
 21
-1369.153936186286
 31
0.0
  0
LINE
  5
1975B
330
1F
100
AcDbEntity
  8
02製品
100
AcDbLine
 10
-3059.196817547741
 20
-1369.153936186286
 30
0.0
 11
-3059.196817547741
 21
-1342.353936186286
 31
0.0
  0
LINE
  5
1975C
330
1F
100
AcDbEntity
  8
02製品
100
AcDbLine
 10
-4028.196817547738
 20
-1369.153936186286
 30
0.0
 11
-4028.196817547738
 21
-1342.353936186286
 31
0.0
  0
LINE
  5
1975D
330
1F
100
AcDbEntity
  8
02製品
100
AcDbLine
 10
-3988.196817547738
 20
-1372.353936186286
 30
0.0
 11
-3988.196817547738
 21
-1369.153936186286
 31
0.0
  0
LINE
  5
1975E
330
1F
100
AcDbEntity
  8
02製品
100
AcDbLine
 10
-3988.196817547738
 20
-1369.153936186286
 30
0.0
 11
-4028.196817547738
 21
-1369.153936186286
 31
0.0
  0
LINE
  5
1975F
330
1F
100
AcDbEntity
  8
02製品
100
AcDbLine
 10
-3059.196817547741
 20
-1369.153936186286
 30
0.0
 11
-3099.196817547741
 21
-1369.153936186286
 31
0.0
  0
CIRCLE
  5
19760
330
1F
100
AcDbEntity
  8
02製品
100
AcDbCircle
 10
-3076.696817547741
 20
-1357.353936186286
 30
0.0
 40
5.0
  0
CIRCLE
  5
19761
330
1F
100
AcDbEntity
  8
02製品
100
AcDbCircle
 10
-4010.696817547738
 20
-1357.353936186284
 30
0.0
 40
5.0
  0
LINE
  5
19762
330
1F
100
AcDbEntity
  8
02製品
  6
CENTER
100
AcDbLine
 10
-4000.696817547738
 20
-1357.353936186286
 30
0.0
 11
-4020.696817547738
 21
-1357.353936186286
 31
0.0
  0
LINE
  5
19763
330
1F
100
AcDbEntity
  8
02製品
  6
CENTER
100
AcDbLine
 10
-4010.696817547738
 20
-1367.353936186281
 30
0.0
 11
-4010.696817547738
 21
-1347.353936186281
 31
0.0
  0
LINE
  5
19764
330
1F
100
AcDbEntity
  8
02製品
  6
CENTER
100
AcDbLine
 10
-3066.696817547741
 20
-1357.35393618629
 30
0.0
 11
-3086.696817547741
 21
-1357.35393618629
 31
0.0
  0
LINE
  5
19765
330
1F
100
AcDbEntity
  8
02製品
  6
CENTER
100
AcDbLine
 10
-3076.696817547741
 20
-1367.353936186286
 30
0.0
 11
-3076.696817547741
 21
-1347.353936186286
 31
0.0
  0
LINE
  5
19767
330
1F
100
AcDbEntity
  8
02製品
100
AcDbLine
 10
-3099.196817547741
 20
-1372.353936186286
 30
0.0
 11
-3243.696817547738
 21
-1372.353936186286
 31
0.0
  0
CIRCLE
  5
19768
330
1F
100
AcDbEntity
  8
02製品
100
AcDbCircle
 10
-3798.696817547738
 20
-1357.353936186286
 30
0.0
 40
3.5
  0
CIRCLE
  5
19769
330
1F
100
AcDbEntity
  8
02製品
100
AcDbCircle
 10
-3643.696817547738
 20
-1357.353936186286
 30
0.0
 40
3.5
  0
CIRCLE
  5
1976A
330
1F
100
AcDbEntity
  8
02製品
100
AcDbCircle
 10
-3443.696817547741
 20
-1357.353936186286
 30
0.0
 40
3.5
  0
CIRCLE
  5
1976B
330
1F
100
AcDbEntity
  8
02製品
100
AcDbCircle
 10
-3288.696817547741
 20
-1357.353936186286
 30
0.0
 40
3.5
  0
LINE
  5
1976C
330
1F
100
AcDbEntity
  8
02製品
  6
CENTER
100
AcDbLine
 10
-3288.696817547741
 20
-1364.353936186286
 30
0.0
 11
-3288.696817547741
 21
-1350.353936186286
 31
0.0
1001
PE_URL
1000

  0
LINE
  5
1976D
330
1F
100
AcDbEntity
  8
02製品
  6
CENTER
100
AcDbLine
 10
-3281.696817547741
 20
-1357.353936186286
 30
0.0
 11
-3295.696817547741
 21
-1357.353936186286
 31
0.0
1001
PE_URL
1000

  0
LINE
  5
1976E
330
1F
100
AcDbEntity
  8
02製品
  6
CENTER
100
AcDbLine
 10
-3443.696817547738
 20
-1364.353936186283
 30
0.0
 11
-3443.696817547738
 21
-1350.353936186283
 31
0.0
1001
PE_URL
1000

  0
LINE
  5
1976F
330
1F
100
AcDbEntity
  8
02製品
  6
CENTER
100
AcDbLine
 10
-3436.696817547738
 20
-1357.353936186283
 30
0.0
 11
-3450.696817547738
 21
-1357.353936186283
 31
0.0
1001
PE_URL
1000

  0
LINE
  5
19770
330
1F
100
AcDbEntity
  8
02製品
  6
CENTER
100
AcDbLine
 10
-3643.696817547738
 20
-1364.353936186286
 30
0.0
 11
-3643.696817547738
 21
-1350.353936186286
 31
0.0
1001
PE_URL
1000

  0
LINE
  5
19771
330
1F
100
AcDbEntity
  8
02製品
  6
CENTER
100
AcDbLine
 10
-3636.696817547738
 20
-1357.353936186286
 30
0.0
 11
-3650.696817547738
 21
-1357.353936186286
 31
0.0
1001
PE_URL
1000

  0
LINE
  5
19772
330
1F
100
AcDbEntity
  8
02製品
  6
CENTER
100
AcDbLine
 10
-3798.696817547738
 20
-1364.353936186286
 30
0.0
 11
-3798.696817547738
 21
-1350.353936186286
 31
0.0
1001
PE_URL
1000

  0
LINE
  5
19773
330
1F
100
AcDbEntity
  8
02製品
  6
CENTER
100
AcDbLine
 10
-3791.696817547738
 20
-1357.353936186286
 30
0.0
 11
-3805.696817547738
 21
-1357.353936186286
 31
0.0
1001
PE_URL
1000

  0
LINE
  5
19774
330
1F
100
AcDbEntity
  8
02製品
100
AcDbLine
 10
-3843.696817547738
 20
-1372.353936186286
 30
0.0
 11
-3988.196817547738
 21
-1372.353936186286
 31
0.0
  0
LINE
  5
19776
330
1F
100
AcDbEntity
  8
02製品
100
AcDbLine
 10
-3243.696817547741
 20
-1366.35393618629
 30
0.0
 11
-3243.696817547741
 21
-1487.353936186293
 31
0.0
  0
LINE
  5
19777
330
1F
100
AcDbEntity
  8
02製品
100
AcDbLine
 10
-3843.69681754774
 20
-1366.35393618629
 30
0.0
 11
-3843.69681754774
 21
-1487.353936186293
 31
0.0
  0
INSERT
  5
19778
330
1F
100
AcDbEntity
  8
02製品
100
AcDbBlockReference
  2
1
 10
-7094.483587907989
 20
-31797.52394504744
 30
0.0
 41
-1.0
 50
359.9999999999993
  0
INSERT
  5
19779
330
1F
100
AcDbEntity
  8
02製品
100
AcDbBlockReference
  2
2
 10
-7094.483587907989
 20
-31797.52394504744
 30
0.0
 41
-1.0
 50
359.9999999999993
  0
INSERT
  5
1977A
330
1F
100
AcDbEntity
  8
02製品
100
AcDbBlockReference
  2
3
 10
-7094.483587907989
 20
-31797.52394504744
 30
0.0
 41
-1.0
 50
359.9999999999993
  0
ENDSEC
  0
SECTION
  2
OBJECTS
  0
DICTIONARY
  5
C
330
0
100
AcDbDictionary
281
     1
  3
ACAD_DETAILVIEWSTYLE
350
ADAF
  3
ACAD_GROUP
350
D
  3
ACAD_IMAGE_VARS
350
6A88
  3
ACAD_LAYOUT
350
1A
  3
ACAD_MLINESTYLE
350
17
  3
ACAD_PLOTSETTINGS
350
19
  3
ACAD_PLOTSTYLENAME
350
E
  3
ACAD_SCALELIST
350
6A4E
  3
ACAD_SECTIONVIEWSTYLE
350
ADB0
  3
AcadDim
350
813A
  3
AcDbVariableDictionary
350
79E
  3
AEC_DISP_REPS
350
8259
  3
AEC_DISPLAY_PROPS_DEFAULTS
350
825B
  3
AEC_VARS
350
8257
  3
APPDATA
350
6A87
  3
DWGPROPS
350
1977B
  0
DICTIONARY
  5
7A6F
330
2
100
AcDbDictionary
280
     1
281
     1
  3
ACAD_LAYERFILTERS
360
A22F
  3
ACAD_LAYERSTATES
360
7A70
  3
ACLYDICTIONARY
360
163AB
  0
DICTIONARY
  5
CBD6
330
1F
100
AcDbDictionary
280
     1
281
     1
  3
ACAD_SORTENTS
360
CBD7
  0
DICTIONARY
  5
152CF
330
152CE
100
AcDbDictionary
280
     1
281
     1
  3
ACAD_SORTENTS
360
152D0
  0
DICTIONARY
  5
182CC
330
1829E
100
AcDbDictionary
280
     1
281
     1
  3
ACAD_SORTENTS
360
182CD
  0
DICTIONARY
  5
1854A
330
1851D
100
AcDbDictionary
280
     1
281
     1
  3
ACAD_SORTENTS
360
1854B
  0
DICTIONARY
  5
ADAF
102
{ACAD_REACTORS
330
C
102
}
330
C
100
AcDbDictionary
281
     1
  0
DICTIONARY
  5
D
102
{ACAD_REACTORS
330
C
102
}
330
C
100
AcDbDictionary
281
     1
  0
RASTERVARIABLES
  5
6A88
102
{ACAD_REACTORS
330
C
102
}
330
C
100
AcDbRasterVariables
 90
        0
 70
     1
 71
     1
 72
     1
  0
DICTIONARY
  5
1A
102
{ACAD_REACTORS
330
C
102
}
330
C
100
AcDbDictionary
281
     1
  3
Layout1
350
1E
  3
Layout2
350
26
  3
Model
350
22
  0
DICTIONARY
  5
17
102
{ACAD_REACTORS
330
C
102
}
330
C
100
AcDbDictionary
281
     1
  3
Standard
350
18
  0
DICTIONARY
  5
19
102
{ACAD_REACTORS
330
C
102
}
330
C
100
AcDbDictionary
281
     1
  0
ACDBDICTIONARYWDFLT
  5
E
102
{ACAD_REACTORS
330
C
102
}
330
C
100
AcDbDictionary
281
     1
  3
Normal
350
F
100
AcDbDictionaryWithDefault
340
F
  0
DICTIONARY
  5
6A4E
102
{ACAD_REACTORS
330
C
102
}
330
C
100
AcDbDictionary
281
     1
  3
A0
350
6A4F
  3
A1
350
6A50
  3
A2
350
6A51
  3
A3
350
6A52
  3
A4
350
6A53
  3
A5
350
6A54
  3
A6
350
6A55
  3
A7
350
6A56
  3
A8
350
6A57
  3
A9
350
6A58
  3
B0
350
6A59
  3
B1
350
6A5A
  3
B2
350
6A5B
  3
B3
350
6A5C
  3
B4
350
6A5D
  3
B5
350
6A5E
  3
B6
350
6A5F
  3
B7
350
6A60
  3
B8
350
6A61
  3
B9
350
6A62
  3
C0
350
6A63
  3
C1
350
6A64
  3
C2
350
6A65
  3
C3
350
6A66
  3
C4
350
6A67
  3
C5
350
6A68
  3
C6
350
6A69
  3
C7
350
6A6A
  3
C8
350
6A6B
  3
C9
350
6A6C
  3
D0
350
6A6D
  3
D1
350
6A6E
  3
D2
350
6A6F
  0
DICTIONARY
  5
ADB0
102
{ACAD_REACTORS
330
C
102
}
330
C
100
AcDbDictionary
281
     1
  0
XRECORD
  5
813A
102
{ACAD_REACTORS
330
C
102
}
330
C
100
AcDbXrecord
280
     1
340
0
 72
     0
 71
     0
 70
     0
 69
     0
 68
     1
 67
     3
 66
     0
 65
     0
 64
     0
 63
     3
 62
     1
 61
     0
 60
     0
 40
0.0
  0
DICTIONARY
  5
79E
102
{ACAD_REACTORS
330
C
102
}
330
C
100
AcDbDictionary
281
     1
  3
DIMASSOC
350
79F
  3
SORTENTS
350
264F
  0
DICTIONARY
  5
8259
102
{ACAD_REACTORS
330
C
102
}
330
C
100
AcDbDictionary
281
     1
  3
AecDbDispRep2dSection
350
825A
  3
AecDbDispRepAnchor
350
8294
  3
AecDbDispRepAnchorEntToNode
350
8295
  3
AecDbDispRepClipVolModel
350
8261
  3
AecDbDispRepClipVolPlan
350
8263
  3
AecDbDispRepClipVolResSubDiv
350
8266
  3
AecDbDispRepClipVolResult
350
8265
  3
AecDbDispRepDisplayTheme
350
8268
  3
AecDbDispRepEditInPlaceProfile
350
8299
  3
AecDbDispRepEntRef
350
826A
  3
AecDbDispRepLayoutCurve
350
826C
  3
AecDbDispRepLayoutGrid2d
350
826E
  3
AecDbDispRepLayoutGrid3d
350
8270
  3
AecDbDispRepMaskBlockRef
350
8272
  3
AecDbDispRepMaskBlockRefRcp
350
8274
  3
AecDbDispRepMassElemModel
350
8276
  3
AecDbDispRepMassElemPlan100
350
827C
  3
AecDbDispRepMassElemPlan50
350
827A
  3
AecDbDispRepMassElemRcp
350
827E
  3
AecDbDispRepMassElemSchem
350
8278
  3
AecDbDispRepMassGroupModel
350
8280
  3
AecDbDispRepMassGroupPlan
350
8282
  3
AecDbDispRepMassGroupPlan100
350
8286
  3
AecDbDispRepMassGroupPlan50
350
8284
  3
AecDbDispRepMassGroupRcp
350
8288
  3
AecDbDispRepMaterial
350
8297
  3
AecDbDispRepMvBlockRef
350
828A
  3
AecDbDispRepMvBlockRefModel
350
828B
  3
AecDbDispRepMvBlockRefPlan100
350
828C
  3
AecDbDispRepMvBlockRefPlan50
350
828D
  3
AecDbDispRepPolygonModel
350
828E
  3
AecDbDispRepPolygonTrueColour
350
8290
  3
AecDbDispRepSlice
350
8292
  0
DICTIONARY
  5
825B
102
{ACAD_REACTORS
330
C
102
}
330
C
100
AcDbDictionary
281
     1
  3
*A1
350
825C
  3
*A10
350
827D
  3
*A11
350
827F
  3
*A12
350
8296
  3
*A13
350
8281
  3
*A14
350
8285
  3
*A15
350
8262
  3
*A16
350
8287
  3
*A17
350
8289
  3
*A18
350
828F
  3
*A19
350
8291
  3
*A2
350
826D
  3
*A20
350
8293
  3
*A21
350
8298
  3
*A22
350
8273
  3
*A23
350
829A
  3
*A24
350
8264
  3
*A25
350
8267
  3
*A26
350
8269
  3
*A27
350
826B
  3
*A3
350
826F
  3
*A4
350
8283
  3
*A5
350
8271
  3
*A6
350
8275
  3
*A7
350
8277
  3
*A8
350
8279
  3
*A9
350
827B
  0
DICTIONARY
  5
8257
102
{ACAD_REACTORS
330
C
102
}
330
C
100
AcDbDictionary
281
     1
  3
AEC_VARS_DWG_SETUP
350
8258
  0
DICTIONARY
  5
6A87
102
{ACAD_REACTORS
330
C
102
}
330
C
100
AcDbDictionary
281
     1
  0
XRECORD
  5
1977B
102
{ACAD_REACTORS
330
C
102
}
330
C
100
AcDbXrecord
280
     1
  1
DWGPROPS COOKIE
  2

  3

  4

  6

  7

  8
2212
  9

300
=
301
=
302
=
303
=
304
=
305
=
306
=
307
=
308
=
309
=
 40
0.0
 41
2455859.030048461
 42
2458863.067470845
  1

 90
        0
  0
DICTIONARY
  5
A22F
102
{ACAD_REACTORS
330
7A6F
102
}
330
7A6F
100
AcDbDictionary
280
     1
281
     1
  0
DICTIONARY
  5
7A70
102
{ACAD_REACTORS
330
7A6F
102
}
330
7A6F
100
AcDbDictionary
281
     1
  0
DICTIONARY
  5
163AB
102
{ACAD_REACTORS
330
7A6F
102
}
330
7A6F
100
AcDbDictionary
281
     1
1001
ACAD
1000
<All
  0
SORTENTSTABLE
  5
CBD7
102
{ACAD_REACTORS
330
CBD6
102
}
330
CBD6
100
AcDbSortentsTable
330
1F
331
0
  5
98EA
  0
SORTENTSTABLE
  5
152D0
102
{ACAD_REACTORS
330
152CF
102
}
330
152CF
100
AcDbSortentsTable
330
152CE
  0
SORTENTSTABLE
  5
182CD
102
{ACAD_REACTORS
330
182CC
102
}
330
182CC
100
AcDbSortentsTable
330
1829E
  0
SORTENTSTABLE
  5
1854B
102
{ACAD_REACTORS
330
1854A
102
}
330
1854A
100
AcDbSortentsTable
330
1851D
  0
LAYOUT
  5
1E
102
{ACAD_REACTORS
330
1A
102
}
330
1A
100
AcDbPlotSettings
  1

  2

  4

  6

 40
0.0
 41
0.0
 42
0.0
 43
0.0
 44
0.0
 45
0.0
 46
0.0
 47
0.0
 48
0.0
 49
0.0
140
0.0
141
0.0
142
1.0
143
1.0
 70
   688
 72
     0
 73
     0
 74
     5
  7
monochrome.ctb
 75
    16
147
1.0
148
0.0
149
0.0
100
AcDbLayout
  1
Layout1
 70
     1
 71
     1
 10
0.0
 20
0.0
 11
420.0
 21
297.0
 12
0.0
 22
0.0
 32
0.0
 14
1.000000000000000E+20
 24
1.000000000000000E+20
 34
1.000000000000000E+20
 15
-1.000000000000000E+20
 25
-1.000000000000000E+20
 35
-1.000000000000000E+20
146
0.0
 13
0.0
 23
0.0
 33
0.0
 16
1.0
 26
0.0
 36
0.0
 17
0.0
 27
1.0
 37
0.0
 76
     0
330
1B
  0
LAYOUT
  5
26
102
{ACAD_REACTORS
330
1A
102
}
330
1A
100
AcDbPlotSettings
  1

  2

  4

  6

 40
0.0
 41
0.0
 42
0.0
 43
0.0
 44
0.0
 45
0.0
 46
0.0
 47
0.0
 48
0.0
 49
0.0
140
0.0
141
0.0
142
1.0
143
1.0
 70
   688
 72
     0
 73
     0
 74
     5
  7
monochrome.ctb
 75
    16
147
1.0
148
0.0
149
0.0
100
AcDbLayout
  1
Layout2
 70
     1
 71
     2
 10
0.0
 20
0.0
 11
12.0
 21
9.0
 12
0.0
 22
0.0
 32
0.0
 14
0.0
 24
0.0
 34
0.0
 15
0.0
 25
0.0
 35
0.0
146
0.0
 13
0.0
 23
0.0
 33
0.0
 16
1.0
 26
0.0
 36
0.0
 17
0.0
 27
1.0
 37
0.0
 76
     0
330
23
  0
LAYOUT
  5
22
102
{ACAD_REACTORS
330
1A
102
}
330
1A
100
AcDbPlotSettings
  1

  2
none_device
  4
A3
  6

 40
3.174999952316284
 41
3.174999952316284
 42
3.17498779296875
 43
3.17498779296875
 44
297.0318298339844
 45
420.1583251953125
 46
-3.16
 47
-3.1
 48
-90.0
 49
-90.0
140
329.9999999999998
141
207.0
142
1.0
143
1.0
 70
 11940
 72
     1
 73
     1
 74
     4
  7
monochrome.ctb
 75
     0
147
1.0
148
90.0
149
90.0
100
AcDbLayout
  1
Model
 70
     1
 71
     0
 10
0.0
 20
0.0
 11
420.0
 21
297.0
 12
0.0
 22
0.0
 32
0.0
 14
-4041.796817551241
 24
-2031.522456119503
 34
0.0
 15
-771.4173641281868
 25
304.390546956329
 35
0.0
146
0.0
 13
0.0
 23
0.0
 33
0.0
 16
1.0
 26
0.0
 36
0.0
 17
0.0
 27
1.0
 37
0.0
 76
     0
330
1F
331
A2A1
  0
MLINESTYLE
  5
18
102
{ACAD_REACTORS
330
17
102
}
330
17
100
AcDbMlineStyle
  2
STANDARD
 70
     0
  3

 62
   256
 51
90.0
 52
90.0
 71
     2
 49
0.5
 62
   256
  6
BYLAYER
 49
-0.5
 62
   256
  6
BYLAYER
  0
ACDBPLACEHOLDER
  5
F
102
{ACAD_REACTORS
330
E
102
}
330
E
  0
SCALE
  5
6A4F
102
{ACAD_REACTORS
330
6A4E
102
}
330
6A4E
100
AcDbScale
 70
     0
300
1:1
140
1.0
141
1.0
290
     1
  0
SCALE
  5
6A50
102
{ACAD_REACTORS
330
6A4E
102
}
330
6A4E
100
AcDbScale
 70
     0
300
1:2
140
1.0
141
2.0
290
     0
  0
SCALE
  5
6A51
102
{ACAD_REACTORS
330
6A4E
102
}
330
6A4E
100
AcDbScale
 70
     0
300
1:4
140
1.0
141
4.0
290
     0
  0
SCALE
  5
6A52
102
{ACAD_REACTORS
330
6A4E
102
}
330
6A4E
100
AcDbScale
 70
     0
300
1:5
140
1.0
141
5.0
290
     0
  0
SCALE
  5
6A53
102
{ACAD_REACTORS
330
6A4E
102
}
330
6A4E
100
AcDbScale
 70
     0
300
1:8
140
1.0
141
8.0
290
     0
  0
SCALE
  5
6A54
102
{ACAD_REACTORS
330
6A4E
102
}
330
6A4E
100
AcDbScale
 70
     0
300
1:10
140
1.0
141
10.0
290
     0
  0
SCALE
  5
6A55
102
{ACAD_REACTORS
330
6A4E
102
}
330
6A4E
100
AcDbScale
 70
     0
300
1:16
140
1.0
141
16.0
290
     0
  0
SCALE
  5
6A56
102
{ACAD_REACTORS
330
6A4E
102
}
330
6A4E
100
AcDbScale
 70
     0
300
1:20
140
1.0
141
20.0
290
     0
  0
SCALE
  5
6A57
102
{ACAD_REACTORS
330
6A4E
102
}
330
6A4E
100
AcDbScale
 70
     0
300
1:30
140
1.0
141
30.0
290
     0
  0
SCALE
  5
6A58
102
{ACAD_REACTORS
330
6A4E
102
}
330
6A4E
100
AcDbScale
 70
     0
300
1:40
140
1.0
141
40.0
290
     0
  0
SCALE
  5
6A59
102
{ACAD_REACTORS
330
6A4E
102
}
330
6A4E
100
AcDbScale
 70
     0
300
1:50
140
1.0
141
50.0
290
     0
  0
SCALE
  5
6A5A
102
{ACAD_REACTORS
330
6A4E
102
}
330
6A4E
100
AcDbScale
 70
     0
300
1:100
140
1.0
141
100.0
290
     0
  0
SCALE
  5
6A5B
102
{ACAD_REACTORS
330
6A4E
102
}
330
6A4E
100
AcDbScale
 70
     0
300
2:1
140
2.0
141
1.0
290
     0
  0
SCALE
  5
6A5C
102
{ACAD_REACTORS
330
6A4E
102
}
330
6A4E
100
AcDbScale
 70
     0
300
4:1
140
4.0
141
1.0
290
     0
  0
SCALE
  5
6A5D
102
{ACAD_REACTORS
330
6A4E
102
}
330
6A4E
100
AcDbScale
 70
     0
300
8:1
140
8.0
141
1.0
290
     0
  0
SCALE
  5
6A5E
102
{ACAD_REACTORS
330
6A4E
102
}
330
6A4E
100
AcDbScale
 70
     0
300
10:1
140
10.0
141
1.0
290
     0
  0
SCALE
  5
6A5F
102
{ACAD_REACTORS
330
6A4E
102
}
330
6A4E
100
AcDbScale
 70
     0
300
100:1
140
100.0
141
1.0
290
     0
  0
SCALE
  5
6A60
102
{ACAD_REACTORS
330
6A4E
102
}
330
6A4E
100
AcDbScale
 70
     0
300
1/128" = 1'-0"
140
0.0078125
141
12.0
290
     0
  0
SCALE
  5
6A61
102
{ACAD_REACTORS
330
6A4E
102
}
330
6A4E
100
AcDbScale
 70
     0
300
1/64" = 1'-0"
140
0.015625
141
12.0
290
     0
  0
SCALE
  5
6A62
102
{ACAD_REACTORS
330
6A4E
102
}
330
6A4E
100
AcDbScale
 70
     0
300
1/32" = 1'-0"
140
0.03125
141
12.0
290
     0
  0
SCALE
  5
6A63
102
{ACAD_REACTORS
330
6A4E
102
}
330
6A4E
100
AcDbScale
 70
     0
300
1/16" = 1'-0"
140
0.0625
141
12.0
290
     0
  0
SCALE
  5
6A64
102
{ACAD_REACTORS
330
6A4E
102
}
330
6A4E
100
AcDbScale
 70
     0
300
3/32" = 1'-0"
140
0.09375
141
12.0
290
     0
  0
SCALE
  5
6A65
102
{ACAD_REACTORS
330
6A4E
102
}
330
6A4E
100
AcDbScale
 70
     0
300
1/8" = 1'-0"
140
0.125
141
12.0
290
     0
  0
SCALE
  5
6A66
102
{ACAD_REACTORS
330
6A4E
102
}
330
6A4E
100
AcDbScale
 70
     0
300
3/16" = 1'-0"
140
0.1875
141
12.0
290
     0
  0
SCALE
  5
6A67
102
{ACAD_REACTORS
330
6A4E
102
}
330
6A4E
100
AcDbScale
 70
     0
300
1/4" = 1'-0"
140
0.25
141
12.0
290
     0
  0
SCALE
  5
6A68
102
{ACAD_REACTORS
330
6A4E
102
}
330
6A4E
100
AcDbScale
 70
     0
300
3/8" = 1'-0"
140
0.375
141
12.0
290
     0
  0
SCALE
  5
6A69
102
{ACAD_REACTORS
330
6A4E
102
}
330
6A4E
100
AcDbScale
 70
     0
300
1/2" = 1'-0"
140
0.5
141
12.0
290
     0
  0
SCALE
  5
6A6A
102
{ACAD_REACTORS
330
6A4E
102
}
330
6A4E
100
AcDbScale
 70
     0
300
3/4" = 1'-0"
140
0.75
141
12.0
290
     0
  0
SCALE
  5
6A6B
102
{ACAD_REACTORS
330
6A4E
102
}
330
6A4E
100
AcDbScale
 70
     0
300
1" = 1'-0"
140
1.0
141
12.0
290
     0
  0
SCALE
  5
6A6C
102
{ACAD_REACTORS
330
6A4E
102
}
330
6A4E
100
AcDbScale
 70
     0
300
1-1/2" = 1'-0"
140
1.5
141
12.0
290
     0
  0
SCALE
  5
6A6D
102
{ACAD_REACTORS
330
6A4E
102
}
330
6A4E
100
AcDbScale
 70
     0
300
3" = 1'-0"
140
3.0
141
12.0
290
     0
  0
SCALE
  5
6A6E
102
{ACAD_REACTORS
330
6A4E
102
}
330
6A4E
100
AcDbScale
 70
     0
300
6" = 1'-0"
140
6.0
141
12.0
290
     0
  0
SCALE
  5
6A6F
102
{ACAD_REACTORS
330
6A4E
102
}
330
6A4E
100
AcDbScale
 70
     0
300
1'-0" = 1'-0"
140
12.0
141
12.0
290
     0
  0
DICTIONARYVAR
  5
79F
102
{ACAD_REACTORS
330
79E
102
}
330
79E
100
DictionaryVariables
280
     0
  1
1
  0
DICTIONARYVAR
  5
264F
102
{ACAD_REACTORS
330
79E
102
}
330
79E
100
DictionaryVariables
280
     0
  1
96
  0
ACAD_PROXY_OBJECT
  5
8258
102
{ACAD_REACTORS
330
8257
102
}
330
8257
100
AcDbProxyObject
 90
      499
 91
      509
 95
  6881311
 70
     0
 93
     1864
310
51B4D146518005194651A8FC812095550000000000000B08000000000000008200000000000001807E8F2048F205000200001204000000000000581F8000000000000B0807EC3FA6DEBC0E99F8000000000001C07FE8FCC0295941A4E2D20CA600E2005C008C00E8005C008321803A80170023003A00170020898006200640
310
06001202DA008C2080248020801000140019001A801B00100021803780360037803900148010001000100010002080220019001A801B0021082008600820088008200A4008600900087A08032803180260030803C803280390029803A003200170032003B80338049C09
330
0
 94
        0
  0
ENDSEC
  0
EOF
