  0
SECTION
  2
HEADER
  9
$ACADVER
  1
AC1015
  9
$ACADMAINTVER
 70
     6
  9
$DWGCODEPAGE
  3
ANSI_932
  9
$INSBASE
 10
0.0
 20
0.0
 30
0.0
  9
$EXTMIN
 10
3648.426983922118
 20
6359.346666580013
 30
0.0
  9
$EXTMAX
 10
6916.835352943101
 20
8867.83069019045
 30
0.0
  9
$LIMMIN
 10
3035.915352943101
 20
6238.946666580014
  9
$LIMMAX
 10
7235.915352943101
 20
9208.946666580014
  9
$ORTHOMODE
 70
     1
  9
$REGENMODE
 70
     1
  9
$FILLMODE
 70
     1
  9
$QTEXTMODE
 70
     0
  9
$MIRRTEXT
 70
     1
  9
$LTSCALE
 40
3.0
  9
$ATTMODE
 70
     1
  9
$TEXTSIZE
 40
3.0
  9
$TRACEWID
 40
1.0
  9
$TEXTSTYLE
  7
Standard
  9
$CLAYER
  8
01注記寸法
  9
$CELTYPE
  6
ByLayer
  9
$CECOLOR
 62
   256
  9
$CELTSCALE
 40
1.0
  9
$DISPSILH
 70
     0
  9
$DIMSCALE
 40
10.0
  9
$DIMASZ
 40
3.0
  9
$DIMEXO
 40
1.5
  9
$DIMDLI
 40
10.0
  9
$DIMRND
 40
0.0
  9
$DIMDLE
 40
0.0
  9
$DIMEXE
 40
1.0
  9
$DIMTP
 40
0.0
  9
$DIMTM
 40
0.0
  9
$DIMTXT
 40
3.0
  9
$DIMCEN
 40
1.5
  9
$DIMTSZ
 40
0.0
  9
$DIMTOL
 70
     0
  9
$DIMLIM
 70
     0
  9
$DIMTIH
 70
     0
  9
$DIMTOH
 70
     0
  9
$DIMSE1
 70
     0
  9
$DIMSE2
 70
     0
  9
$DIMTAD
 70
     1
  9
$DIMZIN
 70
     8
  9
$DIMBLK
  1
Open
  9
$DIMASO
 70
     1
  9
$DIMSHO
 70
     1
  9
$DIMPOST
  1

  9
$DIMAPOST
  1

  9
$DIMALT
 70
     0
  9
$DIMALTD
 70
     3
  9
$DIMALTF
 40
0.03937007874016
  9
$DIMLFAC
 40
1.0
  9
$DIMTOFL
 70
     1
  9
$DIMTVP
 40
0.0
  9
$DIMTIX
 70
     0
  9
$DIMSOXD
 70
     0
  9
$DIMSAH
 70
     0
  9
$DIMBLK1
  1

  9
$DIMBLK2
  1

  9
$DIMSTYLE
  2
NEMY-10
  9
$DIMCLRD
 70
     0
  9
$DIMCLRE
 70
     0
  9
$DIMCLRT
 70
     0
  9
$DIMTFAC
 40
1.0
  9
$DIMGAP
 40
1.0
  9
$DIMJUST
 70
     0
  9
$DIMSD1
 70
     0
  9
$DIMSD2
 70
     0
  9
$DIMTOLJ
 70
     0
  9
$DIMTZIN
 70
     8
  9
$DIMALTZ
 70
     0
  9
$DIMALTTZ
 70
     0
  9
$DIMUPT
 70
     0
  9
$DIMDEC
 70
     1
  9
$DIMTDEC
 70
     1
  9
$DIMALTU
 70
     2
  9
$DIMALTTD
 70
     3
  9
$DIMTXSTY
  7
Standard
  9
$DIMAUNIT
 70
     0
  9
$DIMADEC
 70
     0
  9
$DIMALTRND
 40
0.0
  9
$DIMAZIN
 70
     0
  9
$DIMDSEP
 70
    46
  9
$DIMATFIT
 70
     3
  9
$DIMFRAC
 70
     0
  9
$DIMLDRBLK
  1
Open
  9
$DIMLUNIT
 70
     2
  9
$DIMLWD
 70
    -2
  9
$DIMLWE
 70
    -2
  9
$DIMTMOVE
 70
     0
  9
$LUNITS
 70
     2
  9
$LUPREC
 70
     4
  9
$SKETCHINC
 40
1.0
  9
$FILLETRAD
 40
0.0
  9
$AUNITS
 70
     0
  9
$AUPREC
 70
     0
  9
$MENU
  1
.
  9
$ELEVATION
 40
0.0
  9
$PELEVATION
 40
0.0
  9
$THICKNESS
 40
0.0
  9
$LIMCHECK
 70
     0
  9
$CHAMFERA
 40
10.0
  9
$CHAMFERB
 40
10.0
  9
$CHAMFERC
 40
20.0
  9
$CHAMFERD
 40
0.0
  9
$SKPOLY
 70
     0
  9
$TDCREATE
 40
2455859.405048461
  9
$TDUCREATE
 40
2455859.030048461
  9
$TDUPDATE
 40
2458844.556207083
  9
$TDUUPDATE
 40
2458844.181207083
  9
$TDINDWG
 40
2.0283968056
  9
$TDUSRTIMER
 40
2458844.180410787
  9
$USRTIMER
 70
     1
  9
$ANGBASE
 50
0.0
  9
$ANGDIR
 70
     0
  9
$PDMODE
 70
     0
  9
$PDSIZE
 40
0.0
  9
$PLINEWID
 40
0.0
  9
$SPLFRAME
 70
     0
  9
$SPLINETYPE
 70
     6
  9
$SPLINESEGS
 70
     8
  9
$HANDSEED
  5
1E5BF
  9
$SURFTAB1
 70
     6
  9
$SURFTAB2
 70
     6
  9
$SURFTYPE
 70
     6
  9
$SURFU
 70
     6
  9
$SURFV
 70
     6
  9
$UCSBASE
  2

  9
$UCSNAME
  2

  9
$UCSORG
 10
0.0
 20
0.0
 30
0.0
  9
$UCSXDIR
 10
1.0
 20
0.0
 30
0.0
  9
$UCSYDIR
 10
0.0
 20
1.0
 30
0.0
  9
$UCSORTHOREF
  2

  9
$UCSORTHOVIEW
 70
     0
  9
$UCSORGTOP
 10
0.0
 20
0.0
 30
0.0
  9
$UCSORGBOTTOM
 10
0.0
 20
0.0
 30
0.0
  9
$UCSORGLEFT
 10
0.0
 20
0.0
 30
0.0
  9
$UCSORGRIGHT
 10
0.0
 20
0.0
 30
0.0
  9
$UCSORGFRONT
 10
0.0
 20
0.0
 30
0.0
  9
$UCSORGBACK
 10
0.0
 20
0.0
 30
0.0
  9
$PUCSBASE
  2

  9
$PUCSNAME
  2

  9
$PUCSORG
 10
0.0
 20
0.0
 30
0.0
  9
$PUCSXDIR
 10
1.0
 20
0.0
 30
0.0
  9
$PUCSYDIR
 10
0.0
 20
1.0
 30
0.0
  9
$PUCSORTHOREF
  2

  9
$PUCSORTHOVIEW
 70
     0
  9
$PUCSORGTOP
 10
0.0
 20
0.0
 30
0.0
  9
$PUCSORGBOTTOM
 10
0.0
 20
0.0
 30
0.0
  9
$PUCSORGLEFT
 10
0.0
 20
0.0
 30
0.0
  9
$PUCSORGRIGHT
 10
0.0
 20
0.0
 30
0.0
  9
$PUCSORGFRONT
 10
0.0
 20
0.0
 30
0.0
  9
$PUCSORGBACK
 10
0.0
 20
0.0
 30
0.0
  9
$USERI1
 70
     0
  9
$USERI2
 70
     0
  9
$USERI3
 70
     0
  9
$USERI4
 70
     0
  9
$USERI5
 70
     0
  9
$USERR1
 40
0.0
  9
$USERR2
 40
0.0
  9
$USERR3
 40
0.0
  9
$USERR4
 40
0.0
  9
$USERR5
 40
0.0
  9
$WORLDVIEW
 70
     1
  9
$SHADEDGE
 70
     3
  9
$SHADEDIF
 70
    70
  9
$TILEMODE
 70
     1
  9
$MAXACTVP
 70
    64
  9
$PINSBASE
 10
0.0
 20
0.0
 30
0.0
  9
$PLIMCHECK
 70
     0
  9
$PEXTMIN
 10
1.000000000000000E+20
 20
1.000000000000000E+20
 30
1.000000000000000E+20
  9
$PEXTMAX
 10
-1.000000000000000E+20
 20
-1.000000000000000E+20
 30
-1.000000000000000E+20
  9
$PLIMMIN
 10
0.0
 20
0.0
  9
$PLIMMAX
 10
0.0
 20
0.0
  9
$UNITMODE
 70
     0
  9
$VISRETAIN
 70
     1
  9
$PLINEGEN
 70
     0
  9
$PSLTSCALE
 70
     1
  9
$TREEDEPTH
 70
  3020
  9
$CMLSTYLE
  2
Standard
  9
$CMLJUST
 70
     0
  9
$CMLSCALE
 40
20.0
  9
$PROXYGRAPHICS
 70
     1
  9
$MEASUREMENT
 70
     1
  9
$CELWEIGHT
370
    -1
  9
$ENDCAPS
280
     0
  9
$JOINSTYLE
280
     0
  9
$LWDISPLAY
290
     0
  9
$INSUNITS
 70
     4
  9
$HYPERLINKBASE
  1

  9
$STYLESHEET
  1
monochrome.ctb
  9
$XEDIT
290
     1
  9
$CEPSNTYPE
380
     0
  9
$PSTYLEMODE
290
     1
  9
$FINGERPRINTGUID
  2
{FDEAD578-A652-11D2-9A35-0060089B3A3F}
  9
$VERSIONGUID
  2
{FF53CD4B-1AF9-4F2F-ABC0-CA7DF949A403}
  9
$EXTNAMES
290
     1
  9
$PSVPSCALE
 40
0.0
  9
$OLESTARTUP
290
     0
  0
ENDSEC
  0
SECTION
  2
CLASSES
  0
CLASS
  1
ACDBDICTIONARYWDFLT
  2
AcDbDictionaryWithDefault
  3
ObjectDBX Classes
 90
        0
280
     0
281
     0
  0
CLASS
  1
ACDBPLACEHOLDER
  2
AcDbPlaceHolder
  3
ObjectDBX Classes
 90
        0
280
     0
281
     0
  0
CLASS
  1
LAYOUT
  2
AcDbLayout
  3
ObjectDBX Classes
 90
        0
280
     0
281
     0
  0
CLASS
  1
DICTIONARYVAR
  2
AcDbDictionaryVar
  3
ObjectDBX Classes
 90
        0
280
     0
281
     0
  0
CLASS
  1
SCALE
  2
AcDbScale
  3
ObjectDBX Classes
 90
     1153
280
     0
281
     0
  0
CLASS
  1
MATERIAL
  2
AcDbMaterial
  3
ObjectDBX Classes
 90
     1153
280
     0
281
     0
  0
CLASS
  1
VISUALSTYLE
  2
AcDbVisualStyle
  3
ObjectDBX Classes
 90
     4095
280
     0
281
     0
  0
CLASS
  1
TABLESTYLE
  2
AcDbTableStyle
  3
ObjectDBX Classes
 90
     4095
280
     0
281
     0
  0
CLASS
  1
RASTERVARIABLES
  2
AcDbRasterVariables
  3
ISM
 90
        0
280
     0
281
     0
  0
CLASS
  1
AEC_VARS_DWG_SETUP
  2
AecDbVarsDwgSetup
  3
AecBase60
 90
      129
280
     0
281
     0
  0
CLASS
  1
AEC_DISP_REP_2D_SECTION
  2
AecDbDispRep2dSection
  3
AecBase60
 90
      129
280
     0
281
     0
  0
CLASS
  1
AEC_DISP_PROPS_2D_SECTION
  2
AecDbDispProps2dSection
  3
AecBase60
 90
      129
280
     0
281
     0
  0
CLASS
  1
AEC_DISP_REP_CLIP_VOLUME_MODEL
  2
AecDbDispRepClipVolModel
  3
AecBase60
 90
      129
280
     0
281
     0
  0
CLASS
  1
AEC_DISP_PROPS_CLIP_VOLUME
  2
AecDbDispPropsClipVol
  3
AecBase60
 90
      129
280
     0
281
     0
  0
CLASS
  1
AEC_DISP_REP_CLIP_VOLUME_PLAN
  2
AecDbDispRepClipVolPlan
  3
AecBase60
 90
      129
280
     0
281
     0
  0
CLASS
  1
AEC_DISP_REP_CLIP_VOLUME_RESULT
  2
AecDbDispRepClipVolResult
  3
AecBase60
 90
      129
280
     0
281
     0
  0
CLASS
  1
AEC_DISP_REP_CLIP_VOLUME_RESULT_SUBDIV
  2
AecDbDispRepClipVolResSubDiv
  3
AecBase60
 90
      129
280
     0
281
     0
  0
CLASS
  1
AEC_DISP_PROPS_CLIP_VOLUME_RESULT
  2
AecDbDispPropsClipVolResSubDiv
  3
AecBase60
 90
      129
280
     0
281
     0
  0
CLASS
  1
AEC_DISP_REP_DISPLAYTHEME
  2
AecDbDispRepDisplayTheme
  3
AecBase60
 90
      129
280
     0
281
     0
  0
CLASS
  1
AEC_DISP_PROPS_DISPLAYTHEME
  2
AecDbDispPropsDisplayTheme
  3
AecBase60
 90
      129
280
     0
281
     0
  0
CLASS
  1
AEC_DISP_REP_ENT_REF
  2
AecDbDispRepEntRef
  3
AecBase60
 90
      129
280
     0
281
     0
  0
CLASS
  1
AEC_DISP_PROPS_ENT_REF
  2
AecDbDispPropsEntRef
  3
AecBase60
 90
      129
280
     0
281
     0
  0
CLASS
  1
AEC_DISP_REP_LAYOUT_CURVE
  2
AecDbDispRepLayoutCurve
  3
AecBase60
 90
      129
280
     0
281
     0
  0
CLASS
  1
AEC_DISP_PROPS_LAYOUT_CURVE
  2
AecDbDispPropsLayoutCurve
  3
AecBase60
 90
      129
280
     0
281
     0
  0
CLASS
  1
AEC_DISP_REP_LAYOUT_GRID2D
  2
AecDbDispRepLayoutGrid2d
  3
AecBase60
 90
      129
280
     0
281
     0
  0
CLASS
  1
AEC_DISP_PROPS_LAYOUT_GRID2D
  2
AecDbDispPropsLayoutGrid2d
  3
AecBase60
 90
      129
280
     0
281
     0
  0
CLASS
  1
AEC_DISP_REP_LAYOUT_GRID3D
  2
AecDbDispRepLayoutGrid3d
  3
AecBase60
 90
      129
280
     0
281
     0
  0
CLASS
  1
AEC_DISP_PROPS_LAYOUT_GRID3D
  2
AecDbDispPropsLayoutGrid3d
  3
AecBase60
 90
      129
280
     0
281
     0
  0
CLASS
  1
AEC_DISP_REP_MASKBLOCK_REF
  2
AecDbDispRepMaskBlockRef
  3
AecBase60
 90
      129
280
     0
281
     0
  0
CLASS
  1
AEC_DISP_PROPS_MASKBLOCK
  2
AecDbDispPropsMaskBlock
  3
AecBase60
 90
      129
280
     0
281
     0
  0
CLASS
  1
AEC_DISP_REP_MASKBLOCK_REF_RCP
  2
AecDbDispRepMaskBlockRefRcp
  3
AecArchBase60
 90
      129
280
     0
281
     0
  0
CLASS
  1
AEC_DISP_REP_MASS_ELEM_MODEL
  2
AecDbDispRepMassElemModel
  3
AecBase60
 90
      129
280
     0
281
     0
  0
CLASS
  1
AEC_DISP_PROPS_MASS_ELEM_MODEL
  2
AecDbDispPropsMassElem
  3
AecBase60
 90
      129
280
     0
281
     0
  0
CLASS
  1
AEC_DISP_REP_MASS_ELEM_SCHEM
  2
AecDbDispRepMassElemSchem
  3
AecBase60
 90
      129
280
     0
281
     0
  0
CLASS
  1
AEC_DISPREPAECDBDISPREPMASSELEMPLAN50
  2
AecDbDispRepMassElemPlan50
  3
AecArchDACHBase60
 90
      129
280
     0
281
     0
  0
CLASS
  1
AEC_DISPROPSMASSELEMPLANCOMMON
  2
AecDbDispPropsMassElemPlanCommon
  3
AecArchDACHBase60
 90
      129
280
     0
281
     0
  0
CLASS
  1
AEC_DISPREPAECDBDISPREPMASSELEMPLAN100
  2
AecDbDispRepMassElemPlan100
  3
AecArchDACHBase60
 90
      129
280
     0
281
     0
  0
CLASS
  1
AEC_DISP_REP_MASS_ELEM_RCP
  2
AecDbDispRepMassElemRcp
  3
AecArchBase60
 90
      129
280
     0
281
     0
  0
CLASS
  1
AEC_DISP_REP_MASS_GROUP_MODEL
  2
AecDbDispRepMassGroupModel
  3
AecBase60
 90
      129
280
     0
281
     0
  0
CLASS
  1
AEC_DISP_PROPS_MASS_GROUP
  2
AecDbDispPropsMassGroup
  3
AecBase60
 90
      129
280
     0
281
     0
  0
CLASS
  1
AEC_DISP_REP_MASS_GROUP_PLAN
  2
AecDbDispRepMassGroupPlan
  3
AecBase60
 90
      129
280
     0
281
     0
  0
CLASS
  1
AEC_DISPREPAECDBDISPREPMASSGROUPPLAN50
  2
AecDbDispRepMassGroupPlan50
  3
AecArchDACHBase60
 90
      129
280
     0
281
     0
  0
CLASS
  1
AEC_DISPROPSMASSGROUPPLANCOMMON
  2
AecDbDispPropsMassGroupPlanCommon
  3
AecArchDACHBase60
 90
      129
280
     0
281
     0
  0
CLASS
  1
AEC_DISPREPAECDBDISPREPMASSGROUPPLAN100
  2
AecDbDispRepMassGroupPlan100
  3
AecArchDACHBase60
 90
      129
280
     0
281
     0
  0
CLASS
  1
AEC_DISP_REP_MASS_GROUP_RCP
  2
AecDbDispRepMassGroupRcp
  3
AecArchBase60
 90
      129
280
     0
281
     0
  0
CLASS
  1
AEC_DISP_REP_MVBLOCK_REF
  2
AecDbDispRepMvBlockRef
  3
AecBase60
 90
      129
280
     0
281
     0
  0
CLASS
  1
AEC_DISP_REP_MVBLOCK_REF_MODEL
  2
AecDbDispRepMvBlockRefModel
  3
AecBase60
 90
      129
280
     0
281
     0
  0
CLASS
  1
AEC_AECDBDISPREPMVBLOCKREFPLAN100
  2
AecDbDispRepMvBlockRefPlan100
  3
AecBase60
 90
      129
280
     0
281
     0
  0
CLASS
  1
AEC_AECDBDISPREPMVBLOCKREFPLAN50
  2
AecDbDispRepMvBlockRefPlan50
  3
AecBase60
 90
      129
280
     0
281
     0
  0
CLASS
  1
AEC_DISP_REP_POLYGON_MODEL
  2
AecDbDispRepPolygonModel
  3
AecBase60
 90
      129
280
     0
281
     0
  0
CLASS
  1
AEC_DISP_PROPS_POLYGON_MODEL
  2
AecDbDispPropsPolygonModel
  3
AecBase60
 90
      129
280
     0
281
     0
  0
CLASS
  1
AEC_DISP_REP_POLYGON_TRUECOLOUR
  2
AecDbDispRepPolygonTrueColour
  3
AecBase60
 90
      129
280
     0
281
     0
  0
CLASS
  1
AEC_DISP_PROPS_POLYGON_TRUECOLOUR
  2
AecDbDispPropsPolygonTrueColour
  3
AecBase60
 90
      129
280
     0
281
     0
  0
CLASS
  1
AEC_DISP_REP_SLICE
  2
AecDbDispRepSlice
  3
AecBase60
 90
      129
280
     0
281
     0
  0
CLASS
  1
AEC_DISP_PROPS_SLICE
  2
AecDbDispPropsSlice
  3
AecBase60
 90
      129
280
     0
281
     0
  0
CLASS
  1
AEC_DISP_REP_ANCHOR
  2
AecDbDispRepAnchor
  3
AecBase60
 90
      129
280
     0
281
     0
  0
CLASS
  1
AEC_DISP_REP_ANCHOR_ENT_TO_NODE
  2
AecDbDispRepAnchorEntToNode
  3
AecBase60
 90
      129
280
     0
281
     0
  0
CLASS
  1
AEC_DISP_PROPS_ENT
  2
AecDbDispPropsEnt
  3
AecBase60
 90
      129
280
     0
281
     0
  0
CLASS
  1
AEC_DISP_REP_MATERIAL
  2
AecDbDispRepMaterial
  3
AecBase60
 90
      129
280
     0
281
     0
  0
CLASS
  1
AEC_DISP_PROPS_MATERIAL
  2
AecDbDispPropsMaterial
  3
AecBase60
 90
      129
280
     0
281
     0
  0
CLASS
  1
AEC_DISP_REP_EDITINPLACEPROFILE
  2
AecDbDispRepEditInPlaceProfile
  3
AecBase60
 90
      129
280
     0
281
     0
  0
CLASS
  1
AEC_DISP_PROPS_EDITINPLACEPROFILE_MODEL
  2
AecDbDispPropsEditInPlaceProfile
  3
AecBase60
 90
      129
280
     0
281
     0
  0
CLASS
  1
SUN
  2
AcDbSun
  3
SCENEOE
 90
     1153
280
     0
281
     0
  0
CLASS
  1
SORTENTSTABLE
  2
AcDbSortentsTable
  3
ObjectDBX Classes
 90
        0
280
     0
281
     0
  0
CLASS
  1
MLEADERSTYLE
  2
AcDbMLeaderStyle
  3
ACDB_MLEADERSTYLE_CLASS
 90
     4095
280
     0
281
     0
  0
ENDSEC
  0
SECTION
  2
TABLES
  0
TABLE
  2
VPORT
  5
8
330
0
100
AcDbSymbolTable
 70
     2
  0
VPORT
  5
A2A1
330
8
100
AcDbSymbolTableRecord
100
AcDbViewportTableRecord
  2
*Active
 70
     0
 10
0.0
 20
0.0
 11
1.0
 21
1.0
 12
-56680591820.63385
 22
103286851180.4288
 13
0.0
 23
0.0
 14
10.0
 24
10.0
 15
10.0
 25
10.0
 16
0.0
 26
0.0
 36
1.0
 17
56680597103.26502
 27
-103286843566.8401
 37
0.0
 40
2558.653704082646
 41
1.484848484848485
 42
50.0
 43
0.0
 44
0.0
 50
0.0
 51
0.0
 71
    16
 72
   100
 73
     1
 74
     2
 75
     0
 76
     0
 77
     0
 78
     0
281
     0
 65
     1
110
0.0
120
0.0
130
0.0
111
1.0
121
0.0
131
0.0
112
0.0
122
1.0
132
0.0
 79
     0
146
0.0
  0
ENDTAB
  0
TABLE
  2
LTYPE
  5
5
330
0
100
AcDbSymbolTable
 70
     9
  0
LTYPE
  5
14
330
5
100
AcDbSymbolTableRecord
100
AcDbLinetypeTableRecord
  2
ByBlock
 70
     0
  3

 72
    65
 73
     0
 40
0.0
  0
LTYPE
  5
15
330
5
100
AcDbSymbolTableRecord
100
AcDbLinetypeTableRecord
  2
ByLayer
 70
     0
  3
Solid line
 72
    65
 73
     0
 40
0.0
  0
LTYPE
  5
16
330
5
100
AcDbSymbolTableRecord
100
AcDbLinetypeTableRecord
  2
Continuous
 70
     0
  3
Solid line
 72
    65
 73
     0
 40
0.0
  0
LTYPE
  5
BC
330
5
100
AcDbSymbolTableRecord
100
AcDbLinetypeTableRecord
  2
CENTER
 70
     0
  3
Center ____ _ ____ _ ____ _ ____ _ ____ _ ____
 72
    65
 73
     4
 40
50.8
 49
31.75
 74
     0
 49
-6.35
 74
     0
 49
6.35
 74
     0
 49
-6.35
 74
     0
  0
ENDTAB
  0
TABLE
  2
LAYER
  5
2
102
{ACAD_XDICTIONARY
360
7A6F
102
}
330
0
100
AcDbSymbolTable
 70
    14
  0
LAYER
  5
10
330
2
100
AcDbSymbolTableRecord
100
AcDbLayerTableRecord
  2
0
 70
     0
 62
     7
  6
Continuous
370
    -3
390
F
  0
LAYER
  5
45
330
2
100
AcDbSymbolTableRecord
100
AcDbLayerTableRecord
  2
01注記寸法
 70
     0
 62
     7
  6
Continuous
370
     9
390
F
  0
LAYER
  5
82BC
330
2
100
AcDbSymbolTableRecord
100
AcDbLayerTableRecord
  2
02製品
 70
     0
 62
     2
  6
Continuous
370
    15
390
F
  0
LAYER
  5
82C1
330
2
100
AcDbSymbolTableRecord
100
AcDbLayerTableRecord
  2
06非表示
 70
     0
 62
     4
  6
Continuous
290
     0
370
     0
390
F
  0
LAYER
  5
15088
330
2
100
AcDbSymbolTableRecord
100
AcDbLayerTableRecord
  2
1　製品
 70
     0
 62
     2
  6
Continuous
370
    15
390
F
  0
ENDTAB
  0
TABLE
  2
STYLE
  5
3
330
0
100
AcDbSymbolTable
 70
     8
  0
STYLE
  5
11
330
3
100
AcDbSymbolTableRecord
100
AcDbTextStyleTableRecord
  2
Standard
 70
     0
 40
0.0
 41
1.0
 50
0.0
 71
     0
 42
3.0
  3
MS Gothic.ttf
  4

1001
ACAD
1000
MS Gothic
1071
    32817
  0
STYLE
  5
19E
330
3
100
AcDbSymbolTableRecord
100
AcDbTextStyleTableRecord
  2
STYLE1
 70
     0
 40
0.0
 41
0.9
 50
0.0
 71
     0
 42
28.125
  3
TXT.shx
  4
extfont.shx
  0
STYLE
  5
C96B
330
3
100
AcDbSymbolTableRecord
100
AcDbTextStyleTableRecord
  2
Standard-tate
 70
     0
 40
0.0
 41
1.0
 50
0.0
 71
     0
 42
3.0
  3
@MS PGothic.ttf
  4

1001
ACAD
1000
@MS PGothic
1071
    32818
  0
STYLE
  5
1D64D
330
3
100
AcDbSymbolTableRecord
100
AcDbTextStyleTableRecord
  2
ST_CUSTOM
 70
     0
 40
0.0
 41
0.8
 50
0.0
 71
     0
 42
3.0
  3
txt.shx
  4
extfont.shx
  0
STYLE
  5
1D64E
330
3
100
AcDbSymbolTableRecord
100
AcDbTextStyleTableRecord
  2
StCustom
 70
     0
 40
0.0
 41
0.8
 50
0.0
 71
     0
 42
3.0
  3
txt.shx
  4
extfont.shx
  0
ENDTAB
  0
TABLE
  2
VIEW
  5
6
330
0
100
AcDbSymbolTable
 70
     0
  0
ENDTAB
  0
TABLE
  2
UCS
  5
7
330
0
100
AcDbSymbolTable
 70
     0
  0
ENDTAB
  0
TABLE
  2
APPID
  5
9
330
0
100
AcDbSymbolTable
 70
    13
  0
APPID
  5
12
330
9
100
AcDbSymbolTableRecord
100
AcDbRegAppTableRecord
  2
ACAD
 70
     0
  0
APPID
  5
6A9E
330
9
100
AcDbSymbolTableRecord
100
AcDbRegAppTableRecord
  2
ACAD_DSTYLE_DIMRADIAL_EXTENSION
 70
     0
  0
APPID
  5
742C
330
9
100
AcDbSymbolTableRecord
100
AcDbRegAppTableRecord
  2
ACAD_PSEXT
 70
     0
  0
APPID
  5
742D
330
9
100
AcDbSymbolTableRecord
100
AcDbRegAppTableRecord
  2
ACAD_DSTYLE_DIMJAG
 70
     0
  0
APPID
  5
742E
330
9
100
AcDbSymbolTableRecord
100
AcDbRegAppTableRecord
  2
ACAD_DSTYLE_DIMTALN
 70
     0
  0
APPID
  5
8254
330
9
100
AcDbSymbolTableRecord
100
AcDbRegAppTableRecord
  2
AECBASE
 70
     0
  0
APPID
  5
8255
330
9
100
AcDbSymbolTableRecord
100
AcDbRegAppTableRecord
  2
AEC_2DSECTION_XDATA
 70
     0
  0
APPID
  5
8256
330
9
100
AcDbSymbolTableRecord
100
AcDbRegAppTableRecord
  2
AEC_MASSGROUP_XDADA
 70
     0
  0
APPID
  5
B0E5
330
9
100
AcDbSymbolTableRecord
100
AcDbRegAppTableRecord
  2
PE_DIMMEASUREMENT
 70
     0
  0
APPID
  5
147E0
330
9
100
AcDbSymbolTableRecord
100
AcDbRegAppTableRecord
  2
AcAecLayerStandard
 70
     0
  0
APPID
  5
15094
330
9
100
AcDbSymbolTableRecord
100
AcDbRegAppTableRecord
  2
PLOTTRANSPARENCY
 70
     0
  0
APPID
  5
1DE0B
330
9
100
AcDbSymbolTableRecord
100
AcDbRegAppTableRecord
  2
PE_URL
 70
     0
  0
APPID
  5
1E3A5
330
9
100
AcDbSymbolTableRecord
100
AcDbRegAppTableRecord
  2
AcadAnnotative
 70
     0
  0
ENDTAB
  0
TABLE
  2
DIMSTYLE
  5
A
330
0
100
AcDbSymbolTable
 70
    28
100
AcDbDimStyleTable
  0
DIMSTYLE
105
4DD3
102
{ACAD_REACTORS
330
14016
330
14023
330
14030
102
}
330
A
100
AcDbSymbolTableRecord
100
AcDbDimStyleTableRecord
  2
NEMY-10
 70
     0
 40
10.0
 41
3.0
 42
1.5
 43
10.0
 44
1.0
 73
     0
 74
     0
 77
     1
 78
     8
140
3.0
141
1.5
143
0.03937007874016
147
1.0
171
     3
172
     1
178
     0
271
     1
272
     1
274
     3
283
     0
284
     8
340
11
341
8F
342
8F
  0
ENDTAB
  0
TABLE
  2
BLOCK_RECORD
  5
1
330
0
100
AcDbSymbolTable
 70
   593
  0
BLOCK_RECORD
  5
1F
102
{ACAD_XDICTIONARY
360
CBD6
102
}
330
1
100
AcDbSymbolTableRecord
100
AcDbBlockTableRecord
  2
*Model_Space
340
22
  0
BLOCK_RECORD
  5
1B
330
1
100
AcDbSymbolTableRecord
100
AcDbBlockTableRecord
  2
*Paper_Space
340
1E
  0
BLOCK_RECORD
  5
23
330
1
100
AcDbSymbolTableRecord
100
AcDbBlockTableRecord
  2
*Paper_Space0
340
26
  0
BLOCK_RECORD
  5
8F
330
1
100
AcDbSymbolTableRecord
100
AcDbBlockTableRecord
  2
_Open
340
0
102
{BLKREFS
331
1401C
331
1401D
331
14029
331
1402A
331
14036
331
14037
331
141AC
331
141AD
331
141B2
331
141B3
331
141B8
331
141B9
331
141BE
331
141BF
331
141C4
331
141C5
331
141CA
331
141CB
331
141D0
331
141D1
331
141D6
331
141D7
331
14596
331
14597
331
145A3
331
145A4
331
145B0
331
145B1
331
145BD
331
145BE
331
145CA
331
145CB
331
145D7
331
145D8
331
145E4
331
145E5
331
145F1
331
145F2
331
14600
331
14601
331
1478E
331
1478F
331
14794
331
14795
331
1479A
331
1479B
331
147A0
331
147A1
331
147A6
331
147A7
331
147AC
331
147AD
331
147B2
331
147B3
331
147B8
331
147B9
331
147BE
331
147BF
331
147C7
331
147C8
331
147CD
331
147CE
331
147D6
331
147D7
331
15C74
331
15C75
331
15C90
331
15C91
331
15CA0
331
15CA1
331
15DEA
331
15DEB
331
15DF7
331
15DF8
331
1D680
331
1D681
331
1D68D
331
1D68E
331
1D69A
331
1D69B
331
1D6BE
331
1D6BF
331
1E243
331
1E244
331
1E3E4
331
1E3E5
331
1E3F1
331
1E3F2
331
1E4AF
331
1E4B0
331
1E4BC
331
1E4BD
331
1E50F
331
1E510
102
}
  0
BLOCK_RECORD
  5
1D20E
102
{ACAD_XDICTIONARY
360
1D20F
102
}
330
1
100
AcDbSymbolTableRecord
100
AcDbBlockTableRecord
  2
A$C3105
340
0
102
{BLKREFS
331
1D5FB
102
}
  0
BLOCK_RECORD
  5
1D23C
102
{ACAD_XDICTIONARY
360
1D23D
102
}
330
1
100
AcDbSymbolTableRecord
100
AcDbBlockTableRecord
  2
A$C29074
340
0
102
{BLKREFS
331
1DF57
331
1DFB1
102
}
  0
ENDTAB
  0
ENDSEC
  0
SECTION
  2
BLOCKS
  0
BLOCK
  5
20
330
1F
100
AcDbEntity
  8
0
100
AcDbBlockBegin
  2
*Model_Space
 70
     0
 10
0.0
 20
0.0
 30
0.0
  3
*Model_Space
  1

  0
ENDBLK
  5
21
330
1F
100
AcDbEntity
  8
0
100
AcDbBlockEnd
  0
BLOCK
  5
1C
330
1B
100
AcDbEntity
 67
     1
  8
0
100
AcDbBlockBegin
  2
*Paper_Space
 70
     0
 10
0.0
 20
0.0
 30
0.0
  3
*Paper_Space
  1

  0
ENDBLK
  5
1D
330
1B
100
AcDbEntity
 67
     1
  8
0
100
AcDbBlockEnd
  0
BLOCK
  5
24
330
23
100
AcDbEntity
  8
0
100
AcDbBlockBegin
  2
*Paper_Space0
 70
     0
 10
0.0
 20
0.0
 30
0.0
  3
*Paper_Space0
  1

  0
ENDBLK
  5
25
330
23
100
AcDbEntity
  8
0
100
AcDbBlockEnd
  0
BLOCK
  5
93
330
8F
100
AcDbEntity
  8
0
100
AcDbBlockBegin
  2
_Open
 70
     0
 10
0.0
 20
0.0
 30
0.0
  3
_Open
  1

  0
LINE
  5
90
330
8F
100
AcDbEntity
  8
01注記寸法
 62
     0
370
    -2
100
AcDbLine
 10
-1.0
 20
0.1666666666666667
 30
0.0
 11
0.0
 21
0.0
 31
0.0
  0
LINE
  5
91
330
8F
100
AcDbEntity
  8
01注記寸法
 62
     0
370
    -2
100
AcDbLine
 10
-1.0
 20
-0.1666666666666667
 30
0.0
 11
0.0
 21
0.0
 31
0.0
  0
LINE
  5
92
330
8F
100
AcDbEntity
  8
01注記寸法
 62
     0
370
    -2
100
AcDbLine
 10
0.0
 20
0.0
 30
0.0
 11
-1.0
 21
0.0
 31
0.0
  0
ENDBLK
  5
94
330
8F
100
AcDbEntity
  8
0
100
AcDbBlockEnd
  0
BLOCK
  5
1D211
330
1D20E
100
AcDbEntity
  8
0
100
AcDbBlockBegin
  2
A$C3105
 70
     0
 10
0.0
 20
0.0
 30
0.0
  3
A$C3105
  1

  0
LINE
  5
1D212
330
1D20E
100
AcDbEntity
  8
02製品
100
AcDbLine
 10
6.349999999999909
 20
0.0
 30
0.0
 11
5.079999999999927
 21
0.566666666666606
 31
0.0
  0
LINE
  5
1D213
330
1D20E
100
AcDbEntity
  8
02製品
100
AcDbLine
 10
3.809999999999945
 20
0.0
 30
0.0
 11
5.079999999999927
 21
0.566666666666606
 31
0.0
  0
LINE
  5
1D214
330
1D20E
100
AcDbEntity
  8
02製品
100
AcDbLine
 10
3.809999999999945
 20
3.400000000000091
 30
0.0
 11
2.539999999999964
 21
3.966666666666697
 31
0.0
  0
LINE
  5
1D215
330
1D20E
100
AcDbEntity
  8
02製品
100
AcDbLine
 10
3.809999999999945
 20
2.266666666666424
 30
0.0
 11
2.539999999999964
 21
2.83333333333303
 31
0.0
  0
LINE
  5
1D216
330
1D20E
100
AcDbEntity
  8
02製品
100
AcDbLine
 10
2.539999999999964
 20
1.699999999999818
 30
0.0
 11
3.809999999999945
 21
1.133333333333212
 31
0.0
  0
LINE
  5
1D217
330
1D20E
100
AcDbEntity
  8
02製品
100
AcDbLine
 10
3.809999999999945
 20
2.266666666666424
 30
0.0
 11
2.539999999999964
 21
1.699999999999818
 31
0.0
  0
LINE
  5
1D218
330
1D20E
100
AcDbEntity
  8
02製品
100
AcDbLine
 10
3.809999999999945
 20
1.133333333333212
 30
0.0
 11
2.539999999999964
 21
0.566666666666606
 31
0.0
  0
LINE
  5
1D219
330
1D20E
100
AcDbEntity
  8
02製品
100
AcDbLine
 10
2.539999999999964
 20
2.83333333333303
 30
0.0
 11
3.809999999999945
 21
3.400000000000091
 31
0.0
  0
LINE
  5
1D21A
330
1D20E
100
AcDbEntity
  8
02製品
100
AcDbLine
 10
1.269999999999982
 20
2.266666666666424
 30
0.0
 11
0.0
 21
2.83333333333303
 31
0.0
  0
LINE
  5
1D21B
330
1D20E
100
AcDbEntity
  8
02製品
100
AcDbLine
 10
1.269999999999982
 20
2.266666666666424
 30
0.0
 11
0.0
 21
1.699999999999818
 31
0.0
  0
LINE
  5
1D21C
330
1D20E
100
AcDbEntity
  8
02製品
100
AcDbLine
 10
2.539999999999964
 20
1.699999999999818
 30
0.0
 11
1.269999999999982
 21
2.266666666666424
 31
0.0
  0
LINE
  5
1D21D
330
1D20E
100
AcDbEntity
  8
02製品
100
AcDbLine
 10
1.269999999999982
 20
1.133333333333212
 30
0.0
 11
2.539999999999964
 21
1.699999999999818
 31
0.0
  0
LINE
  5
1D21E
330
1D20E
100
AcDbEntity
  8
02製品
100
AcDbLine
 10
1.269999999999982
 20
3.400000000000091
 30
0.0
 11
2.539999999999964
 21
2.83333333333303
 31
0.0
  0
LINE
  5
1D21F
330
1D20E
100
AcDbEntity
  8
02製品
100
AcDbLine
 10
2.539999999999964
 20
2.83333333333303
 30
0.0
 11
1.269999999999982
 21
2.266666666666424
 31
0.0
  0
LINE
  5
1D220
330
1D20E
100
AcDbEntity
  8
02製品
100
AcDbLine
 10
5.079999999999927
 20
3.966666666666697
 30
0.0
 11
6.349999999999909
 21
3.400000000000091
 31
0.0
  0
LINE
  5
1D221
330
1D20E
100
AcDbEntity
  8
02製品
100
AcDbLine
 10
5.079999999999927
 20
3.966666666666697
 30
0.0
 11
3.809999999999945
 21
3.400000000000091
 31
0.0
  0
LINE
  5
1D222
330
1D20E
100
AcDbEntity
  8
02製品
100
AcDbLine
 10
6.349999999999909
 20
3.400000000000091
 30
0.0
 11
7.619999999999891
 21
3.966666666666697
 31
0.0
  0
LINE
  5
1D223
330
1D20E
100
AcDbEntity
  8
02製品
100
AcDbLine
 10
6.349999999999909
 20
2.266666666666424
 30
0.0
 11
7.619999999999891
 21
2.83333333333303
 31
0.0
  0
LINE
  5
1D224
330
1D20E
100
AcDbEntity
  8
02製品
100
AcDbLine
 10
6.349999999999909
 20
1.133333333333212
 30
0.0
 11
7.619999999999891
 21
0.566666666666606
 31
0.0
  0
LINE
  5
1D225
330
1D20E
100
AcDbEntity
  8
02製品
100
AcDbLine
 10
7.619999999999891
 20
1.699999999999818
 30
0.0
 11
6.349999999999909
 21
1.133333333333212
 31
0.0
  0
LINE
  5
1D226
330
1D20E
100
AcDbEntity
  8
02製品
100
AcDbLine
 10
6.349999999999909
 20
2.266666666666424
 30
0.0
 11
7.619999999999891
 21
1.699999999999818
 31
0.0
  0
LINE
  5
1D227
330
1D20E
100
AcDbEntity
  8
02製品
100
AcDbLine
 10
7.619999999999891
 20
2.83333333333303
 30
0.0
 11
6.349999999999909
 21
3.400000000000091
 31
0.0
  0
LINE
  5
1D228
330
1D20E
100
AcDbEntity
  8
02製品
100
AcDbLine
 10
5.079999999999927
 20
2.83333333333303
 30
0.0
 11
6.349999999999909
 21
2.266666666666424
 31
0.0
  0
LINE
  5
1D229
330
1D20E
100
AcDbEntity
  8
02製品
100
AcDbLine
 10
6.349999999999909
 20
1.133333333333212
 30
0.0
 11
5.079999999999927
 21
1.699999999999818
 31
0.0
  0
LINE
  5
1D22A
330
1D20E
100
AcDbEntity
  8
02製品
100
AcDbLine
 10
5.079999999999927
 20
1.699999999999818
 30
0.0
 11
6.349999999999909
 21
2.266666666666424
 31
0.0
  0
LINE
  5
1D22B
330
1D20E
100
AcDbEntity
  8
02製品
100
AcDbLine
 10
5.079999999999927
 20
2.83333333333303
 30
0.0
 11
3.809999999999945
 21
2.266666666666424
 31
0.0
  0
LINE
  5
1D22C
330
1D20E
100
AcDbEntity
  8
02製品
100
AcDbLine
 10
3.809999999999945
 20
1.133333333333212
 30
0.0
 11
5.079999999999927
 21
1.699999999999818
 31
0.0
  0
LINE
  5
1D22D
330
1D20E
100
AcDbEntity
  8
02製品
100
AcDbLine
 10
5.079999999999927
 20
1.699999999999818
 30
0.0
 11
3.809999999999945
 21
2.266666666666424
 31
0.0
  0
LINE
  5
1D22E
330
1D20E
100
AcDbEntity
  8
02製品
100
AcDbLine
 10
5.079999999999927
 20
0.566666666666606
 30
0.0
 11
3.809999999999945
 21
1.133333333333212
 31
0.0
  0
LINE
  5
1D22F
330
1D20E
100
AcDbEntity
  8
02製品
100
AcDbLine
 10
5.079999999999927
 20
0.566666666666606
 30
0.0
 11
6.349999999999909
 21
1.133333333333212
 31
0.0
  0
LINE
  5
1D230
330
1D20E
100
AcDbEntity
  8
02製品
100
AcDbLine
 10
3.809999999999945
 20
3.400000000000091
 30
0.0
 11
5.079999999999927
 21
2.83333333333303
 31
0.0
  0
LINE
  5
1D231
330
1D20E
100
AcDbEntity
  8
02製品
100
AcDbLine
 10
6.349999999999909
 20
3.400000000000091
 30
0.0
 11
5.079999999999927
 21
2.83333333333303
 31
0.0
  0
LINE
  5
1D232
330
1D20E
100
AcDbEntity
  8
02製品
100
AcDbLine
 10
7.619999999999891
 20
2.83333333333303
 30
0.0
 11
8.890000000000327
 21
2.266666666666424
 31
0.0
  0
LINE
  5
1D233
330
1D20E
100
AcDbEntity
  8
02製品
100
AcDbLine
 10
8.890000000000327
 20
1.133333333333212
 30
0.0
 11
7.619999999999891
 21
1.699999999999818
 31
0.0
  0
LINE
  5
1D234
330
1D20E
100
AcDbEntity
  8
02製品
100
AcDbLine
 10
7.619999999999891
 20
1.699999999999818
 30
0.0
 11
8.890000000000327
 21
2.266666666666424
 31
0.0
  0
LINE
  5
1D235
330
1D20E
100
AcDbEntity
  8
02製品
100
AcDbLine
 10
8.890000000000327
 20
2.266666666666424
 30
0.0
 11
10.16000000000031
 21
2.83333333333303
 31
0.0
  0
LINE
  5
1D236
330
1D20E
100
AcDbEntity
  8
02製品
100
AcDbLine
 10
8.890000000000327
 20
2.266666666666424
 30
0.0
 11
10.16000000000031
 21
1.699999999999818
 31
0.0
  0
LINE
  5
1D237
330
1D20E
100
AcDbEntity
  8
02製品
100
AcDbLine
 10
8.890000000000327
 20
3.400000000000091
 30
0.0
 11
7.619999999999891
 21
2.83333333333303
 31
0.0
  0
LINE
  5
1D238
330
1D20E
100
AcDbEntity
  8
02製品
100
AcDbLine
 10
6.349999999999909
 20
4.533333333333303
 30
0.0
 11
5.079999999999927
 21
3.966666666666697
 31
0.0
  0
LINE
  5
1D239
330
1D20E
100
AcDbEntity
  8
02製品
100
AcDbLine
 10
3.809999999999945
 20
4.533333333333303
 30
0.0
 11
5.079999999999927
 21
3.966666666666697
 31
0.0
  0
ENDBLK
  5
1D23A
330
1D20E
100
AcDbEntity
  8
0
100
AcDbBlockEnd
  0
BLOCK
  5
1D23F
330
1D23C
100
AcDbEntity
  8
0
100
AcDbBlockBegin
  2
A$C29074
 70
     0
 10
0.0
 20
0.0
 30
0.0
  3
A$C29074
  1

  0
LINE
  5
1D240
330
1D23C
100
AcDbEntity
  8
02製品
100
AcDbLine
 10
1.270000000002256
 20
2.266666666666424
 30
0.0
 11
0.0000000000031832
 21
2.833333333335304
 31
0.0
  0
LINE
  5
1D241
330
1D23C
100
AcDbEntity
  8
02製品
100
AcDbLine
 10
2.540000000003147
 20
2.833333333331666
 30
0.0
 11
1.270000000002256
 21
2.266666666666424
 31
0.0
  0
LINE
  5
1D242
330
1D23C
100
AcDbEntity
  8
02製品
100
AcDbLine
 10
5.08000000000311
 20
2.833333333327573
 30
0.0
 11
3.810000000002674
 21
2.266666666662786
 31
0.0
  0
LINE
  5
1D243
330
1D23C
100
AcDbEntity
  8
02製品
100
AcDbLine
 10
6.350000000002638
 20
2.266666666659148
 30
0.0
 11
5.08000000000311
 21
2.833333333327573
 31
0.0
  0
LINE
  5
1D244
330
1D23C
100
AcDbEntity
  8
02製品
100
AcDbLine
 10
3.810000000002674
 20
2.266666666662786
 30
0.0
 11
2.540000000003147
 21
2.833333333331666
 31
0.0
  0
LINE
  5
1D245
330
1D23C
100
AcDbEntity
  8
02製品
100
AcDbLine
 10
2.540000000003147
 20
2.833333333331666
 30
0.0
 11
3.810000000004038
 21
3.399999999996453
 31
0.0
  0
LINE
  5
1D246
330
1D23C
100
AcDbEntity
  8
02製品
100
AcDbLine
 10
3.810000000004038
 20
3.399999999996453
 30
0.0
 11
2.540000000004966
 21
3.966666666664878
 31
0.0
  0
LINE
  5
1D247
330
1D23C
100
AcDbEntity
  8
02製品
100
AcDbLine
 10
2.540000000004966
 20
3.966666666664878
 30
0.0
 11
3.810000000005857
 21
4.533333333329665
 31
0.0
  0
LINE
  5
1D248
330
1D23C
100
AcDbEntity
  8
02製品
100
AcDbLine
 10
8.890000000003965
 20
3.399999999989177
 30
0.0
 11
7.620000000004893
 21
3.966666666657602
 31
0.0
  0
LINE
  5
1D249
330
1D23C
100
AcDbEntity
  8
02製品
100
AcDbLine
 10
7.620000000004893
 20
3.966666666657602
 30
0.0
 11
8.890000000005784
 21
4.533333333322389
 31
0.0
  0
LINE
  5
1D24A
330
1D23C
100
AcDbEntity
  8
02製品
100
AcDbLine
 10
8.890000000005784
 20
4.533333333322389
 30
0.0
 11
10.16000000000486
 21
3.966666666653964
 31
0.0
  0
LINE
  5
1D24B
330
1D23C
100
AcDbEntity
  8
02製品
100
AcDbLine
 10
6.350000000004002
 20
3.399999999992815
 30
0.0
 11
7.620000000003074
 21
2.833333333323935
 31
0.0
  0
LINE
  5
1D24C
330
1D23C
100
AcDbEntity
  8
02製品
100
AcDbLine
 10
3.810000000004038
 20
3.399999999996453
 30
0.0
 11
5.08000000000311
 21
2.833333333327573
 31
0.0
  0
LINE
  5
1D24D
330
1D23C
100
AcDbEntity
  8
02製品
100
AcDbLine
 10
5.08000000000311
 20
2.833333333327573
 30
0.0
 11
6.350000000004002
 21
3.399999999992815
 31
0.0
  0
LINE
  5
1D24E
330
1D23C
100
AcDbEntity
  8
02製品
100
AcDbLine
 10
6.350000000004002
 20
3.399999999992815
 30
0.0
 11
5.080000000004929
 21
3.96666666666124
 31
0.0
  0
LINE
  5
1D24F
330
1D23C
100
AcDbEntity
  8
02製品
100
AcDbLine
 10
7.620000000004893
 20
3.966666666657602
 30
0.0
 11
6.350000000004002
 21
3.399999999992815
 31
0.0
  0
LINE
  5
1D250
330
1D23C
100
AcDbEntity
  8
02製品
100
AcDbLine
 10
6.350000000005821
 20
4.533333333326027
 30
0.0
 11
7.620000000004893
 21
3.966666666657602
 31
0.0
  0
LINE
  5
1D251
330
1D23C
100
AcDbEntity
  8
02製品
100
AcDbLine
 10
5.080000000004929
 20
3.96666666666124
 30
0.0
 11
6.350000000005821
 21
4.533333333326027
 31
0.0
  0
LINE
  5
1D252
330
1D23C
100
AcDbEntity
  8
02製品
100
AcDbLine
 10
5.080000000004929
 20
3.96666666666124
 30
0.0
 11
3.810000000004038
 21
3.399999999996453
 31
0.0
  0
LINE
  5
1D253
330
1D23C
100
AcDbEntity
  8
02製品
100
AcDbLine
 10
3.810000000005857
 20
4.533333333329665
 30
0.0
 11
5.080000000004929
 21
3.96666666666124
 31
0.0
  0
LINE
  5
1D254
330
1D23C
100
AcDbEntity
  8
02製品
100
AcDbLine
 10
0.0000000000031832
 20
2.833333333335304
 30
0.0
 11
1.270000000004075
 21
3.400000000000091
 31
0.0
  0
LINE
  5
1D255
330
1D23C
100
AcDbEntity
  8
02製品
100
AcDbLine
 10
1.270000000004075
 20
3.400000000000091
 30
0.0
 11
2.540000000003147
 21
2.833333333331666
 31
0.0
  0
LINE
  5
1D256
330
1D23C
100
AcDbEntity
  8
02製品
100
AcDbLine
 10
0.0000000000050022
 20
3.966666666668516
 30
0.0
 11
1.270000000005894
 21
4.533333333333303
 31
0.0
  0
LINE
  5
1D257
330
1D23C
100
AcDbEntity
  8
02製品
100
AcDbLine
 10
1.270000000005894
 20
4.533333333333303
 30
0.0
 11
2.540000000004966
 21
3.966666666664878
 31
0.0
  0
LINE
  5
1D258
330
1D23C
100
AcDbEntity
  8
02製品
100
AcDbLine
 10
2.540000000004966
 20
3.966666666664878
 30
0.0
 11
1.270000000004075
 21
3.400000000000091
 31
0.0
  0
LINE
  5
1D259
330
1D23C
100
AcDbEntity
  8
02製品
100
AcDbLine
 10
1.270000000004075
 20
3.400000000000091
 30
0.0
 11
0.0000000000050022
 21
3.966666666668516
 31
0.0
  0
LINE
  5
1D25A
330
1D23C
100
AcDbEntity
  8
02製品
100
AcDbLine
 10
2.540000000001783
 20
1.699999999997999
 30
0.0
 11
3.810000000002674
 21
2.266666666662786
 31
0.0
  0
LINE
  5
1D25B
330
1D23C
100
AcDbEntity
  8
02製品
100
AcDbLine
 10
3.810000000000855
 20
1.133333333329574
 30
0.0
 11
2.540000000001783
 21
1.699999999997999
 31
0.0
  0
LINE
  5
1D25C
330
1D23C
100
AcDbEntity
  8
02製品
100
AcDbLine
 10
3.810000000002674
 20
2.266666666662786
 30
0.0
 11
5.080000000001746
 21
1.699999999994361
 31
0.0
  0
LINE
  5
1D25D
330
1D23C
100
AcDbEntity
  8
02製品
100
AcDbLine
 10
1.269999999999072
 20
0.0
 30
0.0
 11
0.0
 21
0.566666666668425
 31
0.0
  0
LINE
  5
1D25E
330
1D23C
100
AcDbEntity
  8
02製品
100
AcDbLine
 10
0.0
 20
0.566666666668425
 30
0.0
 11
1.270000000000891
 21
1.133333333333212
 31
0.0
  0
LINE
  5
1D25F
330
1D23C
100
AcDbEntity
  8
02製品
100
AcDbLine
 10
1.270000000000891
 20
1.133333333333212
 30
0.0
 11
2.539999999999964
 21
0.566666666664787
 31
0.0
  0
LINE
  5
1D260
330
1D23C
100
AcDbEntity
  8
02製品
100
AcDbLine
 10
1.270000000000891
 20
1.133333333333212
 30
0.0
 11
0.0000000000013642
 21
1.700000000001637
 31
0.0
  0
LINE
  5
1D261
330
1D23C
100
AcDbEntity
  8
02製品
100
AcDbLine
 10
0.0000000000013642
 20
1.700000000001637
 30
0.0
 11
1.270000000002256
 21
2.266666666666424
 31
0.0
  0
LINE
  5
1D262
330
1D23C
100
AcDbEntity
  8
02製品
100
AcDbLine
 10
2.540000000001783
 20
1.699999999997999
 30
0.0
 11
1.270000000000891
 21
1.133333333333212
 31
0.0
  0
LINE
  5
1D263
330
1D23C
100
AcDbEntity
  8
02製品
100
AcDbLine
 10
1.270000000002256
 20
2.266666666666424
 30
0.0
 11
2.540000000001783
 21
1.699999999997999
 31
0.0
  0
ENDBLK
  5
1D264
330
1D23C
100
AcDbEntity
  8
0
100
AcDbBlockEnd
  0
ENDSEC
  0
SECTION
  2
ENTITIES
  0
TEXT
  5
1D51A
330
1F
100
AcDbEntity
  8
01注記寸法
100
AcDbText
 10
6711.915352943101
 20
6358.946666580014
 30
0.0
 40
40.0
  1
3-TCL065
 72
     1
 11
6815.915352943101
 21
6378.946666580014
 31
0.0
100
AcDbText
 73
     2
  0
INSERT
  5
1D5FB
330
1F
100
AcDbEntity
  8
02製品
100
AcDbBlockReference
  2
A$C3105
 10
4078.326983925643
 20
8438.330690190442
 30
0.0
 41
15.0
 42
15.0
 43
15.0
  0
LINE
  5
1D5FC
330
1F
100
AcDbEntity
  8
06非表示
100
AcDbLine
 10
4135.476983925644
 20
8472.330690190442
 30
0.0
 11
4173.576983925639
 21
8472.330690190442
 31
0.0
  0
LINE
  5
1D5FD
330
1F
100
AcDbEntity
  8
06非表示
100
AcDbLine
 10
4154.526983925643
 20
8480.830690190442
 30
0.0
 11
4154.526983925643
 21
8463.830690190449
 31
0.0
  0
LINE
  5
1DD07
330
1F
100
AcDbEntity
  8
1　製品
100
AcDbLine
 10
5281.880656664468
 20
7639.1206228916
 30
0.0
 11
6064.880656664468
 21
7639.1206228916
 31
0.0
  0
LINE
  5
1DD08
330
1F
100
AcDbEntity
  8
1　製品
 48
20.0
100
AcDbLine
 10
4371.526983925634
 20
6894.120622891598
 30
0.0
 11
4371.526983925634
 21
7169.120622891601
 31
0.0
  0
LINE
  5
1DD09
330
1F
100
AcDbEntity
  8
1　製品
 48
20.0
100
AcDbLine
 10
4421.526983925634
 20
6894.120622891598
 30
0.0
 11
4421.526983925634
 21
7169.120622891601
 31
0.0
  0
LINE
  5
1DD0A
330
1F
100
AcDbEntity
  8
1　製品
 48
20.0
100
AcDbLine
 10
3937.526983925634
 20
6894.120622891598
 30
0.0
 11
3937.526983925634
 21
7169.120622891601
 31
0.0
  0
LINE
  5
1DD0B
330
1F
100
AcDbEntity
  8
1　製品
 48
20.0
100
AcDbLine
 10
3887.526983925634
 20
6894.120622891598
 30
0.0
 11
3887.526983925634
 21
7169.120622891601
 31
0.0
  0
LINE
  5
1DD0C
330
1F
100
AcDbEntity
  8
1　製品
 48
20.0
100
AcDbLine
 10
5277.680656664467
 20
7169.1206228916
 30
0.0
 11
5277.680656664467
 21
6984.1206228916
 31
0.0
  0
LINE
  5
1DD0D
330
1F
100
AcDbEntity
  8
1　製品
100
AcDbLine
 10
3659.526983925634
 20
7039.1206228916
 30
0.0
 11
3699.526983925634
 21
7039.1206228916
 31
0.0
  0
LINE
  5
1DD0E
330
1F
100
AcDbEntity
  8
1　製品
100
AcDbLine
 10
3659.526983925634
 20
7042.1206228916
 30
0.0
 11
3699.526983925634
 21
7042.1206228916
 31
0.0
  0
LINE
  5
1DD0F
330
1F
100
AcDbEntity
  8
1　製品
 48
20.0
100
AcDbLine
 10
3887.526983925634
 20
6894.120622891598
 30
0.0
 11
3937.526983925634
 21
6894.120622891598
 31
0.0
  0
LINE
  5
1DD10
330
1F
100
AcDbEntity
  8
1　製品
 48
20.0
100
AcDbLine
 10
3887.526983925634
 20
6984.120622891598
 30
0.0
 11
3937.526983925634
 21
6984.120622891598
 31
0.0
  0
LINE
  5
1DD11
330
1F
100
AcDbEntity
  8
1　製品
 48
20.0
100
AcDbLine
 10
4421.526983925634
 20
6894.120622891598
 30
0.0
 11
4371.526983925634
 21
6894.120622891598
 31
0.0
  0
LINE
  5
1DD12
330
1F
100
AcDbEntity
  8
1　製品
 48
20.0
100
AcDbLine
 10
4421.526983925634
 20
6984.120622891598
 30
0.0
 11
4371.526983925634
 21
6984.120622891598
 31
0.0
  0
LINE
  5
1DD13
330
1F
100
AcDbEntity
  8
1　製品
100
AcDbLine
 10
4649.526983925634
 20
7039.1206228916
 30
0.0
 11
4609.526983925634
 21
7039.1206228916
 31
0.0
  0
LINE
  5
1DD14
330
1F
100
AcDbEntity
  8
1　製品
100
AcDbLine
 10
4649.526983925634
 20
7042.1206228916
 30
0.0
 11
4609.526983925634
 21
7042.1206228916
 31
0.0
  0
LINE
  5
1DD15
330
1F
100
AcDbEntity
  8
1　製品
 48
20.0
100
AcDbLine
 10
5278.880656664468
 20
6984.147575579853
 30
0.0
 11
5282.827935436974
 21
6895.320622891595
 31
0.0
  0
LINE
  5
1DD16
330
1F
100
AcDbEntity
  8
1　製品
 48
20.0
100
AcDbLine
 10
5277.680656664467
 20
6984.1206228916
 30
0.0
 11
5281.680656664467
 21
6894.120622891598
 31
0.0
  0
LINE
  5
1DD17
330
1F
100
AcDbEntity
  8
1　製品
 48
20.0
100
AcDbLine
 10
5288.759864278892
 20
6895.320622891599
 30
0.0
 11
5291.201037597232
 21
6904.431205745721
 31
0.0
  0
LINE
  5
1DD18
330
1F
100
AcDbEntity
  8
1　製品
 48
20.0
100
AcDbLine
 10
5281.680656664467
 20
6894.120622891598
 30
0.0
 11
5289.680656664467
 21
6894.120622891598
 31
0.0
  0
LINE
  5
1DD19
330
1F
100
AcDbEntity
  8
1　製品
 48
20.0
100
AcDbLine
 10
5282.827935436974
 20
6895.320622891597
 30
0.0
 11
5288.759864278893
 21
6895.320622891601
 31
0.0
  0
LINE
  5
1DD1A
330
1F
100
AcDbEntity
  8
1　製品
 48
20.0
100
AcDbLine
 10
5292.360148588778
 20
6904.120622891598
 30
0.0
 11
5291.201037597232
 21
6904.431205745721
 31
0.0
  0
LINE
  5
1DD1B
330
1F
100
AcDbEntity
  8
1　製品
 48
20.0
100
AcDbLine
 10
5289.680656664467
 20
6894.120622891598
 30
0.0
 11
5292.360148588778
 21
6904.120622891598
 31
0.0
  0
LINE
  5
1DD1C
330
1F
100
AcDbEntity
  8
1　製品
100
AcDbLine
 10
5281.880656664468
 20
7039.1206228916
 30
0.0
 11
5321.880656664468
 21
7039.1206228916
 31
0.0
  0
LINE
  5
1DD1D
330
1F
100
AcDbEntity
  8
1　製品
100
AcDbLine
 10
5281.880656664468
 20
7042.1206228916
 30
0.0
 11
5321.880656664468
 21
7042.1206228916
 31
0.0
  0
LINE
  5
1DD1E
330
1F
100
AcDbEntity
  8
1　製品
 48
20.0
100
AcDbLine
 10
5278.880656664468
 20
7041.6206228916
 30
0.0
 11
5278.880656664468
 21
6984.147575579853
 31
0.0
  0
LINE
  5
1DD1F
330
1F
100
AcDbEntity
  8
1　製品
100
AcDbLine
 10
5321.880656664468
 20
7039.1206228916
 30
0.0
 11
5321.880656664468
 21
7042.1206228916
 31
0.0
  0
LINE
  5
1DD20
330
1F
100
AcDbEntity
  8
1　製品
100
AcDbLine
 10
3659.526983925634
 20
8863.830690190443
 30
0.0
 11
3659.526983925634
 21
8080.830690190442
 31
0.0
  0
LINE
  5
1DD21
330
1F
100
AcDbEntity
  8
1　製品
100
AcDbLine
 10
3699.526983925653
 20
8120.830690190441
 30
0.0
 11
3699.526983925634
 21
8823.830690190442
 31
0.0
  0
LINE
  5
1DD22
330
1F
100
AcDbEntity
  8
1　製品
100
AcDbLine
 10
4649.526983925634
 20
8080.830690190442
 30
0.0
 11
4649.526983925634
 21
8863.830690190443
 31
0.0
  0
LINE
  5
1DD23
330
1F
100
AcDbEntity
  8
1　製品
100
AcDbLine
 10
4609.526983925614
 20
8120.830690190441
 30
0.0
 11
4609.526983925633
 21
8823.830690190442
 31
0.0
  0
LINE
  5
1DD24
330
1F
100
AcDbEntity
  8
1　製品
100
AcDbLine
 10
4139.526983925634
 20
8120.830690190451
 30
0.0
 11
4139.526983925634
 21
8823.830690190453
 31
0.0
  0
LINE
  5
1DD25
330
1F
100
AcDbEntity
  8
1　製品
100
AcDbLine
 10
4169.526983925634
 20
8120.830690190451
 30
0.0
 11
4169.526983925634
 21
8823.83069019045
 31
0.0
  0
LINE
  5
1DD26
330
1F
100
AcDbEntity
  8
1　製品
100
AcDbLine
 10
3659.526983925634
 20
7639.1206228916
 30
0.0
 11
4649.526983925634
 21
7639.1206228916
 31
0.0
  0
LINE
  5
1DD27
330
1F
100
AcDbEntity
  8
1　製品
100
AcDbLine
 10
4647.026983925634
 20
7169.120622891601
 30
0.0
 11
3662.026983925634
 21
7169.1206228916
 31
0.0
  0
LINE
  5
1DD28
330
1F
100
AcDbEntity
  8
1　製品
  6
CENTER
100
AcDbLine
 10
3674.526983925634
 20
7154.1206228916
 30
0.0
 11
3694.526983925634
 21
7154.1206228916
 31
0.0
  0
CIRCLE
  5
1DD29
330
1F
100
AcDbEntity
  8
1　製品
100
AcDbCircle
 10
3684.526983925634
 20
7154.1206228916
 30
0.0
 40
5.0
  0
LINE
  5
1DD2A
330
1F
100
AcDbEntity
  8
1　製品
  6
CENTER
100
AcDbLine
 10
3684.526983925634
 20
7144.1206228916
 30
0.0
 11
3684.526983925634
 21
7164.1206228916
 31
0.0
  0
LINE
  5
1DD2B
330
1F
100
AcDbEntity
  8
1　製品
100
AcDbLine
 10
3662.026983925634
 20
7169.1206228916
 30
0.0
 11
3662.026983925634
 21
7139.1206228916
 31
0.0
  0
LINE
  5
1DD2C
330
1F
100
AcDbEntity
  8
1　製品
 48
20.0
100
AcDbLine
 10
3887.526983925634
 20
7169.120622891599
 30
0.0
 11
3937.526983925634
 21
7169.120622891601
 31
0.0
  0
LINE
  5
1DD2D
330
1F
100
AcDbEntity
  8
1　製品
  6
CENTER
100
AcDbLine
 10
3897.526983925634
 20
7146.1206228916
 30
0.0
 11
3897.526983925634
 21
7162.1206228916
 31
0.0
  0
LINE
  5
1DD2E
330
1F
100
AcDbEntity
  8
1　製品
  6
CENTER
100
AcDbLine
 10
3889.526983925634
 20
7154.1206228916
 30
0.0
 11
3905.526983925634
 21
7154.1206228916
 31
0.0
  0
CIRCLE
  5
1DD2F
330
1F
100
AcDbEntity
  8
1　製品
100
AcDbCircle
 10
3897.526983925634
 20
7154.1206228916
 30
0.0
 40
4.0
  0
LINE
  5
1DD30
330
1F
100
AcDbEntity
  8
1　製品
  6
CENTER
100
AcDbLine
 10
3919.526983925634
 20
7154.1206228916
 30
0.0
 11
3935.526983925634
 21
7154.1206228916
 31
0.0
  0
LINE
  5
1DD31
330
1F
100
AcDbEntity
  8
1　製品
  6
CENTER
100
AcDbLine
 10
3927.526983925634
 20
7146.1206228916
 30
0.0
 11
3927.526983925634
 21
7162.1206228916
 31
0.0
  0
CIRCLE
  5
1DD32
330
1F
100
AcDbEntity
  8
1　製品
100
AcDbCircle
 10
3927.526983925634
 20
7154.1206228916
 30
0.0
 40
4.0
  0
LINE
  5
1DD33
330
1F
100
AcDbEntity
  8
1　製品
  6
CENTER
100
AcDbLine
 10
4411.526983925634
 20
7146.1206228916
 30
0.0
 11
4411.526983925634
 21
7162.1206228916
 31
0.0
  0
CIRCLE
  5
1DD34
330
1F
100
AcDbEntity
  8
1　製品
100
AcDbCircle
 10
4381.526983925634
 20
7154.1206228916
 30
0.0
 40
4.0
  0
LINE
  5
1DD35
330
1F
100
AcDbEntity
  8
1　製品
  6
CENTER
100
AcDbLine
 10
4389.526983925634
 20
7154.1206228916
 30
0.0
 11
4373.526983925634
 21
7154.1206228916
 31
0.0
  0
LINE
  5
1DD36
330
1F
100
AcDbEntity
  8
1　製品
  6
CENTER
100
AcDbLine
 10
4381.526983925634
 20
7146.1206228916
 30
0.0
 11
4381.526983925634
 21
7162.1206228916
 31
0.0
  0
LINE
  5
1DD37
330
1F
100
AcDbEntity
  8
1　製品
 48
20.0
100
AcDbLine
 10
4421.526983925634
 20
7169.120622891599
 30
0.0
 11
4371.526983925634
 21
7169.120622891601
 31
0.0
  0
LINE
  5
1DD38
330
1F
100
AcDbEntity
  8
1　製品
  6
CENTER
100
AcDbLine
 10
4419.526983925634
 20
7154.1206228916
 30
0.0
 11
4403.526983925634
 21
7154.1206228916
 31
0.0
  0
CIRCLE
  5
1DD39
330
1F
100
AcDbEntity
  8
1　製品
100
AcDbCircle
 10
4411.526983925634
 20
7154.1206228916
 30
0.0
 40
4.0
  0
LINE
  5
1DD3A
330
1F
100
AcDbEntity
  8
1　製品
 48
15.0
100
AcDbLine
 10
3655.526983925634
 20
7639.1206228916
 30
0.0
 11
3805.526983925634
 21
7639.1206228916
 31
0.0
  0
LINE
  5
1DD3B
330
1F
100
AcDbEntity
  8
1　製品
 48
15.0
100
AcDbLine
 10
3695.526983925634
 20
7489.1206228916
 30
0.0
 11
3805.526983925634
 21
7599.1206228916
 31
0.0
  0
LINE
  5
1DD3C
330
1F
100
AcDbEntity
  8
1　製品
 48
15.0
100
AcDbLine
 10
3655.526983925634
 20
7639.1206228916
 30
0.0
 11
3655.526983925634
 21
7489.1206228916
 31
0.0
  0
LINE
  5
1DD3D
330
1F
100
AcDbEntity
  8
1　製品
100
AcDbLine
 10
3674.526983925631
 20
7509.1206228916
 30
0.0
 11
3694.526983925631
 21
7509.1206228916
 31
0.0
  0
CIRCLE
  5
1DD3E
330
1F
100
AcDbEntity
  8
1　製品
100
AcDbCircle
 10
3684.526983925631
 20
7509.1206228916
 30
0.0
 40
5.0
  0
CIRCLE
  5
1DD3F
330
1F
100
AcDbEntity
  8
1　製品
 48
15.0
100
AcDbCircle
 10
3684.526983925634
 20
7509.1206228916
 30
0.0
 40
5.0
  0
LINE
  5
1DD40
330
1F
100
AcDbEntity
  8
1　製品
 48
15.0
100
AcDbLine
 10
3674.526983925634
 20
7509.1206228916
 30
0.0
 11
3694.526983925634
 21
7509.1206228916
 31
0.0
  0
LINE
  5
1DD41
330
1F
100
AcDbEntity
  8
1　製品
 48
15.0
100
AcDbLine
 10
3655.526983925634
 20
7489.1206228916
 30
0.0
 11
3695.526983925634
 21
7489.1206228916
 31
0.0
  0
LINE
  5
1DD42
330
1F
100
AcDbEntity
  8
1　製品
100
AcDbLine
 10
3684.526983925633
 20
7519.1206228916
 30
0.0
 11
3684.526983925633
 21
7499.1206228916
 31
0.0
  0
LINE
  5
1DD43
330
1F
100
AcDbEntity
  8
1　製品
 48
15.0
100
AcDbLine
 10
3684.526983925634
 20
7519.1206228916
 30
0.0
 11
3684.526983925634
 21
7499.1206228916
 31
0.0
  0
CIRCLE
  5
1DD44
330
1F
100
AcDbEntity
  8
1　製品
100
AcDbCircle
 10
3689.526983925631
 20
7619.1206228916
 30
0.0
 40
5.0
  0
CIRCLE
  5
1DD45
330
1F
100
AcDbEntity
  8
1　製品
 48
15.0
100
AcDbCircle
 10
3689.526983925634
 20
7619.1206228916
 30
0.0
 40
5.0
  0
LINE
  5
1DD46
330
1F
100
AcDbEntity
  8
1　製品
100
AcDbLine
 10
3689.526983925633
 20
7629.1206228916
 30
0.0
 11
3689.526983925633
 21
7609.1206228916
 31
0.0
  0
LINE
  5
1DD47
330
1F
100
AcDbEntity
  8
1　製品
 48
15.0
100
AcDbLine
 10
3689.526983925634
 20
7629.1206228916
 30
0.0
 11
3689.526983925634
 21
7609.1206228916
 31
0.0
  0
LINE
  5
1DD48
330
1F
100
AcDbEntity
  8
1　製品
100
AcDbLine
 10
3674.526983925631
 20
7569.1206228916
 30
0.0
 11
3694.526983925631
 21
7569.1206228916
 31
0.0
  0
CIRCLE
  5
1DD49
330
1F
100
AcDbEntity
  8
1　製品
100
AcDbCircle
 10
3684.526983925631
 20
7569.1206228916
 30
0.0
 40
5.0
  0
LINE
  5
1DD4A
330
1F
100
AcDbEntity
  8
1　製品
100
AcDbLine
 10
3679.526983925631
 20
7619.1206228916
 30
0.0
 11
3699.526983925631
 21
7619.1206228916
 31
0.0
  0
CIRCLE
  5
1DD4B
330
1F
100
AcDbEntity
  8
1　製品
 48
15.0
100
AcDbCircle
 10
3684.526983925634
 20
7569.1206228916
 30
0.0
 40
5.0
  0
LINE
  5
1DD4C
330
1F
100
AcDbEntity
  8
1　製品
 48
15.0
100
AcDbLine
 10
3674.526983925634
 20
7569.1206228916
 30
0.0
 11
3694.526983925634
 21
7569.1206228916
 31
0.0
  0
LINE
  5
1DD4D
330
1F
100
AcDbEntity
  8
1　製品
 48
15.0
100
AcDbLine
 10
3679.526983925634
 20
7619.1206228916
 30
0.0
 11
3699.526983925634
 21
7619.1206228916
 31
0.0
  0
LINE
  5
1DD4E
330
1F
100
AcDbEntity
  8
1　製品
100
AcDbLine
 10
3684.526983925633
 20
7579.1206228916
 30
0.0
 11
3684.526983925633
 21
7559.1206228916
 31
0.0
  0
LINE
  5
1DD4F
330
1F
100
AcDbEntity
  8
1　製品
 48
15.0
100
AcDbLine
 10
3684.526983925634
 20
7579.1206228916
 30
0.0
 11
3684.526983925634
 21
7559.1206228916
 31
0.0
  0
LINE
  5
1DD50
330
1F
100
AcDbEntity
  8
1　製品
100
AcDbLine
 10
3784.526983925634
 20
7629.1206228916
 30
0.0
 11
3784.526983925634
 21
7609.1206228916
 31
0.0
  0
LINE
  5
1DD51
330
1F
100
AcDbEntity
  8
1　製品
 48
15.0
100
AcDbLine
 10
3805.526983925634
 20
7639.1206228916
 30
0.0
 11
3805.526983925634
 21
7599.1206228916
 31
0.0
  0
LINE
  5
1DD52
330
1F
100
AcDbEntity
  8
1　製品
 48
15.0
100
AcDbLine
 10
3784.526983925634
 20
7629.1206228916
 30
0.0
 11
3784.526983925634
 21
7609.1206228916
 31
0.0
  0
CIRCLE
  5
1DD53
330
1F
100
AcDbEntity
  8
1　製品
100
AcDbCircle
 10
3784.526983925634
 20
7619.1206228916
 30
0.0
 40
5.0
  0
CIRCLE
  5
1DD54
330
1F
100
AcDbEntity
  8
1　製品
 48
15.0
100
AcDbCircle
 10
3784.526983925634
 20
7619.1206228916
 30
0.0
 40
5.0
  0
LINE
  5
1DD55
330
1F
100
AcDbEntity
  8
1　製品
100
AcDbLine
 10
3794.526983925634
 20
7619.1206228916
 30
0.0
 11
3774.526983925634
 21
7619.1206228916
 31
0.0
  0
LINE
  5
1DD56
330
1F
100
AcDbEntity
  8
1　製品
 48
15.0
100
AcDbLine
 10
3774.526983925634
 20
7619.1206228916
 30
0.0
 11
3794.526983925634
 21
7619.1206228916
 31
0.0
  0
LINE
  5
1DD57
330
1F
100
AcDbEntity
  8
1　製品
  6
CENTER
100
AcDbLine
 10
4634.526983925634
 20
7154.1206228916
 30
0.0
 11
4614.526983925634
 21
7154.1206228916
 31
0.0
  0
LINE
  5
1DD58
330
1F
100
AcDbEntity
  8
1　製品
100
AcDbLine
 10
4647.026983925634
 20
7169.120622891601
 30
0.0
 11
4647.026983925634
 21
7139.1206228916
 31
0.0
  0
LINE
  5
1DD59
330
1F
100
AcDbEntity
  8
1　製品
  6
CENTER
100
AcDbLine
 10
4624.526983925634
 20
7144.1206228916
 30
0.0
 11
4624.526983925634
 21
7164.1206228916
 31
0.0
  0
CIRCLE
  5
1DD5A
330
1F
100
AcDbEntity
  8
1　製品
100
AcDbCircle
 10
4624.526983925634
 20
7154.1206228916
 30
0.0
 40
5.0
  0
LINE
  5
1DD5B
330
1F
100
AcDbEntity
  8
1　製品
100
AcDbLine
 10
5281.880656664468
 20
7162.1206228916
 30
0.0
 11
5281.880656664468
 21
7169.1206228916
 31
0.0
  0
LINE
  5
1DD5C
330
1F
100
AcDbEntity
  8
1　製品
 48
20.0
100
AcDbLine
 10
5278.880656664468
 20
7169.1206228916
 30
0.0
 11
5278.880656664468
 21
7136.6206228916
 31
0.0
  0
LINE
  5
1DD5D
330
1F
100
AcDbEntity
  8
1　製品
 48
20.0
100
AcDbLine
 10
5278.880656664468
 20
7169.1206228916
 30
0.0
 11
5277.680656664467
 21
7169.1206228916
 31
0.0
  0
LINE
  5
1DD5E
330
1F
100
AcDbEntity
  8
1　製品
 48
15.0
100
AcDbLine
 10
4613.526983925634
 20
7489.1206228916
 30
0.0
 11
4503.526983925634
 21
7599.1206228916
 31
0.0
  0
LINE
  5
1DD5F
330
1F
100
AcDbEntity
  8
1　製品
 48
15.0
100
AcDbLine
 10
4653.526983925634
 20
7639.1206228916
 30
0.0
 11
4653.526983925634
 21
7489.1206228916
 31
0.0
  0
LINE
  5
1DD60
330
1F
100
AcDbEntity
  8
1　製品
100
AcDbLine
 10
4634.526983925638
 20
7509.1206228916
 30
0.0
 11
4614.526983925638
 21
7509.1206228916
 31
0.0
  0
LINE
  5
1DD61
330
1F
100
AcDbEntity
  8
1　製品
 48
15.0
100
AcDbLine
 10
4653.526983925634
 20
7489.1206228916
 30
0.0
 11
4613.526983925634
 21
7489.1206228916
 31
0.0
  0
LINE
  5
1DD62
330
1F
100
AcDbEntity
  8
1　製品
 48
15.0
100
AcDbLine
 10
4634.526983925634
 20
7509.1206228916
 30
0.0
 11
4614.526983925634
 21
7509.1206228916
 31
0.0
  0
LINE
  5
1DD63
330
1F
100
AcDbEntity
  8
1　製品
100
AcDbLine
 10
4624.526983925636
 20
7519.1206228916
 30
0.0
 11
4624.526983925636
 21
7499.1206228916
 31
0.0
  0
CIRCLE
  5
1DD64
330
1F
100
AcDbEntity
  8
1　製品
100
AcDbCircle
 10
4624.526983925638
 20
7509.1206228916
 30
0.0
 40
5.0
  0
LINE
  5
1DD65
330
1F
100
AcDbEntity
  8
1　製品
 48
15.0
100
AcDbLine
 10
4624.526983925634
 20
7519.1206228916
 30
0.0
 11
4624.526983925634
 21
7499.1206228916
 31
0.0
  0
CIRCLE
  5
1DD66
330
1F
100
AcDbEntity
  8
1　製品
 48
15.0
100
AcDbCircle
 10
4624.526983925634
 20
7509.1206228916
 30
0.0
 40
5.0
  0
CIRCLE
  5
1DD67
330
1F
100
AcDbEntity
  8
1　製品
100
AcDbCircle
 10
4619.526983925638
 20
7619.1206228916
 30
0.0
 40
5.0
  0
CIRCLE
  5
1DD68
330
1F
100
AcDbEntity
  8
1　製品
 48
15.0
100
AcDbCircle
 10
4619.526983925634
 20
7619.1206228916
 30
0.0
 40
5.0
  0
CIRCLE
  5
1DD69
330
1F
100
AcDbEntity
  8
1　製品
 48
15.0
100
AcDbCircle
 10
4524.526983925634
 20
7619.1206228916
 30
0.0
 40
5.0
  0
LINE
  5
1DD6A
330
1F
100
AcDbEntity
  8
1　製品
 48
15.0
100
AcDbLine
 10
4503.526983925634
 20
7639.1206228916
 30
0.0
 11
4503.526983925634
 21
7599.1206228916
 31
0.0
  0
LINE
  5
1DD6B
330
1F
100
AcDbEntity
  8
1　製品
 48
15.0
100
AcDbLine
 10
4524.526983925634
 20
7629.1206228916
 30
0.0
 11
4524.526983925634
 21
7609.1206228916
 31
0.0
  0
LINE
  5
1DD6C
330
1F
100
AcDbEntity
  8
1　製品
100
AcDbLine
 10
4524.526983925634
 20
7629.1206228916
 30
0.0
 11
4524.526983925634
 21
7609.1206228916
 31
0.0
  0
CIRCLE
  5
1DD6D
330
1F
100
AcDbEntity
  8
1　製品
100
AcDbCircle
 10
4524.526983925634
 20
7619.1206228916
 30
0.0
 40
5.0
  0
LINE
  5
1DD6E
330
1F
100
AcDbEntity
  8
1　製品
100
AcDbLine
 10
4619.526983925636
 20
7629.1206228916
 30
0.0
 11
4619.526983925636
 21
7609.1206228916
 31
0.0
  0
LINE
  5
1DD6F
330
1F
100
AcDbEntity
  8
1　製品
 48
15.0
100
AcDbLine
 10
4619.526983925634
 20
7629.1206228916
 30
0.0
 11
4619.526983925634
 21
7609.1206228916
 31
0.0
  0
LINE
  5
1DD70
330
1F
100
AcDbEntity
  8
1　製品
 48
15.0
100
AcDbLine
 10
4534.526983925634
 20
7619.1206228916
 30
0.0
 11
4514.526983925634
 21
7619.1206228916
 31
0.0
  0
LINE
  5
1DD71
330
1F
100
AcDbEntity
  8
1　製品
100
AcDbLine
 10
4514.526983925634
 20
7619.1206228916
 30
0.0
 11
4534.526983925634
 21
7619.1206228916
 31
0.0
  0
LINE
  5
1DD72
330
1F
100
AcDbEntity
  8
1　製品
100
AcDbLine
 10
4634.526983925638
 20
7569.1206228916
 30
0.0
 11
4614.526983925638
 21
7569.1206228916
 31
0.0
  0
LINE
  5
1DD73
330
1F
100
AcDbEntity
  8
1　製品
100
AcDbLine
 10
4629.526983925638
 20
7619.1206228916
 30
0.0
 11
4609.526983925638
 21
7619.1206228916
 31
0.0
  0
LINE
  5
1DD74
330
1F
100
AcDbEntity
  8
1　製品
 48
15.0
100
AcDbLine
 10
4634.526983925634
 20
7569.1206228916
 30
0.0
 11
4614.526983925634
 21
7569.1206228916
 31
0.0
  0
LINE
  5
1DD75
330
1F
100
AcDbEntity
  8
1　製品
 48
15.0
100
AcDbLine
 10
4629.526983925634
 20
7619.1206228916
 30
0.0
 11
4609.526983925634
 21
7619.1206228916
 31
0.0
  0
LINE
  5
1DD76
330
1F
100
AcDbEntity
  8
1　製品
100
AcDbLine
 10
4624.526983925636
 20
7579.1206228916
 30
0.0
 11
4624.526983925636
 21
7559.1206228916
 31
0.0
  0
CIRCLE
  5
1DD77
330
1F
100
AcDbEntity
  8
1　製品
100
AcDbCircle
 10
4624.526983925638
 20
7569.1206228916
 30
0.0
 40
5.0
  0
LINE
  5
1DD78
330
1F
100
AcDbEntity
  8
1　製品
 48
15.0
100
AcDbLine
 10
4624.526983925634
 20
7579.1206228916
 30
0.0
 11
4624.526983925634
 21
7559.1206228916
 31
0.0
  0
CIRCLE
  5
1DD79
330
1F
100
AcDbEntity
  8
1　製品
 48
15.0
100
AcDbCircle
 10
4624.526983925634
 20
7569.1206228916
 30
0.0
 40
5.0
  0
LINE
  5
1DD7A
330
1F
100
AcDbEntity
  8
1　製品
 48
15.0
100
AcDbLine
 10
4653.526983925634
 20
7639.1206228916
 30
0.0
 11
4503.526983925634
 21
7639.1206228916
 31
0.0
  0
LINE
  5
1DD7B
330
1F
100
AcDbEntity
  8
1　製品
 48
15.0
100
AcDbLine
 10
5277.880656664466
 20
7639.1206228916
 30
0.0
 11
5277.880656664466
 21
7489.1206228916
 31
0.0
  0
LINE
  5
1DD7C
330
1F
100
AcDbEntity
  8
1　製品
 48
15.0
100
AcDbLine
 10
5327.880656664464
 20
7639.1206228916
 30
0.0
 11
5327.880656664464
 21
7489.1206228916
 31
0.0
  0
LINE
  5
1DD7D
330
1F
100
AcDbEntity
  8
1　製品
100
AcDbLine
 10
5296.880656664464
 20
7509.1206228916
 30
0.0
 11
5316.880656664464
 21
7509.1206228916
 31
0.0
  0
LINE
  5
1DD7E
330
1F
100
AcDbEntity
  8
1　製品
 48
15.0
100
AcDbLine
 10
5296.880656664464
 20
7509.1206228916
 30
0.0
 11
5316.880656664464
 21
7509.1206228916
 31
0.0
  0
LINE
  5
1DD7F
330
1F
100
AcDbEntity
  8
1　製品
 48
15.0
100
AcDbLine
 10
5277.880656664466
 20
7489.1206228916
 30
0.0
 11
5327.880656664464
 21
7489.1206228916
 31
0.0
  0
LINE
  5
1DD80
330
1F
100
AcDbEntity
  8
1　製品
100
AcDbLine
 10
5306.880656664466
 20
7519.1206228916
 30
0.0
 11
5306.880656664466
 21
7499.1206228916
 31
0.0
  0
CIRCLE
  5
1DD81
330
1F
100
AcDbEntity
  8
1　製品
100
AcDbCircle
 10
5306.880656664464
 20
7509.1206228916
 30
0.0
 40
5.0
  0
LINE
  5
1DD82
330
1F
100
AcDbEntity
  8
1　製品
 48
15.0
100
AcDbLine
 10
5306.880656664466
 20
7519.1206228916
 30
0.0
 11
5306.880656664466
 21
7499.1206228916
 31
0.0
  0
CIRCLE
  5
1DD83
330
1F
100
AcDbEntity
  8
1　製品
 48
15.0
100
AcDbCircle
 10
5306.880656664464
 20
7509.1206228916
 30
0.0
 40
5.0
  0
LINE
  5
1DD84
330
1F
100
AcDbEntity
  8
1　製品
100
AcDbLine
 10
5311.880656664466
 20
7629.1206228916
 30
0.0
 11
5311.880656664466
 21
7609.1206228916
 31
0.0
  0
CIRCLE
  5
1DD85
330
1F
100
AcDbEntity
  8
1　製品
100
AcDbCircle
 10
5311.880656664464
 20
7619.1206228916
 30
0.0
 40
5.0
  0
ARC
  5
1DD86
330
1F
100
AcDbEntity
  8
1　製品
 48
15.0
100
AcDbCircle
 10
5317.880656664464
 20
7619.1206228916
 30
0.0
 40
5.0
100
AcDbArc
 50
270.0
 51
90.0
  0
ARC
  5
1DD87
330
1F
100
AcDbEntity
  8
1　製品
 48
15.0
100
AcDbCircle
 10
5307.880656664464
 20
7619.1206228916
 30
0.0
 40
5.0
100
AcDbArc
 50
90.0
 51
270.0
  0
LINE
  5
1DD88
330
1F
100
AcDbEntity
  8
1　製品
 48
15.0
100
AcDbLine
 10
5312.880656664466
 20
7629.1206228916
 30
0.0
 11
5312.880656664466
 21
7609.1206228916
 31
0.0
  0
LINE
  5
1DD89
330
1F
100
AcDbEntity
  8
1　製品
100
AcDbLine
 10
5296.880656664464
 20
7569.1206228916
 30
0.0
 11
5316.880656664464
 21
7569.1206228916
 31
0.0
  0
LINE
  5
1DD8A
330
1F
100
AcDbEntity
  8
1　製品
 48
15.0
100
AcDbLine
 10
5296.880656664464
 20
7569.1206228916
 30
0.0
 11
5316.880656664464
 21
7569.1206228916
 31
0.0
  0
LINE
  5
1DD8B
330
1F
100
AcDbEntity
  8
1　製品
 48
15.0
100
AcDbLine
 10
5297.880656664464
 20
7619.1206228916
 30
0.0
 11
5327.880656664466
 21
7619.1206228916
 31
0.0
  0
LINE
  5
1DD8C
330
1F
100
AcDbEntity
  8
1　製品
100
AcDbLine
 10
5301.880656664464
 20
7619.1206228916
 30
0.0
 11
5321.880656664464
 21
7619.1206228916
 31
0.0
  0
LINE
  5
1DD8D
330
1F
100
AcDbEntity
  8
1　製品
100
AcDbLine
 10
5306.880656664466
 20
7579.1206228916
 30
0.0
 11
5306.880656664466
 21
7559.1206228916
 31
0.0
  0
CIRCLE
  5
1DD8E
330
1F
100
AcDbEntity
  8
1　製品
100
AcDbCircle
 10
5306.880656664464
 20
7569.1206228916
 30
0.0
 40
5.0
  0
CIRCLE
  5
1DD8F
330
1F
100
AcDbEntity
  8
1　製品
 48
15.0
100
AcDbCircle
 10
5306.880656664464
 20
7569.1206228916
 30
0.0
 40
5.0
  0
LINE
  5
1DD90
330
1F
100
AcDbEntity
  8
1　製品
 48
15.0
100
AcDbLine
 10
5306.880656664466
 20
7579.1206228916
 30
0.0
 11
5306.880656664466
 21
7559.1206228916
 31
0.0
  0
LINE
  5
1DD91
330
1F
100
AcDbEntity
  8
1　製品
 48
15.0
100
AcDbLine
 10
5307.880656664464
 20
7614.1206228916
 30
0.0
 11
5317.880656664464
 21
7614.1206228916
 31
0.0
  0
LINE
  5
1DD92
330
1F
100
AcDbEntity
  8
1　製品
 48
15.0
100
AcDbLine
 10
5277.880656664466
 20
7639.1206228916
 30
0.0
 11
5327.880656664464
 21
7639.1206228916
 31
0.0
  0
LINE
  5
1DD93
330
1F
100
AcDbEntity
  8
1　製品
 48
15.0
100
AcDbLine
 10
5307.880656664464
 20
7624.1206228916
 30
0.0
 11
5317.880656664464
 21
7624.1206228916
 31
0.0
  0
LINE
  5
1DD94
330
1F
100
AcDbEntity
  8
1　製品
100
AcDbLine
 10
4649.526983925634
 20
8120.830690190443
 30
0.0
 11
3982.526983925634
 21
8120.830690190428
 31
0.0
  0
LINE
  5
1DD95
330
1F
100
AcDbEntity
  8
1　製品
100
AcDbLine
 10
3659.526983925634
 20
8080.830690190442
 30
0.0
 11
4649.526983925634
 21
8080.830690190442
 31
0.0
  0
LINE
  5
1DD96
330
1F
100
AcDbEntity
  8
1　製品
100
AcDbLine
 10
3655.526983925634
 20
8076.830690190443
 30
0.0
 11
3805.526983925634
 21
8076.830690190434
 31
0.0
  0
LINE
  5
1DD97
330
1F
100
AcDbEntity
  8
1　製品
100
AcDbLine
 10
3805.526983925634
 20
8080.030690190441
 30
0.0
 11
3658.726983925635
 21
8080.030690190441
 31
0.0
  0
LINE
  5
1DD98
330
1F
100
AcDbEntity
  8
1　製品
100
AcDbLine
 10
3659.526983925634
 20
8120.830690190443
 30
0.0
 11
4310.026983925634
 21
8120.830690190428
 31
0.0
  0
LINE
  5
1DD99
330
1F
100
AcDbEntity
  8
1　製品
100
AcDbLine
 10
3658.726983925635
 20
8126.830690190442
 30
0.0
 11
3658.726983925635
 21
8080.030690190441
 31
0.0
  0
LINE
  5
1DD9A
330
1F
100
AcDbEntity
  8
1　製品
100
AcDbLine
 10
3655.526983925634
 20
8076.830690190442
 30
0.0
 11
3655.526983925636
 21
8126.830690190443
 31
0.0
  0
LINE
  5
1DD9B
330
1F
100
AcDbEntity
  8
1　製品
100
AcDbLine
 10
3658.726983925637
 20
8126.830690190443
 30
0.0
 11
3655.526983925636
 21
8126.830690190443
 31
0.0
  0
LINE
  5
1DD9C
330
1F
100
AcDbEntity
  8
1　製品
100
AcDbLine
 10
3805.526983925634
 20
8080.030690190436
 30
0.0
 11
3805.526983925634
 21
8076.830690190436
 31
0.0
  0
LINE
  5
1DD9D
330
1F
100
AcDbEntity
  8
1　製品
100
AcDbLine
 10
4609.526983925629
 20
8319.230690190388
 30
0.0
 11
4609.526983925633
 21
8120.830690190389
 31
0.0
  0
LINE
  5
1DD9E
330
1F
100
AcDbEntity
  8
1　製品
100
AcDbLine
 10
4609.526983925633
 20
8309.630690190388
 30
0.0
 11
4609.526983925633
 21
8120.830690190389
 31
0.0
  0
LINE
  5
1DD9F
330
1F
100
AcDbEntity
  8
1　製品
100
AcDbLine
 10
4503.526983925634
 20
8080.030690190441
 30
0.0
 11
4650.326983925634
 21
8080.030690190441
 31
0.0
  0
LINE
  5
1DDA0
330
1F
100
AcDbEntity
  8
1　製品
100
AcDbLine
 10
4653.526983925634
 20
8076.830690190443
 30
0.0
 11
4503.526983925634
 21
8076.830690190434
 31
0.0
  0
LINE
  5
1DDA1
330
1F
100
AcDbEntity
  8
1　製品
100
AcDbLine
 10
4503.526983925634
 20
8080.030690190436
 30
0.0
 11
4503.526983925634
 21
8076.830690190436
 31
0.0
  0
LINE
  5
1DDA2
330
1F
100
AcDbEntity
  8
1　製品
100
AcDbLine
 10
4653.526983925634
 20
8076.830690190442
 30
0.0
 11
4653.526983925633
 21
8126.830690190443
 31
0.0
  0
LINE
  5
1DDA3
330
1F
100
AcDbEntity
  8
1　製品
100
AcDbLine
 10
4650.326983925634
 20
8126.830690190442
 30
0.0
 11
4650.326983925634
 21
8080.030690190441
 31
0.0
  0
LINE
  5
1DDA4
330
1F
100
AcDbEntity
  8
1　製品
100
AcDbLine
 10
4650.326983925632
 20
8126.830690190443
 30
0.0
 11
4653.526983925633
 21
8126.830690190443
 31
0.0
  0
LINE
  5
1DDA5
330
1F
100
AcDbEntity
  8
1　製品
100
AcDbLine
 10
4646.326983925634
 20
8823.83069019044
 30
0.0
 11
3982.526983925634
 21
8823.830690190454
 31
0.0
  0
LINE
  5
1DDA6
330
1F
100
AcDbEntity
  8
1　製品
100
AcDbLine
 10
4649.526983925634
 20
8863.830690190443
 30
0.0
 11
3659.526983925634
 21
8863.830690190442
 31
0.0
  0
LINE
  5
1DDA7
330
1F
100
AcDbEntity
  8
1　製品
100
AcDbLine
 10
4649.526983925634
 20
8823.830690190442
 30
0.0
 11
3659.526983925634
 21
8823.830690190458
 31
0.0
  0
LINE
  5
1DDA8
330
1F
100
AcDbEntity
  8
1　製品
100
AcDbLine
 10
3699.526983925634
 20
8769.630690190495
 30
0.0
 11
3699.526983925634
 21
8823.830690190494
 31
0.0
  0
LINE
  5
1DDA9
330
1F
100
AcDbEntity
  8
1　製品
100
AcDbLine
 10
3699.52698392564
 20
8760.030690190495
 30
0.0
 11
3699.526983925634
 21
8823.830690190494
 31
0.0
  0
LINE
  5
1DDAA
330
1F
100
AcDbEntity
  8
1　製品
100
AcDbLine
 10
3805.526983925634
 20
8864.630690190443
 30
0.0
 11
3658.726983925635
 21
8864.630690190443
 31
0.0
  0
LINE
  5
1DDAB
330
1F
100
AcDbEntity
  8
1　製品
100
AcDbLine
 10
3655.526983925634
 20
8867.830690190442
 30
0.0
 11
3805.526983925634
 21
8867.83069019045
 31
0.0
  0
LINE
  5
1DDAC
330
1F
100
AcDbEntity
  8
1　製品
100
AcDbLine
 10
3658.726983925635
 20
8817.830690190442
 30
0.0
 11
3658.726983925635
 21
8864.630690190443
 31
0.0
  0
LINE
  5
1DDAD
330
1F
100
AcDbEntity
  8
1　製品
100
AcDbLine
 10
3655.526983925634
 20
8867.830690190443
 30
0.0
 11
3655.526983925636
 21
8817.830690190442
 31
0.0
  0
LINE
  5
1DDAE
330
1F
100
AcDbEntity
  8
1　製品
100
AcDbLine
 10
3658.726983925637
 20
8817.830690190442
 30
0.0
 11
3655.526983925636
 21
8817.830690190442
 31
0.0
  0
LINE
  5
1DDAF
330
1F
100
AcDbEntity
  8
1　製品
100
AcDbLine
 10
3805.526983925634
 20
8864.630690190448
 30
0.0
 11
3805.526983925634
 21
8867.830690190447
 31
0.0
  0
LINE
  5
1DDB0
330
1F
100
AcDbEntity
  8
1　製品
100
AcDbLine
 10
4653.526983925634
 20
8867.830690190442
 30
0.0
 11
4503.526983925634
 21
8867.83069019045
 31
0.0
  0
LINE
  5
1DDB1
330
1F
100
AcDbEntity
  8
1　製品
100
AcDbLine
 10
4503.526983925634
 20
8864.630690190443
 30
0.0
 11
4650.326983925634
 21
8864.630690190443
 31
0.0
  0
LINE
  5
1DDB2
330
1F
100
AcDbEntity
  8
1　製品
100
AcDbLine
 10
4503.526983925634
 20
8864.630690190448
 30
0.0
 11
4503.526983925634
 21
8867.830690190447
 31
0.0
  0
LINE
  5
1DDB3
330
1F
100
AcDbEntity
  8
1　製品
100
AcDbLine
 10
4650.326983925634
 20
8817.830690190442
 30
0.0
 11
4650.326983925634
 21
8864.630690190443
 31
0.0
  0
LINE
  5
1DDB4
330
1F
100
AcDbEntity
  8
1　製品
100
AcDbLine
 10
4653.526983925634
 20
8867.830690190443
 30
0.0
 11
4653.526983925633
 21
8817.830690190442
 31
0.0
  0
LINE
  5
1DDB5
330
1F
100
AcDbEntity
  8
1　製品
100
AcDbLine
 10
4650.326983925632
 20
8817.830690190442
 30
0.0
 11
4653.526983925633
 21
8817.830690190442
 31
0.0
  0
LINE
  5
1DDB6
330
1F
100
AcDbEntity
  8
1　製品
 48
20.0
100
AcDbLine
 10
6069.080656664469
 20
7169.1206228916
 30
0.0
 11
6069.080656664469
 21
6984.1206228916
 31
0.0
  0
LINE
  5
1DDB7
330
1F
100
AcDbEntity
  8
1　製品
 48
20.0
100
AcDbLine
 10
6069.080656664469
 20
6984.1206228916
 30
0.0
 11
6065.080656664469
 21
6894.120622891598
 31
0.0
  0
LINE
  5
1DDB8
330
1F
100
AcDbEntity
  8
1　製品
 48
20.0
100
AcDbLine
 10
6067.880656664468
 20
6984.147575579853
 30
0.0
 11
6063.933377891962
 21
6895.320622891595
 31
0.0
  0
LINE
  5
1DDB9
330
1F
100
AcDbEntity
  8
1　製品
 48
20.0
100
AcDbLine
 10
6057.080656664469
 20
6894.120622891598
 30
0.0
 11
6054.401164740158
 21
6904.120622891598
 31
0.0
  0
LINE
  5
1DDBA
330
1F
100
AcDbEntity
  8
1　製品
 48
20.0
100
AcDbLine
 10
6054.401164740158
 20
6904.120622891598
 30
0.0
 11
6055.560275731704
 21
6904.431205745721
 31
0.0
  0
LINE
  5
1DDBB
330
1F
100
AcDbEntity
  8
1　製品
 48
20.0
100
AcDbLine
 10
6058.001449050044
 20
6895.320622891599
 30
0.0
 11
6055.560275731704
 21
6904.431205745721
 31
0.0
  0
LINE
  5
1DDBC
330
1F
100
AcDbEntity
  8
1　製品
 48
20.0
100
AcDbLine
 10
6063.933377891962
 20
6895.320622891597
 30
0.0
 11
6058.001449050043
 21
6895.320622891601
 31
0.0
  0
LINE
  5
1DDBD
330
1F
100
AcDbEntity
  8
1　製品
 48
20.0
100
AcDbLine
 10
6065.080656664469
 20
6894.120622891598
 30
0.0
 11
6057.080656664469
 21
6894.120622891598
 31
0.0
  0
LINE
  5
1DDBE
330
1F
100
AcDbEntity
  8
1　製品
100
AcDbLine
 10
6064.880656664468
 20
7042.1206228916
 30
0.0
 11
6024.880656664466
 21
7042.1206228916
 31
0.0
  0
LINE
  5
1DDBF
330
1F
100
AcDbEntity
  8
1　製品
100
AcDbLine
 10
6064.880656664468
 20
7039.1206228916
 30
0.0
 11
6024.880656664466
 21
7039.1206228916
 31
0.0
  0
LINE
  5
1DDC0
330
1F
100
AcDbEntity
  8
1　製品
100
AcDbLine
 10
6024.880656664466
 20
7042.1206228916
 30
0.0
 11
6024.880656664466
 21
7039.1206228916
 31
0.0
  0
LINE
  5
1DDC1
330
1F
100
AcDbEntity
  8
1　製品
 48
20.0
100
AcDbLine
 10
6067.880656664468
 20
7041.6206228916
 30
0.0
 11
6067.880656664468
 21
6984.147575579853
 31
0.0
  0
LINE
  5
1DDC2
330
1F
100
AcDbEntity
  8
1　製品
100
AcDbLine
 10
6064.880656664468
 20
7162.1206228916
 30
0.0
 11
6064.880656664468
 21
7169.1206228916
 31
0.0
  0
LINE
  5
1DDC3
330
1F
100
AcDbEntity
  8
1　製品
 48
20.0
100
AcDbLine
 10
6067.880656664468
 20
7169.1206228916
 30
0.0
 11
6067.880656664468
 21
7136.6206228916
 31
0.0
  0
LINE
  5
1DDC4
330
1F
100
AcDbEntity
  8
1　製品
 48
20.0
100
AcDbLine
 10
6067.880656664468
 20
7169.1206228916
 30
0.0
 11
6069.080656664469
 21
7169.1206228916
 31
0.0
  0
LINE
  5
1DDC5
330
1F
100
AcDbEntity
  8
1　製品
 48
15.0
100
AcDbLine
 10
6068.88065666447
 20
7639.1206228916
 30
0.0
 11
6068.88065666447
 21
7489.1206228916
 31
0.0
  0
LINE
  5
1DDC6
330
1F
100
AcDbEntity
  8
1　製品
 48
15.0
100
AcDbLine
 10
6018.880656664472
 20
7639.1206228916
 30
0.0
 11
6018.880656664472
 21
7489.1206228916
 31
0.0
  0
LINE
  5
1DDC7
330
1F
100
AcDbEntity
  8
1　製品
100
AcDbLine
 10
6049.880656664472
 20
7509.1206228916
 30
0.0
 11
6029.880656664472
 21
7509.1206228916
 31
0.0
  0
CIRCLE
  5
1DDC8
330
1F
100
AcDbEntity
  8
1　製品
100
AcDbCircle
 10
6039.880656664472
 20
7509.1206228916
 30
0.0
 40
5.0
  0
LINE
  5
1DDC9
330
1F
100
AcDbEntity
  8
1　製品
100
AcDbLine
 10
6039.88065666447
 20
7519.1206228916
 30
0.0
 11
6039.88065666447
 21
7499.1206228916
 31
0.0
  0
LINE
  5
1DDCA
330
1F
100
AcDbEntity
  8
1　製品
 48
15.0
100
AcDbLine
 10
6068.88065666447
 20
7489.1206228916
 30
0.0
 11
6018.880656664472
 21
7489.1206228916
 31
0.0
  0
LINE
  5
1DDCB
330
1F
100
AcDbEntity
  8
1　製品
 48
15.0
100
AcDbLine
 10
6049.880656664472
 20
7509.1206228916
 30
0.0
 11
6029.880656664472
 21
7509.1206228916
 31
0.0
  0
CIRCLE
  5
1DDCC
330
1F
100
AcDbEntity
  8
1　製品
 48
15.0
100
AcDbCircle
 10
6039.880656664472
 20
7509.1206228916
 30
0.0
 40
5.0
  0
LINE
  5
1DDCD
330
1F
100
AcDbEntity
  8
1　製品
 48
15.0
100
AcDbLine
 10
6039.88065666447
 20
7519.1206228916
 30
0.0
 11
6039.88065666447
 21
7499.1206228916
 31
0.0
  0
CIRCLE
  5
1DDCE
330
1F
100
AcDbEntity
  8
1　製品
100
AcDbCircle
 10
6034.880656664472
 20
7619.1206228916
 30
0.0
 40
5.0
  0
LINE
  5
1DDCF
330
1F
100
AcDbEntity
  8
1　製品
100
AcDbLine
 10
6034.88065666447
 20
7629.1206228916
 30
0.0
 11
6034.88065666447
 21
7609.1206228916
 31
0.0
  0
LINE
  5
1DDD0
330
1F
100
AcDbEntity
  8
1　製品
 48
15.0
100
AcDbLine
 10
6033.88065666447
 20
7629.1206228916
 30
0.0
 11
6033.88065666447
 21
7609.1206228916
 31
0.0
  0
ARC
  5
1DDD1
330
1F
100
AcDbEntity
  8
1　製品
 48
15.0
100
AcDbCircle
 10
6038.880656664472
 20
7619.1206228916
 30
0.0
 40
5.0
100
AcDbArc
 50
270.0
 51
90.0
  0
ARC
  5
1DDD2
330
1F
100
AcDbEntity
  8
1　製品
 48
15.0
100
AcDbCircle
 10
6028.880656664472
 20
7619.1206228916
 30
0.0
 40
5.0
100
AcDbArc
 50
90.0
 51
270.0
  0
LINE
  5
1DDD3
330
1F
100
AcDbEntity
  8
1　製品
100
AcDbLine
 10
6044.880656664472
 20
7619.1206228916
 30
0.0
 11
6024.880656664472
 21
7619.1206228916
 31
0.0
  0
LINE
  5
1DDD4
330
1F
100
AcDbEntity
  8
1　製品
100
AcDbLine
 10
6049.880656664472
 20
7569.1206228916
 30
0.0
 11
6029.880656664472
 21
7569.1206228916
 31
0.0
  0
CIRCLE
  5
1DDD5
330
1F
100
AcDbEntity
  8
1　製品
100
AcDbCircle
 10
6039.880656664472
 20
7569.1206228916
 30
0.0
 40
5.0
  0
LINE
  5
1DDD6
330
1F
100
AcDbEntity
  8
1　製品
100
AcDbLine
 10
6039.88065666447
 20
7579.1206228916
 30
0.0
 11
6039.88065666447
 21
7559.1206228916
 31
0.0
  0
LINE
  5
1DDD7
330
1F
100
AcDbEntity
  8
1　製品
 48
15.0
100
AcDbLine
 10
6048.880656664472
 20
7619.1206228916
 30
0.0
 11
6018.88065666447
 21
7619.1206228916
 31
0.0
  0
LINE
  5
1DDD8
330
1F
100
AcDbEntity
  8
1　製品
 48
15.0
100
AcDbLine
 10
6038.880656664472
 20
7614.1206228916
 30
0.0
 11
6028.880656664472
 21
7614.1206228916
 31
0.0
  0
LINE
  5
1DDD9
330
1F
100
AcDbEntity
  8
1　製品
 48
15.0
100
AcDbLine
 10
6049.880656664472
 20
7569.1206228916
 30
0.0
 11
6029.880656664472
 21
7569.1206228916
 31
0.0
  0
LINE
  5
1DDDA
330
1F
100
AcDbEntity
  8
1　製品
 48
15.0
100
AcDbLine
 10
6039.88065666447
 20
7579.1206228916
 30
0.0
 11
6039.88065666447
 21
7559.1206228916
 31
0.0
  0
CIRCLE
  5
1DDDB
330
1F
100
AcDbEntity
  8
1　製品
 48
15.0
100
AcDbCircle
 10
6039.880656664472
 20
7569.1206228916
 30
0.0
 40
5.0
  0
LINE
  5
1DDDC
330
1F
100
AcDbEntity
  8
1　製品
 48
15.0
100
AcDbLine
 10
6068.88065666447
 20
7639.1206228916
 30
0.0
 11
6018.880656664472
 21
7639.1206228916
 31
0.0
  0
LINE
  5
1DDDD
330
1F
100
AcDbEntity
  8
1　製品
 48
15.0
100
AcDbLine
 10
6038.880656664472
 20
7624.1206228916
 30
0.0
 11
6028.880656664472
 21
7624.1206228916
 31
0.0
  0
LINE
  5
1DDDE
330
1F
100
AcDbEntity
  8
1　製品
100
AcDbLine
 10
3659.526983925634
 20
7489.1206228916
 30
0.0
 11
3659.526983925634
 21
7039.1206228916
 31
0.0
  0
LINE
  5
1DDDF
330
1F
100
AcDbEntity
  8
1　製品
100
AcDbLine
 10
3699.526983925634
 20
7169.1206228916
 30
0.0
 11
3699.526983925634
 21
7493.1206228916
 31
0.0
  0
LINE
  5
1DDE0
330
1F
100
AcDbEntity
  8
1　製品
100
AcDbLine
 10
3699.526983925634
 20
7039.1206228916
 30
0.0
 11
3699.526983925634
 21
7139.1206228916
 31
0.0
  0
LINE
  5
1DDE1
330
1F
100
AcDbEntity
  8
1　製品
100
AcDbLine
 10
4609.526983925634
 20
7039.1206228916
 30
0.0
 11
4609.526983925634
 21
7139.1206228916
 31
0.0
  0
LINE
  5
1DDE2
330
1F
100
AcDbEntity
  8
1　製品
100
AcDbLine
 10
4647.026983925634
 20
7139.1206228916
 30
0.0
 11
4421.526983925634
 21
7139.1206228916
 31
0.0
  0
LINE
  5
1DDE3
330
1F
100
AcDbEntity
  8
1　製品
100
AcDbLine
 10
3887.526983925634
 20
7139.1206228916
 30
0.0
 11
3662.026983925634
 21
7139.1206228916
 31
0.0
  0
LINE
  5
1DDE4
330
1F
100
AcDbEntity
  8
1　製品
100
AcDbLine
 10
4371.526983925634
 20
7139.1206228916
 30
0.0
 11
3937.526983925634
 21
7139.1206228916
 31
0.0
  0
LINE
  5
1DDE5
330
1F
100
AcDbEntity
  8
1　製品
100
AcDbLine
 10
4649.526983925634
 20
7489.1206228916
 30
0.0
 11
4649.526983925634
 21
7039.1206228916
 31
0.0
  0
LINE
  5
1DDE6
330
1F
100
AcDbEntity
  8
1　製品
100
AcDbLine
 10
4609.526983925634
 20
7169.120622891601
 30
0.0
 11
4609.526983925634
 21
7493.1206228916
 31
0.0
  0
LINE
  5
1DDE7
330
1F
100
AcDbEntity
  8
1　製品
100
AcDbLine
 10
3805.526983925634
 20
7599.1206228916
 30
0.0
 11
4503.526983925634
 21
7599.1206228916
 31
0.0
  0
LINE
  5
1DDE8
330
1F
100
AcDbEntity
  8
1　製品
  6
ByBlock
100
AcDbLine
 10
5278.880656664468
 20
7169.1206228916
 30
0.0
 11
5278.880656664468
 21
7139.1206228916
 31
0.0
  0
LINE
  5
1DDE9
330
1F
100
AcDbEntity
  8
1　製品
  6
ByBlock
100
AcDbLine
 10
5278.880656664468
 20
7139.1206228916
 30
0.0
 11
5279.880656664468
 21
7139.1206228916
 31
0.0
  0
LINE
  5
1DDEA
330
1F
100
AcDbEntity
  8
1　製品
  6
ByBlock
100
AcDbLine
 10
5281.880656664468
 20
7162.1206228916
 30
0.0
 11
5281.880656664468
 21
7141.1206228916
 31
0.0
  0
ARC
  5
1DDEB
330
1F
100
AcDbEntity
  8
1　製品
  6
ByBlock
100
AcDbCircle
 10
5279.880656664468
 20
7141.1206228916
 30
0.0
 40
2.0
100
AcDbArc
 50
270.0
 51
0.0
  0
LINE
  5
1DDEC
330
1F
100
AcDbEntity
  8
1　製品
  6
ByBlock
100
AcDbLine
 10
5278.880656664468
 20
7169.1206228916
 30
0.0
 11
5281.880656664468
 21
7169.1206228916
 31
0.0
  0
LINE
  5
1DDED
330
1F
100
AcDbEntity
  8
1　製品
 48
20.0
100
AcDbLine
 10
5277.680656664467
 20
7041.6206228916
 30
0.0
 11
5281.880656664468
 21
7041.6206228916
 31
0.0
  0
LINE
  5
1DDEE
330
1F
100
AcDbEntity
  8
1　製品
 48
20.0
100
AcDbLine
 10
5277.680656664467
 20
7136.6206228916
 30
0.0
 11
5281.880656664468
 21
7136.6206228916
 31
0.0
  0
LINE
  5
1DDEF
330
1F
100
AcDbEntity
  8
1　製品
100
AcDbLine
 10
5281.880656664468
 20
7489.1206228916
 30
0.0
 11
5281.880656664468
 21
7039.1206228916
 31
0.0
  0
LINE
  5
1DDF0
330
1F
100
AcDbEntity
  8
1　製品
100
AcDbLine
 10
5321.880656664468
 20
7042.1206228916
 30
0.0
 11
5321.880656664468
 21
7489.1206228916
 31
0.0
  0
LINE
  5
1DDF1
330
1F
100
AcDbEntity
  8
1　製品
100
AcDbLine
 10
6024.880656664466
 20
7042.1206228916
 30
0.0
 11
6024.880656664468
 21
7489.1206228916
 31
0.0
  0
LINE
  5
1DDF2
330
1F
100
AcDbEntity
  8
1　製品
100
AcDbLine
 10
6064.880656664468
 20
7489.1206228916
 30
0.0
 11
6064.880656664468
 21
7039.1206228916
 31
0.0
  0
LINE
  5
1DDF3
330
1F
100
AcDbEntity
  8
1　製品
100
AcDbLine
 10
5327.880656664464
 20
7599.1206228916
 30
0.0
 11
6018.880656664472
 21
7599.1206228916
 31
0.0
  0
LINE
  5
1DDF4
330
1F
100
AcDbEntity
  8
1　製品
  6
ByBlock
100
AcDbLine
 10
6067.880656664468
 20
7169.1206228916
 30
0.0
 11
6067.880656664468
 21
7139.1206228916
 31
0.0
  0
LINE
  5
1DDF5
330
1F
100
AcDbEntity
  8
1　製品
  6
ByBlock
100
AcDbLine
 10
6067.880656664468
 20
7139.1206228916
 30
0.0
 11
6066.880656664468
 21
7139.1206228916
 31
0.0
  0
LINE
  5
1DDF6
330
1F
100
AcDbEntity
  8
1　製品
  6
ByBlock
100
AcDbLine
 10
6064.880656664468
 20
7162.1206228916
 30
0.0
 11
6064.880656664468
 21
7141.1206228916
 31
0.0
  0
ARC
  5
1DDF7
330
1F
100
AcDbEntity
  8
1　製品
  6
ByBlock
100
AcDbCircle
 10
6066.880656664468
 20
7141.1206228916
 30
0.0
 40
2.0
100
AcDbArc
 50
180.0
 51
270.0
  0
LINE
  5
1DDF8
330
1F
100
AcDbEntity
  8
1　製品
  6
ByBlock
100
AcDbLine
 10
6067.880656664468
 20
7169.1206228916
 30
0.0
 11
6064.880656664468
 21
7169.1206228916
 31
0.0
  0
LINE
  5
1DDF9
330
1F
100
AcDbEntity
  8
1　製品
 48
20.0
100
AcDbLine
 10
6069.080656664469
 20
7136.6206228916
 30
0.0
 11
6064.880656664468
 21
7136.6206228916
 31
0.0
  0
LINE
  5
1DDFA
330
1F
100
AcDbEntity
  8
1　製品
 48
20.0
100
AcDbLine
 10
6069.080656664469
 20
7041.6206228916
 30
0.0
 11
6064.880656664468
 21
7041.6206228916
 31
0.0
  0
INSERT
  5
1DF57
330
1F
100
AcDbEntity
  8
02製品
100
AcDbBlockReference
  2
A$C29074
 10
3699.526983925562
 20
8755.830690190494
 30
0.0
 41
15.0
 42
15.0
 43
15.0
  0
INSERT
  5
1DFB1
330
1F
100
AcDbEntity
  8
02製品
100
AcDbBlockReference
  2
A$C29074
 10
4609.52698392568
 20
8188.830690190441
 30
0.0
 41
15.0
 42
15.0
 43
15.0
 50
180.0
  0
LINE
  5
1E1E8
330
1F
100
AcDbEntity
  8
02製品
  6
ByBlock
100
AcDbLine
 10
3653.92698392212
 20
7610.620622891602
 30
0.0
 11
3655.526983925634
 21
7610.620622891602
 31
0.0
  0
LINE
  5
1E1E9
330
1F
100
AcDbEntity
  8
02製品
  6
ByBlock
100
AcDbLine
 10
3653.92698392212
 20
7627.620622891602
 30
0.0
 11
3655.526983925634
 21
7627.620622891602
 31
0.0
  0
LINE
  5
1E1EA
330
1F
100
AcDbEntity
  8
02製品
  6
ByBlock
100
AcDbLine
 10
3655.526983925634
 20
7627.620622891602
 30
0.0
 11
3655.526983925634
 21
7610.620622891602
 31
0.0
  0
LINE
  5
1E1EB
330
1F
100
AcDbEntity
  8
02製品
  6
ByBlock
100
AcDbLine
 10
3653.92698392212
 20
7627.620622891602
 30
0.0
 11
3653.92698392212
 21
7610.620622891602
 31
0.0
  0
LINE
  5
1E1EC
330
1F
100
AcDbEntity
  8
02製品
  6
ByBlock
100
AcDbLine
 10
3649.123013585204
 20
7611.615083951172
 30
0.0
 11
3653.92698392212
 21
7611.615083951172
 31
0.0
  0
LINE
  5
1E1ED
330
1F
100
AcDbEntity
  8
02製品
  6
ByBlock
100
AcDbLine
 10
3648.426983922118
 20
7625.420708099198
 30
0.0
 11
3648.426983922118
 21
7612.820612070613
 31
0.0
  0
ARC
  5
1E1EE
330
1F
100
AcDbEntity
  8
02製品
  6
ByBlock
100
AcDbCircle
 10
3660.426983922121
 20
7619.120622891602
 30
0.0
 40
12.0
100
AcDbArc
 50
161.7759804502281
 51
198.2237823143786
  0
LINE
  5
1E1EF
330
1F
100
AcDbEntity
  8
02製品
  6
ByBlock
100
AcDbLine
 10
3649.028882115477
 20
7615.36787630957
 30
0.0
 11
3653.92698392212
 21
7615.36787630957
 31
0.0
  0
LINE
  5
1E1F0
330
1F
100
AcDbEntity
  8
02製品
  6
ByBlock
100
AcDbLine
 10
3649.028897374269
 20
7622.873430508789
 30
0.0
 11
3653.92698392212
 21
7622.873430508789
 31
0.0
  0
LINE
  5
1E1F1
330
1F
100
AcDbEntity
  8
02製品
  6
ByBlock
100
AcDbLine
 10
3649.123013585204
 20
7626.626192349609
 30
0.0
 11
3653.92698392212
 21
7626.626192349609
 31
0.0
  0
LINE
  5
1E1F2
330
1F
100
AcDbEntity
  8
02製品
  6
ByBlock
100
AcDbLine
 10
3649.028885685068
 20
7622.873454163911
 30
0.0
 11
3648.426983922118
 21
7625.420708099198
 31
0.0
  0
LINE
  5
1E1F3
330
1F
100
AcDbEntity
  8
02製品
  6
ByBlock
100
AcDbLine
 10
3648.426983922118
 20
7612.820612070613
 30
0.0
 11
3649.028859955568
 21
7615.367923442913
 31
0.0
  0
LINE
  5
1E1F4
330
1F
100
AcDbEntity
  8
02製品
  6
ByBlock
100
AcDbLine
 10
3648.426983922118
 20
7612.820612070613
 30
0.0
 11
3649.122981513281
 21
7611.615108747586
 31
0.0
  0
LINE
  5
1E1F5
330
1F
100
AcDbEntity
  8
02製品
  6
ByBlock
100
AcDbLine
 10
3649.123002708695
 20
7626.62624813376
 30
0.0
 11
3648.426983922118
 21
7625.420708099198
 31
0.0
  0
LINE
  5
1E1F6
330
1F
100
AcDbEntity
  8
02製品
  6
ByBlock
100
AcDbLine
 10
3653.92698392212
 20
7560.620622891602
 30
0.0
 11
3655.526983925634
 21
7560.620622891602
 31
0.0
  0
LINE
  5
1E1F7
330
1F
100
AcDbEntity
  8
02製品
  6
ByBlock
100
AcDbLine
 10
3653.92698392212
 20
7577.620622891602
 30
0.0
 11
3655.526983925634
 21
7577.620622891602
 31
0.0
  0
LINE
  5
1E1F8
330
1F
100
AcDbEntity
  8
02製品
  6
ByBlock
100
AcDbLine
 10
3655.526983925634
 20
7577.620622891602
 30
0.0
 11
3655.526983925634
 21
7560.620622891602
 31
0.0
  0
LINE
  5
1E1F9
330
1F
100
AcDbEntity
  8
02製品
  6
ByBlock
100
AcDbLine
 10
3653.92698392212
 20
7577.620622891602
 30
0.0
 11
3653.92698392212
 21
7560.620622891602
 31
0.0
  0
LINE
  5
1E1FA
330
1F
100
AcDbEntity
  8
02製品
  6
ByBlock
100
AcDbLine
 10
3649.123013585204
 20
7561.615083951172
 30
0.0
 11
3653.92698392212
 21
7561.615083951172
 31
0.0
  0
LINE
  5
1E1FB
330
1F
100
AcDbEntity
  8
02製品
  6
ByBlock
100
AcDbLine
 10
3648.426983922118
 20
7575.420708099198
 30
0.0
 11
3648.426983922118
 21
7562.820612070613
 31
0.0
  0
ARC
  5
1E1FC
330
1F
100
AcDbEntity
  8
02製品
  6
ByBlock
100
AcDbCircle
 10
3660.426983922121
 20
7569.120622891602
 30
0.0
 40
12.0
100
AcDbArc
 50
161.7759804502281
 51
198.2237823143786
  0
LINE
  5
1E1FD
330
1F
100
AcDbEntity
  8
02製品
  6
ByBlock
100
AcDbLine
 10
3649.028882115477
 20
7565.36787630957
 30
0.0
 11
3653.92698392212
 21
7565.36787630957
 31
0.0
  0
LINE
  5
1E1FE
330
1F
100
AcDbEntity
  8
02製品
  6
ByBlock
100
AcDbLine
 10
3649.028897374269
 20
7572.873430508789
 30
0.0
 11
3653.92698392212
 21
7572.873430508789
 31
0.0
  0
LINE
  5
1E1FF
330
1F
100
AcDbEntity
  8
02製品
  6
ByBlock
100
AcDbLine
 10
3649.123013585204
 20
7576.626192349609
 30
0.0
 11
3653.92698392212
 21
7576.626192349609
 31
0.0
  0
LINE
  5
1E200
330
1F
100
AcDbEntity
  8
02製品
  6
ByBlock
100
AcDbLine
 10
3649.028885685068
 20
7572.873454163911
 30
0.0
 11
3648.426983922118
 21
7575.420708099198
 31
0.0
  0
LINE
  5
1E201
330
1F
100
AcDbEntity
  8
02製品
  6
ByBlock
100
AcDbLine
 10
3648.426983922118
 20
7562.820612070613
 30
0.0
 11
3649.028859955568
 21
7565.367923442913
 31
0.0
  0
LINE
  5
1E202
330
1F
100
AcDbEntity
  8
02製品
  6
ByBlock
100
AcDbLine
 10
3648.426983922118
 20
7562.820612070613
 30
0.0
 11
3649.122981513281
 21
7561.615108747586
 31
0.0
  0
LINE
  5
1E203
330
1F
100
AcDbEntity
  8
02製品
  6
ByBlock
100
AcDbLine
 10
3649.123002708695
 20
7576.62624813376
 30
0.0
 11
3648.426983922118
 21
7575.420708099198
 31
0.0
  0
LINE
  5
1E204
330
1F
100
AcDbEntity
  8
02製品
  6
ByBlock
100
AcDbLine
 10
3653.92698392212
 20
7500.620622891602
 30
0.0
 11
3655.526983925634
 21
7500.620622891602
 31
0.0
  0
LINE
  5
1E205
330
1F
100
AcDbEntity
  8
02製品
  6
ByBlock
100
AcDbLine
 10
3653.92698392212
 20
7517.620622891602
 30
0.0
 11
3655.526983925634
 21
7517.620622891602
 31
0.0
  0
LINE
  5
1E206
330
1F
100
AcDbEntity
  8
02製品
  6
ByBlock
100
AcDbLine
 10
3655.526983925634
 20
7517.620622891602
 30
0.0
 11
3655.526983925634
 21
7500.620622891602
 31
0.0
  0
LINE
  5
1E207
330
1F
100
AcDbEntity
  8
02製品
  6
ByBlock
100
AcDbLine
 10
3653.92698392212
 20
7517.620622891602
 30
0.0
 11
3653.92698392212
 21
7500.620622891602
 31
0.0
  0
LINE
  5
1E208
330
1F
100
AcDbEntity
  8
02製品
  6
ByBlock
100
AcDbLine
 10
3649.123013585204
 20
7501.615083951172
 30
0.0
 11
3653.92698392212
 21
7501.615083951172
 31
0.0
  0
LINE
  5
1E209
330
1F
100
AcDbEntity
  8
02製品
  6
ByBlock
100
AcDbLine
 10
3648.426983922118
 20
7515.420708099198
 30
0.0
 11
3648.426983922118
 21
7502.820612070613
 31
0.0
  0
ARC
  5
1E20A
330
1F
100
AcDbEntity
  8
02製品
  6
ByBlock
100
AcDbCircle
 10
3660.426983922122
 20
7509.120622891602
 30
0.0
 40
12.0
100
AcDbArc
 50
161.7759804502281
 51
198.2237823143786
  0
LINE
  5
1E20B
330
1F
100
AcDbEntity
  8
02製品
  6
ByBlock
100
AcDbLine
 10
3649.028882115477
 20
7505.36787630957
 30
0.0
 11
3653.92698392212
 21
7505.36787630957
 31
0.0
  0
LINE
  5
1E20C
330
1F
100
AcDbEntity
  8
02製品
  6
ByBlock
100
AcDbLine
 10
3649.02889737427
 20
7512.873430508789
 30
0.0
 11
3653.92698392212
 21
7512.873430508789
 31
0.0
  0
LINE
  5
1E20D
330
1F
100
AcDbEntity
  8
02製品
  6
ByBlock
100
AcDbLine
 10
3649.123013585204
 20
7516.626192349609
 30
0.0
 11
3653.92698392212
 21
7516.626192349609
 31
0.0
  0
LINE
  5
1E20E
330
1F
100
AcDbEntity
  8
02製品
  6
ByBlock
100
AcDbLine
 10
3649.028885685068
 20
7512.873454163911
 30
0.0
 11
3648.426983922118
 21
7515.420708099198
 31
0.0
  0
LINE
  5
1E20F
330
1F
100
AcDbEntity
  8
02製品
  6
ByBlock
100
AcDbLine
 10
3648.426983922118
 20
7502.820612070613
 30
0.0
 11
3649.028859955568
 21
7505.367923442913
 31
0.0
  0
LINE
  5
1E210
330
1F
100
AcDbEntity
  8
02製品
  6
ByBlock
100
AcDbLine
 10
3648.426983922118
 20
7502.820612070613
 30
0.0
 11
3649.122981513281
 21
7501.615108747586
 31
0.0
  0
LINE
  5
1E211
330
1F
100
AcDbEntity
  8
02製品
  6
ByBlock
100
AcDbLine
 10
3649.123002708695
 20
7516.62624813376
 30
0.0
 11
3648.426983922118
 21
7515.420708099198
 31
0.0
  0
LINE
  5
1E212
330
1F
100
AcDbEntity
  8
02製品
  6
ByBlock
100
AcDbLine
 10
4655.126983929149
 20
7610.620622891602
 30
0.0
 11
4653.526983925634
 21
7610.620622891602
 31
0.0
  0
LINE
  5
1E213
330
1F
100
AcDbEntity
  8
02製品
  6
ByBlock
100
AcDbLine
 10
4655.126983929149
 20
7627.620622891602
 30
0.0
 11
4653.526983925634
 21
7627.620622891602
 31
0.0
  0
LINE
  5
1E214
330
1F
100
AcDbEntity
  8
02製品
  6
ByBlock
100
AcDbLine
 10
4653.526983925634
 20
7627.620622891602
 30
0.0
 11
4653.526983925634
 21
7610.620622891602
 31
0.0
  0
LINE
  5
1E215
330
1F
100
AcDbEntity
  8
02製品
  6
ByBlock
100
AcDbLine
 10
4655.126983929149
 20
7627.620622891602
 30
0.0
 11
4655.126983929149
 21
7610.620622891602
 31
0.0
  0
LINE
  5
1E216
330
1F
100
AcDbEntity
  8
02製品
  6
ByBlock
100
AcDbLine
 10
4659.930954266065
 20
7611.615083951172
 30
0.0
 11
4655.126983929149
 21
7611.615083951172
 31
0.0
  0
LINE
  5
1E217
330
1F
100
AcDbEntity
  8
02製品
  6
ByBlock
100
AcDbLine
 10
4660.626983929151
 20
7625.420708099198
 30
0.0
 11
4660.626983929151
 21
7612.820612070613
 31
0.0
  0
ARC
  5
1E218
330
1F
100
AcDbEntity
  8
02製品
  6
ByBlock
100
AcDbCircle
 10
4648.626983929148
 20
7619.120622891602
 30
0.0
 40
12.0
100
AcDbArc
 50
341.7762176856215
 51
18.22401954977258
  0
LINE
  5
1E219
330
1F
100
AcDbEntity
  8
02製品
  6
ByBlock
100
AcDbLine
 10
4660.025085735791
 20
7615.36787630957
 30
0.0
 11
4655.126983929149
 21
7615.36787630957
 31
0.0
  0
LINE
  5
1E21A
330
1F
100
AcDbEntity
  8
02製品
  6
ByBlock
100
AcDbLine
 10
4660.025070477
 20
7622.873430508789
 30
0.0
 11
4655.126983929149
 21
7622.873430508789
 31
0.0
  0
LINE
  5
1E21B
330
1F
100
AcDbEntity
  8
02製品
  6
ByBlock
100
AcDbLine
 10
4659.930954266065
 20
7626.626192349609
 30
0.0
 11
4655.126983929149
 21
7626.626192349609
 31
0.0
  0
LINE
  5
1E21C
330
1F
100
AcDbEntity
  8
02製品
  6
ByBlock
100
AcDbLine
 10
4660.025082166201
 20
7622.873454163911
 30
0.0
 11
4660.626983929151
 21
7625.420708099198
 31
0.0
  0
LINE
  5
1E21D
330
1F
100
AcDbEntity
  8
02製品
  6
ByBlock
100
AcDbLine
 10
4660.626983929151
 20
7612.820612070613
 30
0.0
 11
4660.025107895701
 21
7615.367923442913
 31
0.0
  0
LINE
  5
1E21E
330
1F
100
AcDbEntity
  8
02製品
  6
ByBlock
100
AcDbLine
 10
4660.626983929151
 20
7612.820612070613
 30
0.0
 11
4659.930986337988
 21
7611.615108747586
 31
0.0
  0
LINE
  5
1E21F
330
1F
100
AcDbEntity
  8
02製品
  6
ByBlock
100
AcDbLine
 10
4659.930965142574
 20
7626.62624813376
 30
0.0
 11
4660.626983929151
 21
7625.420708099198
 31
0.0
  0
LINE
  5
1E220
330
1F
100
AcDbEntity
  8
02製品
  6
ByBlock
100
AcDbLine
 10
4655.126983929149
 20
7560.620622891602
 30
0.0
 11
4653.526983925634
 21
7560.620622891602
 31
0.0
  0
LINE
  5
1E221
330
1F
100
AcDbEntity
  8
02製品
  6
ByBlock
100
AcDbLine
 10
4655.126983929149
 20
7577.620622891602
 30
0.0
 11
4653.526983925634
 21
7577.620622891602
 31
0.0
  0
LINE
  5
1E222
330
1F
100
AcDbEntity
  8
02製品
  6
ByBlock
100
AcDbLine
 10
4653.526983925634
 20
7577.620622891602
 30
0.0
 11
4653.526983925634
 21
7560.620622891602
 31
0.0
  0
LINE
  5
1E223
330
1F
100
AcDbEntity
  8
02製品
  6
ByBlock
100
AcDbLine
 10
4655.126983929149
 20
7577.620622891602
 30
0.0
 11
4655.126983929149
 21
7560.620622891602
 31
0.0
  0
LINE
  5
1E224
330
1F
100
AcDbEntity
  8
02製品
  6
ByBlock
100
AcDbLine
 10
4659.930954266065
 20
7561.615083951172
 30
0.0
 11
4655.126983929149
 21
7561.615083951172
 31
0.0
  0
LINE
  5
1E225
330
1F
100
AcDbEntity
  8
02製品
  6
ByBlock
100
AcDbLine
 10
4660.626983929151
 20
7575.420708099198
 30
0.0
 11
4660.626983929151
 21
7562.820612070613
 31
0.0
  0
ARC
  5
1E226
330
1F
100
AcDbEntity
  8
02製品
  6
ByBlock
100
AcDbCircle
 10
4648.626983929148
 20
7569.120622891602
 30
0.0
 40
12.0
100
AcDbArc
 50
341.7762176856215
 51
18.22401954977258
  0
LINE
  5
1E227
330
1F
100
AcDbEntity
  8
02製品
  6
ByBlock
100
AcDbLine
 10
4660.025085735791
 20
7565.36787630957
 30
0.0
 11
4655.126983929149
 21
7565.36787630957
 31
0.0
  0
LINE
  5
1E228
330
1F
100
AcDbEntity
  8
02製品
  6
ByBlock
100
AcDbLine
 10
4660.025070477
 20
7572.873430508789
 30
0.0
 11
4655.126983929149
 21
7572.873430508789
 31
0.0
  0
LINE
  5
1E229
330
1F
100
AcDbEntity
  8
02製品
  6
ByBlock
100
AcDbLine
 10
4659.930954266065
 20
7576.626192349609
 30
0.0
 11
4655.126983929149
 21
7576.626192349609
 31
0.0
  0
LINE
  5
1E22A
330
1F
100
AcDbEntity
  8
02製品
  6
ByBlock
100
AcDbLine
 10
4660.025082166201
 20
7572.873454163911
 30
0.0
 11
4660.626983929151
 21
7575.420708099198
 31
0.0
  0
LINE
  5
1E22B
330
1F
100
AcDbEntity
  8
02製品
  6
ByBlock
100
AcDbLine
 10
4660.626983929151
 20
7562.820612070613
 30
0.0
 11
4660.025107895701
 21
7565.367923442913
 31
0.0
  0
LINE
  5
1E22C
330
1F
100
AcDbEntity
  8
02製品
  6
ByBlock
100
AcDbLine
 10
4660.626983929151
 20
7562.820612070613
 30
0.0
 11
4659.930986337988
 21
7561.615108747586
 31
0.0
  0
LINE
  5
1E22D
330
1F
100
AcDbEntity
  8
02製品
  6
ByBlock
100
AcDbLine
 10
4659.930965142574
 20
7576.62624813376
 30
0.0
 11
4660.626983929151
 21
7575.420708099198
 31
0.0
  0
LINE
  5
1E22E
330
1F
100
AcDbEntity
  8
02製品
  6
ByBlock
100
AcDbLine
 10
4655.126983929149
 20
7500.620622891602
 30
0.0
 11
4653.526983925634
 21
7500.620622891602
 31
0.0
  0
LINE
  5
1E22F
330
1F
100
AcDbEntity
  8
02製品
  6
ByBlock
100
AcDbLine
 10
4655.126983929149
 20
7517.620622891602
 30
0.0
 11
4653.526983925634
 21
7517.620622891602
 31
0.0
  0
LINE
  5
1E230
330
1F
100
AcDbEntity
  8
02製品
  6
ByBlock
100
AcDbLine
 10
4653.526983925634
 20
7517.620622891602
 30
0.0
 11
4653.526983925634
 21
7500.620622891602
 31
0.0
  0
LINE
  5
1E231
330
1F
100
AcDbEntity
  8
02製品
  6
ByBlock
100
AcDbLine
 10
4655.126983929149
 20
7517.620622891602
 30
0.0
 11
4655.126983929149
 21
7500.620622891602
 31
0.0
  0
LINE
  5
1E232
330
1F
100
AcDbEntity
  8
02製品
  6
ByBlock
100
AcDbLine
 10
4659.930954266065
 20
7501.615083951172
 30
0.0
 11
4655.126983929149
 21
7501.615083951172
 31
0.0
  0
LINE
  5
1E233
330
1F
100
AcDbEntity
  8
02製品
  6
ByBlock
100
AcDbLine
 10
4660.626983929151
 20
7515.420708099198
 30
0.0
 11
4660.626983929151
 21
7502.820612070613
 31
0.0
  0
ARC
  5
1E234
330
1F
100
AcDbEntity
  8
02製品
  6
ByBlock
100
AcDbCircle
 10
4648.626983929147
 20
7509.120622891602
 30
0.0
 40
12.0
100
AcDbArc
 50
341.7762176856215
 51
18.22401954977122
  0
LINE
  5
1E235
330
1F
100
AcDbEntity
  8
02製品
  6
ByBlock
100
AcDbLine
 10
4660.025085735791
 20
7505.36787630957
 30
0.0
 11
4655.126983929149
 21
7505.36787630957
 31
0.0
  0
LINE
  5
1E236
330
1F
100
AcDbEntity
  8
02製品
  6
ByBlock
100
AcDbLine
 10
4660.025070476999
 20
7512.873430508789
 30
0.0
 11
4655.126983929149
 21
7512.873430508789
 31
0.0
  0
LINE
  5
1E237
330
1F
100
AcDbEntity
  8
02製品
  6
ByBlock
100
AcDbLine
 10
4659.930954266065
 20
7516.626192349609
 30
0.0
 11
4655.126983929149
 21
7516.626192349609
 31
0.0
  0
LINE
  5
1E238
330
1F
100
AcDbEntity
  8
02製品
  6
ByBlock
100
AcDbLine
 10
4660.025082166201
 20
7512.873454163911
 30
0.0
 11
4660.626983929151
 21
7515.420708099198
 31
0.0
  0
LINE
  5
1E239
330
1F
100
AcDbEntity
  8
02製品
  6
ByBlock
100
AcDbLine
 10
4660.626983929151
 20
7502.820612070613
 30
0.0
 11
4660.025107895701
 21
7505.367923442913
 31
0.0
  0
LINE
  5
1E23A
330
1F
100
AcDbEntity
  8
02製品
  6
ByBlock
100
AcDbLine
 10
4660.626983929151
 20
7502.820612070613
 30
0.0
 11
4659.930986337988
 21
7501.615108747586
 31
0.0
  0
LINE
  5
1E23B
330
1F
100
AcDbEntity
  8
02製品
  6
ByBlock
100
AcDbLine
 10
4659.930965142574
 20
7516.62624813376
 30
0.0
 11
4660.626983929151
 21
7515.420708099198
 31
0.0
  0
LINE
  5
1E279
330
1F
100
AcDbEntity
  8
02製品
  6
ByBlock
100
AcDbLine
 10
5277.280656660953
 20
7145.6206228916
 30
0.0
 11
5278.880656664468
 21
7145.6206228916
 31
0.0
  0
LINE
  5
1E27A
330
1F
100
AcDbEntity
  8
02製品
  6
ByBlock
100
AcDbLine
 10
5277.280656660953
 20
7162.6206228916
 30
0.0
 11
5278.880656664468
 21
7162.6206228916
 31
0.0
  0
LINE
  5
1E27B
330
1F
100
AcDbEntity
  8
02製品
  6
ByBlock
100
AcDbLine
 10
5278.880656664468
 20
7162.6206228916
 30
0.0
 11
5278.880656664468
 21
7145.6206228916
 31
0.0
  0
LINE
  5
1E27C
330
1F
100
AcDbEntity
  8
02製品
  6
ByBlock
100
AcDbLine
 10
5277.280656660953
 20
7162.6206228916
 30
0.0
 11
5277.280656660953
 21
7145.6206228916
 31
0.0
  0
LINE
  5
1E27D
330
1F
100
AcDbEntity
  8
02製品
  6
ByBlock
100
AcDbLine
 10
5272.476686324037
 20
7146.61508395117
 30
0.0
 11
5277.280656660953
 21
7146.61508395117
 31
0.0
  0
LINE
  5
1E27E
330
1F
100
AcDbEntity
  8
02製品
  6
ByBlock
100
AcDbLine
 10
5271.780656660952
 20
7160.420708099196
 30
0.0
 11
5271.780656660952
 21
7147.820612070611
 31
0.0
  0
ARC
  5
1E27F
330
1F
100
AcDbEntity
  8
02製品
  6
ByBlock
100
AcDbCircle
 10
5283.780656660954
 20
7154.1206228916
 30
0.0
 40
12.0
100
AcDbArc
 50
161.7759804502274
 51
198.2237823143786
  0
LINE
  5
1E280
330
1F
100
AcDbEntity
  8
02製品
  6
ByBlock
100
AcDbLine
 10
5272.382554854311
 20
7150.367876309569
 30
0.0
 11
5277.280656660953
 21
7150.367876309569
 31
0.0
  0
LINE
  5
1E281
330
1F
100
AcDbEntity
  8
02製品
  6
ByBlock
100
AcDbLine
 10
5272.382570113103
 20
7157.873430508787
 30
0.0
 11
5277.280656660953
 21
7157.873430508787
 31
0.0
  0
LINE
  5
1E282
330
1F
100
AcDbEntity
  8
02製品
  6
ByBlock
100
AcDbLine
 10
5272.476686324037
 20
7161.626192349608
 30
0.0
 11
5277.280656660953
 21
7161.626192349608
 31
0.0
  0
LINE
  5
1E283
330
1F
100
AcDbEntity
  8
02製品
  6
ByBlock
100
AcDbLine
 10
5272.382558423901
 20
7157.87345416391
 30
0.0
 11
5271.780656660952
 21
7160.420708099196
 31
0.0
  0
LINE
  5
1E284
330
1F
100
AcDbEntity
  8
02製品
  6
ByBlock
100
AcDbLine
 10
5271.780656660952
 20
7147.820612070611
 30
0.0
 11
5272.382532694402
 21
7150.367923442911
 31
0.0
  0
LINE
  5
1E285
330
1F
100
AcDbEntity
  8
02製品
  6
ByBlock
100
AcDbLine
 10
5271.780656660952
 20
7147.820612070611
 30
0.0
 11
5272.476654252115
 21
7146.615108747585
 31
0.0
  0
LINE
  5
1E286
330
1F
100
AcDbEntity
  8
02製品
  6
ByBlock
100
AcDbLine
 10
5272.476675447529
 20
7161.626248133758
 30
0.0
 11
5271.780656660952
 21
7160.420708099196
 31
0.0
  0
LINE
  5
1E287
330
1F
100
AcDbEntity
  8
02製品
  6
ByBlock
100
AcDbLine
 10
5276.280656660952
 20
7560.620622891602
 30
0.0
 11
5277.880656664466
 21
7560.620622891602
 31
0.0
  0
LINE
  5
1E288
330
1F
100
AcDbEntity
  8
02製品
  6
ByBlock
100
AcDbLine
 10
5276.280656660952
 20
7577.620622891602
 30
0.0
 11
5277.880656664466
 21
7577.620622891602
 31
0.0
  0
LINE
  5
1E289
330
1F
100
AcDbEntity
  8
02製品
  6
ByBlock
100
AcDbLine
 10
5277.880656664466
 20
7577.620622891602
 30
0.0
 11
5277.880656664466
 21
7560.620622891602
 31
0.0
  0
LINE
  5
1E28A
330
1F
100
AcDbEntity
  8
02製品
  6
ByBlock
100
AcDbLine
 10
5276.280656660952
 20
7577.620622891602
 30
0.0
 11
5276.280656660952
 21
7560.620622891602
 31
0.0
  0
LINE
  5
1E28B
330
1F
100
AcDbEntity
  8
02製品
  6
ByBlock
100
AcDbLine
 10
5271.476686324036
 20
7561.615083951172
 30
0.0
 11
5276.280656660952
 21
7561.615083951172
 31
0.0
  0
LINE
  5
1E28C
330
1F
100
AcDbEntity
  8
02製品
  6
ByBlock
100
AcDbLine
 10
5270.78065666095
 20
7575.420708099198
 30
0.0
 11
5270.78065666095
 21
7562.820612070613
 31
0.0
  0
ARC
  5
1E28D
330
1F
100
AcDbEntity
  8
02製品
  6
ByBlock
100
AcDbCircle
 10
5282.780656660952
 20
7569.120622891602
 30
0.0
 40
12.0
100
AcDbArc
 50
161.7759804502288
 51
198.2237823143786
  0
LINE
  5
1E28E
330
1F
100
AcDbEntity
  8
02製品
  6
ByBlock
100
AcDbLine
 10
5271.382554854309
 20
7565.36787630957
 30
0.0
 11
5276.280656660952
 21
7565.36787630957
 31
0.0
  0
LINE
  5
1E28F
330
1F
100
AcDbEntity
  8
02製品
  6
ByBlock
100
AcDbLine
 10
5271.382570113101
 20
7572.873430508789
 30
0.0
 11
5276.280656660952
 21
7572.873430508789
 31
0.0
  0
LINE
  5
1E290
330
1F
100
AcDbEntity
  8
02製品
  6
ByBlock
100
AcDbLine
 10
5271.476686324036
 20
7576.626192349609
 30
0.0
 11
5276.280656660952
 21
7576.626192349609
 31
0.0
  0
LINE
  5
1E291
330
1F
100
AcDbEntity
  8
02製品
  6
ByBlock
100
AcDbLine
 10
5271.382558423899
 20
7572.873454163911
 30
0.0
 11
5270.78065666095
 21
7575.420708099198
 31
0.0
  0
LINE
  5
1E292
330
1F
100
AcDbEntity
  8
02製品
  6
ByBlock
100
AcDbLine
 10
5270.78065666095
 20
7562.820612070613
 30
0.0
 11
5271.3825326944
 21
7565.367923442913
 31
0.0
  0
LINE
  5
1E293
330
1F
100
AcDbEntity
  8
02製品
  6
ByBlock
100
AcDbLine
 10
5270.78065666095
 20
7562.820612070613
 30
0.0
 11
5271.476654252113
 21
7561.615108747586
 31
0.0
  0
LINE
  5
1E294
330
1F
100
AcDbEntity
  8
02製品
  6
ByBlock
100
AcDbLine
 10
5271.476675447527
 20
7576.62624813376
 30
0.0
 11
5270.78065666095
 21
7575.420708099198
 31
0.0
  0
LINE
  5
1E295
330
1F
100
AcDbEntity
  8
02製品
  6
ByBlock
100
AcDbLine
 10
5276.280656660952
 20
7500.620622891602
 30
0.0
 11
5277.880656664466
 21
7500.620622891602
 31
0.0
  0
LINE
  5
1E296
330
1F
100
AcDbEntity
  8
02製品
  6
ByBlock
100
AcDbLine
 10
5276.280656660952
 20
7517.620622891602
 30
0.0
 11
5277.880656664466
 21
7517.620622891602
 31
0.0
  0
LINE
  5
1E297
330
1F
100
AcDbEntity
  8
02製品
  6
ByBlock
100
AcDbLine
 10
5277.880656664466
 20
7517.620622891602
 30
0.0
 11
5277.880656664466
 21
7500.620622891602
 31
0.0
  0
LINE
  5
1E298
330
1F
100
AcDbEntity
  8
02製品
  6
ByBlock
100
AcDbLine
 10
5276.280656660952
 20
7517.620622891602
 30
0.0
 11
5276.280656660952
 21
7500.620622891602
 31
0.0
  0
LINE
  5
1E299
330
1F
100
AcDbEntity
  8
02製品
  6
ByBlock
100
AcDbLine
 10
5271.476686324036
 20
7501.615083951172
 30
0.0
 11
5276.280656660952
 21
7501.615083951172
 31
0.0
  0
LINE
  5
1E29A
330
1F
100
AcDbEntity
  8
02製品
  6
ByBlock
100
AcDbLine
 10
5270.78065666095
 20
7515.420708099198
 30
0.0
 11
5270.78065666095
 21
7502.820612070613
 31
0.0
  0
ARC
  5
1E29B
330
1F
100
AcDbEntity
  8
02製品
  6
ByBlock
100
AcDbCircle
 10
5282.780656660953
 20
7509.120622891602
 30
0.0
 40
12.0
100
AcDbArc
 50
161.7759804502274
 51
198.2237823143786
  0
LINE
  5
1E29C
330
1F
100
AcDbEntity
  8
02製品
  6
ByBlock
100
AcDbLine
 10
5271.382554854309
 20
7505.36787630957
 30
0.0
 11
5276.280656660952
 21
7505.36787630957
 31
0.0
  0
LINE
  5
1E29D
330
1F
100
AcDbEntity
  8
02製品
  6
ByBlock
100
AcDbLine
 10
5271.382570113102
 20
7512.873430508789
 30
0.0
 11
5276.280656660952
 21
7512.873430508789
 31
0.0
  0
LINE
  5
1E29E
330
1F
100
AcDbEntity
  8
02製品
  6
ByBlock
100
AcDbLine
 10
5271.476686324036
 20
7516.626192349609
 30
0.0
 11
5276.280656660952
 21
7516.626192349609
 31
0.0
  0
LINE
  5
1E29F
330
1F
100
AcDbEntity
  8
02製品
  6
ByBlock
100
AcDbLine
 10
5271.382558423899
 20
7512.873454163911
 30
0.0
 11
5270.78065666095
 21
7515.420708099198
 31
0.0
  0
LINE
  5
1E2A0
330
1F
100
AcDbEntity
  8
02製品
  6
ByBlock
100
AcDbLine
 10
5270.78065666095
 20
7502.820612070613
 30
0.0
 11
5271.3825326944
 21
7505.367923442913
 31
0.0
  0
LINE
  5
1E2A1
330
1F
100
AcDbEntity
  8
02製品
  6
ByBlock
100
AcDbLine
 10
5270.78065666095
 20
7502.820612070613
 30
0.0
 11
5271.476654252113
 21
7501.615108747586
 31
0.0
  0
LINE
  5
1E2A2
330
1F
100
AcDbEntity
  8
02製品
  6
ByBlock
100
AcDbLine
 10
5271.476675447527
 20
7516.62624813376
 30
0.0
 11
5270.78065666095
 21
7515.420708099198
 31
0.0
  0
LINE
  5
1E2A3
330
1F
100
AcDbEntity
  8
02製品
  6
ByBlock
100
AcDbLine
 10
6070.480656667984
 20
7610.620622891602
 30
0.0
 11
6068.88065666447
 21
7610.620622891602
 31
0.0
  0
LINE
  5
1E2A4
330
1F
100
AcDbEntity
  8
02製品
  6
ByBlock
100
AcDbLine
 10
6070.480656667984
 20
7627.620622891602
 30
0.0
 11
6068.88065666447
 21
7627.620622891602
 31
0.0
  0
LINE
  5
1E2A5
330
1F
100
AcDbEntity
  8
02製品
  6
ByBlock
100
AcDbLine
 10
6068.88065666447
 20
7627.620622891602
 30
0.0
 11
6068.88065666447
 21
7610.620622891602
 31
0.0
  0
LINE
  5
1E2A6
330
1F
100
AcDbEntity
  8
02製品
  6
ByBlock
100
AcDbLine
 10
6070.480656667984
 20
7627.620622891602
 30
0.0
 11
6070.480656667984
 21
7610.620622891602
 31
0.0
  0
LINE
  5
1E2A7
330
1F
100
AcDbEntity
  8
02製品
  6
ByBlock
100
AcDbLine
 10
6075.2846270049
 20
7611.615083951172
 30
0.0
 11
6070.480656667984
 21
7611.615083951172
 31
0.0
  0
LINE
  5
1E2A8
330
1F
100
AcDbEntity
  8
02製品
  6
ByBlock
100
AcDbLine
 10
6075.980656667986
 20
7625.420708099198
 30
0.0
 11
6075.980656667986
 21
7612.820612070613
 31
0.0
  0
ARC
  5
1E2A9
330
1F
100
AcDbEntity
  8
02製品
  6
ByBlock
100
AcDbCircle
 10
6063.980656667984
 20
7619.120622891602
 30
0.0
 40
12.0
100
AcDbArc
 50
341.7762176856215
 51
18.22401954977258
  0
LINE
  5
1E2AA
330
1F
100
AcDbEntity
  8
02製品
  6
ByBlock
100
AcDbLine
 10
6075.378758474627
 20
7615.36787630957
 30
0.0
 11
6070.480656667984
 21
7615.36787630957
 31
0.0
  0
LINE
  5
1E2AB
330
1F
100
AcDbEntity
  8
02製品
  6
ByBlock
100
AcDbLine
 10
6075.378743215835
 20
7622.873430508789
 30
0.0
 11
6070.480656667984
 21
7622.873430508789
 31
0.0
  0
LINE
  5
1E2AC
330
1F
100
AcDbEntity
  8
02製品
  6
ByBlock
100
AcDbLine
 10
6075.2846270049
 20
7626.626192349609
 30
0.0
 11
6070.480656667984
 21
7626.626192349609
 31
0.0
  0
LINE
  5
1E2AD
330
1F
100
AcDbEntity
  8
02製品
  6
ByBlock
100
AcDbLine
 10
6075.378754905037
 20
7622.873454163911
 30
0.0
 11
6075.980656667986
 21
7625.420708099198
 31
0.0
  0
LINE
  5
1E2AE
330
1F
100
AcDbEntity
  8
02製品
  6
ByBlock
100
AcDbLine
 10
6075.980656667986
 20
7612.820612070613
 30
0.0
 11
6075.378780634536
 21
7615.367923442913
 31
0.0
  0
LINE
  5
1E2AF
330
1F
100
AcDbEntity
  8
02製品
  6
ByBlock
100
AcDbLine
 10
6075.980656667986
 20
7612.820612070613
 30
0.0
 11
6075.284659076823
 21
7611.615108747586
 31
0.0
  0
LINE
  5
1E2B0
330
1F
100
AcDbEntity
  8
02製品
  6
ByBlock
100
AcDbLine
 10
6075.284637881409
 20
7626.62624813376
 30
0.0
 11
6075.980656667986
 21
7625.420708099198
 31
0.0
  0
LINE
  5
1E2B1
330
1F
100
AcDbEntity
  8
02製品
  6
ByBlock
100
AcDbLine
 10
6070.480656667984
 20
7560.620622891602
 30
0.0
 11
6068.88065666447
 21
7560.620622891602
 31
0.0
  0
LINE
  5
1E2B2
330
1F
100
AcDbEntity
  8
02製品
  6
ByBlock
100
AcDbLine
 10
6070.480656667984
 20
7577.620622891602
 30
0.0
 11
6068.88065666447
 21
7577.620622891602
 31
0.0
  0
LINE
  5
1E2B3
330
1F
100
AcDbEntity
  8
02製品
  6
ByBlock
100
AcDbLine
 10
6068.88065666447
 20
7577.620622891602
 30
0.0
 11
6068.88065666447
 21
7560.620622891602
 31
0.0
  0
LINE
  5
1E2B4
330
1F
100
AcDbEntity
  8
02製品
  6
ByBlock
100
AcDbLine
 10
6070.480656667984
 20
7577.620622891602
 30
0.0
 11
6070.480656667984
 21
7560.620622891602
 31
0.0
  0
LINE
  5
1E2B5
330
1F
100
AcDbEntity
  8
02製品
  6
ByBlock
100
AcDbLine
 10
6075.2846270049
 20
7561.615083951172
 30
0.0
 11
6070.480656667984
 21
7561.615083951172
 31
0.0
  0
LINE
  5
1E2B6
330
1F
100
AcDbEntity
  8
02製品
  6
ByBlock
100
AcDbLine
 10
6075.980656667986
 20
7575.420708099198
 30
0.0
 11
6075.980656667986
 21
7562.820612070613
 31
0.0
  0
ARC
  5
1E2B7
330
1F
100
AcDbEntity
  8
02製品
  6
ByBlock
100
AcDbCircle
 10
6063.980656667984
 20
7569.120622891602
 30
0.0
 40
12.0
100
AcDbArc
 50
341.7762176856215
 51
18.22401954977258
  0
LINE
  5
1E2B8
330
1F
100
AcDbEntity
  8
02製品
  6
ByBlock
100
AcDbLine
 10
6075.378758474627
 20
7565.36787630957
 30
0.0
 11
6070.480656667984
 21
7565.36787630957
 31
0.0
  0
LINE
  5
1E2B9
330
1F
100
AcDbEntity
  8
02製品
  6
ByBlock
100
AcDbLine
 10
6075.378743215835
 20
7572.873430508789
 30
0.0
 11
6070.480656667984
 21
7572.873430508789
 31
0.0
  0
LINE
  5
1E2BA
330
1F
100
AcDbEntity
  8
02製品
  6
ByBlock
100
AcDbLine
 10
6075.2846270049
 20
7576.626192349609
 30
0.0
 11
6070.480656667984
 21
7576.626192349609
 31
0.0
  0
LINE
  5
1E2BB
330
1F
100
AcDbEntity
  8
02製品
  6
ByBlock
100
AcDbLine
 10
6075.378754905037
 20
7572.873454163911
 30
0.0
 11
6075.980656667986
 21
7575.420708099198
 31
0.0
  0
LINE
  5
1E2BC
330
1F
100
AcDbEntity
  8
02製品
  6
ByBlock
100
AcDbLine
 10
6075.980656667986
 20
7562.820612070613
 30
0.0
 11
6075.378780634536
 21
7565.367923442913
 31
0.0
  0
LINE
  5
1E2BD
330
1F
100
AcDbEntity
  8
02製品
  6
ByBlock
100
AcDbLine
 10
6075.980656667986
 20
7562.820612070613
 30
0.0
 11
6075.284659076823
 21
7561.615108747586
 31
0.0
  0
LINE
  5
1E2BE
330
1F
100
AcDbEntity
  8
02製品
  6
ByBlock
100
AcDbLine
 10
6075.284637881409
 20
7576.62624813376
 30
0.0
 11
6075.980656667986
 21
7575.420708099198
 31
0.0
  0
LINE
  5
1E2BF
330
1F
100
AcDbEntity
  8
02製品
  6
ByBlock
100
AcDbLine
 10
6070.480656667984
 20
7500.620622891602
 30
0.0
 11
6068.88065666447
 21
7500.620622891602
 31
0.0
  0
LINE
  5
1E2C0
330
1F
100
AcDbEntity
  8
02製品
  6
ByBlock
100
AcDbLine
 10
6070.480656667984
 20
7517.620622891602
 30
0.0
 11
6068.88065666447
 21
7517.620622891602
 31
0.0
  0
LINE
  5
1E2C1
330
1F
100
AcDbEntity
  8
02製品
  6
ByBlock
100
AcDbLine
 10
6068.88065666447
 20
7517.620622891602
 30
0.0
 11
6068.88065666447
 21
7500.620622891602
 31
0.0
  0
LINE
  5
1E2C2
330
1F
100
AcDbEntity
  8
02製品
  6
ByBlock
100
AcDbLine
 10
6070.480656667984
 20
7517.620622891602
 30
0.0
 11
6070.480656667984
 21
7500.620622891602
 31
0.0
  0
LINE
  5
1E2C3
330
1F
100
AcDbEntity
  8
02製品
  6
ByBlock
100
AcDbLine
 10
6075.2846270049
 20
7501.615083951172
 30
0.0
 11
6070.480656667984
 21
7501.615083951172
 31
0.0
  0
LINE
  5
1E2C4
330
1F
100
AcDbEntity
  8
02製品
  6
ByBlock
100
AcDbLine
 10
6075.980656667986
 20
7515.420708099198
 30
0.0
 11
6075.980656667986
 21
7502.820612070613
 31
0.0
  0
ARC
  5
1E2C5
330
1F
100
AcDbEntity
  8
02製品
  6
ByBlock
100
AcDbCircle
 10
6063.980656667983
 20
7509.120622891602
 30
0.0
 40
12.0
100
AcDbArc
 50
341.7762176856215
 51
18.22401954977258
  0
LINE
  5
1E2C6
330
1F
100
AcDbEntity
  8
02製品
  6
ByBlock
100
AcDbLine
 10
6075.378758474627
 20
7505.36787630957
 30
0.0
 11
6070.480656667984
 21
7505.36787630957
 31
0.0
  0
LINE
  5
1E2C7
330
1F
100
AcDbEntity
  8
02製品
  6
ByBlock
100
AcDbLine
 10
6075.378743215834
 20
7512.873430508789
 30
0.0
 11
6070.480656667984
 21
7512.873430508789
 31
0.0
  0
LINE
  5
1E2C8
330
1F
100
AcDbEntity
  8
02製品
  6
ByBlock
100
AcDbLine
 10
6075.2846270049
 20
7516.626192349609
 30
0.0
 11
6070.480656667984
 21
7516.626192349609
 31
0.0
  0
LINE
  5
1E2C9
330
1F
100
AcDbEntity
  8
02製品
  6
ByBlock
100
AcDbLine
 10
6075.378754905037
 20
7512.873454163911
 30
0.0
 11
6075.980656667986
 21
7515.420708099198
 31
0.0
  0
LINE
  5
1E2CA
330
1F
100
AcDbEntity
  8
02製品
  6
ByBlock
100
AcDbLine
 10
6075.980656667986
 20
7502.820612070613
 30
0.0
 11
6075.378780634536
 21
7505.367923442913
 31
0.0
  0
LINE
  5
1E2CB
330
1F
100
AcDbEntity
  8
02製品
  6
ByBlock
100
AcDbLine
 10
6075.980656667986
 20
7502.820612070613
 30
0.0
 11
6075.284659076823
 21
7501.615108747586
 31
0.0
  0
LINE
  5
1E2CC
330
1F
100
AcDbEntity
  8
02製品
  6
ByBlock
100
AcDbLine
 10
6075.284637881409
 20
7516.62624813376
 30
0.0
 11
6075.980656667986
 21
7515.420708099198
 31
0.0
  0
LINE
  5
1E4C5
330
1F
100
AcDbEntity
  8
02製品
  6
ByBlock
100
AcDbLine
 10
5277.680656664467
 20
7160.1206228916
 30
0.0
 11
5277.680656664467
 21
7148.1206228916
 31
0.0
  0
ARC
  5
1E4C9
330
1F
100
AcDbEntity
  8
02製品
  6
ByBlock
100
AcDbCircle
 10
5285.150775979745
 20
7154.1206228916
 30
0.0
 40
12.47011931527778
100
AcDbArc
 50
166.0795152477937
 51
193.9204847522063
  0
LINE
  5
1E4CA
330
1F
100
AcDbEntity
  8
02製品
  6
ByBlock
100
AcDbLine
 10
5273.046897438663
 20
7151.1206228916
 30
0.0
 11
5276.680656664467
 21
7151.1206228916
 31
0.0
  0
LINE
  5
1E4CB
330
1F
100
AcDbEntity
  8
02製品
  6
ByBlock
100
AcDbLine
 10
5273.046897438663
 20
7157.1206228916
 30
0.0
 11
5276.680656664467
 21
7157.1206228916
 31
0.0
  0
LINE
  5
1E4CE
330
1F
100
AcDbEntity
  8
02製品
  6
ByBlock
100
AcDbLine
 10
5272.680656664467
 20
7149.570587274196
 30
0.0
 11
5273.046897438663
 21
7151.1206228916
 31
0.0
  0
LINE
  5
1E4CF
330
1F
100
AcDbEntity
  8
02製品
  6
ByBlock
100
AcDbLine
 10
5272.680656664467
 20
7149.570587274196
 30
0.0
 11
5273.37665425563
 21
7148.36508395117
 31
0.0
  0
LINE
  5
1E4DF
330
1F
100
AcDbEntity
  8
02製品
  6
ByBlock
100
AcDbLine
 10
5273.37665425563
 20
7148.36508395117
 30
0.0
 11
5276.680656664467
 21
7148.36508395117
 31
0.0
  0
LINE
  5
1E4E0
330
1F
100
AcDbEntity
  8
02製品
  6
ByBlock
100
AcDbLine
 10
5273.37665425563
 20
7159.87616183203
 30
0.0
 11
5276.680656664467
 21
7159.876192349608
 31
0.0
  0
LINE
  5
1E4E1
330
1F
100
AcDbEntity
  8
02製品
  6
ByBlock
100
AcDbLine
 10
5276.680656664467
 20
7160.1206228916
 30
0.0
 11
5276.680656664467
 21
7148.1206228916
 31
0.0
  0
LINE
  5
1E4E2
330
1F
100
AcDbEntity
  8
02製品
  6
ByBlock
100
AcDbLine
 10
5276.680656664467
 20
7160.1206228916
 30
0.0
 11
5277.680656664467
 21
7160.1206228916
 31
0.0
  0
LINE
  5
1E4E3
330
1F
100
AcDbEntity
  8
02製品
  6
ByBlock
100
AcDbLine
 10
5276.680656664467
 20
7148.1206228916
 30
0.0
 11
5277.680656664467
 21
7148.1206228916
 31
0.0
  0
LINE
  5
1E4E8
330
1F
100
AcDbEntity
  8
02製品
  6
ByBlock
100
AcDbLine
 10
5272.680656664467
 20
7158.670658509003
 30
0.0
 11
5272.680656664467
 21
7149.570587274196
 31
0.0
  0
LINE
  5
1E4E9
330
1F
100
AcDbEntity
  8
02製品
  6
ByBlock
100
AcDbLine
 10
5272.680656664467
 20
7158.670658509003
 30
0.0
 11
5273.37665425563
 21
7159.87616183203
 31
0.0
  0
LINE
  5
1E4EA
330
1F
100
AcDbEntity
  8
02製品
  6
ByBlock
100
AcDbLine
 10
5272.680656664467
 20
7158.670658509003
 30
0.0
 11
5273.046897438663
 21
7157.1206228916
 31
0.0
  0
ARC
  5
1E4EB
330
1F
100
AcDbEntity
  8
02製品
  6
ByBlock
100
AcDbCircle
 10
6061.610537349193
 20
7154.120622891602
 30
0.0
 40
12.47011931527778
100
AcDbArc
 50
346.0795152477937
 51
13.92048475220634
  0
LINE
  5
1E4EC
330
1F
100
AcDbEntity
  8
02製品
  6
ByBlock
100
AcDbLine
 10
6074.080656664471
 20
7149.570587274198
 30
0.0
 11
6073.384659073307
 21
7148.365083951172
 31
0.0
  0
LINE
  5
1E4ED
330
1F
100
AcDbEntity
  8
02製品
  6
ByBlock
100
AcDbLine
 10
6070.080656664471
 20
7148.120622891602
 30
0.0
 11
6069.080656664471
 21
7148.120622891602
 31
0.0
  0
LINE
  5
1E4EE
330
1F
100
AcDbEntity
  8
02製品
  6
ByBlock
100
AcDbLine
 10
6070.080656664471
 20
7160.120622891602
 30
0.0
 11
6070.080656664471
 21
7148.120622891602
 31
0.0
  0
LINE
  5
1E4EF
330
1F
100
AcDbEntity
  8
02製品
  6
ByBlock
100
AcDbLine
 10
6070.080656664471
 20
7160.120622891602
 30
0.0
 11
6069.080656664471
 21
7160.120622891602
 31
0.0
  0
LINE
  5
1E4F0
330
1F
100
AcDbEntity
  8
02製品
  6
ByBlock
100
AcDbLine
 10
6073.384659073307
 20
7159.876161832031
 30
0.0
 11
6070.080656664471
 21
7159.876192349609
 31
0.0
  0
LINE
  5
1E4F1
330
1F
100
AcDbEntity
  8
02製品
  6
ByBlock
100
AcDbLine
 10
6073.714415890275
 20
7157.120622891602
 30
0.0
 11
6070.080656664471
 21
7157.120622891602
 31
0.0
  0
LINE
  5
1E4F2
330
1F
100
AcDbEntity
  8
02製品
  6
ByBlock
100
AcDbLine
 10
6073.714415890275
 20
7151.120622891602
 30
0.0
 11
6070.080656664471
 21
7151.120622891602
 31
0.0
  0
LINE
  5
1E4F3
330
1F
100
AcDbEntity
  8
02製品
  6
ByBlock
100
AcDbLine
 10
6074.080656664471
 20
7158.670658509005
 30
0.0
 11
6073.384659073307
 21
7159.876161832031
 31
0.0
  0
LINE
  5
1E4F4
330
1F
100
AcDbEntity
  8
02製品
  6
ByBlock
100
AcDbLine
 10
6073.384659073307
 20
7148.365083951172
 30
0.0
 11
6070.080656664471
 21
7148.365083951172
 31
0.0
  0
LINE
  5
1E4F5
330
1F
100
AcDbEntity
  8
02製品
  6
ByBlock
100
AcDbLine
 10
6074.080656664471
 20
7158.670658509005
 30
0.0
 11
6074.080656664471
 21
7149.570587274198
 31
0.0
  0
LINE
  5
1E4F6
330
1F
100
AcDbEntity
  8
02製品
  6
ByBlock
100
AcDbLine
 10
6074.080656664471
 20
7149.570587274198
 30
0.0
 11
6073.714415890275
 21
7151.120622891602
 31
0.0
  0
LINE
  5
1E4F7
330
1F
100
AcDbEntity
  8
02製品
  6
ByBlock
100
AcDbLine
 10
6074.080656664471
 20
7158.670658509005
 30
0.0
 11
6073.714415890275
 21
7157.120622891602
 31
0.0
  0
LINE
  5
1E5A3
330
1F
100
AcDbEntity
  8
02製品
  6
ByBlock
100
AcDbLine
 10
6074.284627004899
 20
7146.615083951172
 30
0.0
 11
6069.480656667983
 21
7146.615083951172
 31
0.0
  0
LINE
  5
1E5A4
330
1F
100
AcDbEntity
  8
02製品
  6
ByBlock
100
AcDbLine
 10
6074.980656667984
 20
7147.820612070613
 30
0.0
 11
6074.284659076821
 21
7146.615108747586
 31
0.0
  0
LINE
  5
1E5A5
330
1F
100
AcDbEntity
  8
02製品
  6
ByBlock
100
AcDbLine
 10
6074.980656667984
 20
7160.420708099198
 30
0.0
 11
6074.980656667984
 21
7147.820612070613
 31
0.0
  0
ARC
  5
1E5A6
330
1F
100
AcDbEntity
  8
02製品
  6
ByBlock
100
AcDbCircle
 10
6062.980656667982
 20
7154.120622891602
 30
0.0
 40
12.0
100
AcDbArc
 50
341.7762176856215
 51
18.22401954977258
  0
LINE
  5
1E5A7
330
1F
100
AcDbEntity
  8
02製品
  6
ByBlock
100
AcDbLine
 10
6074.378758474625
 20
7150.36787630957
 30
0.0
 11
6069.480656667983
 21
7150.36787630957
 31
0.0
  0
LINE
  5
1E5A8
330
1F
100
AcDbEntity
  8
02製品
  6
ByBlock
100
AcDbLine
 10
6074.378743215833
 20
7157.873430508789
 30
0.0
 11
6069.480656667983
 21
7157.873430508789
 31
0.0
  0
LINE
  5
1E5A9
330
1F
100
AcDbEntity
  8
02製品
  6
ByBlock
100
AcDbLine
 10
6074.284627004899
 20
7161.626192349609
 30
0.0
 11
6069.480656667983
 21
7161.626192349609
 31
0.0
  0
LINE
  5
1E5AA
330
1F
100
AcDbEntity
  8
02製品
  6
ByBlock
100
AcDbLine
 10
6074.378754905035
 20
7157.873454163911
 30
0.0
 11
6074.980656667984
 21
7160.420708099198
 31
0.0
  0
LINE
  5
1E5AB
330
1F
100
AcDbEntity
  8
02製品
  6
ByBlock
100
AcDbLine
 10
6074.980656667984
 20
7147.820612070613
 30
0.0
 11
6074.378780634534
 21
7150.367923442913
 31
0.0
  0
LINE
  5
1E5AC
330
1F
100
AcDbEntity
  8
02製品
  6
ByBlock
100
AcDbLine
 10
6074.284637881407
 20
7161.62624813376
 30
0.0
 11
6074.980656667984
 21
7160.420708099198
 31
0.0
  0
LINE
  5
1E5AD
330
1F
100
AcDbEntity
  8
02製品
  6
ByBlock
100
AcDbLine
 10
6069.480656667983
 20
7162.6206228916
 30
0.0
 11
6067.880656664468
 21
7162.6206228916
 31
0.0
  0
LINE
  5
1E5AE
330
1F
100
AcDbEntity
  8
02製品
  6
ByBlock
100
AcDbLine
 10
6069.480656667983
 20
7162.6206228916
 30
0.0
 11
6069.480656667983
 21
7145.6206228916
 31
0.0
  0
LINE
  5
1E5AF
330
1F
100
AcDbEntity
  8
02製品
  6
ByBlock
100
AcDbLine
 10
6069.480656667983
 20
7145.6206228916
 30
0.0
 11
6067.880656664468
 21
7145.6206228916
 31
0.0
  0
LINE
  5
1E5B0
330
1F
100
AcDbEntity
  8
02製品
  6
ByBlock
100
AcDbLine
 10
5276.280656660952
 20
7610.620622891602
 30
0.0
 11
5277.880656664466
 21
7610.620622891602
 31
0.0
  0
LINE
  5
1E5B1
330
1F
100
AcDbEntity
  8
02製品
  6
ByBlock
100
AcDbLine
 10
5276.280656660952
 20
7627.620622891602
 30
0.0
 11
5277.880656664466
 21
7627.620622891602
 31
0.0
  0
LINE
  5
1E5B2
330
1F
100
AcDbEntity
  8
02製品
  6
ByBlock
100
AcDbLine
 10
5277.880656664466
 20
7627.620622891602
 30
0.0
 11
5277.880656664466
 21
7610.620622891602
 31
0.0
  0
LINE
  5
1E5B3
330
1F
100
AcDbEntity
  8
02製品
  6
ByBlock
100
AcDbLine
 10
5276.280656660952
 20
7627.620622891602
 30
0.0
 11
5276.280656660952
 21
7610.620622891602
 31
0.0
  0
LINE
  5
1E5B4
330
1F
100
AcDbEntity
  8
02製品
  6
ByBlock
100
AcDbLine
 10
5271.476686324036
 20
7611.615083951172
 30
0.0
 11
5276.280656660952
 21
7611.615083951172
 31
0.0
  0
LINE
  5
1E5B5
330
1F
100
AcDbEntity
  8
02製品
  6
ByBlock
100
AcDbLine
 10
5270.78065666095
 20
7625.420708099198
 30
0.0
 11
5270.78065666095
 21
7612.820612070613
 31
0.0
  0
ARC
  5
1E5B6
330
1F
100
AcDbEntity
  8
02製品
  6
ByBlock
100
AcDbCircle
 10
5282.780656660952
 20
7619.120622891602
 30
0.0
 40
12.0
100
AcDbArc
 50
161.7759804502274
 51
198.2237823143786
  0
LINE
  5
1E5B7
330
1F
100
AcDbEntity
  8
02製品
  6
ByBlock
100
AcDbLine
 10
5271.382554854309
 20
7615.36787630957
 30
0.0
 11
5276.280656660952
 21
7615.36787630957
 31
0.0
  0
LINE
  5
1E5B8
330
1F
100
AcDbEntity
  8
02製品
  6
ByBlock
100
AcDbLine
 10
5271.382570113101
 20
7622.873430508789
 30
0.0
 11
5276.280656660952
 21
7622.873430508789
 31
0.0
  0
LINE
  5
1E5B9
330
1F
100
AcDbEntity
  8
02製品
  6
ByBlock
100
AcDbLine
 10
5271.476686324036
 20
7626.626192349609
 30
0.0
 11
5276.280656660952
 21
7626.626192349609
 31
0.0
  0
LINE
  5
1E5BA
330
1F
100
AcDbEntity
  8
02製品
  6
ByBlock
100
AcDbLine
 10
5271.382558423899
 20
7622.873454163911
 30
0.0
 11
5270.78065666095
 21
7625.420708099198
 31
0.0
  0
LINE
  5
1E5BB
330
1F
100
AcDbEntity
  8
02製品
  6
ByBlock
100
AcDbLine
 10
5270.78065666095
 20
7612.820612070613
 30
0.0
 11
5271.3825326944
 21
7615.367923442913
 31
0.0
  0
LINE
  5
1E5BC
330
1F
100
AcDbEntity
  8
02製品
  6
ByBlock
100
AcDbLine
 10
5270.78065666095
 20
7612.820612070613
 30
0.0
 11
5271.476654252113
 21
7611.615108747586
 31
0.0
  0
LINE
  5
1E5BD
330
1F
100
AcDbEntity
  8
02製品
  6
ByBlock
100
AcDbLine
 10
5271.476675447527
 20
7626.62624813376
 30
0.0
 11
5270.78065666095
 21
7625.420708099198
 31
0.0
  0
ENDSEC
  0
SECTION
  2
OBJECTS
  0
DICTIONARY
  5
C
330
0
100
AcDbDictionary
281
     1
  3
ACAD_DETAILVIEWSTYLE
350
ADAF
  3
ACAD_GROUP
350
D
  3
ACAD_IMAGE_VARS
350
6A88
  3
ACAD_LAYOUT
350
1A
  3
ACAD_MLINESTYLE
350
17
  3
ACAD_PLOTSETTINGS
350
19
  3
ACAD_PLOTSTYLENAME
350
E
  3
ACAD_SCALELIST
350
6A4E
  3
ACAD_SECTIONVIEWSTYLE
350
ADB0
  3
AcadDim
350
813A
  3
AcDbVariableDictionary
350
79E
  3
AEC_DISP_REPS
350
8259
  3
AEC_DISPLAY_PROPS_DEFAULTS
350
825B
  3
AEC_VARS
350
8257
  3
APPDATA
350
6A87
  3
DWGPROPS
350
1E5BE
  0
DICTIONARY
  5
7A6F
330
2
100
AcDbDictionary
280
     1
281
     1
  3
ACAD_LAYERFILTERS
360
A22F
  3
ACAD_LAYERSTATES
360
7A70
  3
ACLYDICTIONARY
360
163AB
  0
DICTIONARY
  5
CBD6
330
1F
100
AcDbDictionary
280
     1
281
     1
  3
ACAD_SORTENTS
360
CBD7
  0
DICTIONARY
  5
1D20F
330
1D20E
100
AcDbDictionary
280
     1
281
     1
  3
ACAD_SORTENTS
360
1D210
  0
DICTIONARY
  5
1D23D
330
1D23C
100
AcDbDictionary
280
     1
281
     1
  3
ACAD_SORTENTS
360
1D23E
  0
DICTIONARY
  5
ADAF
102
{ACAD_REACTORS
330
C
102
}
330
C
100
AcDbDictionary
281
     1
  0
DICTIONARY
  5
D
102
{ACAD_REACTORS
330
C
102
}
330
C
100
AcDbDictionary
281
     1
  0
RASTERVARIABLES
  5
6A88
102
{ACAD_REACTORS
330
C
102
}
330
C
100
AcDbRasterVariables
 90
        0
 70
     1
 71
     1
 72
     1
  0
DICTIONARY
  5
1A
102
{ACAD_REACTORS
330
C
102
}
330
C
100
AcDbDictionary
281
     1
  3
Layout1
350
1E
  3
Layout2
350
26
  3
Model
350
22
  0
DICTIONARY
  5
17
102
{ACAD_REACTORS
330
C
102
}
330
C
100
AcDbDictionary
281
     1
  3
Standard
350
18
  0
DICTIONARY
  5
19
102
{ACAD_REACTORS
330
C
102
}
330
C
100
AcDbDictionary
281
     1
  0
ACDBDICTIONARYWDFLT
  5
E
102
{ACAD_REACTORS
330
C
102
}
330
C
100
AcDbDictionary
281
     1
  3
Normal
350
F
100
AcDbDictionaryWithDefault
340
F
  0
DICTIONARY
  5
6A4E
102
{ACAD_REACTORS
330
C
102
}
330
C
100
AcDbDictionary
281
     1
  3
A0
350
6A4F
  3
A1
350
6A50
  3
A2
350
6A51
  3
A3
350
6A52
  3
A4
350
6A53
  3
A5
350
6A54
  3
A6
350
6A55
  3
A7
350
6A56
  3
A8
350
6A57
  3
A9
350
6A58
  3
B0
350
6A59
  3
B1
350
6A5A
  3
B2
350
6A5B
  3
B3
350
6A5C
  3
B4
350
6A5D
  3
B5
350
6A5E
  3
B6
350
6A5F
  3
B7
350
6A60
  3
B8
350
6A61
  3
B9
350
6A62
  3
C0
350
6A63
  3
C1
350
6A64
  3
C2
350
6A65
  3
C3
350
6A66
  3
C4
350
6A67
  3
C5
350
6A68
  3
C6
350
6A69
  3
C7
350
6A6A
  3
C8
350
6A6B
  3
C9
350
6A6C
  3
D0
350
6A6D
  3
D1
350
6A6E
  3
D2
350
6A6F
  0
DICTIONARY
  5
ADB0
102
{ACAD_REACTORS
330
C
102
}
330
C
100
AcDbDictionary
281
     1
  0
XRECORD
  5
813A
102
{ACAD_REACTORS
330
C
102
}
330
C
100
AcDbXrecord
280
     1
340
0
 72
     0
 71
     0
 70
     0
 69
     0
 68
     1
 67
     3
 66
     0
 65
     0
 64
     0
 63
     3
 62
     1
 61
     0
 60
     0
 40
0.0
  0
DICTIONARY
  5
79E
102
{ACAD_REACTORS
330
C
102
}
330
C
100
AcDbDictionary
281
     1
  3
DIMASSOC
350
79F
  3
SORTENTS
350
264F
  0
DICTIONARY
  5
8259
102
{ACAD_REACTORS
330
C
102
}
330
C
100
AcDbDictionary
281
     1
  3
AecDbDispRep2dSection
350
825A
  3
AecDbDispRepAnchor
350
8294
  3
AecDbDispRepAnchorEntToNode
350
8295
  3
AecDbDispRepClipVolModel
350
8261
  3
AecDbDispRepClipVolPlan
350
8263
  3
AecDbDispRepClipVolResSubDiv
350
8266
  3
AecDbDispRepClipVolResult
350
8265
  3
AecDbDispRepDisplayTheme
350
8268
  3
AecDbDispRepEditInPlaceProfile
350
8299
  3
AecDbDispRepEntRef
350
826A
  3
AecDbDispRepLayoutCurve
350
826C
  3
AecDbDispRepLayoutGrid2d
350
826E
  3
AecDbDispRepLayoutGrid3d
350
8270
  3
AecDbDispRepMaskBlockRef
350
8272
  3
AecDbDispRepMaskBlockRefRcp
350
8274
  3
AecDbDispRepMassElemModel
350
8276
  3
AecDbDispRepMassElemPlan100
350
827C
  3
AecDbDispRepMassElemPlan50
350
827A
  3
AecDbDispRepMassElemRcp
350
827E
  3
AecDbDispRepMassElemSchem
350
8278
  3
AecDbDispRepMassGroupModel
350
8280
  3
AecDbDispRepMassGroupPlan
350
8282
  3
AecDbDispRepMassGroupPlan100
350
8286
  3
AecDbDispRepMassGroupPlan50
350
8284
  3
AecDbDispRepMassGroupRcp
350
8288
  3
AecDbDispRepMaterial
350
8297
  3
AecDbDispRepMvBlockRef
350
828A
  3
AecDbDispRepMvBlockRefModel
350
828B
  3
AecDbDispRepMvBlockRefPlan100
350
828C
  3
AecDbDispRepMvBlockRefPlan50
350
828D
  3
AecDbDispRepPolygonModel
350
828E
  3
AecDbDispRepPolygonTrueColour
350
8290
  3
AecDbDispRepSlice
350
8292
  0
DICTIONARY
  5
825B
102
{ACAD_REACTORS
330
C
102
}
330
C
100
AcDbDictionary
281
     1
  3
*A1
350
825C
  3
*A10
350
827D
  3
*A11
350
827F
  3
*A12
350
8296
  3
*A13
350
8281
  3
*A14
350
8285
  3
*A15
350
8262
  3
*A16
350
8287
  3
*A17
350
8289
  3
*A18
350
828F
  3
*A19
350
8291
  3
*A2
350
826D
  3
*A20
350
8293
  3
*A21
350
8298
  3
*A22
350
8273
  3
*A23
350
829A
  3
*A24
350
8264
  3
*A25
350
8267
  3
*A26
350
8269
  3
*A27
350
826B
  3
*A3
350
826F
  3
*A4
350
8283
  3
*A5
350
8271
  3
*A6
350
8275
  3
*A7
350
8277
  3
*A8
350
8279
  3
*A9
350
827B
  0
DICTIONARY
  5
8257
102
{ACAD_REACTORS
330
C
102
}
330
C
100
AcDbDictionary
281
     1
  3
AEC_VARS_DWG_SETUP
350
8258
  0
DICTIONARY
  5
6A87
102
{ACAD_REACTORS
330
C
102
}
330
C
100
AcDbDictionary
281
     1
  0
XRECORD
  5
1E5BE
102
{ACAD_REACTORS
330
C
102
}
330
C
100
AcDbXrecord
280
     1
  1
DWGPROPS COOKIE
  2

  3

  4

  6

  7

  8
2212
  9

300
=
301
=
302
=
303
=
304
=
305
=
306
=
307
=
308
=
309
=
 40
0.0
 41
2455859.030048461
 42
2458844.181207083
  1

 90
        0
  0
DICTIONARY
  5
A22F
102
{ACAD_REACTORS
330
7A6F
102
}
330
7A6F
100
AcDbDictionary
280
     1
281
     1
  0
DICTIONARY
  5
7A70
102
{ACAD_REACTORS
330
7A6F
102
}
330
7A6F
100
AcDbDictionary
281
     1
  0
DICTIONARY
  5
163AB
102
{ACAD_REACTORS
330
7A6F
102
}
330
7A6F
100
AcDbDictionary
281
     1
1001
ACAD
1000
<All
  0
SORTENTSTABLE
  5
CBD7
102
{ACAD_REACTORS
330
CBD6
102
}
330
CBD6
100
AcDbSortentsTable
330
1F
331
0
  5
98EA
  0
SORTENTSTABLE
  5
1D210
102
{ACAD_REACTORS
330
1D20F
102
}
330
1D20F
100
AcDbSortentsTable
330
1D20E
  0
SORTENTSTABLE
  5
1D23E
102
{ACAD_REACTORS
330
1D23D
102
}
330
1D23D
100
AcDbSortentsTable
330
1D23C
  0
LAYOUT
  5
1E
102
{ACAD_REACTORS
330
1A
102
}
330
1A
100
AcDbPlotSettings
  1

  2

  4

  6

 40
0.0
 41
0.0
 42
0.0
 43
0.0
 44
0.0
 45
0.0
 46
0.0
 47
0.0
 48
0.0
 49
0.0
140
0.0
141
0.0
142
1.0
143
1.0
 70
   688
 72
     0
 73
     0
 74
     5
  7
monochrome.ctb
 75
    16
147
1.0
148
0.0
149
0.0
100
AcDbLayout
  1
Layout1
 70
     1
 71
     1
 10
0.0
 20
0.0
 11
420.0
 21
297.0
 12
0.0
 22
0.0
 32
0.0
 14
1.000000000000000E+20
 24
1.000000000000000E+20
 34
1.000000000000000E+20
 15
-1.000000000000000E+20
 25
-1.000000000000000E+20
 35
-1.000000000000000E+20
146
0.0
 13
0.0
 23
0.0
 33
0.0
 16
1.0
 26
0.0
 36
0.0
 17
0.0
 27
1.0
 37
0.0
 76
     0
330
1B
  0
LAYOUT
  5
26
102
{ACAD_REACTORS
330
1A
102
}
330
1A
100
AcDbPlotSettings
  1

  2

  4

  6

 40
0.0
 41
0.0
 42
0.0
 43
0.0
 44
0.0
 45
0.0
 46
0.0
 47
0.0
 48
0.0
 49
0.0
140
0.0
141
0.0
142
1.0
143
1.0
 70
   688
 72
     0
 73
     0
 74
     5
  7
monochrome.ctb
 75
    16
147
1.0
148
0.0
149
0.0
100
AcDbLayout
  1
Layout2
 70
     1
 71
     2
 10
0.0
 20
0.0
 11
12.0
 21
9.0
 12
0.0
 22
0.0
 32
0.0
 14
0.0
 24
0.0
 34
0.0
 15
0.0
 25
0.0
 35
0.0
146
0.0
 13
0.0
 23
0.0
 33
0.0
 16
1.0
 26
0.0
 36
0.0
 17
0.0
 27
1.0
 37
0.0
 76
     0
330
23
  0
LAYOUT
  5
22
102
{ACAD_REACTORS
330
1A
102
}
330
1A
100
AcDbPlotSettings
  1

  2
none_device
  4
A3
  6

 40
3.174999952316284
 41
3.174999952316284
 42
3.17498779296875
 43
3.17498779296875
 44
297.0318298339844
 45
420.1583251953125
 46
-3.16
 47
-3.1
 48
-90.0
 49
-90.0
140
329.9999999999998
141
207.0
142
1.0
143
1.0
 70
 11940
 72
     1
 73
     1
 74
     4
  7
monochrome.ctb
 75
     0
147
1.0
148
90.0
149
90.0
100
AcDbLayout
  1
Model
 70
     1
 71
     0
 10
3035.915352943101
 20
6238.946666580014
 11
7235.915352943101
 21
9208.946666580014
 12
0.0
 22
0.0
 32
0.0
 14
3648.426983922118
 24
6359.346666580013
 34
0.0
 15
6916.835352943101
 25
8867.83069019045
 35
0.0
146
0.0
 13
0.0
 23
0.0
 33
0.0
 16
1.0
 26
0.0
 36
0.0
 17
0.0
 27
1.0
 37
0.0
 76
     0
330
1F
331
A2A1
  0
MLINESTYLE
  5
18
102
{ACAD_REACTORS
330
17
102
}
330
17
100
AcDbMlineStyle
  2
STANDARD
 70
     0
  3

 62
   256
 51
90.0
 52
90.0
 71
     2
 49
0.5
 62
   256
  6
BYLAYER
 49
-0.5
 62
   256
  6
BYLAYER
  0
ACDBPLACEHOLDER
  5
F
102
{ACAD_REACTORS
330
E
102
}
330
E
  0
SCALE
  5
6A4F
102
{ACAD_REACTORS
330
6A4E
102
}
330
6A4E
100
AcDbScale
 70
     0
300
1:1
140
1.0
141
1.0
290
     1
  0
SCALE
  5
6A50
102
{ACAD_REACTORS
330
6A4E
102
}
330
6A4E
100
AcDbScale
 70
     0
300
1:2
140
1.0
141
2.0
290
     0
  0
SCALE
  5
6A51
102
{ACAD_REACTORS
330
6A4E
102
}
330
6A4E
100
AcDbScale
 70
     0
300
1:4
140
1.0
141
4.0
290
     0
  0
SCALE
  5
6A52
102
{ACAD_REACTORS
330
6A4E
102
}
330
6A4E
100
AcDbScale
 70
     0
300
1:5
140
1.0
141
5.0
290
     0
  0
SCALE
  5
6A53
102
{ACAD_REACTORS
330
6A4E
102
}
330
6A4E
100
AcDbScale
 70
     0
300
1:8
140
1.0
141
8.0
290
     0
  0
SCALE
  5
6A54
102
{ACAD_REACTORS
330
6A4E
102
}
330
6A4E
100
AcDbScale
 70
     0
300
1:10
140
1.0
141
10.0
290
     0
  0
SCALE
  5
6A55
102
{ACAD_REACTORS
330
6A4E
102
}
330
6A4E
100
AcDbScale
 70
     0
300
1:16
140
1.0
141
16.0
290
     0
  0
SCALE
  5
6A56
102
{ACAD_REACTORS
330
6A4E
102
}
330
6A4E
100
AcDbScale
 70
     0
300
1:20
140
1.0
141
20.0
290
     0
  0
SCALE
  5
6A57
102
{ACAD_REACTORS
330
6A4E
102
}
330
6A4E
100
AcDbScale
 70
     0
300
1:30
140
1.0
141
30.0
290
     0
  0
SCALE
  5
6A58
102
{ACAD_REACTORS
330
6A4E
102
}
330
6A4E
100
AcDbScale
 70
     0
300
1:40
140
1.0
141
40.0
290
     0
  0
SCALE
  5
6A59
102
{ACAD_REACTORS
330
6A4E
102
}
330
6A4E
100
AcDbScale
 70
     0
300
1:50
140
1.0
141
50.0
290
     0
  0
SCALE
  5
6A5A
102
{ACAD_REACTORS
330
6A4E
102
}
330
6A4E
100
AcDbScale
 70
     0
300
1:100
140
1.0
141
100.0
290
     0
  0
SCALE
  5
6A5B
102
{ACAD_REACTORS
330
6A4E
102
}
330
6A4E
100
AcDbScale
 70
     0
300
2:1
140
2.0
141
1.0
290
     0
  0
SCALE
  5
6A5C
102
{ACAD_REACTORS
330
6A4E
102
}
330
6A4E
100
AcDbScale
 70
     0
300
4:1
140
4.0
141
1.0
290
     0
  0
SCALE
  5
6A5D
102
{ACAD_REACTORS
330
6A4E
102
}
330
6A4E
100
AcDbScale
 70
     0
300
8:1
140
8.0
141
1.0
290
     0
  0
SCALE
  5
6A5E
102
{ACAD_REACTORS
330
6A4E
102
}
330
6A4E
100
AcDbScale
 70
     0
300
10:1
140
10.0
141
1.0
290
     0
  0
SCALE
  5
6A5F
102
{ACAD_REACTORS
330
6A4E
102
}
330
6A4E
100
AcDbScale
 70
     0
300
100:1
140
100.0
141
1.0
290
     0
  0
SCALE
  5
6A60
102
{ACAD_REACTORS
330
6A4E
102
}
330
6A4E
100
AcDbScale
 70
     0
300
1/128" = 1'-0"
140
0.0078125
141
12.0
290
     0
  0
SCALE
  5
6A61
102
{ACAD_REACTORS
330
6A4E
102
}
330
6A4E
100
AcDbScale
 70
     0
300
1/64" = 1'-0"
140
0.015625
141
12.0
290
     0
  0
SCALE
  5
6A62
102
{ACAD_REACTORS
330
6A4E
102
}
330
6A4E
100
AcDbScale
 70
     0
300
1/32" = 1'-0"
140
0.03125
141
12.0
290
     0
  0
SCALE
  5
6A63
102
{ACAD_REACTORS
330
6A4E
102
}
330
6A4E
100
AcDbScale
 70
     0
300
1/16" = 1'-0"
140
0.0625
141
12.0
290
     0
  0
SCALE
  5
6A64
102
{ACAD_REACTORS
330
6A4E
102
}
330
6A4E
100
AcDbScale
 70
     0
300
3/32" = 1'-0"
140
0.09375
141
12.0
290
     0
  0
SCALE
  5
6A65
102
{ACAD_REACTORS
330
6A4E
102
}
330
6A4E
100
AcDbScale
 70
     0
300
1/8" = 1'-0"
140
0.125
141
12.0
290
     0
  0
SCALE
  5
6A66
102
{ACAD_REACTORS
330
6A4E
102
}
330
6A4E
100
AcDbScale
 70
     0
300
3/16" = 1'-0"
140
0.1875
141
12.0
290
     0
  0
SCALE
  5
6A67
102
{ACAD_REACTORS
330
6A4E
102
}
330
6A4E
100
AcDbScale
 70
     0
300
1/4" = 1'-0"
140
0.25
141
12.0
290
     0
  0
SCALE
  5
6A68
102
{ACAD_REACTORS
330
6A4E
102
}
330
6A4E
100
AcDbScale
 70
     0
300
3/8" = 1'-0"
140
0.375
141
12.0
290
     0
  0
SCALE
  5
6A69
102
{ACAD_REACTORS
330
6A4E
102
}
330
6A4E
100
AcDbScale
 70
     0
300
1/2" = 1'-0"
140
0.5
141
12.0
290
     0
  0
SCALE
  5
6A6A
102
{ACAD_REACTORS
330
6A4E
102
}
330
6A4E
100
AcDbScale
 70
     0
300
3/4" = 1'-0"
140
0.75
141
12.0
290
     0
  0
SCALE
  5
6A6B
102
{ACAD_REACTORS
330
6A4E
102
}
330
6A4E
100
AcDbScale
 70
     0
300
1" = 1'-0"
140
1.0
141
12.0
290
     0
  0
SCALE
  5
6A6C
102
{ACAD_REACTORS
330
6A4E
102
}
330
6A4E
100
AcDbScale
 70
     0
300
1-1/2" = 1'-0"
140
1.5
141
12.0
290
     0
  0
SCALE
  5
6A6D
102
{ACAD_REACTORS
330
6A4E
102
}
330
6A4E
100
AcDbScale
 70
     0
300
3" = 1'-0"
140
3.0
141
12.0
290
     0
  0
SCALE
  5
6A6E
102
{ACAD_REACTORS
330
6A4E
102
}
330
6A4E
100
AcDbScale
 70
     0
300
6" = 1'-0"
140
6.0
141
12.0
290
     0
  0
SCALE
  5
6A6F
102
{ACAD_REACTORS
330
6A4E
102
}
330
6A4E
100
AcDbScale
 70
     0
300
1'-0" = 1'-0"
140
12.0
141
12.0
290
     0
  0
DICTIONARYVAR
  5
79F
102
{ACAD_REACTORS
330
79E
102
}
330
79E
100
DictionaryVariables
280
     0
  1
1
  0
DICTIONARYVAR
  5
264F
102
{ACAD_REACTORS
330
79E
102
}
330
79E
100
DictionaryVariables
280
     0
  1
96
  0
ACAD_PROXY_OBJECT
  5
8258
102
{ACAD_REACTORS
330
8257
102
}
330
8257
100
AcDbProxyObject
 90
      499
 91
      509
 95
  6881311
 70
     0
 93
     1864
310
51B4D146518005194651A8FC812095550000000000000B08000000000000008200000000000001807E8F2048F205000200001204000000000000581F8000000000000B0807EC3FA6DEBC0E99F8000000000001C07FE8FCC0295941A4E2D20CA600E2005C008C00E8005C008321803A80170023003A00170020898006200640
310
06001202DA008C2080248020801000140019001A801B00100021803780360037803900148010001000100010002080220019001A801B0021082008600820088008200A4008600900087A08032803180260030803C803280390029803A003200170032003B80338049C09
330
0
 94
        0
  0
ENDSEC
  0
EOF
