  0
SECTION
  2
HEADER
  9
$ACADVER
  1
AC1015
  9
$ACADMAINTVER
 70
     6
  9
$DWGCODEPAGE
  3
ANSI_932
  9
$INSBASE
 10
0.0
 20
0.0
 30
0.0
  9
$EXTMIN
 10
3428.426983922118
 20
6359.346666580013
 30
0.0
  9
$EXTMAX
 10
6917.0353529431
 20
8823.014359464192
 30
0.0
  9
$LIMMIN
 10
3035.915352943101
 20
6238.946666580014
  9
$LIMMAX
 10
7235.915352943101
 20
9208.946666580014
  9
$ORTHOMODE
 70
     1
  9
$REGENMODE
 70
     1
  9
$FILLMODE
 70
     1
  9
$QTEXTMODE
 70
     0
  9
$MIRRTEXT
 70
     1
  9
$LTSCALE
 40
3.0
  9
$ATTMODE
 70
     1
  9
$TEXTSIZE
 40
3.0
  9
$TRACEWID
 40
1.0
  9
$TEXTSTYLE
  7
Standard
  9
$CLAYER
  8
01注記寸法
  9
$CELTYPE
  6
ByLayer
  9
$CECOLOR
 62
   256
  9
$CELTSCALE
 40
1.0
  9
$DISPSILH
 70
     0
  9
$DIMSCALE
 40
10.0
  9
$DIMASZ
 40
3.0
  9
$DIMEXO
 40
1.5
  9
$DIMDLI
 40
10.0
  9
$DIMRND
 40
0.0
  9
$DIMDLE
 40
0.0
  9
$DIMEXE
 40
1.0
  9
$DIMTP
 40
0.0
  9
$DIMTM
 40
0.0
  9
$DIMTXT
 40
3.0
  9
$DIMCEN
 40
1.5
  9
$DIMTSZ
 40
0.0
  9
$DIMTOL
 70
     0
  9
$DIMLIM
 70
     0
  9
$DIMTIH
 70
     0
  9
$DIMTOH
 70
     0
  9
$DIMSE1
 70
     0
  9
$DIMSE2
 70
     0
  9
$DIMTAD
 70
     1
  9
$DIMZIN
 70
     8
  9
$DIMBLK
  1
Open
  9
$DIMASO
 70
     1
  9
$DIMSHO
 70
     1
  9
$DIMPOST
  1

  9
$DIMAPOST
  1

  9
$DIMALT
 70
     0
  9
$DIMALTD
 70
     3
  9
$DIMALTF
 40
0.03937007874016
  9
$DIMLFAC
 40
1.0
  9
$DIMTOFL
 70
     1
  9
$DIMTVP
 40
0.0
  9
$DIMTIX
 70
     0
  9
$DIMSOXD
 70
     0
  9
$DIMSAH
 70
     0
  9
$DIMBLK1
  1

  9
$DIMBLK2
  1

  9
$DIMSTYLE
  2
NEMY-10
  9
$DIMCLRD
 70
     0
  9
$DIMCLRE
 70
     0
  9
$DIMCLRT
 70
     0
  9
$DIMTFAC
 40
1.0
  9
$DIMGAP
 40
1.0
  9
$DIMJUST
 70
     0
  9
$DIMSD1
 70
     0
  9
$DIMSD2
 70
     0
  9
$DIMTOLJ
 70
     0
  9
$DIMTZIN
 70
     8
  9
$DIMALTZ
 70
     0
  9
$DIMALTTZ
 70
     0
  9
$DIMUPT
 70
     0
  9
$DIMDEC
 70
     1
  9
$DIMTDEC
 70
     1
  9
$DIMALTU
 70
     2
  9
$DIMALTTD
 70
     3
  9
$DIMTXSTY
  7
Standard
  9
$DIMAUNIT
 70
     0
  9
$DIMADEC
 70
     0
  9
$DIMALTRND
 40
0.0
  9
$DIMAZIN
 70
     0
  9
$DIMDSEP
 70
    46
  9
$DIMATFIT
 70
     3
  9
$DIMFRAC
 70
     0
  9
$DIMLDRBLK
  1
Open
  9
$DIMLUNIT
 70
     2
  9
$DIMLWD
 70
    -2
  9
$DIMLWE
 70
    -2
  9
$DIMTMOVE
 70
     0
  9
$LUNITS
 70
     2
  9
$LUPREC
 70
     4
  9
$SKETCHINC
 40
1.0
  9
$FILLETRAD
 40
0.0
  9
$AUNITS
 70
     0
  9
$AUPREC
 70
     0
  9
$MENU
  1
.
  9
$ELEVATION
 40
0.0
  9
$PELEVATION
 40
0.0
  9
$THICKNESS
 40
0.0
  9
$LIMCHECK
 70
     0
  9
$CHAMFERA
 40
10.0
  9
$CHAMFERB
 40
10.0
  9
$CHAMFERC
 40
20.0
  9
$CHAMFERD
 40
0.0
  9
$SKPOLY
 70
     0
  9
$TDCREATE
 40
2455859.405048461
  9
$TDUCREATE
 40
2455859.030048461
  9
$TDUPDATE
 40
2458844.557293576
  9
$TDUUPDATE
 40
2458844.182293576
  9
$TDINDWG
 40
2.0243626736
  9
$TDUSRTIMER
 40
2458844.181511238
  9
$USRTIMER
 70
     1
  9
$ANGBASE
 50
0.0
  9
$ANGDIR
 70
     0
  9
$PDMODE
 70
     0
  9
$PDSIZE
 40
0.0
  9
$PLINEWID
 40
0.0
  9
$SPLFRAME
 70
     0
  9
$SPLINETYPE
 70
     6
  9
$SPLINESEGS
 70
     8
  9
$HANDSEED
  5
1F1AA
  9
$SURFTAB1
 70
     6
  9
$SURFTAB2
 70
     6
  9
$SURFTYPE
 70
     6
  9
$SURFU
 70
     6
  9
$SURFV
 70
     6
  9
$UCSBASE
  2

  9
$UCSNAME
  2

  9
$UCSORG
 10
0.0
 20
0.0
 30
0.0
  9
$UCSXDIR
 10
1.0
 20
0.0
 30
0.0
  9
$UCSYDIR
 10
0.0
 20
1.0
 30
0.0
  9
$UCSORTHOREF
  2

  9
$UCSORTHOVIEW
 70
     0
  9
$UCSORGTOP
 10
0.0
 20
0.0
 30
0.0
  9
$UCSORGBOTTOM
 10
0.0
 20
0.0
 30
0.0
  9
$UCSORGLEFT
 10
0.0
 20
0.0
 30
0.0
  9
$UCSORGRIGHT
 10
0.0
 20
0.0
 30
0.0
  9
$UCSORGFRONT
 10
0.0
 20
0.0
 30
0.0
  9
$UCSORGBACK
 10
0.0
 20
0.0
 30
0.0
  9
$PUCSBASE
  2

  9
$PUCSNAME
  2

  9
$PUCSORG
 10
0.0
 20
0.0
 30
0.0
  9
$PUCSXDIR
 10
1.0
 20
0.0
 30
0.0
  9
$PUCSYDIR
 10
0.0
 20
1.0
 30
0.0
  9
$PUCSORTHOREF
  2

  9
$PUCSORTHOVIEW
 70
     0
  9
$PUCSORGTOP
 10
0.0
 20
0.0
 30
0.0
  9
$PUCSORGBOTTOM
 10
0.0
 20
0.0
 30
0.0
  9
$PUCSORGLEFT
 10
0.0
 20
0.0
 30
0.0
  9
$PUCSORGRIGHT
 10
0.0
 20
0.0
 30
0.0
  9
$PUCSORGFRONT
 10
0.0
 20
0.0
 30
0.0
  9
$PUCSORGBACK
 10
0.0
 20
0.0
 30
0.0
  9
$USERI1
 70
     0
  9
$USERI2
 70
     0
  9
$USERI3
 70
     0
  9
$USERI4
 70
     0
  9
$USERI5
 70
     0
  9
$USERR1
 40
0.0
  9
$USERR2
 40
0.0
  9
$USERR3
 40
0.0
  9
$USERR4
 40
0.0
  9
$USERR5
 40
0.0
  9
$WORLDVIEW
 70
     1
  9
$SHADEDGE
 70
     3
  9
$SHADEDIF
 70
    70
  9
$TILEMODE
 70
     1
  9
$MAXACTVP
 70
    64
  9
$PINSBASE
 10
0.0
 20
0.0
 30
0.0
  9
$PLIMCHECK
 70
     0
  9
$PEXTMIN
 10
1.000000000000000E+20
 20
1.000000000000000E+20
 30
1.000000000000000E+20
  9
$PEXTMAX
 10
-1.000000000000000E+20
 20
-1.000000000000000E+20
 30
-1.000000000000000E+20
  9
$PLIMMIN
 10
0.0
 20
0.0
  9
$PLIMMAX
 10
0.0
 20
0.0
  9
$UNITMODE
 70
     0
  9
$VISRETAIN
 70
     1
  9
$PLINEGEN
 70
     0
  9
$PSLTSCALE
 70
     1
  9
$TREEDEPTH
 70
  3020
  9
$CMLSTYLE
  2
Standard
  9
$CMLJUST
 70
     0
  9
$CMLSCALE
 40
20.0
  9
$PROXYGRAPHICS
 70
     1
  9
$MEASUREMENT
 70
     1
  9
$CELWEIGHT
370
    -1
  9
$ENDCAPS
280
     0
  9
$JOINSTYLE
280
     0
  9
$LWDISPLAY
290
     0
  9
$INSUNITS
 70
     4
  9
$HYPERLINKBASE
  1

  9
$STYLESHEET
  1
monochrome.ctb
  9
$XEDIT
290
     1
  9
$CEPSNTYPE
380
     0
  9
$PSTYLEMODE
290
     1
  9
$FINGERPRINTGUID
  2
{FDEAD578-A652-11D2-9A35-0060089B3A3F}
  9
$VERSIONGUID
  2
{FF53CD4B-1AF9-4F2F-ABC0-CA7DF949A403}
  9
$EXTNAMES
290
     1
  9
$PSVPSCALE
 40
0.0
  9
$OLESTARTUP
290
     0
  0
ENDSEC
  0
SECTION
  2
CLASSES
  0
CLASS
  1
ACDBDICTIONARYWDFLT
  2
AcDbDictionaryWithDefault
  3
ObjectDBX Classes
 90
        0
280
     0
281
     0
  0
CLASS
  1
ACDBPLACEHOLDER
  2
AcDbPlaceHolder
  3
ObjectDBX Classes
 90
        0
280
     0
281
     0
  0
CLASS
  1
LAYOUT
  2
AcDbLayout
  3
ObjectDBX Classes
 90
        0
280
     0
281
     0
  0
CLASS
  1
DICTIONARYVAR
  2
AcDbDictionaryVar
  3
ObjectDBX Classes
 90
        0
280
     0
281
     0
  0
CLASS
  1
SCALE
  2
AcDbScale
  3
ObjectDBX Classes
 90
     1153
280
     0
281
     0
  0
CLASS
  1
MATERIAL
  2
AcDbMaterial
  3
ObjectDBX Classes
 90
     1153
280
     0
281
     0
  0
CLASS
  1
VISUALSTYLE
  2
AcDbVisualStyle
  3
ObjectDBX Classes
 90
     4095
280
     0
281
     0
  0
CLASS
  1
TABLESTYLE
  2
AcDbTableStyle
  3
ObjectDBX Classes
 90
     4095
280
     0
281
     0
  0
CLASS
  1
RASTERVARIABLES
  2
AcDbRasterVariables
  3
ISM
 90
        0
280
     0
281
     0
  0
CLASS
  1
AEC_VARS_DWG_SETUP
  2
AecDbVarsDwgSetup
  3
AecBase60
 90
      129
280
     0
281
     0
  0
CLASS
  1
AEC_DISP_REP_2D_SECTION
  2
AecDbDispRep2dSection
  3
AecBase60
 90
      129
280
     0
281
     0
  0
CLASS
  1
AEC_DISP_PROPS_2D_SECTION
  2
AecDbDispProps2dSection
  3
AecBase60
 90
      129
280
     0
281
     0
  0
CLASS
  1
AEC_DISP_REP_CLIP_VOLUME_MODEL
  2
AecDbDispRepClipVolModel
  3
AecBase60
 90
      129
280
     0
281
     0
  0
CLASS
  1
AEC_DISP_PROPS_CLIP_VOLUME
  2
AecDbDispPropsClipVol
  3
AecBase60
 90
      129
280
     0
281
     0
  0
CLASS
  1
AEC_DISP_REP_CLIP_VOLUME_PLAN
  2
AecDbDispRepClipVolPlan
  3
AecBase60
 90
      129
280
     0
281
     0
  0
CLASS
  1
AEC_DISP_REP_CLIP_VOLUME_RESULT
  2
AecDbDispRepClipVolResult
  3
AecBase60
 90
      129
280
     0
281
     0
  0
CLASS
  1
AEC_DISP_REP_CLIP_VOLUME_RESULT_SUBDIV
  2
AecDbDispRepClipVolResSubDiv
  3
AecBase60
 90
      129
280
     0
281
     0
  0
CLASS
  1
AEC_DISP_PROPS_CLIP_VOLUME_RESULT
  2
AecDbDispPropsClipVolResSubDiv
  3
AecBase60
 90
      129
280
     0
281
     0
  0
CLASS
  1
AEC_DISP_REP_DISPLAYTHEME
  2
AecDbDispRepDisplayTheme
  3
AecBase60
 90
      129
280
     0
281
     0
  0
CLASS
  1
AEC_DISP_PROPS_DISPLAYTHEME
  2
AecDbDispPropsDisplayTheme
  3
AecBase60
 90
      129
280
     0
281
     0
  0
CLASS
  1
AEC_DISP_REP_ENT_REF
  2
AecDbDispRepEntRef
  3
AecBase60
 90
      129
280
     0
281
     0
  0
CLASS
  1
AEC_DISP_PROPS_ENT_REF
  2
AecDbDispPropsEntRef
  3
AecBase60
 90
      129
280
     0
281
     0
  0
CLASS
  1
AEC_DISP_REP_LAYOUT_CURVE
  2
AecDbDispRepLayoutCurve
  3
AecBase60
 90
      129
280
     0
281
     0
  0
CLASS
  1
AEC_DISP_PROPS_LAYOUT_CURVE
  2
AecDbDispPropsLayoutCurve
  3
AecBase60
 90
      129
280
     0
281
     0
  0
CLASS
  1
AEC_DISP_REP_LAYOUT_GRID2D
  2
AecDbDispRepLayoutGrid2d
  3
AecBase60
 90
      129
280
     0
281
     0
  0
CLASS
  1
AEC_DISP_PROPS_LAYOUT_GRID2D
  2
AecDbDispPropsLayoutGrid2d
  3
AecBase60
 90
      129
280
     0
281
     0
  0
CLASS
  1
AEC_DISP_REP_LAYOUT_GRID3D
  2
AecDbDispRepLayoutGrid3d
  3
AecBase60
 90
      129
280
     0
281
     0
  0
CLASS
  1
AEC_DISP_PROPS_LAYOUT_GRID3D
  2
AecDbDispPropsLayoutGrid3d
  3
AecBase60
 90
      129
280
     0
281
     0
  0
CLASS
  1
AEC_DISP_REP_MASKBLOCK_REF
  2
AecDbDispRepMaskBlockRef
  3
AecBase60
 90
      129
280
     0
281
     0
  0
CLASS
  1
AEC_DISP_PROPS_MASKBLOCK
  2
AecDbDispPropsMaskBlock
  3
AecBase60
 90
      129
280
     0
281
     0
  0
CLASS
  1
AEC_DISP_REP_MASKBLOCK_REF_RCP
  2
AecDbDispRepMaskBlockRefRcp
  3
AecArchBase60
 90
      129
280
     0
281
     0
  0
CLASS
  1
AEC_DISP_REP_MASS_ELEM_MODEL
  2
AecDbDispRepMassElemModel
  3
AecBase60
 90
      129
280
     0
281
     0
  0
CLASS
  1
AEC_DISP_PROPS_MASS_ELEM_MODEL
  2
AecDbDispPropsMassElem
  3
AecBase60
 90
      129
280
     0
281
     0
  0
CLASS
  1
AEC_DISP_REP_MASS_ELEM_SCHEM
  2
AecDbDispRepMassElemSchem
  3
AecBase60
 90
      129
280
     0
281
     0
  0
CLASS
  1
AEC_DISPREPAECDBDISPREPMASSELEMPLAN50
  2
AecDbDispRepMassElemPlan50
  3
AecArchDACHBase60
 90
      129
280
     0
281
     0
  0
CLASS
  1
AEC_DISPROPSMASSELEMPLANCOMMON
  2
AecDbDispPropsMassElemPlanCommon
  3
AecArchDACHBase60
 90
      129
280
     0
281
     0
  0
CLASS
  1
AEC_DISPREPAECDBDISPREPMASSELEMPLAN100
  2
AecDbDispRepMassElemPlan100
  3
AecArchDACHBase60
 90
      129
280
     0
281
     0
  0
CLASS
  1
AEC_DISP_REP_MASS_ELEM_RCP
  2
AecDbDispRepMassElemRcp
  3
AecArchBase60
 90
      129
280
     0
281
     0
  0
CLASS
  1
AEC_DISP_REP_MASS_GROUP_MODEL
  2
AecDbDispRepMassGroupModel
  3
AecBase60
 90
      129
280
     0
281
     0
  0
CLASS
  1
AEC_DISP_PROPS_MASS_GROUP
  2
AecDbDispPropsMassGroup
  3
AecBase60
 90
      129
280
     0
281
     0
  0
CLASS
  1
AEC_DISP_REP_MASS_GROUP_PLAN
  2
AecDbDispRepMassGroupPlan
  3
AecBase60
 90
      129
280
     0
281
     0
  0
CLASS
  1
AEC_DISPREPAECDBDISPREPMASSGROUPPLAN50
  2
AecDbDispRepMassGroupPlan50
  3
AecArchDACHBase60
 90
      129
280
     0
281
     0
  0
CLASS
  1
AEC_DISPROPSMASSGROUPPLANCOMMON
  2
AecDbDispPropsMassGroupPlanCommon
  3
AecArchDACHBase60
 90
      129
280
     0
281
     0
  0
CLASS
  1
AEC_DISPREPAECDBDISPREPMASSGROUPPLAN100
  2
AecDbDispRepMassGroupPlan100
  3
AecArchDACHBase60
 90
      129
280
     0
281
     0
  0
CLASS
  1
AEC_DISP_REP_MASS_GROUP_RCP
  2
AecDbDispRepMassGroupRcp
  3
AecArchBase60
 90
      129
280
     0
281
     0
  0
CLASS
  1
AEC_DISP_REP_MVBLOCK_REF
  2
AecDbDispRepMvBlockRef
  3
AecBase60
 90
      129
280
     0
281
     0
  0
CLASS
  1
AEC_DISP_REP_MVBLOCK_REF_MODEL
  2
AecDbDispRepMvBlockRefModel
  3
AecBase60
 90
      129
280
     0
281
     0
  0
CLASS
  1
AEC_AECDBDISPREPMVBLOCKREFPLAN100
  2
AecDbDispRepMvBlockRefPlan100
  3
AecBase60
 90
      129
280
     0
281
     0
  0
CLASS
  1
AEC_AECDBDISPREPMVBLOCKREFPLAN50
  2
AecDbDispRepMvBlockRefPlan50
  3
AecBase60
 90
      129
280
     0
281
     0
  0
CLASS
  1
AEC_DISP_REP_POLYGON_MODEL
  2
AecDbDispRepPolygonModel
  3
AecBase60
 90
      129
280
     0
281
     0
  0
CLASS
  1
AEC_DISP_PROPS_POLYGON_MODEL
  2
AecDbDispPropsPolygonModel
  3
AecBase60
 90
      129
280
     0
281
     0
  0
CLASS
  1
AEC_DISP_REP_POLYGON_TRUECOLOUR
  2
AecDbDispRepPolygonTrueColour
  3
AecBase60
 90
      129
280
     0
281
     0
  0
CLASS
  1
AEC_DISP_PROPS_POLYGON_TRUECOLOUR
  2
AecDbDispPropsPolygonTrueColour
  3
AecBase60
 90
      129
280
     0
281
     0
  0
CLASS
  1
AEC_DISP_REP_SLICE
  2
AecDbDispRepSlice
  3
AecBase60
 90
      129
280
     0
281
     0
  0
CLASS
  1
AEC_DISP_PROPS_SLICE
  2
AecDbDispPropsSlice
  3
AecBase60
 90
      129
280
     0
281
     0
  0
CLASS
  1
AEC_DISP_REP_ANCHOR
  2
AecDbDispRepAnchor
  3
AecBase60
 90
      129
280
     0
281
     0
  0
CLASS
  1
AEC_DISP_REP_ANCHOR_ENT_TO_NODE
  2
AecDbDispRepAnchorEntToNode
  3
AecBase60
 90
      129
280
     0
281
     0
  0
CLASS
  1
AEC_DISP_PROPS_ENT
  2
AecDbDispPropsEnt
  3
AecBase60
 90
      129
280
     0
281
     0
  0
CLASS
  1
AEC_DISP_REP_MATERIAL
  2
AecDbDispRepMaterial
  3
AecBase60
 90
      129
280
     0
281
     0
  0
CLASS
  1
AEC_DISP_PROPS_MATERIAL
  2
AecDbDispPropsMaterial
  3
AecBase60
 90
      129
280
     0
281
     0
  0
CLASS
  1
AEC_DISP_REP_EDITINPLACEPROFILE
  2
AecDbDispRepEditInPlaceProfile
  3
AecBase60
 90
      129
280
     0
281
     0
  0
CLASS
  1
AEC_DISP_PROPS_EDITINPLACEPROFILE_MODEL
  2
AecDbDispPropsEditInPlaceProfile
  3
AecBase60
 90
      129
280
     0
281
     0
  0
CLASS
  1
SUN
  2
AcDbSun
  3
SCENEOE
 90
     1153
280
     0
281
     0
  0
CLASS
  1
SORTENTSTABLE
  2
AcDbSortentsTable
  3
ObjectDBX Classes
 90
        0
280
     0
281
     0
  0
CLASS
  1
MLEADERSTYLE
  2
AcDbMLeaderStyle
  3
ACDB_MLEADERSTYLE_CLASS
 90
     4095
280
     0
281
     0
  0
ENDSEC
  0
SECTION
  2
TABLES
  0
TABLE
  2
VPORT
  5
8
330
0
100
AcDbSymbolTable
 70
     2
  0
VPORT
  5
A2A1
330
8
100
AcDbSymbolTableRecord
100
AcDbViewportTableRecord
  2
*Active
 70
     0
 10
0.0
 20
0.0
 11
1.0
 21
1.0
 12
-56680591930.53385
 22
103286851158.0206
 13
0.0
 23
0.0
 14
10.0
 24
10.0
 15
10.0
 25
10.0
 16
0.0
 26
0.0
 36
1.0
 17
56680597103.26502
 27
-103286843566.8401
 37
0.0
 40
2512.941046741862
 41
1.484848484848485
 42
50.0
 43
0.0
 44
0.0
 50
0.0
 51
0.0
 71
    16
 72
   100
 73
     1
 74
     2
 75
     0
 76
     0
 77
     0
 78
     0
281
     0
 65
     1
110
0.0
120
0.0
130
0.0
111
1.0
121
0.0
131
0.0
112
0.0
122
1.0
132
0.0
 79
     0
146
0.0
  0
ENDTAB
  0
TABLE
  2
LTYPE
  5
5
330
0
100
AcDbSymbolTable
 70
     9
  0
LTYPE
  5
14
330
5
100
AcDbSymbolTableRecord
100
AcDbLinetypeTableRecord
  2
ByBlock
 70
     0
  3

 72
    65
 73
     0
 40
0.0
  0
LTYPE
  5
15
330
5
100
AcDbSymbolTableRecord
100
AcDbLinetypeTableRecord
  2
ByLayer
 70
     0
  3
Solid line
 72
    65
 73
     0
 40
0.0
  0
LTYPE
  5
16
330
5
100
AcDbSymbolTableRecord
100
AcDbLinetypeTableRecord
  2
Continuous
 70
     0
  3
Solid line
 72
    65
 73
     0
 40
0.0
  0
ENDTAB
  0
TABLE
  2
LAYER
  5
2
102
{ACAD_XDICTIONARY
360
7A6F
102
}
330
0
100
AcDbSymbolTable
 70
    14
  0
LAYER
  5
10
330
2
100
AcDbSymbolTableRecord
100
AcDbLayerTableRecord
  2
0
 70
     0
 62
     7
  6
Continuous
370
    -3
390
F
  0
LAYER
  5
45
330
2
100
AcDbSymbolTableRecord
100
AcDbLayerTableRecord
  2
01注記寸法
 70
     0
 62
     7
  6
Continuous
370
     9
390
F
  0
LAYER
  5
82BC
330
2
100
AcDbSymbolTableRecord
100
AcDbLayerTableRecord
  2
02製品
 70
     0
 62
     2
  6
Continuous
370
    15
390
F
  0
LAYER
  5
82C1
330
2
100
AcDbSymbolTableRecord
100
AcDbLayerTableRecord
  2
06非表示
 70
     0
 62
     4
  6
Continuous
290
     0
370
     0
390
F
  0
LAYER
  5
15088
330
2
100
AcDbSymbolTableRecord
100
AcDbLayerTableRecord
  2
1　製品
 70
     0
 62
     2
  6
Continuous
370
    15
390
F
  0
ENDTAB
  0
TABLE
  2
STYLE
  5
3
330
0
100
AcDbSymbolTable
 70
     8
  0
STYLE
  5
11
330
3
100
AcDbSymbolTableRecord
100
AcDbTextStyleTableRecord
  2
Standard
 70
     0
 40
0.0
 41
1.0
 50
0.0
 71
     0
 42
3.0
  3
MS Gothic.ttf
  4

1001
ACAD
1000
MS Gothic
1071
    32817
  0
STYLE
  5
19E
330
3
100
AcDbSymbolTableRecord
100
AcDbTextStyleTableRecord
  2
STYLE1
 70
     0
 40
0.0
 41
0.9
 50
0.0
 71
     0
 42
28.125
  3
TXT.shx
  4
extfont.shx
  0
STYLE
  5
C96B
330
3
100
AcDbSymbolTableRecord
100
AcDbTextStyleTableRecord
  2
Standard-tate
 70
     0
 40
0.0
 41
1.0
 50
0.0
 71
     0
 42
3.0
  3
@MS PGothic.ttf
  4

1001
ACAD
1000
@MS PGothic
1071
    32818
  0
STYLE
  5
1D64D
330
3
100
AcDbSymbolTableRecord
100
AcDbTextStyleTableRecord
  2
ST_CUSTOM
 70
     0
 40
0.0
 41
0.8
 50
0.0
 71
     0
 42
3.0
  3
txt.shx
  4
extfont.shx
  0
STYLE
  5
1D64E
330
3
100
AcDbSymbolTableRecord
100
AcDbTextStyleTableRecord
  2
StCustom
 70
     0
 40
0.0
 41
0.8
 50
0.0
 71
     0
 42
3.0
  3
txt.shx
  4
extfont.shx
  0
ENDTAB
  0
TABLE
  2
VIEW
  5
6
330
0
100
AcDbSymbolTable
 70
     0
  0
ENDTAB
  0
TABLE
  2
UCS
  5
7
330
0
100
AcDbSymbolTable
 70
     0
  0
ENDTAB
  0
TABLE
  2
APPID
  5
9
330
0
100
AcDbSymbolTable
 70
    13
  0
APPID
  5
12
330
9
100
AcDbSymbolTableRecord
100
AcDbRegAppTableRecord
  2
ACAD
 70
     0
  0
APPID
  5
6A9E
330
9
100
AcDbSymbolTableRecord
100
AcDbRegAppTableRecord
  2
ACAD_DSTYLE_DIMRADIAL_EXTENSION
 70
     0
  0
APPID
  5
742C
330
9
100
AcDbSymbolTableRecord
100
AcDbRegAppTableRecord
  2
ACAD_PSEXT
 70
     0
  0
APPID
  5
742D
330
9
100
AcDbSymbolTableRecord
100
AcDbRegAppTableRecord
  2
ACAD_DSTYLE_DIMJAG
 70
     0
  0
APPID
  5
742E
330
9
100
AcDbSymbolTableRecord
100
AcDbRegAppTableRecord
  2
ACAD_DSTYLE_DIMTALN
 70
     0
  0
APPID
  5
8254
330
9
100
AcDbSymbolTableRecord
100
AcDbRegAppTableRecord
  2
AECBASE
 70
     0
  0
APPID
  5
8255
330
9
100
AcDbSymbolTableRecord
100
AcDbRegAppTableRecord
  2
AEC_2DSECTION_XDATA
 70
     0
  0
APPID
  5
8256
330
9
100
AcDbSymbolTableRecord
100
AcDbRegAppTableRecord
  2
AEC_MASSGROUP_XDADA
 70
     0
  0
APPID
  5
B0E5
330
9
100
AcDbSymbolTableRecord
100
AcDbRegAppTableRecord
  2
PE_DIMMEASUREMENT
 70
     0
  0
APPID
  5
147E0
330
9
100
AcDbSymbolTableRecord
100
AcDbRegAppTableRecord
  2
AcAecLayerStandard
 70
     0
  0
APPID
  5
15094
330
9
100
AcDbSymbolTableRecord
100
AcDbRegAppTableRecord
  2
PLOTTRANSPARENCY
 70
     0
  0
APPID
  5
1DE0B
330
9
100
AcDbSymbolTableRecord
100
AcDbRegAppTableRecord
  2
PE_URL
 70
     0
  0
APPID
  5
1E3A5
330
9
100
AcDbSymbolTableRecord
100
AcDbRegAppTableRecord
  2
AcadAnnotative
 70
     0
  0
ENDTAB
  0
TABLE
  2
DIMSTYLE
  5
A
330
0
100
AcDbSymbolTable
 70
    28
100
AcDbDimStyleTable
  0
DIMSTYLE
105
4DD3
102
{ACAD_REACTORS
330
14016
330
14023
330
14030
102
}
330
A
100
AcDbSymbolTableRecord
100
AcDbDimStyleTableRecord
  2
NEMY-10
 70
     0
 40
10.0
 41
3.0
 42
1.5
 43
10.0
 44
1.0
 73
     0
 74
     0
 77
     1
 78
     8
140
3.0
141
1.5
143
0.03937007874016
147
1.0
171
     3
172
     1
178
     0
271
     1
272
     1
274
     3
283
     0
284
     8
340
11
341
8F
342
8F
  0
ENDTAB
  0
TABLE
  2
BLOCK_RECORD
  5
1
330
0
100
AcDbSymbolTable
 70
   633
  0
BLOCK_RECORD
  5
1F
102
{ACAD_XDICTIONARY
360
CBD6
102
}
330
1
100
AcDbSymbolTableRecord
100
AcDbBlockTableRecord
  2
*Model_Space
340
22
  0
BLOCK_RECORD
  5
1B
330
1
100
AcDbSymbolTableRecord
100
AcDbBlockTableRecord
  2
*Paper_Space
340
1E
  0
BLOCK_RECORD
  5
23
330
1
100
AcDbSymbolTableRecord
100
AcDbBlockTableRecord
  2
*Paper_Space0
340
26
  0
BLOCK_RECORD
  5
8F
330
1
100
AcDbSymbolTableRecord
100
AcDbBlockTableRecord
  2
_Open
340
0
102
{BLKREFS
331
1401C
331
1401D
331
14029
331
1402A
331
14036
331
14037
331
141AC
331
141AD
331
141B2
331
141B3
331
141B8
331
141B9
331
141BE
331
141BF
331
141C4
331
141C5
331
141CA
331
141CB
331
141D0
331
141D1
331
141D6
331
141D7
331
14596
331
14597
331
145A3
331
145A4
331
145B0
331
145B1
331
145BD
331
145BE
331
145CA
331
145CB
331
145D7
331
145D8
331
145E4
331
145E5
331
145F1
331
145F2
331
14600
331
14601
331
1478E
331
1478F
331
14794
331
14795
331
1479A
331
1479B
331
147A0
331
147A1
331
147A6
331
147A7
331
147AC
331
147AD
331
147B2
331
147B3
331
147B8
331
147B9
331
147BE
331
147BF
331
147C7
331
147C8
331
147CD
331
147CE
331
147D6
331
147D7
331
15C74
331
15C75
331
15C90
331
15C91
331
15CA0
331
15CA1
331
15DEA
331
15DEB
331
15DF7
331
15DF8
331
1D680
331
1D681
331
1D68D
331
1D68E
331
1D69A
331
1D69B
331
1D6BE
331
1D6BF
331
1E243
331
1E244
331
1E2D4
331
1E2D5
331
1E3E4
331
1E3E5
331
1E3F1
331
1E3F2
331
1F07B
331
1F07C
331
1F088
331
1F089
331
1F1A0
331
1F1A1
102
}
  0
BLOCK_RECORD
  5
1D20E
102
{ACAD_XDICTIONARY
360
1D20F
102
}
330
1
100
AcDbSymbolTableRecord
100
AcDbBlockTableRecord
  2
A$C3105
340
0
102
{BLKREFS
331
1EF1E
102
}
  0
BLOCK_RECORD
  5
1D23C
102
{ACAD_XDICTIONARY
360
1D23D
102
}
330
1
100
AcDbSymbolTableRecord
100
AcDbBlockTableRecord
  2
A$C29074
340
0
102
{BLKREFS
331
1EEF3
331
1EF1D
102
}
  0
BLOCK_RECORD
  5
1EC9E
102
{ACAD_XDICTIONARY
360
1ECC9
102
}
330
1
100
AcDbSymbolTableRecord
100
AcDbBlockTableRecord
  2
A$C30975
340
0
102
{BLKREFS
331
1ED85
102
}
  0
BLOCK_RECORD
  5
1EE9D
102
{ACAD_XDICTIONARY
360
1EEC9
102
}
330
1
100
AcDbSymbolTableRecord
100
AcDbBlockTableRecord
  2
A$C5316
340
0
102
{BLKREFS
331
1EF50
102
}
  0
BLOCK_RECORD
  5
1EF51
102
{ACAD_XDICTIONARY
360
1EF7C
102
}
330
1
100
AcDbSymbolTableRecord
100
AcDbBlockTableRecord
  2
A$C15031
340
0
102
{BLKREFS
331
1F03E
102
}
  0
ENDTAB
  0
ENDSEC
  0
SECTION
  2
BLOCKS
  0
BLOCK
  5
20
330
1F
100
AcDbEntity
  8
0
100
AcDbBlockBegin
  2
*Model_Space
 70
     0
 10
0.0
 20
0.0
 30
0.0
  3
*Model_Space
  1

  0
ENDBLK
  5
21
330
1F
100
AcDbEntity
  8
0
100
AcDbBlockEnd
  0
BLOCK
  5
1C
330
1B
100
AcDbEntity
 67
     1
  8
0
100
AcDbBlockBegin
  2
*Paper_Space
 70
     0
 10
0.0
 20
0.0
 30
0.0
  3
*Paper_Space
  1

  0
ENDBLK
  5
1D
330
1B
100
AcDbEntity
 67
     1
  8
0
100
AcDbBlockEnd
  0
BLOCK
  5
24
330
23
100
AcDbEntity
  8
0
100
AcDbBlockBegin
  2
*Paper_Space0
 70
     0
 10
0.0
 20
0.0
 30
0.0
  3
*Paper_Space0
  1

  0
ENDBLK
  5
25
330
23
100
AcDbEntity
  8
0
100
AcDbBlockEnd
  0
BLOCK
  5
93
330
8F
100
AcDbEntity
  8
0
100
AcDbBlockBegin
  2
_Open
 70
     0
 10
0.0
 20
0.0
 30
0.0
  3
_Open
  1

  0
LINE
  5
90
330
8F
100
AcDbEntity
  8
01注記寸法
 62
     0
370
    -2
100
AcDbLine
 10
-1.0
 20
0.1666666666666667
 30
0.0
 11
0.0
 21
0.0
 31
0.0
  0
LINE
  5
91
330
8F
100
AcDbEntity
  8
01注記寸法
 62
     0
370
    -2
100
AcDbLine
 10
-1.0
 20
-0.1666666666666667
 30
0.0
 11
0.0
 21
0.0
 31
0.0
  0
LINE
  5
92
330
8F
100
AcDbEntity
  8
01注記寸法
 62
     0
370
    -2
100
AcDbLine
 10
0.0
 20
0.0
 30
0.0
 11
-1.0
 21
0.0
 31
0.0
  0
ENDBLK
  5
94
330
8F
100
AcDbEntity
  8
0
100
AcDbBlockEnd
  0
BLOCK
  5
1D211
330
1D20E
100
AcDbEntity
  8
0
100
AcDbBlockBegin
  2
A$C3105
 70
     0
 10
0.0
 20
0.0
 30
0.0
  3
A$C3105
  1

  0
LINE
  5
1D212
330
1D20E
100
AcDbEntity
  8
02製品
100
AcDbLine
 10
6.349999999999909
 20
0.0
 30
0.0
 11
5.079999999999927
 21
0.566666666666606
 31
0.0
  0
LINE
  5
1D213
330
1D20E
100
AcDbEntity
  8
02製品
100
AcDbLine
 10
3.809999999999945
 20
0.0
 30
0.0
 11
5.079999999999927
 21
0.566666666666606
 31
0.0
  0
LINE
  5
1D214
330
1D20E
100
AcDbEntity
  8
02製品
100
AcDbLine
 10
3.809999999999945
 20
3.400000000000091
 30
0.0
 11
2.539999999999964
 21
3.966666666666697
 31
0.0
  0
LINE
  5
1D215
330
1D20E
100
AcDbEntity
  8
02製品
100
AcDbLine
 10
3.809999999999945
 20
2.266666666666424
 30
0.0
 11
2.539999999999964
 21
2.83333333333303
 31
0.0
  0
LINE
  5
1D216
330
1D20E
100
AcDbEntity
  8
02製品
100
AcDbLine
 10
2.539999999999964
 20
1.699999999999818
 30
0.0
 11
3.809999999999945
 21
1.133333333333212
 31
0.0
  0
LINE
  5
1D217
330
1D20E
100
AcDbEntity
  8
02製品
100
AcDbLine
 10
3.809999999999945
 20
2.266666666666424
 30
0.0
 11
2.539999999999964
 21
1.699999999999818
 31
0.0
  0
LINE
  5
1D218
330
1D20E
100
AcDbEntity
  8
02製品
100
AcDbLine
 10
3.809999999999945
 20
1.133333333333212
 30
0.0
 11
2.539999999999964
 21
0.566666666666606
 31
0.0
  0
LINE
  5
1D219
330
1D20E
100
AcDbEntity
  8
02製品
100
AcDbLine
 10
2.539999999999964
 20
2.83333333333303
 30
0.0
 11
3.809999999999945
 21
3.400000000000091
 31
0.0
  0
LINE
  5
1D21A
330
1D20E
100
AcDbEntity
  8
02製品
100
AcDbLine
 10
1.269999999999982
 20
2.266666666666424
 30
0.0
 11
0.0
 21
2.83333333333303
 31
0.0
  0
LINE
  5
1D21B
330
1D20E
100
AcDbEntity
  8
02製品
100
AcDbLine
 10
1.269999999999982
 20
2.266666666666424
 30
0.0
 11
0.0
 21
1.699999999999818
 31
0.0
  0
LINE
  5
1D21C
330
1D20E
100
AcDbEntity
  8
02製品
100
AcDbLine
 10
2.539999999999964
 20
1.699999999999818
 30
0.0
 11
1.269999999999982
 21
2.266666666666424
 31
0.0
  0
LINE
  5
1D21D
330
1D20E
100
AcDbEntity
  8
02製品
100
AcDbLine
 10
1.269999999999982
 20
1.133333333333212
 30
0.0
 11
2.539999999999964
 21
1.699999999999818
 31
0.0
  0
LINE
  5
1D21E
330
1D20E
100
AcDbEntity
  8
02製品
100
AcDbLine
 10
1.269999999999982
 20
3.400000000000091
 30
0.0
 11
2.539999999999964
 21
2.83333333333303
 31
0.0
  0
LINE
  5
1D21F
330
1D20E
100
AcDbEntity
  8
02製品
100
AcDbLine
 10
2.539999999999964
 20
2.83333333333303
 30
0.0
 11
1.269999999999982
 21
2.266666666666424
 31
0.0
  0
LINE
  5
1D220
330
1D20E
100
AcDbEntity
  8
02製品
100
AcDbLine
 10
5.079999999999927
 20
3.966666666666697
 30
0.0
 11
6.349999999999909
 21
3.400000000000091
 31
0.0
  0
LINE
  5
1D221
330
1D20E
100
AcDbEntity
  8
02製品
100
AcDbLine
 10
5.079999999999927
 20
3.966666666666697
 30
0.0
 11
3.809999999999945
 21
3.400000000000091
 31
0.0
  0
LINE
  5
1D222
330
1D20E
100
AcDbEntity
  8
02製品
100
AcDbLine
 10
6.349999999999909
 20
3.400000000000091
 30
0.0
 11
7.619999999999891
 21
3.966666666666697
 31
0.0
  0
LINE
  5
1D223
330
1D20E
100
AcDbEntity
  8
02製品
100
AcDbLine
 10
6.349999999999909
 20
2.266666666666424
 30
0.0
 11
7.619999999999891
 21
2.83333333333303
 31
0.0
  0
LINE
  5
1D224
330
1D20E
100
AcDbEntity
  8
02製品
100
AcDbLine
 10
6.349999999999909
 20
1.133333333333212
 30
0.0
 11
7.619999999999891
 21
0.566666666666606
 31
0.0
  0
LINE
  5
1D225
330
1D20E
100
AcDbEntity
  8
02製品
100
AcDbLine
 10
7.619999999999891
 20
1.699999999999818
 30
0.0
 11
6.349999999999909
 21
1.133333333333212
 31
0.0
  0
LINE
  5
1D226
330
1D20E
100
AcDbEntity
  8
02製品
100
AcDbLine
 10
6.349999999999909
 20
2.266666666666424
 30
0.0
 11
7.619999999999891
 21
1.699999999999818
 31
0.0
  0
LINE
  5
1D227
330
1D20E
100
AcDbEntity
  8
02製品
100
AcDbLine
 10
7.619999999999891
 20
2.83333333333303
 30
0.0
 11
6.349999999999909
 21
3.400000000000091
 31
0.0
  0
LINE
  5
1D228
330
1D20E
100
AcDbEntity
  8
02製品
100
AcDbLine
 10
5.079999999999927
 20
2.83333333333303
 30
0.0
 11
6.349999999999909
 21
2.266666666666424
 31
0.0
  0
LINE
  5
1D229
330
1D20E
100
AcDbEntity
  8
02製品
100
AcDbLine
 10
6.349999999999909
 20
1.133333333333212
 30
0.0
 11
5.079999999999927
 21
1.699999999999818
 31
0.0
  0
LINE
  5
1D22A
330
1D20E
100
AcDbEntity
  8
02製品
100
AcDbLine
 10
5.079999999999927
 20
1.699999999999818
 30
0.0
 11
6.349999999999909
 21
2.266666666666424
 31
0.0
  0
LINE
  5
1D22B
330
1D20E
100
AcDbEntity
  8
02製品
100
AcDbLine
 10
5.079999999999927
 20
2.83333333333303
 30
0.0
 11
3.809999999999945
 21
2.266666666666424
 31
0.0
  0
LINE
  5
1D22C
330
1D20E
100
AcDbEntity
  8
02製品
100
AcDbLine
 10
3.809999999999945
 20
1.133333333333212
 30
0.0
 11
5.079999999999927
 21
1.699999999999818
 31
0.0
  0
LINE
  5
1D22D
330
1D20E
100
AcDbEntity
  8
02製品
100
AcDbLine
 10
5.079999999999927
 20
1.699999999999818
 30
0.0
 11
3.809999999999945
 21
2.266666666666424
 31
0.0
  0
LINE
  5
1D22E
330
1D20E
100
AcDbEntity
  8
02製品
100
AcDbLine
 10
5.079999999999927
 20
0.566666666666606
 30
0.0
 11
3.809999999999945
 21
1.133333333333212
 31
0.0
  0
LINE
  5
1D22F
330
1D20E
100
AcDbEntity
  8
02製品
100
AcDbLine
 10
5.079999999999927
 20
0.566666666666606
 30
0.0
 11
6.349999999999909
 21
1.133333333333212
 31
0.0
  0
LINE
  5
1D230
330
1D20E
100
AcDbEntity
  8
02製品
100
AcDbLine
 10
3.809999999999945
 20
3.400000000000091
 30
0.0
 11
5.079999999999927
 21
2.83333333333303
 31
0.0
  0
LINE
  5
1D231
330
1D20E
100
AcDbEntity
  8
02製品
100
AcDbLine
 10
6.349999999999909
 20
3.400000000000091
 30
0.0
 11
5.079999999999927
 21
2.83333333333303
 31
0.0
  0
LINE
  5
1D232
330
1D20E
100
AcDbEntity
  8
02製品
100
AcDbLine
 10
7.619999999999891
 20
2.83333333333303
 30
0.0
 11
8.890000000000327
 21
2.266666666666424
 31
0.0
  0
LINE
  5
1D233
330
1D20E
100
AcDbEntity
  8
02製品
100
AcDbLine
 10
8.890000000000327
 20
1.133333333333212
 30
0.0
 11
7.619999999999891
 21
1.699999999999818
 31
0.0
  0
LINE
  5
1D234
330
1D20E
100
AcDbEntity
  8
02製品
100
AcDbLine
 10
7.619999999999891
 20
1.699999999999818
 30
0.0
 11
8.890000000000327
 21
2.266666666666424
 31
0.0
  0
LINE
  5
1D235
330
1D20E
100
AcDbEntity
  8
02製品
100
AcDbLine
 10
8.890000000000327
 20
2.266666666666424
 30
0.0
 11
10.16000000000031
 21
2.83333333333303
 31
0.0
  0
LINE
  5
1D236
330
1D20E
100
AcDbEntity
  8
02製品
100
AcDbLine
 10
8.890000000000327
 20
2.266666666666424
 30
0.0
 11
10.16000000000031
 21
1.699999999999818
 31
0.0
  0
LINE
  5
1D237
330
1D20E
100
AcDbEntity
  8
02製品
100
AcDbLine
 10
8.890000000000327
 20
3.400000000000091
 30
0.0
 11
7.619999999999891
 21
2.83333333333303
 31
0.0
  0
LINE
  5
1D238
330
1D20E
100
AcDbEntity
  8
02製品
100
AcDbLine
 10
6.349999999999909
 20
4.533333333333303
 30
0.0
 11
5.079999999999927
 21
3.966666666666697
 31
0.0
  0
LINE
  5
1D239
330
1D20E
100
AcDbEntity
  8
02製品
100
AcDbLine
 10
3.809999999999945
 20
4.533333333333303
 30
0.0
 11
5.079999999999927
 21
3.966666666666697
 31
0.0
  0
ENDBLK
  5
1D23A
330
1D20E
100
AcDbEntity
  8
0
100
AcDbBlockEnd
  0
BLOCK
  5
1D23F
330
1D23C
100
AcDbEntity
  8
0
100
AcDbBlockBegin
  2
A$C29074
 70
     0
 10
0.0
 20
0.0
 30
0.0
  3
A$C29074
  1

  0
LINE
  5
1D240
330
1D23C
100
AcDbEntity
  8
02製品
100
AcDbLine
 10
1.270000000002256
 20
2.266666666666424
 30
0.0
 11
0.0000000000031832
 21
2.833333333335304
 31
0.0
  0
LINE
  5
1D241
330
1D23C
100
AcDbEntity
  8
02製品
100
AcDbLine
 10
2.540000000003147
 20
2.833333333331666
 30
0.0
 11
1.270000000002256
 21
2.266666666666424
 31
0.0
  0
LINE
  5
1D242
330
1D23C
100
AcDbEntity
  8
02製品
100
AcDbLine
 10
5.08000000000311
 20
2.833333333327573
 30
0.0
 11
3.810000000002674
 21
2.266666666662786
 31
0.0
  0
LINE
  5
1D243
330
1D23C
100
AcDbEntity
  8
02製品
100
AcDbLine
 10
6.350000000002638
 20
2.266666666659148
 30
0.0
 11
5.08000000000311
 21
2.833333333327573
 31
0.0
  0
LINE
  5
1D244
330
1D23C
100
AcDbEntity
  8
02製品
100
AcDbLine
 10
3.810000000002674
 20
2.266666666662786
 30
0.0
 11
2.540000000003147
 21
2.833333333331666
 31
0.0
  0
LINE
  5
1D245
330
1D23C
100
AcDbEntity
  8
02製品
100
AcDbLine
 10
2.540000000003147
 20
2.833333333331666
 30
0.0
 11
3.810000000004038
 21
3.399999999996453
 31
0.0
  0
LINE
  5
1D246
330
1D23C
100
AcDbEntity
  8
02製品
100
AcDbLine
 10
3.810000000004038
 20
3.399999999996453
 30
0.0
 11
2.540000000004966
 21
3.966666666664878
 31
0.0
  0
LINE
  5
1D247
330
1D23C
100
AcDbEntity
  8
02製品
100
AcDbLine
 10
2.540000000004966
 20
3.966666666664878
 30
0.0
 11
3.810000000005857
 21
4.533333333329665
 31
0.0
  0
LINE
  5
1D248
330
1D23C
100
AcDbEntity
  8
02製品
100
AcDbLine
 10
8.890000000003965
 20
3.399999999989177
 30
0.0
 11
7.620000000004893
 21
3.966666666657602
 31
0.0
  0
LINE
  5
1D249
330
1D23C
100
AcDbEntity
  8
02製品
100
AcDbLine
 10
7.620000000004893
 20
3.966666666657602
 30
0.0
 11
8.890000000005784
 21
4.533333333322389
 31
0.0
  0
LINE
  5
1D24A
330
1D23C
100
AcDbEntity
  8
02製品
100
AcDbLine
 10
8.890000000005784
 20
4.533333333322389
 30
0.0
 11
10.16000000000486
 21
3.966666666653964
 31
0.0
  0
LINE
  5
1D24B
330
1D23C
100
AcDbEntity
  8
02製品
100
AcDbLine
 10
6.350000000004002
 20
3.399999999992815
 30
0.0
 11
7.620000000003074
 21
2.833333333323935
 31
0.0
  0
LINE
  5
1D24C
330
1D23C
100
AcDbEntity
  8
02製品
100
AcDbLine
 10
3.810000000004038
 20
3.399999999996453
 30
0.0
 11
5.08000000000311
 21
2.833333333327573
 31
0.0
  0
LINE
  5
1D24D
330
1D23C
100
AcDbEntity
  8
02製品
100
AcDbLine
 10
5.08000000000311
 20
2.833333333327573
 30
0.0
 11
6.350000000004002
 21
3.399999999992815
 31
0.0
  0
LINE
  5
1D24E
330
1D23C
100
AcDbEntity
  8
02製品
100
AcDbLine
 10
6.350000000004002
 20
3.399999999992815
 30
0.0
 11
5.080000000004929
 21
3.96666666666124
 31
0.0
  0
LINE
  5
1D24F
330
1D23C
100
AcDbEntity
  8
02製品
100
AcDbLine
 10
7.620000000004893
 20
3.966666666657602
 30
0.0
 11
6.350000000004002
 21
3.399999999992815
 31
0.0
  0
LINE
  5
1D250
330
1D23C
100
AcDbEntity
  8
02製品
100
AcDbLine
 10
6.350000000005821
 20
4.533333333326027
 30
0.0
 11
7.620000000004893
 21
3.966666666657602
 31
0.0
  0
LINE
  5
1D251
330
1D23C
100
AcDbEntity
  8
02製品
100
AcDbLine
 10
5.080000000004929
 20
3.96666666666124
 30
0.0
 11
6.350000000005821
 21
4.533333333326027
 31
0.0
  0
LINE
  5
1D252
330
1D23C
100
AcDbEntity
  8
02製品
100
AcDbLine
 10
5.080000000004929
 20
3.96666666666124
 30
0.0
 11
3.810000000004038
 21
3.399999999996453
 31
0.0
  0
LINE
  5
1D253
330
1D23C
100
AcDbEntity
  8
02製品
100
AcDbLine
 10
3.810000000005857
 20
4.533333333329665
 30
0.0
 11
5.080000000004929
 21
3.96666666666124
 31
0.0
  0
LINE
  5
1D254
330
1D23C
100
AcDbEntity
  8
02製品
100
AcDbLine
 10
0.0000000000031832
 20
2.833333333335304
 30
0.0
 11
1.270000000004075
 21
3.400000000000091
 31
0.0
  0
LINE
  5
1D255
330
1D23C
100
AcDbEntity
  8
02製品
100
AcDbLine
 10
1.270000000004075
 20
3.400000000000091
 30
0.0
 11
2.540000000003147
 21
2.833333333331666
 31
0.0
  0
LINE
  5
1D256
330
1D23C
100
AcDbEntity
  8
02製品
100
AcDbLine
 10
0.0000000000050022
 20
3.966666666668516
 30
0.0
 11
1.270000000005894
 21
4.533333333333303
 31
0.0
  0
LINE
  5
1D257
330
1D23C
100
AcDbEntity
  8
02製品
100
AcDbLine
 10
1.270000000005894
 20
4.533333333333303
 30
0.0
 11
2.540000000004966
 21
3.966666666664878
 31
0.0
  0
LINE
  5
1D258
330
1D23C
100
AcDbEntity
  8
02製品
100
AcDbLine
 10
2.540000000004966
 20
3.966666666664878
 30
0.0
 11
1.270000000004075
 21
3.400000000000091
 31
0.0
  0
LINE
  5
1D259
330
1D23C
100
AcDbEntity
  8
02製品
100
AcDbLine
 10
1.270000000004075
 20
3.400000000000091
 30
0.0
 11
0.0000000000050022
 21
3.966666666668516
 31
0.0
  0
LINE
  5
1D25A
330
1D23C
100
AcDbEntity
  8
02製品
100
AcDbLine
 10
2.540000000001783
 20
1.699999999997999
 30
0.0
 11
3.810000000002674
 21
2.266666666662786
 31
0.0
  0
LINE
  5
1D25B
330
1D23C
100
AcDbEntity
  8
02製品
100
AcDbLine
 10
3.810000000000855
 20
1.133333333329574
 30
0.0
 11
2.540000000001783
 21
1.699999999997999
 31
0.0
  0
LINE
  5
1D25C
330
1D23C
100
AcDbEntity
  8
02製品
100
AcDbLine
 10
3.810000000002674
 20
2.266666666662786
 30
0.0
 11
5.080000000001746
 21
1.699999999994361
 31
0.0
  0
LINE
  5
1D25D
330
1D23C
100
AcDbEntity
  8
02製品
100
AcDbLine
 10
1.269999999999072
 20
0.0
 30
0.0
 11
0.0
 21
0.566666666668425
 31
0.0
  0
LINE
  5
1D25E
330
1D23C
100
AcDbEntity
  8
02製品
100
AcDbLine
 10
0.0
 20
0.566666666668425
 30
0.0
 11
1.270000000000891
 21
1.133333333333212
 31
0.0
  0
LINE
  5
1D25F
330
1D23C
100
AcDbEntity
  8
02製品
100
AcDbLine
 10
1.270000000000891
 20
1.133333333333212
 30
0.0
 11
2.539999999999964
 21
0.566666666664787
 31
0.0
  0
LINE
  5
1D260
330
1D23C
100
AcDbEntity
  8
02製品
100
AcDbLine
 10
1.270000000000891
 20
1.133333333333212
 30
0.0
 11
0.0000000000013642
 21
1.700000000001637
 31
0.0
  0
LINE
  5
1D261
330
1D23C
100
AcDbEntity
  8
02製品
100
AcDbLine
 10
0.0000000000013642
 20
1.700000000001637
 30
0.0
 11
1.270000000002256
 21
2.266666666666424
 31
0.0
  0
LINE
  5
1D262
330
1D23C
100
AcDbEntity
  8
02製品
100
AcDbLine
 10
2.540000000001783
 20
1.699999999997999
 30
0.0
 11
1.270000000000891
 21
1.133333333333212
 31
0.0
  0
LINE
  5
1D263
330
1D23C
100
AcDbEntity
  8
02製品
100
AcDbLine
 10
1.270000000002256
 20
2.266666666666424
 30
0.0
 11
2.540000000001783
 21
1.699999999997999
 31
0.0
  0
ENDBLK
  5
1D264
330
1D23C
100
AcDbEntity
  8
0
100
AcDbBlockEnd
  0
BLOCK
  5
1ED83
330
1EC9E
100
AcDbEntity
  8
0
100
AcDbBlockBegin
  2
A$C30975
 70
     0
 10
0.0
 20
0.0
 30
0.0
  3
A$C30975
  1

  0
LINE
  5
1ECCB
330
1EC9E
100
AcDbEntity
  8
1　製品
100
AcDbLine
 10
11.10000000351829
 20
745.0000000000018
 30
0.0
 11
794.1000000035183
 21
745.0000000000018
 31
0.0
  0
LINE
  5
1ECCC
330
1EC9E
100
AcDbEntity
  8
1　製品
100
AcDbLine
 10
6.900000003517562
 20
275.0000000000018
 30
0.0
 11
6.900000003517562
 21
90.00000000000182
 31
0.0
  0
LINE
  5
1ECCD
330
1EC9E
100
AcDbEntity
  8
1　製品
100
AcDbLine
 10
8.10000000351829
 20
90.02695268825482
 30
0.0
 11
12.04727877602454
 21
1.19999999999709
 31
0.0
  0
LINE
  5
1ECCE
330
1EC9E
100
AcDbEntity
  8
1　製品
100
AcDbLine
 10
6.900000003517562
 20
90.00000000000182
 30
0.0
 11
10.90000000351756
 21
0.0
 31
0.0
  0
LINE
  5
1ECCF
330
1EC9E
100
AcDbEntity
  8
1　製品
100
AcDbLine
 10
17.97920761794194
 20
1.200000000000728
 30
0.0
 11
20.42038093628253
 21
10.31058285412291
 31
0.0
  0
LINE
  5
1ECD0
330
1EC9E
100
AcDbEntity
  8
1　製品
100
AcDbLine
 10
10.90000000351756
 20
0.0
 30
0.0
 11
18.90000000351756
 21
0.0
 31
0.0
  0
LINE
  5
1ECD1
330
1EC9E
100
AcDbEntity
  8
1　製品
100
AcDbLine
 10
12.04727877602454
 20
1.199999999998909
 30
0.0
 11
17.97920761794376
 21
1.200000000002547
 31
0.0
  0
LINE
  5
1ECD2
330
1EC9E
100
AcDbEntity
  8
1　製品
100
AcDbLine
 10
21.57949192782871
 20
10.0
 30
0.0
 11
20.42038093628253
 21
10.31058285412291
 31
0.0
  0
LINE
  5
1ECD3
330
1EC9E
100
AcDbEntity
  8
1　製品
100
AcDbLine
 10
18.90000000351756
 20
0.0
 30
0.0
 11
21.57949192782871
 21
10.0
 31
0.0
  0
LINE
  5
1ECD4
330
1EC9E
100
AcDbEntity
  8
1　製品
100
AcDbLine
 10
11.10000000351829
 20
145.0000000000018
 30
0.0
 11
51.10000000351829
 21
145.0000000000018
 31
0.0
  0
LINE
  5
1ECD5
330
1EC9E
100
AcDbEntity
  8
1　製品
100
AcDbLine
 10
11.10000000351829
 20
148.0000000000018
 30
0.0
 11
51.10000000351829
 21
148.0000000000018
 31
0.0
  0
LINE
  5
1ECD6
330
1EC9E
100
AcDbEntity
  8
1　製品
100
AcDbLine
 10
8.10000000351829
 20
147.5000000000018
 30
0.0
 11
8.10000000351829
 21
90.02695268825482
 31
0.0
  0
LINE
  5
1ECD7
330
1EC9E
100
AcDbEntity
  8
1　製品
100
AcDbLine
 10
51.10000000351829
 20
145.0000000000018
 30
0.0
 11
51.10000000351829
 21
148.0000000000018
 31
0.0
  0
LINE
  5
1ECD8
330
1EC9E
100
AcDbEntity
  8
1　製品
100
AcDbLine
 10
11.10000000351829
 20
268.0000000000018
 30
0.0
 11
11.10000000351829
 21
275.0000000000018
 31
0.0
  0
LINE
  5
1ECD9
330
1EC9E
100
AcDbEntity
  8
1　製品
100
AcDbLine
 10
8.10000000351829
 20
275.0000000000018
 30
0.0
 11
6.900000003517562
 21
275.0000000000018
 31
0.0
  0
LINE
  5
1ECDA
330
1EC9E
100
AcDbEntity
  8
1　製品
100
AcDbLine
 10
8.10000000351829
 20
275.0000000000018
 30
0.0
 11
8.10000000351829
 21
242.5000000000018
 31
0.0
  0
LINE
  5
1ECDB
330
1EC9E
100
AcDbEntity
  8
1　製品
100
AcDbLine
 10
7.10000000351647
 20
745.0000000000018
 30
0.0
 11
7.10000000351647
 21
595.0000000000018
 31
0.0
  0
LINE
  5
1ECDC
330
1EC9E
100
AcDbEntity
  8
1　製品
100
AcDbLine
 10
57.10000000351465
 20
745.0000000000018
 30
0.0
 11
57.10000000351465
 21
595.0000000000018
 31
0.0
  0
LINE
  5
1ECDD
330
1EC9E
100
AcDbEntity
  8
1　製品
100
AcDbLine
 10
26.10000000351465
 20
615.0000000000018
 30
0.0
 11
46.10000000351465
 21
615.0000000000018
 31
0.0
  0
LINE
  5
1ECDE
330
1EC9E
100
AcDbEntity
  8
1　製品
100
AcDbLine
 10
26.10000000351465
 20
615.0000000000018
 30
0.0
 11
46.10000000351465
 21
615.0000000000018
 31
0.0
  0
LINE
  5
1ECDF
330
1EC9E
100
AcDbEntity
  8
1　製品
100
AcDbLine
 10
7.10000000351647
 20
595.0000000000018
 30
0.0
 11
57.10000000351465
 21
595.0000000000018
 31
0.0
  0
LINE
  5
1ECE0
330
1EC9E
100
AcDbEntity
  8
1　製品
100
AcDbLine
 10
36.10000000351647
 20
625.0000000000018
 30
0.0
 11
36.10000000351647
 21
605.0000000000018
 31
0.0
  0
CIRCLE
  5
1ECE1
330
1EC9E
100
AcDbEntity
  8
1　製品
100
AcDbCircle
 10
36.10000000351465
 20
615.0000000000018
 30
0.0
 40
5.0
  0
LINE
  5
1ECE2
330
1EC9E
100
AcDbEntity
  8
1　製品
100
AcDbLine
 10
36.10000000351647
 20
625.0000000000018
 30
0.0
 11
36.10000000351647
 21
605.0000000000018
 31
0.0
  0
CIRCLE
  5
1ECE3
330
1EC9E
100
AcDbEntity
  8
1　製品
100
AcDbCircle
 10
36.10000000351465
 20
615.0000000000018
 30
0.0
 40
5.0
  0
LINE
  5
1ECE4
330
1EC9E
100
AcDbEntity
  8
1　製品
100
AcDbLine
 10
41.10000000351647
 20
735.0000000000018
 30
0.0
 11
41.10000000351647
 21
715.0000000000018
 31
0.0
  0
CIRCLE
  5
1ECE5
330
1EC9E
100
AcDbEntity
  8
1　製品
100
AcDbCircle
 10
41.10000000351465
 20
725.0000000000018
 30
0.0
 40
5.0
  0
ARC
  5
1ECE6
330
1EC9E
100
AcDbEntity
  8
1　製品
100
AcDbCircle
 10
47.10000000351465
 20
725.0000000000018
 30
0.0
 40
5.0
100
AcDbArc
 50
270.0
 51
90.0
  0
ARC
  5
1ECE7
330
1EC9E
100
AcDbEntity
  8
1　製品
100
AcDbCircle
 10
37.10000000351465
 20
725.0000000000018
 30
0.0
 40
5.0
100
AcDbArc
 50
90.0
 51
270.0
  0
LINE
  5
1ECE8
330
1EC9E
100
AcDbEntity
  8
1　製品
100
AcDbLine
 10
42.10000000351647
 20
735.0000000000018
 30
0.0
 11
42.10000000351647
 21
715.0000000000018
 31
0.0
  0
LINE
  5
1ECE9
330
1EC9E
100
AcDbEntity
  8
1　製品
100
AcDbLine
 10
26.10000000351465
 20
675.0000000000018
 30
0.0
 11
46.10000000351465
 21
675.0000000000018
 31
0.0
  0
LINE
  5
1ECEA
330
1EC9E
100
AcDbEntity
  8
1　製品
100
AcDbLine
 10
26.10000000351465
 20
675.0000000000018
 30
0.0
 11
46.10000000351465
 21
675.0000000000018
 31
0.0
  0
LINE
  5
1ECEB
330
1EC9E
100
AcDbEntity
  8
1　製品
100
AcDbLine
 10
27.10000000351465
 20
725.0000000000018
 30
0.0
 11
57.10000000351647
 21
725.0000000000018
 31
0.0
  0
LINE
  5
1ECEC
330
1EC9E
100
AcDbEntity
  8
1　製品
100
AcDbLine
 10
31.10000000351465
 20
725.0000000000018
 30
0.0
 11
51.10000000351465
 21
725.0000000000018
 31
0.0
  0
LINE
  5
1ECED
330
1EC9E
100
AcDbEntity
  8
1　製品
100
AcDbLine
 10
36.10000000351647
 20
685.0000000000018
 30
0.0
 11
36.10000000351647
 21
665.0000000000018
 31
0.0
  0
CIRCLE
  5
1ECEE
330
1EC9E
100
AcDbEntity
  8
1　製品
100
AcDbCircle
 10
36.10000000351465
 20
675.0000000000018
 30
0.0
 40
5.0
  0
CIRCLE
  5
1ECEF
330
1EC9E
100
AcDbEntity
  8
1　製品
100
AcDbCircle
 10
36.10000000351465
 20
675.0000000000018
 30
0.0
 40
5.0
  0
LINE
  5
1ECF0
330
1EC9E
100
AcDbEntity
  8
1　製品
100
AcDbLine
 10
36.10000000351647
 20
685.0000000000018
 30
0.0
 11
36.10000000351647
 21
665.0000000000018
 31
0.0
  0
LINE
  5
1ECF1
330
1EC9E
100
AcDbEntity
  8
1　製品
100
AcDbLine
 10
37.10000000351465
 20
720.0000000000018
 30
0.0
 11
47.10000000351465
 21
720.0000000000018
 31
0.0
  0
LINE
  5
1ECF2
330
1EC9E
100
AcDbEntity
  8
1　製品
100
AcDbLine
 10
7.10000000351647
 20
745.0000000000018
 30
0.0
 11
57.10000000351465
 21
745.0000000000018
 31
0.0
  0
LINE
  5
1ECF3
330
1EC9E
100
AcDbEntity
  8
1　製品
100
AcDbLine
 10
37.10000000351465
 20
730.0000000000018
 30
0.0
 11
47.10000000351465
 21
730.0000000000018
 31
0.0
  0
LINE
  5
1ECF4
330
1EC9E
100
AcDbEntity
  8
1　製品
100
AcDbLine
 10
798.300000003519
 20
275.0000000000018
 30
0.0
 11
798.300000003519
 21
90.00000000000182
 31
0.0
  0
LINE
  5
1ECF5
330
1EC9E
100
AcDbEntity
  8
1　製品
100
AcDbLine
 10
798.300000003519
 20
90.00000000000182
 30
0.0
 11
794.300000003519
 21
0.0
 31
0.0
  0
LINE
  5
1ECF6
330
1EC9E
100
AcDbEntity
  8
1　製品
100
AcDbLine
 10
797.1000000035183
 20
90.02695268825482
 30
0.0
 11
793.152721231012
 21
1.19999999999709
 31
0.0
  0
LINE
  5
1ECF7
330
1EC9E
100
AcDbEntity
  8
1　製品
100
AcDbLine
 10
786.300000003519
 20
0.0
 30
0.0
 11
783.6205080792079
 21
10.0
 31
0.0
  0
LINE
  5
1ECF8
330
1EC9E
100
AcDbEntity
  8
1　製品
100
AcDbLine
 10
783.6205080792079
 20
10.0
 30
0.0
 11
784.779619070754
 21
10.31058285412291
 31
0.0
  0
LINE
  5
1ECF9
330
1EC9E
100
AcDbEntity
  8
1　製品
100
AcDbLine
 10
787.2207923890946
 20
1.200000000000728
 30
0.0
 11
784.779619070754
 21
10.31058285412291
 31
0.0
  0
LINE
  5
1ECFA
330
1EC9E
100
AcDbEntity
  8
1　製品
100
AcDbLine
 10
793.152721231012
 20
1.199999999998909
 30
0.0
 11
787.2207923890928
 21
1.200000000002547
 31
0.0
  0
LINE
  5
1ECFB
330
1EC9E
100
AcDbEntity
  8
1　製品
100
AcDbLine
 10
794.300000003519
 20
0.0
 30
0.0
 11
786.300000003519
 21
0.0
 31
0.0
  0
LINE
  5
1ECFC
330
1EC9E
100
AcDbEntity
  8
1　製品
100
AcDbLine
 10
794.1000000035183
 20
148.0000000000018
 30
0.0
 11
754.1000000035165
 21
148.0000000000018
 31
0.0
  0
LINE
  5
1ECFD
330
1EC9E
100
AcDbEntity
  8
1　製品
100
AcDbLine
 10
794.1000000035183
 20
145.0000000000018
 30
0.0
 11
754.1000000035165
 21
145.0000000000018
 31
0.0
  0
LINE
  5
1ECFE
330
1EC9E
100
AcDbEntity
  8
1　製品
100
AcDbLine
 10
754.1000000035165
 20
148.0000000000018
 30
0.0
 11
754.1000000035165
 21
145.0000000000018
 31
0.0
  0
LINE
  5
1ECFF
330
1EC9E
100
AcDbEntity
  8
1　製品
100
AcDbLine
 10
797.1000000035183
 20
147.5000000000018
 30
0.0
 11
797.1000000035183
 21
90.02695268825482
 31
0.0
  0
LINE
  5
1ED00
330
1EC9E
100
AcDbEntity
  8
1　製品
100
AcDbLine
 10
794.1000000035183
 20
268.0000000000018
 30
0.0
 11
794.1000000035183
 21
275.0000000000018
 31
0.0
  0
LINE
  5
1ED01
330
1EC9E
100
AcDbEntity
  8
1　製品
100
AcDbLine
 10
797.1000000035183
 20
275.0000000000018
 30
0.0
 11
797.1000000035183
 21
242.5000000000018
 31
0.0
  0
LINE
  5
1ED02
330
1EC9E
100
AcDbEntity
  8
1　製品
100
AcDbLine
 10
797.1000000035183
 20
275.0000000000018
 30
0.0
 11
798.300000003519
 21
275.0000000000018
 31
0.0
  0
LINE
  5
1ED03
330
1EC9E
100
AcDbEntity
  8
1　製品
100
AcDbLine
 10
798.1000000035201
 20
745.0000000000018
 30
0.0
 11
798.1000000035201
 21
595.0000000000018
 31
0.0
  0
LINE
  5
1ED04
330
1EC9E
100
AcDbEntity
  8
1　製品
100
AcDbLine
 10
748.1000000035219
 20
745.0000000000018
 30
0.0
 11
748.1000000035219
 21
595.0000000000018
 31
0.0
  0
LINE
  5
1ED05
330
1EC9E
100
AcDbEntity
  8
1　製品
100
AcDbLine
 10
779.1000000035219
 20
615.0000000000018
 30
0.0
 11
759.1000000035219
 21
615.0000000000018
 31
0.0
  0
CIRCLE
  5
1ED06
330
1EC9E
100
AcDbEntity
  8
1　製品
100
AcDbCircle
 10
769.1000000035219
 20
615.0000000000018
 30
0.0
 40
5.0
  0
LINE
  5
1ED07
330
1EC9E
100
AcDbEntity
  8
1　製品
100
AcDbLine
 10
769.1000000035201
 20
625.0000000000018
 30
0.0
 11
769.1000000035201
 21
605.0000000000018
 31
0.0
  0
LINE
  5
1ED08
330
1EC9E
100
AcDbEntity
  8
1　製品
100
AcDbLine
 10
798.1000000035201
 20
595.0000000000018
 30
0.0
 11
748.1000000035219
 21
595.0000000000018
 31
0.0
  0
LINE
  5
1ED09
330
1EC9E
100
AcDbEntity
  8
1　製品
100
AcDbLine
 10
779.1000000035219
 20
615.0000000000018
 30
0.0
 11
759.1000000035219
 21
615.0000000000018
 31
0.0
  0
CIRCLE
  5
1ED0A
330
1EC9E
100
AcDbEntity
  8
1　製品
100
AcDbCircle
 10
769.1000000035219
 20
615.0000000000018
 30
0.0
 40
5.0
  0
LINE
  5
1ED0B
330
1EC9E
100
AcDbEntity
  8
1　製品
100
AcDbLine
 10
769.1000000035201
 20
625.0000000000018
 30
0.0
 11
769.1000000035201
 21
605.0000000000018
 31
0.0
  0
CIRCLE
  5
1ED0C
330
1EC9E
100
AcDbEntity
  8
1　製品
100
AcDbCircle
 10
764.1000000035219
 20
725.0000000000018
 30
0.0
 40
5.0
  0
LINE
  5
1ED0D
330
1EC9E
100
AcDbEntity
  8
1　製品
100
AcDbLine
 10
764.1000000035201
 20
735.0000000000018
 30
0.0
 11
764.1000000035201
 21
715.0000000000018
 31
0.0
  0
LINE
  5
1ED0E
330
1EC9E
100
AcDbEntity
  8
1　製品
100
AcDbLine
 10
763.1000000035201
 20
735.0000000000018
 30
0.0
 11
763.1000000035201
 21
715.0000000000018
 31
0.0
  0
ARC
  5
1ED0F
330
1EC9E
100
AcDbEntity
  8
1　製品
100
AcDbCircle
 10
768.1000000035219
 20
725.0000000000018
 30
0.0
 40
5.0
100
AcDbArc
 50
270.0
 51
90.0
  0
ARC
  5
1ED10
330
1EC9E
100
AcDbEntity
  8
1　製品
100
AcDbCircle
 10
758.1000000035219
 20
725.0000000000018
 30
0.0
 40
5.0
100
AcDbArc
 50
90.0
 51
270.0
  0
LINE
  5
1ED11
330
1EC9E
100
AcDbEntity
  8
1　製品
100
AcDbLine
 10
774.1000000035219
 20
725.0000000000018
 30
0.0
 11
754.1000000035219
 21
725.0000000000018
 31
0.0
  0
LINE
  5
1ED12
330
1EC9E
100
AcDbEntity
  8
1　製品
100
AcDbLine
 10
779.1000000035219
 20
675.0000000000018
 30
0.0
 11
759.1000000035219
 21
675.0000000000018
 31
0.0
  0
CIRCLE
  5
1ED13
330
1EC9E
100
AcDbEntity
  8
1　製品
100
AcDbCircle
 10
769.1000000035219
 20
675.0000000000018
 30
0.0
 40
5.0
  0
LINE
  5
1ED14
330
1EC9E
100
AcDbEntity
  8
1　製品
100
AcDbLine
 10
769.1000000035201
 20
685.0000000000018
 30
0.0
 11
769.1000000035201
 21
665.0000000000018
 31
0.0
  0
LINE
  5
1ED15
330
1EC9E
100
AcDbEntity
  8
1　製品
100
AcDbLine
 10
778.1000000035219
 20
725.0000000000018
 30
0.0
 11
748.1000000035201
 21
725.0000000000018
 31
0.0
  0
LINE
  5
1ED16
330
1EC9E
100
AcDbEntity
  8
1　製品
100
AcDbLine
 10
768.1000000035219
 20
720.0000000000018
 30
0.0
 11
758.1000000035219
 21
720.0000000000018
 31
0.0
  0
LINE
  5
1ED17
330
1EC9E
100
AcDbEntity
  8
1　製品
100
AcDbLine
 10
779.1000000035219
 20
675.0000000000018
 30
0.0
 11
759.1000000035219
 21
675.0000000000018
 31
0.0
  0
LINE
  5
1ED18
330
1EC9E
100
AcDbEntity
  8
1　製品
100
AcDbLine
 10
769.1000000035201
 20
685.0000000000018
 30
0.0
 11
769.1000000035201
 21
665.0000000000018
 31
0.0
  0
CIRCLE
  5
1ED19
330
1EC9E
100
AcDbEntity
  8
1　製品
100
AcDbCircle
 10
769.1000000035219
 20
675.0000000000018
 30
0.0
 40
5.0
  0
LINE
  5
1ED1A
330
1EC9E
100
AcDbEntity
  8
1　製品
100
AcDbLine
 10
798.1000000035201
 20
745.0000000000018
 30
0.0
 11
748.1000000035219
 21
745.0000000000018
 31
0.0
  0
LINE
  5
1ED1B
330
1EC9E
100
AcDbEntity
  8
1　製品
100
AcDbLine
 10
768.1000000035219
 20
730.0000000000018
 30
0.0
 11
758.1000000035219
 21
730.0000000000018
 31
0.0
  0
LINE
  5
1ED1C
330
1EC9E
100
AcDbEntity
  8
1　製品
100
AcDbLine
 10
8.10000000351829
 20
275.0000000000018
 30
0.0
 11
8.10000000351829
 21
245.0000000000018
 31
0.0
  0
LINE
  5
1ED1D
330
1EC9E
100
AcDbEntity
  8
1　製品
100
AcDbLine
 10
8.10000000351829
 20
245.0000000000018
 30
0.0
 11
9.10000000351829
 21
245.0000000000018
 31
0.0
  0
LINE
  5
1ED1E
330
1EC9E
100
AcDbEntity
  8
1　製品
100
AcDbLine
 10
11.10000000351829
 20
268.0000000000018
 30
0.0
 11
11.10000000351829
 21
247.0000000000018
 31
0.0
  0
ARC
  5
1ED1F
330
1EC9E
100
AcDbEntity
  8
1　製品
100
AcDbCircle
 10
9.10000000351829
 20
247.0000000000018
 30
0.0
 40
2.0
100
AcDbArc
 50
270.0
 51
0.0
  0
LINE
  5
1ED20
330
1EC9E
100
AcDbEntity
  8
1　製品
100
AcDbLine
 10
6.900000003517562
 20
147.5000000000018
 30
0.0
 11
11.10000000351829
 21
147.5000000000018
 31
0.0
  0
LINE
  5
1ED21
330
1EC9E
100
AcDbEntity
  8
1　製品
100
AcDbLine
 10
6.900000003517562
 20
242.5000000000018
 30
0.0
 11
11.10000000351829
 21
242.5000000000018
 31
0.0
  0
LINE
  5
1ED22
330
1EC9E
100
AcDbEntity
  8
1　製品
100
AcDbLine
 10
8.10000000351829
 20
275.0000000000018
 30
0.0
 11
11.10000000351829
 21
275.0000000000018
 31
0.0
  0
LINE
  5
1ED23
330
1EC9E
100
AcDbEntity
  8
1　製品
100
AcDbLine
 10
11.10000000351829
 20
595.0000000000018
 30
0.0
 11
11.10000000351829
 21
145.0000000000018
 31
0.0
  0
LINE
  5
1ED24
330
1EC9E
100
AcDbEntity
  8
1　製品
100
AcDbLine
 10
51.10000000351829
 20
148.0000000000018
 30
0.0
 11
51.10000000351829
 21
595.0000000000018
 31
0.0
  0
LINE
  5
1ED25
330
1EC9E
100
AcDbEntity
  8
1　製品
100
AcDbLine
 10
57.10000000351465
 20
705.0000000000018
 30
0.0
 11
748.1000000035219
 21
705.0000000000018
 31
0.0
  0
LINE
  5
1ED26
330
1EC9E
100
AcDbEntity
  8
1　製品
100
AcDbLine
 10
794.1000000035183
 20
595.0000000000018
 30
0.0
 11
794.1000000035183
 21
145.0000000000018
 31
0.0
  0
LINE
  5
1ED27
330
1EC9E
100
AcDbEntity
  8
1　製品
100
AcDbLine
 10
754.1000000035165
 20
148.0000000000018
 30
0.0
 11
754.1000000035183
 21
595.0000000000018
 31
0.0
  0
LINE
  5
1ED28
330
1EC9E
100
AcDbEntity
  8
1　製品
100
AcDbLine
 10
797.1000000035183
 20
275.0000000000018
 30
0.0
 11
797.1000000035183
 21
245.0000000000018
 31
0.0
  0
LINE
  5
1ED29
330
1EC9E
100
AcDbEntity
  8
1　製品
100
AcDbLine
 10
797.1000000035183
 20
245.0000000000018
 30
0.0
 11
796.1000000035183
 21
245.0000000000018
 31
0.0
  0
LINE
  5
1ED2A
330
1EC9E
100
AcDbEntity
  8
1　製品
100
AcDbLine
 10
794.1000000035183
 20
268.0000000000018
 30
0.0
 11
794.1000000035183
 21
247.0000000000018
 31
0.0
  0
ARC
  5
1ED2B
330
1EC9E
100
AcDbEntity
  8
1　製品
100
AcDbCircle
 10
796.1000000035183
 20
247.0000000000018
 30
0.0
 40
2.0
100
AcDbArc
 50
180.0
 51
270.0
  0
LINE
  5
1ED2C
330
1EC9E
100
AcDbEntity
  8
1　製品
100
AcDbLine
 10
797.1000000035183
 20
275.0000000000018
 30
0.0
 11
794.1000000035183
 21
275.0000000000018
 31
0.0
  0
LINE
  5
1ED2D
330
1EC9E
100
AcDbEntity
  8
1　製品
100
AcDbLine
 10
798.300000003519
 20
242.5000000000018
 30
0.0
 11
794.1000000035183
 21
242.5000000000018
 31
0.0
  0
LINE
  5
1ED2E
330
1EC9E
100
AcDbEntity
  8
1　製品
100
AcDbLine
 10
798.300000003519
 20
147.5000000000018
 30
0.0
 11
794.1000000035183
 21
147.5000000000018
 31
0.0
  0
LINE
  5
1ED2F
330
1EC9E
100
AcDbEntity
  8
02製品
  6
ByBlock
100
AcDbLine
 10
5.500000000001819
 20
716.5000000000036
 30
0.0
 11
7.10000000351647
 21
716.5000000000036
 31
0.0
  0
LINE
  5
1ED30
330
1EC9E
100
AcDbEntity
  8
02製品
  6
ByBlock
100
AcDbLine
 10
5.500000000001819
 20
733.5000000000036
 30
0.0
 11
7.10000000351647
 21
733.5000000000036
 31
0.0
  0
LINE
  5
1ED31
330
1EC9E
100
AcDbEntity
  8
02製品
  6
ByBlock
100
AcDbLine
 10
7.10000000351647
 20
733.5000000000036
 30
0.0
 11
7.10000000351647
 21
716.5000000000036
 31
0.0
  0
LINE
  5
1ED32
330
1EC9E
100
AcDbEntity
  8
02製品
  6
ByBlock
100
AcDbLine
 10
5.500000000001819
 20
733.5000000000036
 30
0.0
 11
5.500000000001819
 21
716.5000000000036
 31
0.0
  0
LINE
  5
1ED33
330
1EC9E
100
AcDbEntity
  8
02製品
  6
ByBlock
100
AcDbLine
 10
0.6960296630859375
 20
717.494461059574
 30
0.0
 11
5.500000000001819
 21
717.494461059574
 31
0.0
  0
LINE
  5
1ED34
330
1EC9E
100
AcDbEntity
  8
02製品
  6
ByBlock
100
AcDbLine
 10
0.0
 20
731.3000852076002
 30
0.0
 11
0.0
 21
718.6999891790147
 31
0.0
  0
ARC
  5
1ED35
330
1EC9E
100
AcDbEntity
  8
02製品
  6
ByBlock
100
AcDbCircle
 10
12.00000000000364
 20
725.0000000000036
 30
0.0
 40
12.0
100
AcDbArc
 50
161.7759804502288
 51
198.2237823143786
  0
LINE
  5
1ED36
330
1EC9E
100
AcDbEntity
  8
02製品
  6
ByBlock
100
AcDbLine
 10
0.601898193359375
 20
721.2472534179724
 30
0.0
 11
5.500000000001819
 21
721.2472534179724
 31
0.0
  0
LINE
  5
1ED37
330
1EC9E
100
AcDbEntity
  8
02製品
  6
ByBlock
100
AcDbLine
 10
0.6019134521520755
 20
728.7528076171911
 30
0.0
 11
5.500000000001819
 21
728.7528076171911
 31
0.0
  0
LINE
  5
1ED38
330
1EC9E
100
AcDbEntity
  8
02製品
  6
ByBlock
100
AcDbLine
 10
0.6960296630859375
 20
732.5055694580115
 30
0.0
 11
5.500000000001819
 21
732.5055694580115
 31
0.0
  0
LINE
  5
1ED39
330
1EC9E
100
AcDbEntity
  8
02製品
  6
ByBlock
100
AcDbLine
 10
0.6019017629496375
 20
728.7528312723134
 30
0.0
 11
0.0
 21
731.3000852076002
 31
0.0
  0
LINE
  5
1ED3A
330
1EC9E
100
AcDbEntity
  8
02製品
  6
ByBlock
100
AcDbLine
 10
0.0
 20
718.6999891790147
 30
0.0
 11
0.6018760334500257
 21
721.2473005513148
 31
0.0
  0
LINE
  5
1ED3B
330
1EC9E
100
AcDbEntity
  8
02製品
  6
ByBlock
100
AcDbLine
 10
0.0
 20
718.6999891790147
 30
0.0
 11
0.6959975911631773
 21
717.4944858559884
 31
0.0
  0
LINE
  5
1ED3C
330
1EC9E
100
AcDbEntity
  8
02製品
  6
ByBlock
100
AcDbLine
 10
0.6960187865770422
 20
732.5056252421618
 30
0.0
 11
0.0
 21
731.3000852076002
 31
0.0
  0
LINE
  5
1ED3D
330
1EC9E
100
AcDbEntity
  8
02製品
  6
ByBlock
100
AcDbLine
 10
5.500000000001819
 20
666.5000000000036
 30
0.0
 11
7.10000000351647
 21
666.5000000000036
 31
0.0
  0
LINE
  5
1ED3E
330
1EC9E
100
AcDbEntity
  8
02製品
  6
ByBlock
100
AcDbLine
 10
5.500000000001819
 20
683.5000000000036
 30
0.0
 11
7.10000000351647
 21
683.5000000000036
 31
0.0
  0
LINE
  5
1ED3F
330
1EC9E
100
AcDbEntity
  8
02製品
  6
ByBlock
100
AcDbLine
 10
7.10000000351647
 20
683.5000000000036
 30
0.0
 11
7.10000000351647
 21
666.5000000000036
 31
0.0
  0
LINE
  5
1ED40
330
1EC9E
100
AcDbEntity
  8
02製品
  6
ByBlock
100
AcDbLine
 10
5.500000000001819
 20
683.5000000000036
 30
0.0
 11
5.500000000001819
 21
666.5000000000036
 31
0.0
  0
LINE
  5
1ED41
330
1EC9E
100
AcDbEntity
  8
02製品
  6
ByBlock
100
AcDbLine
 10
0.6960296630859375
 20
667.494461059574
 30
0.0
 11
5.500000000001819
 21
667.494461059574
 31
0.0
  0
LINE
  5
1ED42
330
1EC9E
100
AcDbEntity
  8
02製品
  6
ByBlock
100
AcDbLine
 10
0.0
 20
681.3000852076002
 30
0.0
 11
0.0
 21
668.6999891790147
 31
0.0
  0
ARC
  5
1ED43
330
1EC9E
100
AcDbEntity
  8
02製品
  6
ByBlock
100
AcDbCircle
 10
12.00000000000364
 20
675.0000000000036
 30
0.0
 40
12.0
100
AcDbArc
 50
161.7759804502288
 51
198.2237823143786
  0
LINE
  5
1ED44
330
1EC9E
100
AcDbEntity
  8
02製品
  6
ByBlock
100
AcDbLine
 10
0.601898193359375
 20
671.2472534179724
 30
0.0
 11
5.500000000001819
 21
671.2472534179724
 31
0.0
  0
LINE
  5
1ED45
330
1EC9E
100
AcDbEntity
  8
02製品
  6
ByBlock
100
AcDbLine
 10
0.6019134521520755
 20
678.7528076171911
 30
0.0
 11
5.500000000001819
 21
678.7528076171911
 31
0.0
  0
LINE
  5
1ED46
330
1EC9E
100
AcDbEntity
  8
02製品
  6
ByBlock
100
AcDbLine
 10
0.6960296630859375
 20
682.5055694580115
 30
0.0
 11
5.500000000001819
 21
682.5055694580115
 31
0.0
  0
LINE
  5
1ED47
330
1EC9E
100
AcDbEntity
  8
02製品
  6
ByBlock
100
AcDbLine
 10
0.6019017629496375
 20
678.7528312723134
 30
0.0
 11
0.0
 21
681.3000852076002
 31
0.0
  0
LINE
  5
1ED48
330
1EC9E
100
AcDbEntity
  8
02製品
  6
ByBlock
100
AcDbLine
 10
0.0
 20
668.6999891790147
 30
0.0
 11
0.6018760334500257
 21
671.2473005513148
 31
0.0
  0
LINE
  5
1ED49
330
1EC9E
100
AcDbEntity
  8
02製品
  6
ByBlock
100
AcDbLine
 10
0.0
 20
668.6999891790147
 30
0.0
 11
0.6959975911631773
 21
667.4944858559884
 31
0.0
  0
LINE
  5
1ED4A
330
1EC9E
100
AcDbEntity
  8
02製品
  6
ByBlock
100
AcDbLine
 10
0.6960187865770422
 20
682.5056252421618
 30
0.0
 11
0.0
 21
681.3000852076002
 31
0.0
  0
LINE
  5
1ED4B
330
1EC9E
100
AcDbEntity
  8
02製品
  6
ByBlock
100
AcDbLine
 10
5.500000000001819
 20
606.5000000000036
 30
0.0
 11
7.10000000351647
 21
606.5000000000036
 31
0.0
  0
LINE
  5
1ED4C
330
1EC9E
100
AcDbEntity
  8
02製品
  6
ByBlock
100
AcDbLine
 10
5.500000000001819
 20
623.5000000000036
 30
0.0
 11
7.10000000351647
 21
623.5000000000036
 31
0.0
  0
LINE
  5
1ED4D
330
1EC9E
100
AcDbEntity
  8
02製品
  6
ByBlock
100
AcDbLine
 10
7.10000000351647
 20
623.5000000000036
 30
0.0
 11
7.10000000351647
 21
606.5000000000036
 31
0.0
  0
LINE
  5
1ED4E
330
1EC9E
100
AcDbEntity
  8
02製品
  6
ByBlock
100
AcDbLine
 10
5.500000000001819
 20
623.5000000000036
 30
0.0
 11
5.500000000001819
 21
606.5000000000036
 31
0.0
  0
LINE
  5
1ED4F
330
1EC9E
100
AcDbEntity
  8
02製品
  6
ByBlock
100
AcDbLine
 10
0.6960296630859375
 20
607.494461059574
 30
0.0
 11
5.500000000001819
 21
607.494461059574
 31
0.0
  0
LINE
  5
1ED50
330
1EC9E
100
AcDbEntity
  8
02製品
  6
ByBlock
100
AcDbLine
 10
0.0
 20
621.3000852076002
 30
0.0
 11
0.0
 21
608.6999891790147
 31
0.0
  0
ARC
  5
1ED51
330
1EC9E
100
AcDbEntity
  8
02製品
  6
ByBlock
100
AcDbCircle
 10
12.00000000000364
 20
615.0000000000036
 30
0.0
 40
12.0
100
AcDbArc
 50
161.7759804502288
 51
198.2237823143786
  0
LINE
  5
1ED52
330
1EC9E
100
AcDbEntity
  8
02製品
  6
ByBlock
100
AcDbLine
 10
0.601898193359375
 20
611.2472534179724
 30
0.0
 11
5.500000000001819
 21
611.2472534179724
 31
0.0
  0
LINE
  5
1ED53
330
1EC9E
100
AcDbEntity
  8
02製品
  6
ByBlock
100
AcDbLine
 10
0.6019134521520755
 20
618.7528076171911
 30
0.0
 11
5.500000000001819
 21
618.7528076171911
 31
0.0
  0
LINE
  5
1ED54
330
1EC9E
100
AcDbEntity
  8
02製品
  6
ByBlock
100
AcDbLine
 10
0.6960296630859375
 20
622.5055694580115
 30
0.0
 11
5.500000000001819
 21
622.5055694580115
 31
0.0
  0
LINE
  5
1ED55
330
1EC9E
100
AcDbEntity
  8
02製品
  6
ByBlock
100
AcDbLine
 10
0.6019017629496375
 20
618.7528312723134
 30
0.0
 11
0.0
 21
621.3000852076002
 31
0.0
  0
LINE
  5
1ED56
330
1EC9E
100
AcDbEntity
  8
02製品
  6
ByBlock
100
AcDbLine
 10
0.0
 20
608.6999891790147
 30
0.0
 11
0.6018760334500257
 21
611.2473005513148
 31
0.0
  0
LINE
  5
1ED57
330
1EC9E
100
AcDbEntity
  8
02製品
  6
ByBlock
100
AcDbLine
 10
0.0
 20
608.6999891790147
 30
0.0
 11
0.6959975911631773
 21
607.4944858559884
 31
0.0
  0
LINE
  5
1ED58
330
1EC9E
100
AcDbEntity
  8
02製品
  6
ByBlock
100
AcDbLine
 10
0.6960187865770422
 20
622.5056252421618
 30
0.0
 11
0.0
 21
621.3000852076002
 31
0.0
  0
LINE
  5
1ED59
330
1EC9E
100
AcDbEntity
  8
02製品
  6
ByBlock
100
AcDbLine
 10
799.7000000070348
 20
716.5000000000036
 30
0.0
 11
798.1000000035201
 21
716.5000000000036
 31
0.0
  0
LINE
  5
1ED5A
330
1EC9E
100
AcDbEntity
  8
02製品
  6
ByBlock
100
AcDbLine
 10
799.7000000070348
 20
733.5000000000036
 30
0.0
 11
798.1000000035201
 21
733.5000000000036
 31
0.0
  0
LINE
  5
1ED5B
330
1EC9E
100
AcDbEntity
  8
02製品
  6
ByBlock
100
AcDbLine
 10
798.1000000035201
 20
733.5000000000036
 30
0.0
 11
798.1000000035201
 21
716.5000000000036
 31
0.0
  0
LINE
  5
1ED5C
330
1EC9E
100
AcDbEntity
  8
02製品
  6
ByBlock
100
AcDbLine
 10
799.7000000070348
 20
733.5000000000036
 30
0.0
 11
799.7000000070348
 21
716.5000000000036
 31
0.0
  0
LINE
  5
1ED5D
330
1EC9E
100
AcDbEntity
  8
02製品
  6
ByBlock
100
AcDbLine
 10
804.5039703439506
 20
717.494461059574
 30
0.0
 11
799.7000000070348
 21
717.494461059574
 31
0.0
  0
LINE
  5
1ED5E
330
1EC9E
100
AcDbEntity
  8
02製品
  6
ByBlock
100
AcDbLine
 10
805.2000000070366
 20
731.3000852076002
 30
0.0
 11
805.2000000070366
 21
718.6999891790147
 31
0.0
  0
ARC
  5
1ED5F
330
1EC9E
100
AcDbEntity
  8
02製品
  6
ByBlock
100
AcDbCircle
 10
793.2000000070329
 20
725.0000000000036
 30
0.0
 40
12.0
100
AcDbArc
 50
341.7762176856215
 51
18.22401954977122
  0
LINE
  5
1ED60
330
1EC9E
100
AcDbEntity
  8
02製品
  6
ByBlock
100
AcDbLine
 10
804.5981018136772
 20
721.2472534179724
 30
0.0
 11
799.7000000070348
 21
721.2472534179724
 31
0.0
  0
LINE
  5
1ED61
330
1EC9E
100
AcDbEntity
  8
02製品
  6
ByBlock
100
AcDbLine
 10
804.5980865548845
 20
728.7528076171911
 30
0.0
 11
799.7000000070348
 21
728.7528076171911
 31
0.0
  0
LINE
  5
1ED62
330
1EC9E
100
AcDbEntity
  8
02製品
  6
ByBlock
100
AcDbLine
 10
804.5039703439506
 20
732.5055694580115
 30
0.0
 11
799.7000000070348
 21
732.5055694580115
 31
0.0
  0
LINE
  5
1ED63
330
1EC9E
100
AcDbEntity
  8
02製品
  6
ByBlock
100
AcDbLine
 10
804.5980982440869
 20
728.7528312723134
 30
0.0
 11
805.2000000070366
 21
731.3000852076002
 31
0.0
  0
LINE
  5
1ED64
330
1EC9E
100
AcDbEntity
  8
02製品
  6
ByBlock
100
AcDbLine
 10
805.2000000070366
 20
718.6999891790147
 30
0.0
 11
804.5981239735866
 21
721.2473005513148
 31
0.0
  0
LINE
  5
1ED65
330
1EC9E
100
AcDbEntity
  8
02製品
  6
ByBlock
100
AcDbLine
 10
805.2000000070366
 20
718.6999891790147
 30
0.0
 11
804.5040024158734
 21
717.4944858559884
 31
0.0
  0
LINE
  5
1ED66
330
1EC9E
100
AcDbEntity
  8
02製品
  6
ByBlock
100
AcDbLine
 10
804.5039812204595
 20
732.5056252421618
 30
0.0
 11
805.2000000070366
 21
731.3000852076002
 31
0.0
  0
LINE
  5
1ED67
330
1EC9E
100
AcDbEntity
  8
02製品
  6
ByBlock
100
AcDbLine
 10
799.7000000070348
 20
666.5000000000036
 30
0.0
 11
798.1000000035201
 21
666.5000000000036
 31
0.0
  0
LINE
  5
1ED68
330
1EC9E
100
AcDbEntity
  8
02製品
  6
ByBlock
100
AcDbLine
 10
799.7000000070348
 20
683.5000000000036
 30
0.0
 11
798.1000000035201
 21
683.5000000000036
 31
0.0
  0
LINE
  5
1ED69
330
1EC9E
100
AcDbEntity
  8
02製品
  6
ByBlock
100
AcDbLine
 10
798.1000000035201
 20
683.5000000000036
 30
0.0
 11
798.1000000035201
 21
666.5000000000036
 31
0.0
  0
LINE
  5
1ED6A
330
1EC9E
100
AcDbEntity
  8
02製品
  6
ByBlock
100
AcDbLine
 10
799.7000000070348
 20
683.5000000000036
 30
0.0
 11
799.7000000070348
 21
666.5000000000036
 31
0.0
  0
LINE
  5
1ED6B
330
1EC9E
100
AcDbEntity
  8
02製品
  6
ByBlock
100
AcDbLine
 10
804.5039703439506
 20
667.494461059574
 30
0.0
 11
799.7000000070348
 21
667.494461059574
 31
0.0
  0
LINE
  5
1ED6C
330
1EC9E
100
AcDbEntity
  8
02製品
  6
ByBlock
100
AcDbLine
 10
805.2000000070366
 20
681.3000852076002
 30
0.0
 11
805.2000000070366
 21
668.6999891790147
 31
0.0
  0
ARC
  5
1ED6D
330
1EC9E
100
AcDbEntity
  8
02製品
  6
ByBlock
100
AcDbCircle
 10
793.2000000070329
 20
675.0000000000036
 30
0.0
 40
12.0
100
AcDbArc
 50
341.7762176856215
 51
18.22401954977122
  0
LINE
  5
1ED6E
330
1EC9E
100
AcDbEntity
  8
02製品
  6
ByBlock
100
AcDbLine
 10
804.5981018136772
 20
671.2472534179724
 30
0.0
 11
799.7000000070348
 21
671.2472534179724
 31
0.0
  0
LINE
  5
1ED6F
330
1EC9E
100
AcDbEntity
  8
02製品
  6
ByBlock
100
AcDbLine
 10
804.5980865548845
 20
678.7528076171911
 30
0.0
 11
799.7000000070348
 21
678.7528076171911
 31
0.0
  0
LINE
  5
1ED70
330
1EC9E
100
AcDbEntity
  8
02製品
  6
ByBlock
100
AcDbLine
 10
804.5039703439506
 20
682.5055694580115
 30
0.0
 11
799.7000000070348
 21
682.5055694580115
 31
0.0
  0
LINE
  5
1ED71
330
1EC9E
100
AcDbEntity
  8
02製品
  6
ByBlock
100
AcDbLine
 10
804.5980982440869
 20
678.7528312723134
 30
0.0
 11
805.2000000070366
 21
681.3000852076002
 31
0.0
  0
LINE
  5
1ED72
330
1EC9E
100
AcDbEntity
  8
02製品
  6
ByBlock
100
AcDbLine
 10
805.2000000070366
 20
668.6999891790147
 30
0.0
 11
804.5981239735866
 21
671.2473005513148
 31
0.0
  0
LINE
  5
1ED73
330
1EC9E
100
AcDbEntity
  8
02製品
  6
ByBlock
100
AcDbLine
 10
805.2000000070366
 20
668.6999891790147
 30
0.0
 11
804.5040024158734
 21
667.4944858559884
 31
0.0
  0
LINE
  5
1ED74
330
1EC9E
100
AcDbEntity
  8
02製品
  6
ByBlock
100
AcDbLine
 10
804.5039812204595
 20
682.5056252421618
 30
0.0
 11
805.2000000070366
 21
681.3000852076002
 31
0.0
  0
LINE
  5
1ED75
330
1EC9E
100
AcDbEntity
  8
02製品
  6
ByBlock
100
AcDbLine
 10
799.7000000070348
 20
606.5000000000036
 30
0.0
 11
798.1000000035201
 21
606.5000000000036
 31
0.0
  0
LINE
  5
1ED76
330
1EC9E
100
AcDbEntity
  8
02製品
  6
ByBlock
100
AcDbLine
 10
799.7000000070348
 20
623.5000000000036
 30
0.0
 11
798.1000000035201
 21
623.5000000000036
 31
0.0
  0
LINE
  5
1ED77
330
1EC9E
100
AcDbEntity
  8
02製品
  6
ByBlock
100
AcDbLine
 10
798.1000000035201
 20
623.5000000000036
 30
0.0
 11
798.1000000035201
 21
606.5000000000036
 31
0.0
  0
LINE
  5
1ED78
330
1EC9E
100
AcDbEntity
  8
02製品
  6
ByBlock
100
AcDbLine
 10
799.7000000070348
 20
623.5000000000036
 30
0.0
 11
799.7000000070348
 21
606.5000000000036
 31
0.0
  0
LINE
  5
1ED79
330
1EC9E
100
AcDbEntity
  8
02製品
  6
ByBlock
100
AcDbLine
 10
804.5039703439506
 20
607.494461059574
 30
0.0
 11
799.7000000070348
 21
607.494461059574
 31
0.0
  0
LINE
  5
1ED7A
330
1EC9E
100
AcDbEntity
  8
02製品
  6
ByBlock
100
AcDbLine
 10
805.2000000070366
 20
621.3000852076002
 30
0.0
 11
805.2000000070366
 21
608.6999891790147
 31
0.0
  0
ARC
  5
1ED7B
330
1EC9E
100
AcDbEntity
  8
02製品
  6
ByBlock
100
AcDbCircle
 10
793.2000000070329
 20
615.0000000000036
 30
0.0
 40
12.0
100
AcDbArc
 50
341.7762176856215
 51
18.22401954977122
  0
LINE
  5
1ED7C
330
1EC9E
100
AcDbEntity
  8
02製品
  6
ByBlock
100
AcDbLine
 10
804.5981018136772
 20
611.2472534179724
 30
0.0
 11
799.7000000070348
 21
611.2472534179724
 31
0.0
  0
LINE
  5
1ED7D
330
1EC9E
100
AcDbEntity
  8
02製品
  6
ByBlock
100
AcDbLine
 10
804.5980865548845
 20
618.7528076171911
 30
0.0
 11
799.7000000070348
 21
618.7528076171911
 31
0.0
  0
LINE
  5
1ED7E
330
1EC9E
100
AcDbEntity
  8
02製品
  6
ByBlock
100
AcDbLine
 10
804.5039703439506
 20
622.5055694580115
 30
0.0
 11
799.7000000070348
 21
622.5055694580115
 31
0.0
  0
LINE
  5
1ED7F
330
1EC9E
100
AcDbEntity
  8
02製品
  6
ByBlock
100
AcDbLine
 10
804.5980982440869
 20
618.7528312723134
 30
0.0
 11
805.2000000070366
 21
621.3000852076002
 31
0.0
  0
LINE
  5
1ED80
330
1EC9E
100
AcDbEntity
  8
02製品
  6
ByBlock
100
AcDbLine
 10
805.2000000070366
 20
608.6999891790147
 30
0.0
 11
804.5981239735866
 21
611.2473005513148
 31
0.0
  0
LINE
  5
1ED81
330
1EC9E
100
AcDbEntity
  8
02製品
  6
ByBlock
100
AcDbLine
 10
805.2000000070366
 20
608.6999891790147
 30
0.0
 11
804.5040024158734
 21
607.4944858559884
 31
0.0
  0
LINE
  5
1ED82
330
1EC9E
100
AcDbEntity
  8
02製品
  6
ByBlock
100
AcDbLine
 10
804.5039812204595
 20
622.5056252421618
 30
0.0
 11
805.2000000070366
 21
621.3000852076002
 31
0.0
  0
ENDBLK
  5
1ED84
330
1EC9E
100
AcDbEntity
  8
0
100
AcDbBlockEnd
  0
BLOCK
  5
1EF4E
330
1EE9D
100
AcDbEntity
  8
0
100
AcDbBlockBegin
  2
A$C5316
 70
     0
 10
0.0
 20
0.0
 30
0.0
  3
A$C5316
  1

  0
LINE
  5
1EECB
330
1EE9D
100
AcDbEntity
  8
1　製品
100
AcDbLine
 10
4.0
 20
787.0000000000073
 30
0.0
 11
4.0
 21
4.000000000007276
 31
0.0
  0
LINE
  5
1EECC
330
1EE9D
100
AcDbEntity
  8
1　製品
100
AcDbLine
 10
44.00000000001819
 20
44.00000000000728
 30
0.0
 11
44.0
 21
747.0000000000073
 31
0.0
  0
LINE
  5
1EECD
330
1EE9D
100
AcDbEntity
  8
1　製品
100
AcDbLine
 10
1214.0
 20
4.000000000007276
 30
0.0
 11
1214.0
 21
787.0000000000073
 31
0.0
  0
LINE
  5
1EECE
330
1EE9D
100
AcDbEntity
  8
1　製品
100
AcDbLine
 10
1173.99999999998
 20
44.00000000000728
 30
0.0
 11
1173.999999999998
 21
747.0000000000073
 31
0.0
  0
LINE
  5
1EECF
330
1EE9D
100
AcDbEntity
  8
1　製品
100
AcDbLine
 10
594.0
 20
44.00000000001637
 30
0.0
 11
594.0
 21
747.0000000000182
 31
0.0
  0
LINE
  5
1EED0
330
1EE9D
100
AcDbEntity
  8
1　製品
100
AcDbLine
 10
624.0
 20
44.00000000001637
 30
0.0
 11
624.0
 21
747.0000000000164
 31
0.0
  0
LINE
  5
1EED1
330
1EE9D
100
AcDbEntity
  8
1　製品
100
AcDbLine
 10
4.0
 20
4.000000000007276
 30
0.0
 11
1214.0
 21
4.000000000007276
 31
0.0
  0
LINE
  5
1EED2
330
1EE9D
100
AcDbEntity
  8
1　製品
100
AcDbLine
 10
1214.0
 20
44.00000000000728
 30
0.0
 11
327.0
 21
43.99999999999272
 31
0.0
  0
LINE
  5
1EED3
330
1EE9D
100
AcDbEntity
  8
1　製品
100
AcDbLine
 10
4.0
 20
44.00000000000728
 30
0.0
 11
874.5
 21
43.99999999999272
 31
0.0
  0
LINE
  5
1EED4
330
1EE9D
100
AcDbEntity
  8
1　製品
100
AcDbLine
 10
0.0
 20
0.000000000007276
 30
0.0
 11
150.0
 21
0.0
 31
0.0
  0
LINE
  5
1EED5
330
1EE9D
100
AcDbEntity
  8
1　製品
100
AcDbLine
 10
150.0
 20
3.200000000008004
 30
0.0
 11
3.200000000000728
 21
3.200000000008004
 31
0.0
  0
LINE
  5
1EED6
330
1EE9D
100
AcDbEntity
  8
1　製品
100
AcDbLine
 10
3.200000000000728
 20
50.00000000000728
 30
0.0
 11
3.200000000000728
 21
3.200000000008004
 31
0.0
  0
LINE
  5
1EED7
330
1EE9D
100
AcDbEntity
  8
1　製品
100
AcDbLine
 10
0.0
 20
0.000000000007276
 30
0.0
 11
0.000000000001819
 21
50.00000000000728
 31
0.0
  0
LINE
  5
1EED8
330
1EE9D
100
AcDbEntity
  8
1　製品
100
AcDbLine
 10
3.200000000002547
 20
50.00000000000728
 30
0.0
 11
0.000000000001819
 21
50.00000000000728
 31
0.0
  0
LINE
  5
1EED9
330
1EE9D
100
AcDbEntity
  8
1　製品
100
AcDbLine
 10
150.0
 20
3.200000000000728
 30
0.0
 11
150.0
 21
0.000000000001819
 31
0.0
  0
LINE
  5
1EEDA
330
1EE9D
100
AcDbEntity
  8
1　製品
100
AcDbLine
 10
1173.999999999995
 20
242.3999999999542
 30
0.0
 11
1173.999999999998
 21
43.99999999995453
 31
0.0
  0
LINE
  5
1EEDB
330
1EE9D
100
AcDbEntity
  8
1　製品
100
AcDbLine
 10
1173.999999999998
 20
232.7999999999538
 30
0.0
 11
1173.999999999998
 21
43.99999999995453
 31
0.0
  0
LINE
  5
1EEDC
330
1EE9D
100
AcDbEntity
  8
1　製品
100
AcDbLine
 10
1218.0
 20
0.000000000007276
 30
0.0
 11
1217.999999999998
 21
50.00000000000728
 31
0.0
  0
LINE
  5
1EEDD
330
1EE9D
100
AcDbEntity
  8
1　製品
100
AcDbLine
 10
1214.799999999999
 20
50.00000000000728
 30
0.0
 11
1214.799999999999
 21
3.200000000008004
 31
0.0
  0
LINE
  5
1EEDE
330
1EE9D
100
AcDbEntity
  8
1　製品
100
AcDbLine
 10
1214.799999999997
 20
50.00000000000728
 30
0.0
 11
1217.999999999998
 21
50.00000000000728
 31
0.0
  0
LINE
  5
1EEDF
330
1EE9D
100
AcDbEntity
  8
1　製品
100
AcDbLine
 10
1068.0
 20
3.200000000000728
 30
0.0
 11
1068.0
 21
0.000000000001819
 31
0.0
  0
LINE
  5
1EEE0
330
1EE9D
100
AcDbEntity
  8
1　製品
100
AcDbLine
 10
1068.0
 20
3.200000000008004
 30
0.0
 11
1214.799999999999
 21
3.200000000008004
 31
0.0
  0
LINE
  5
1EEE1
330
1EE9D
100
AcDbEntity
  8
1　製品
100
AcDbLine
 10
1218.0
 20
0.000000000007276
 30
0.0
 11
1068.0
 21
0.0
 31
0.0
  0
LINE
  5
1EEE2
330
1EE9D
100
AcDbEntity
  8
1　製品
100
AcDbLine
 10
1214.0
 20
787.0000000000073
 30
0.0
 11
4.0
 21
787.0000000000073
 31
0.0
  0
LINE
  5
1EEE3
330
1EE9D
100
AcDbEntity
  8
1　製品
100
AcDbLine
 10
1210.799999999999
 20
747.0000000000055
 30
0.0
 11
327.0
 21
747.00000000002
 31
0.0
  0
LINE
  5
1EEE4
330
1EE9D
100
AcDbEntity
  8
1　製品
100
AcDbLine
 10
1214.0
 20
747.0000000000073
 30
0.0
 11
4.0
 21
747.0000000000236
 31
0.0
  0
LINE
  5
1EEE5
330
1EE9D
100
AcDbEntity
  8
1　製品
100
AcDbLine
 10
44.0
 20
692.8000000000611
 30
0.0
 11
44.0
 21
747.00000000006
 31
0.0
  0
LINE
  5
1EEE6
330
1EE9D
100
AcDbEntity
  8
1　製品
100
AcDbLine
 10
44.00000000000546
 20
683.2000000000608
 30
0.0
 11
44.0
 21
747.00000000006
 31
0.0
  0
LINE
  5
1EEE7
330
1EE9D
100
AcDbEntity
  8
1　製品
100
AcDbLine
 10
150.0
 20
787.8000000000084
 30
0.0
 11
3.200000000000728
 21
787.8000000000084
 31
0.0
  0
LINE
  5
1EEE8
330
1EE9D
100
AcDbEntity
  8
1　製品
100
AcDbLine
 10
0.0
 20
791.0000000000073
 30
0.0
 11
150.0
 21
791.0000000000146
 31
0.0
  0
LINE
  5
1EEE9
330
1EE9D
100
AcDbEntity
  8
1　製品
100
AcDbLine
 10
3.200000000000728
 20
741.0000000000073
 30
0.0
 11
3.200000000000728
 21
787.8000000000084
 31
0.0
  0
LINE
  5
1EEEA
330
1EE9D
100
AcDbEntity
  8
1　製品
100
AcDbLine
 10
0.0
 20
791.0000000000073
 30
0.0
 11
0.000000000001819
 21
741.0000000000073
 31
0.0
  0
LINE
  5
1EEEB
330
1EE9D
100
AcDbEntity
  8
1　製品
100
AcDbLine
 10
3.200000000002547
 20
741.0000000000073
 30
0.0
 11
0.000000000001819
 21
741.0000000000073
 31
0.0
  0
LINE
  5
1EEEC
330
1EE9D
100
AcDbEntity
  8
1　製品
100
AcDbLine
 10
150.0
 20
787.8000000000138
 30
0.0
 11
150.0
 21
791.0000000000127
 31
0.0
  0
LINE
  5
1EEED
330
1EE9D
100
AcDbEntity
  8
1　製品
100
AcDbLine
 10
1214.799999999999
 20
741.0000000000073
 30
0.0
 11
1214.799999999999
 21
787.8000000000084
 31
0.0
  0
LINE
  5
1EEEE
330
1EE9D
100
AcDbEntity
  8
1　製品
100
AcDbLine
 10
1218.0
 20
791.0000000000073
 30
0.0
 11
1217.999999999998
 21
741.0000000000073
 31
0.0
  0
LINE
  5
1EEEF
330
1EE9D
100
AcDbEntity
  8
1　製品
100
AcDbLine
 10
1214.799999999997
 20
741.0000000000073
 30
0.0
 11
1217.999999999998
 21
741.0000000000073
 31
0.0
  0
LINE
  5
1EEF0
330
1EE9D
100
AcDbEntity
  8
1　製品
100
AcDbLine
 10
1068.0
 20
787.8000000000138
 30
0.0
 11
1068.0
 21
791.0000000000127
 31
0.0
  0
LINE
  5
1EEF1
330
1EE9D
100
AcDbEntity
  8
1　製品
100
AcDbLine
 10
1218.0
 20
791.0000000000073
 30
0.0
 11
1068.0
 21
791.0000000000146
 31
0.0
  0
LINE
  5
1EEF2
330
1EE9D
100
AcDbEntity
  8
1　製品
100
AcDbLine
 10
1068.0
 20
787.8000000000084
 30
0.0
 11
1214.799999999999
 21
787.8000000000084
 31
0.0
  0
INSERT
  5
1EEF3
330
1EE9D
100
AcDbEntity
  8
02製品
100
AcDbBlockReference
  2
A$C29074
 10
43.99999999992724
 20
679.0000000000073
 30
0.0
 41
15.0
 42
15.0
 43
15.0
  0
INSERT
  5
1EF1D
330
1EE9D
100
AcDbEntity
  8
02製品
100
AcDbBlockReference
  2
A$C29074
 10
1174.000000000027
 20
112.0000000000582
 30
0.0
 41
15.0
 42
15.0
 43
15.0
 50
180.0
  0
INSERT
  5
1EF1E
330
1EE9D
100
AcDbEntity
  8
02製品
100
AcDbBlockReference
  2
A$C3105
 10
532.8000000000084
 20
361.5000000000073
 30
0.0
 41
15.0
 42
15.0
 43
15.0
  0
LINE
  5
1EF4C
330
1EE9D
100
AcDbEntity
  8
06非表示
100
AcDbLine
 10
589.9500000000098
 20
395.5000000000073
 30
0.0
 11
628.0500000000047
 21
395.5000000000073
 31
0.0
  0
LINE
  5
1EF4D
330
1EE9D
100
AcDbEntity
  8
06非表示
100
AcDbLine
 10
609.0000000000091
 20
404.0000000000073
 30
0.0
 11
609.0000000000091
 21
387.0000000000146
 31
0.0
  0
ENDBLK
  5
1EF4F
330
1EE9D
100
AcDbEntity
  8
0
100
AcDbBlockEnd
  0
BLOCK
  5
1F03C
330
1EF51
100
AcDbEntity
  8
0
100
AcDbBlockBegin
  2
A$C15031
 70
     0
 10
0.0
 20
0.0
 30
0.0
  3
A$C15031
  1

  0
LINE
  5
1EF7E
330
1EF51
100
AcDbEntity
  8
1　製品
100
AcDbLine
 10
947.6000000035165
 20
0.0
 30
0.0
 11
947.6000000035165
 21
275.0000000000018
 31
0.0
  0
LINE
  5
1EF7F
330
1EF51
100
AcDbEntity
  8
1　製品
100
AcDbLine
 10
997.6000000035165
 20
0.0
 30
0.0
 11
997.6000000035165
 21
275.0000000000018
 31
0.0
  0
LINE
  5
1EF80
330
1EF51
100
AcDbEntity
  8
1　製品
100
AcDbLine
 10
284.6000000035165
 20
0.0
 30
0.0
 11
284.6000000035165
 21
275.0000000000018
 31
0.0
  0
LINE
  5
1EF81
330
1EF51
100
AcDbEntity
  8
1　製品
100
AcDbLine
 10
234.6000000035165
 20
0.0
 30
0.0
 11
234.6000000035165
 21
275.0000000000018
 31
0.0
  0
LINE
  5
1EF82
330
1EF51
100
AcDbEntity
  8
1　製品
100
AcDbLine
 10
11.10000000351647
 20
145.0000000000018
 30
0.0
 11
51.10000000351647
 21
145.0000000000018
 31
0.0
  0
LINE
  5
1EF83
330
1EF51
100
AcDbEntity
  8
1　製品
100
AcDbLine
 10
11.10000000351647
 20
148.0000000000018
 30
0.0
 11
51.10000000351647
 21
148.0000000000018
 31
0.0
  0
LINE
  5
1EF84
330
1EF51
100
AcDbEntity
  8
1　製品
100
AcDbLine
 10
234.6000000035165
 20
0.0
 30
0.0
 11
284.6000000035165
 21
0.0
 31
0.0
  0
LINE
  5
1EF85
330
1EF51
100
AcDbEntity
  8
1　製品
100
AcDbLine
 10
234.6000000035165
 20
10.0
 30
0.0
 11
284.6000000035165
 21
10.0
 31
0.0
  0
LINE
  5
1EF86
330
1EF51
100
AcDbEntity
  8
1　製品
100
AcDbLine
 10
234.6000000035165
 20
1.200000000000728
 30
0.0
 11
284.6000000035165
 21
1.200000000000728
 31
0.0
  0
LINE
  5
1EF87
330
1EF51
100
AcDbEntity
  8
1　製品
100
AcDbLine
 10
234.6000000035165
 20
90.0
 30
0.0
 11
284.6000000035165
 21
90.0
 31
0.0
  0
LINE
  5
1EF88
330
1EF51
100
AcDbEntity
  8
1　製品
100
AcDbLine
 10
997.6000000035165
 20
1.200000000000728
 30
0.0
 11
947.6000000035165
 21
1.200000000000728
 31
0.0
  0
LINE
  5
1EF89
330
1EF51
100
AcDbEntity
  8
1　製品
100
AcDbLine
 10
997.6000000035165
 20
10.0
 30
0.0
 11
947.6000000035165
 21
10.0
 31
0.0
  0
LINE
  5
1EF8A
330
1EF51
100
AcDbEntity
  8
1　製品
100
AcDbLine
 10
997.6000000035165
 20
0.0
 30
0.0
 11
947.6000000035165
 21
0.0
 31
0.0
  0
LINE
  5
1EF8B
330
1EF51
100
AcDbEntity
  8
1　製品
100
AcDbLine
 10
997.6000000035165
 20
90.0
 30
0.0
 11
947.6000000035165
 21
90.0
 31
0.0
  0
LINE
  5
1EF8C
330
1EF51
100
AcDbEntity
  8
1　製品
100
AcDbLine
 10
1221.100000003516
 20
145.0000000000018
 30
0.0
 11
1181.100000003516
 21
145.0000000000018
 31
0.0
  0
LINE
  5
1EF8D
330
1EF51
100
AcDbEntity
  8
1　製品
100
AcDbLine
 10
1221.100000003516
 20
148.0000000000018
 30
0.0
 11
1181.100000003516
 21
148.0000000000018
 31
0.0
  0
LINE
  5
1EF8E
330
1EF51
100
AcDbEntity
  8
1　製品
100
AcDbLine
 10
11.10000000351647
 20
745.0000000000018
 30
0.0
 11
1221.100000003516
 21
745.0000000000018
 31
0.0
  0
LINE
  5
1EF8F
330
1EF51
100
AcDbEntity
  8
1　製品
100
AcDbLine
 10
1218.600000003516
 20
275.0000000000018
 30
0.0
 11
13.60000000351647
 21
275.0000000000018
 31
0.0
  0
LINE
  5
1EF90
330
1EF51
100
AcDbEntity
  8
1　製品
100
AcDbLine
 10
13.60000000351647
 20
275.0000000000018
 30
0.0
 11
13.60000000351647
 21
245.0000000000018
 31
0.0
  0
LINE
  5
1EF91
330
1EF51
100
AcDbEntity
  8
1　製品
100
AcDbLine
 10
26.10000000351647
 20
260.0000000000018
 30
0.0
 11
46.10000000351647
 21
260.0000000000018
 31
0.0
  0
CIRCLE
  5
1EF92
330
1EF51
100
AcDbEntity
  8
1　製品
100
AcDbCircle
 10
36.10000000351647
 20
260.0000000000018
 30
0.0
 40
5.0
  0
LINE
  5
1EF93
330
1EF51
100
AcDbEntity
  8
1　製品
100
AcDbLine
 10
36.10000000351647
 20
250.0000000000018
 30
0.0
 11
36.10000000351647
 21
270.0000000000018
 31
0.0
  0
LINE
  5
1EF94
330
1EF51
100
AcDbEntity
  8
1　製品
100
AcDbLine
 10
244.6000000035165
 20
252.0000000000018
 30
0.0
 11
244.6000000035165
 21
268.0000000000018
 31
0.0
  0
LINE
  5
1EF95
330
1EF51
100
AcDbEntity
  8
1　製品
100
AcDbLine
 10
236.6000000035165
 20
260.0000000000018
 30
0.0
 11
252.6000000035165
 21
260.0000000000018
 31
0.0
  0
CIRCLE
  5
1EF96
330
1EF51
100
AcDbEntity
  8
1　製品
100
AcDbCircle
 10
244.6000000035165
 20
260.0000000000018
 30
0.0
 40
4.0
  0
LINE
  5
1EF97
330
1EF51
100
AcDbEntity
  8
1　製品
100
AcDbLine
 10
274.6000000035165
 20
252.0000000000018
 30
0.0
 11
274.6000000035165
 21
268.0000000000018
 31
0.0
  0
LINE
  5
1EF98
330
1EF51
100
AcDbEntity
  8
1　製品
100
AcDbLine
 10
266.6000000035165
 20
260.0000000000018
 30
0.0
 11
282.6000000035165
 21
260.0000000000018
 31
0.0
  0
CIRCLE
  5
1EF99
330
1EF51
100
AcDbEntity
  8
1　製品
100
AcDbCircle
 10
274.6000000035165
 20
260.0000000000018
 30
0.0
 40
4.0
  0
LINE
  5
1EF9A
330
1EF51
100
AcDbEntity
  8
1　製品
100
AcDbLine
 10
47.10000000351647
 20
595.0000000000018
 30
0.0
 11
157.1000000035165
 21
705.0000000000018
 31
0.0
  0
LINE
  5
1EF9B
330
1EF51
100
AcDbEntity
  8
1　製品
100
AcDbLine
 10
7.10000000351647
 20
745.0000000000018
 30
0.0
 11
7.10000000351647
 21
595.0000000000018
 31
0.0
  0
LINE
  5
1EF9C
330
1EF51
100
AcDbEntity
  8
1　製品
100
AcDbLine
 10
7.10000000351647
 20
595.0000000000018
 30
0.0
 11
47.10000000351647
 21
595.0000000000018
 31
0.0
  0
LINE
  5
1EF9D
330
1EF51
100
AcDbEntity
  8
1　製品
100
AcDbLine
 10
26.10000000351283
 20
615.0000000000018
 30
0.0
 11
46.10000000351283
 21
615.0000000000018
 31
0.0
  0
CIRCLE
  5
1EF9E
330
1EF51
100
AcDbEntity
  8
1　製品
100
AcDbCircle
 10
36.10000000351283
 20
615.0000000000018
 30
0.0
 40
5.0
  0
CIRCLE
  5
1EF9F
330
1EF51
100
AcDbEntity
  8
1　製品
100
AcDbCircle
 10
36.10000000351647
 20
615.0000000000018
 30
0.0
 40
5.0
  0
LINE
  5
1EFA0
330
1EF51
100
AcDbEntity
  8
1　製品
100
AcDbLine
 10
26.10000000351647
 20
615.0000000000018
 30
0.0
 11
46.10000000351647
 21
615.0000000000018
 31
0.0
  0
LINE
  5
1EFA1
330
1EF51
100
AcDbEntity
  8
1　製品
100
AcDbLine
 10
36.10000000351465
 20
625.0000000000018
 30
0.0
 11
36.10000000351465
 21
605.0000000000018
 31
0.0
  0
LINE
  5
1EFA2
330
1EF51
100
AcDbEntity
  8
1　製品
100
AcDbLine
 10
36.10000000351647
 20
625.0000000000018
 30
0.0
 11
36.10000000351647
 21
605.0000000000018
 31
0.0
  0
CIRCLE
  5
1EFA3
330
1EF51
100
AcDbEntity
  8
1　製品
100
AcDbCircle
 10
41.10000000351283
 20
725.0000000000018
 30
0.0
 40
5.0
  0
LINE
  5
1EFA4
330
1EF51
100
AcDbEntity
  8
1　製品
100
AcDbLine
 10
41.10000000351465
 20
735.0000000000018
 30
0.0
 11
41.10000000351465
 21
715.0000000000018
 31
0.0
  0
CIRCLE
  5
1EFA5
330
1EF51
100
AcDbEntity
  8
1　製品
100
AcDbCircle
 10
136.1000000035165
 20
725.0000000000018
 30
0.0
 40
5.0
  0
LINE
  5
1EFA6
330
1EF51
100
AcDbEntity
  8
1　製品
100
AcDbLine
 10
136.1000000035165
 20
735.0000000000018
 30
0.0
 11
136.1000000035165
 21
715.0000000000018
 31
0.0
  0
CIRCLE
  5
1EFA7
330
1EF51
100
AcDbEntity
  8
1　製品
100
AcDbCircle
 10
136.1000000035165
 20
725.0000000000018
 30
0.0
 40
5.0
  0
LINE
  5
1EFA8
330
1EF51
100
AcDbEntity
  8
1　製品
100
AcDbLine
 10
136.1000000035165
 20
735.0000000000018
 30
0.0
 11
136.1000000035165
 21
715.0000000000018
 31
0.0
  0
CIRCLE
  5
1EFA9
330
1EF51
100
AcDbEntity
  8
1　製品
100
AcDbCircle
 10
41.10000000351647
 20
725.0000000000018
 30
0.0
 40
5.0
  0
LINE
  5
1EFAA
330
1EF51
100
AcDbEntity
  8
1　製品
100
AcDbLine
 10
41.10000000351647
 20
735.0000000000018
 30
0.0
 11
41.10000000351647
 21
715.0000000000018
 31
0.0
  0
LINE
  5
1EFAB
330
1EF51
100
AcDbEntity
  8
1　製品
100
AcDbLine
 10
157.1000000035165
 20
745.0000000000018
 30
0.0
 11
157.1000000035165
 21
705.0000000000018
 31
0.0
  0
LINE
  5
1EFAC
330
1EF51
100
AcDbEntity
  8
1　製品
100
AcDbLine
 10
26.10000000351283
 20
675.0000000000018
 30
0.0
 11
46.10000000351283
 21
675.0000000000018
 31
0.0
  0
CIRCLE
  5
1EFAD
330
1EF51
100
AcDbEntity
  8
1　製品
100
AcDbCircle
 10
36.10000000351283
 20
675.0000000000018
 30
0.0
 40
5.0
  0
LINE
  5
1EFAE
330
1EF51
100
AcDbEntity
  8
1　製品
100
AcDbLine
 10
31.10000000351283
 20
725.0000000000018
 30
0.0
 11
51.10000000351283
 21
725.0000000000018
 31
0.0
  0
CIRCLE
  5
1EFAF
330
1EF51
100
AcDbEntity
  8
1　製品
100
AcDbCircle
 10
36.10000000351647
 20
675.0000000000018
 30
0.0
 40
5.0
  0
LINE
  5
1EFB0
330
1EF51
100
AcDbEntity
  8
1　製品
100
AcDbLine
 10
26.10000000351647
 20
675.0000000000018
 30
0.0
 11
46.10000000351647
 21
675.0000000000018
 31
0.0
  0
LINE
  5
1EFB1
330
1EF51
100
AcDbEntity
  8
1　製品
100
AcDbLine
 10
31.10000000351647
 20
725.0000000000018
 30
0.0
 11
51.10000000351647
 21
725.0000000000018
 31
0.0
  0
LINE
  5
1EFB2
330
1EF51
100
AcDbEntity
  8
1　製品
100
AcDbLine
 10
36.10000000351465
 20
685.0000000000018
 30
0.0
 11
36.10000000351465
 21
665.0000000000018
 31
0.0
  0
LINE
  5
1EFB3
330
1EF51
100
AcDbEntity
  8
1　製品
100
AcDbLine
 10
36.10000000351647
 20
685.0000000000018
 30
0.0
 11
36.10000000351647
 21
665.0000000000018
 31
0.0
  0
LINE
  5
1EFB4
330
1EF51
100
AcDbEntity
  8
1　製品
100
AcDbLine
 10
146.1000000035165
 20
725.0000000000018
 30
0.0
 11
126.1000000035165
 21
725.0000000000018
 31
0.0
  0
LINE
  5
1EFB5
330
1EF51
100
AcDbEntity
  8
1　製品
100
AcDbLine
 10
126.1000000035165
 20
725.0000000000018
 30
0.0
 11
146.1000000035165
 21
725.0000000000018
 31
0.0
  0
LINE
  5
1EFB6
330
1EF51
100
AcDbEntity
  8
1　製品
100
AcDbLine
 10
7.10000000351647
 20
745.0000000000018
 30
0.0
 11
157.1000000035165
 21
745.0000000000018
 31
0.0
  0
CIRCLE
  5
1EFB7
330
1EF51
100
AcDbEntity
  8
1　製品
100
AcDbCircle
 10
957.6000000035165
 20
260.0000000000018
 30
0.0
 40
4.0
  0
LINE
  5
1EFB8
330
1EF51
100
AcDbEntity
  8
1　製品
100
AcDbLine
 10
965.6000000035165
 20
260.0000000000018
 30
0.0
 11
949.6000000035165
 21
260.0000000000018
 31
0.0
  0
LINE
  5
1EFB9
330
1EF51
100
AcDbEntity
  8
1　製品
100
AcDbLine
 10
957.6000000035165
 20
252.0000000000018
 30
0.0
 11
957.6000000035165
 21
268.0000000000018
 31
0.0
  0
LINE
  5
1EFBA
330
1EF51
100
AcDbEntity
  8
1　製品
100
AcDbLine
 10
987.6000000035165
 20
252.0000000000018
 30
0.0
 11
987.6000000035165
 21
268.0000000000018
 31
0.0
  0
LINE
  5
1EFBB
330
1EF51
100
AcDbEntity
  8
1　製品
100
AcDbLine
 10
995.6000000035165
 20
260.0000000000018
 30
0.0
 11
979.6000000035165
 21
260.0000000000018
 31
0.0
  0
CIRCLE
  5
1EFBC
330
1EF51
100
AcDbEntity
  8
1　製品
100
AcDbCircle
 10
987.6000000035165
 20
260.0000000000018
 30
0.0
 40
4.0
  0
LINE
  5
1EFBD
330
1EF51
100
AcDbEntity
  8
1　製品
100
AcDbLine
 10
1218.600000003516
 20
275.0000000000018
 30
0.0
 11
1218.600000003516
 21
245.0000000000018
 31
0.0
  0
LINE
  5
1EFBE
330
1EF51
100
AcDbEntity
  8
1　製品
100
AcDbLine
 10
1206.100000003516
 20
260.0000000000018
 30
0.0
 11
1186.100000003516
 21
260.0000000000018
 31
0.0
  0
CIRCLE
  5
1EFBF
330
1EF51
100
AcDbEntity
  8
1　製品
100
AcDbCircle
 10
1196.100000003516
 20
260.0000000000018
 30
0.0
 40
5.0
  0
LINE
  5
1EFC0
330
1EF51
100
AcDbEntity
  8
1　製品
100
AcDbLine
 10
1196.100000003516
 20
250.0000000000018
 30
0.0
 11
1196.100000003516
 21
270.0000000000018
 31
0.0
  0
LINE
  5
1EFC1
330
1EF51
100
AcDbEntity
  8
1　製品
100
AcDbLine
 10
1225.100000003516
 20
745.0000000000018
 30
0.0
 11
1225.100000003516
 21
595.0000000000018
 31
0.0
  0
LINE
  5
1EFC2
330
1EF51
100
AcDbEntity
  8
1　製品
100
AcDbLine
 10
1185.100000003516
 20
595.0000000000018
 30
0.0
 11
1075.100000003516
 21
705.0000000000018
 31
0.0
  0
CIRCLE
  5
1EFC3
330
1EF51
100
AcDbEntity
  8
1　製品
100
AcDbCircle
 10
1196.10000000352
 20
615.0000000000018
 30
0.0
 40
5.0
  0
LINE
  5
1EFC4
330
1EF51
100
AcDbEntity
  8
1　製品
100
AcDbLine
 10
1206.10000000352
 20
615.0000000000018
 30
0.0
 11
1186.10000000352
 21
615.0000000000018
 31
0.0
  0
CIRCLE
  5
1EFC5
330
1EF51
100
AcDbEntity
  8
1　製品
100
AcDbCircle
 10
1196.100000003516
 20
615.0000000000018
 30
0.0
 40
5.0
  0
LINE
  5
1EFC6
330
1EF51
100
AcDbEntity
  8
1　製品
100
AcDbLine
 10
1206.100000003516
 20
615.0000000000018
 30
0.0
 11
1186.100000003516
 21
615.0000000000018
 31
0.0
  0
LINE
  5
1EFC7
330
1EF51
100
AcDbEntity
  8
1　製品
100
AcDbLine
 10
1196.100000003518
 20
625.0000000000018
 30
0.0
 11
1196.100000003518
 21
605.0000000000018
 31
0.0
  0
LINE
  5
1EFC8
330
1EF51
100
AcDbEntity
  8
1　製品
100
AcDbLine
 10
1196.100000003516
 20
625.0000000000018
 30
0.0
 11
1196.100000003516
 21
605.0000000000018
 31
0.0
  0
LINE
  5
1EFC9
330
1EF51
100
AcDbEntity
  8
1　製品
100
AcDbLine
 10
1225.100000003516
 20
595.0000000000018
 30
0.0
 11
1185.100000003516
 21
595.0000000000018
 31
0.0
  0
LINE
  5
1EFCA
330
1EF51
100
AcDbEntity
  8
1　製品
100
AcDbLine
 10
1075.100000003516
 20
745.0000000000018
 30
0.0
 11
1075.100000003516
 21
705.0000000000018
 31
0.0
  0
LINE
  5
1EFCB
330
1EF51
100
AcDbEntity
  8
1　製品
100
AcDbLine
 10
1191.100000003518
 20
735.0000000000018
 30
0.0
 11
1191.100000003518
 21
715.0000000000018
 31
0.0
  0
CIRCLE
  5
1EFCC
330
1EF51
100
AcDbEntity
  8
1　製品
100
AcDbCircle
 10
1191.10000000352
 20
725.0000000000018
 30
0.0
 40
5.0
  0
CIRCLE
  5
1EFCD
330
1EF51
100
AcDbEntity
  8
1　製品
100
AcDbCircle
 10
1191.100000003516
 20
725.0000000000018
 30
0.0
 40
5.0
  0
LINE
  5
1EFCE
330
1EF51
100
AcDbEntity
  8
1　製品
100
AcDbLine
 10
1191.100000003516
 20
735.0000000000018
 30
0.0
 11
1191.100000003516
 21
715.0000000000018
 31
0.0
  0
CIRCLE
  5
1EFCF
330
1EF51
100
AcDbEntity
  8
1　製品
100
AcDbCircle
 10
1096.100000003516
 20
725.0000000000018
 30
0.0
 40
5.0
  0
LINE
  5
1EFD0
330
1EF51
100
AcDbEntity
  8
1　製品
100
AcDbLine
 10
1096.100000003516
 20
735.0000000000018
 30
0.0
 11
1096.100000003516
 21
715.0000000000018
 31
0.0
  0
LINE
  5
1EFD1
330
1EF51
100
AcDbEntity
  8
1　製品
100
AcDbLine
 10
1096.100000003516
 20
735.0000000000018
 30
0.0
 11
1096.100000003516
 21
715.0000000000018
 31
0.0
  0
CIRCLE
  5
1EFD2
330
1EF51
100
AcDbEntity
  8
1　製品
100
AcDbCircle
 10
1096.100000003516
 20
725.0000000000018
 30
0.0
 40
5.0
  0
CIRCLE
  5
1EFD3
330
1EF51
100
AcDbEntity
  8
1　製品
100
AcDbCircle
 10
1196.10000000352
 20
675.0000000000018
 30
0.0
 40
5.0
  0
LINE
  5
1EFD4
330
1EF51
100
AcDbEntity
  8
1　製品
100
AcDbLine
 10
1206.10000000352
 20
675.0000000000018
 30
0.0
 11
1186.10000000352
 21
675.0000000000018
 31
0.0
  0
LINE
  5
1EFD5
330
1EF51
100
AcDbEntity
  8
1　製品
100
AcDbLine
 10
1201.10000000352
 20
725.0000000000018
 30
0.0
 11
1181.10000000352
 21
725.0000000000018
 31
0.0
  0
CIRCLE
  5
1EFD6
330
1EF51
100
AcDbEntity
  8
1　製品
100
AcDbCircle
 10
1196.100000003516
 20
675.0000000000018
 30
0.0
 40
5.0
  0
LINE
  5
1EFD7
330
1EF51
100
AcDbEntity
  8
1　製品
100
AcDbLine
 10
1206.100000003516
 20
675.0000000000018
 30
0.0
 11
1186.100000003516
 21
675.0000000000018
 31
0.0
  0
LINE
  5
1EFD8
330
1EF51
100
AcDbEntity
  8
1　製品
100
AcDbLine
 10
1201.100000003516
 20
725.0000000000018
 30
0.0
 11
1181.100000003516
 21
725.0000000000018
 31
0.0
  0
LINE
  5
1EFD9
330
1EF51
100
AcDbEntity
  8
1　製品
100
AcDbLine
 10
1106.100000003516
 20
725.0000000000018
 30
0.0
 11
1086.100000003516
 21
725.0000000000018
 31
0.0
  0
LINE
  5
1EFDA
330
1EF51
100
AcDbEntity
  8
1　製品
100
AcDbLine
 10
1086.100000003516
 20
725.0000000000018
 30
0.0
 11
1106.100000003516
 21
725.0000000000018
 31
0.0
  0
LINE
  5
1EFDB
330
1EF51
100
AcDbEntity
  8
1　製品
100
AcDbLine
 10
1196.100000003518
 20
685.0000000000018
 30
0.0
 11
1196.100000003518
 21
665.0000000000018
 31
0.0
  0
LINE
  5
1EFDC
330
1EF51
100
AcDbEntity
  8
1　製品
100
AcDbLine
 10
1196.100000003516
 20
685.0000000000018
 30
0.0
 11
1196.100000003516
 21
665.0000000000018
 31
0.0
  0
LINE
  5
1EFDD
330
1EF51
100
AcDbEntity
  8
1　製品
100
AcDbLine
 10
1225.100000003516
 20
745.0000000000018
 30
0.0
 11
1075.100000003516
 21
745.0000000000018
 31
0.0
  0
LINE
  5
1EFDE
330
1EF51
100
AcDbEntity
  8
1　製品
100
AcDbLine
 10
11.10000000351647
 20
595.0000000000018
 30
0.0
 11
11.10000000351647
 21
145.0000000000018
 31
0.0
  0
LINE
  5
1EFDF
330
1EF51
100
AcDbEntity
  8
1　製品
100
AcDbLine
 10
1181.100000003516
 20
145.0000000000018
 30
0.0
 11
1181.100000003516
 21
245.0000000000018
 31
0.0
  0
LINE
  5
1EFE0
330
1EF51
100
AcDbEntity
  8
1　製品
100
AcDbLine
 10
51.10000000351647
 20
275.0000000000018
 30
0.0
 11
51.10000000351647
 21
599.0000000000018
 31
0.0
  0
LINE
  5
1EFE1
330
1EF51
100
AcDbEntity
  8
1　製品
100
AcDbLine
 10
51.10000000351647
 20
145.0000000000018
 30
0.0
 11
51.10000000351647
 21
245.0000000000018
 31
0.0
  0
LINE
  5
1EFE2
330
1EF51
100
AcDbEntity
  8
1　製品
100
AcDbLine
 10
234.6000000035165
 20
245.0000000000018
 30
0.0
 11
13.60000000351647
 21
245.0000000000018
 31
0.0
  0
LINE
  5
1EFE3
330
1EF51
100
AcDbEntity
  8
1　製品
100
AcDbLine
 10
947.6000000035165
 20
245.0000000000018
 30
0.0
 11
284.6000000035165
 21
245.0000000000018
 31
0.0
  0
LINE
  5
1EFE4
330
1EF51
100
AcDbEntity
  8
1　製品
100
AcDbLine
 10
1218.600000003516
 20
245.0000000000018
 30
0.0
 11
997.6000000035165
 21
245.0000000000018
 31
0.0
  0
LINE
  5
1EFE5
330
1EF51
100
AcDbEntity
  8
1　製品
100
AcDbLine
 10
1221.100000003516
 20
595.0000000000018
 30
0.0
 11
1221.100000003516
 21
145.0000000000018
 31
0.0
  0
LINE
  5
1EFE6
330
1EF51
100
AcDbEntity
  8
1　製品
100
AcDbLine
 10
1181.100000003516
 20
275.0000000000018
 30
0.0
 11
1181.100000003516
 21
599.0000000000018
 31
0.0
  0
LINE
  5
1EFE7
330
1EF51
100
AcDbEntity
  8
1　製品
100
AcDbLine
 10
157.1000000035165
 20
705.0000000000018
 30
0.0
 11
1075.100000003516
 21
705.0000000000018
 31
0.0
  0
LINE
  5
1EFE8
330
1EF51
100
AcDbEntity
  8
02製品
  6
ByBlock
100
AcDbLine
 10
5.500000000001819
 20
716.5000000000036
 30
0.0
 11
7.10000000351647
 21
716.5000000000036
 31
0.0
  0
LINE
  5
1EFE9
330
1EF51
100
AcDbEntity
  8
02製品
  6
ByBlock
100
AcDbLine
 10
5.500000000001819
 20
733.5000000000036
 30
0.0
 11
7.10000000351647
 21
733.5000000000036
 31
0.0
  0
LINE
  5
1EFEA
330
1EF51
100
AcDbEntity
  8
02製品
  6
ByBlock
100
AcDbLine
 10
7.10000000351647
 20
733.5000000000036
 30
0.0
 11
7.10000000351647
 21
716.5000000000036
 31
0.0
  0
LINE
  5
1EFEB
330
1EF51
100
AcDbEntity
  8
02製品
  6
ByBlock
100
AcDbLine
 10
5.500000000001819
 20
733.5000000000036
 30
0.0
 11
5.500000000001819
 21
716.5000000000036
 31
0.0
  0
LINE
  5
1EFEC
330
1EF51
100
AcDbEntity
  8
02製品
  6
ByBlock
100
AcDbLine
 10
0.6960296630859375
 20
717.494461059574
 30
0.0
 11
5.500000000001819
 21
717.494461059574
 31
0.0
  0
LINE
  5
1EFED
330
1EF51
100
AcDbEntity
  8
02製品
  6
ByBlock
100
AcDbLine
 10
0.0
 20
731.3000852076002
 30
0.0
 11
0.0
 21
718.6999891790147
 31
0.0
  0
ARC
  5
1EFEE
330
1EF51
100
AcDbEntity
  8
02製品
  6
ByBlock
100
AcDbCircle
 10
12.00000000000182
 20
725.0000000000036
 30
0.0
 40
12.0
100
AcDbArc
 50
161.7759804502288
 51
198.2237823143827
  0
LINE
  5
1EFEF
330
1EF51
100
AcDbEntity
  8
02製品
  6
ByBlock
100
AcDbLine
 10
0.601898193359375
 20
721.2472534179724
 30
0.0
 11
5.500000000001819
 21
721.2472534179724
 31
0.0
  0
LINE
  5
1EFF0
330
1EF51
100
AcDbEntity
  8
02製品
  6
ByBlock
100
AcDbLine
 10
0.6019134521502565
 20
728.7528076171911
 30
0.0
 11
5.500000000001819
 21
728.7528076171911
 31
0.0
  0
LINE
  5
1EFF1
330
1EF51
100
AcDbEntity
  8
02製品
  6
ByBlock
100
AcDbLine
 10
0.6960296630859375
 20
732.5055694580115
 30
0.0
 11
5.500000000001819
 21
732.5055694580115
 31
0.0
  0
LINE
  5
1EFF2
330
1EF51
100
AcDbEntity
  8
02製品
  6
ByBlock
100
AcDbLine
 10
0.6019017629496375
 20
728.7528312723134
 30
0.0
 11
0.0
 21
731.3000852076002
 31
0.0
  0
LINE
  5
1EFF3
330
1EF51
100
AcDbEntity
  8
02製品
  6
ByBlock
100
AcDbLine
 10
0.0
 20
718.6999891790147
 30
0.0
 11
0.6018760334500257
 21
721.2473005513148
 31
0.0
  0
LINE
  5
1EFF4
330
1EF51
100
AcDbEntity
  8
02製品
  6
ByBlock
100
AcDbLine
 10
0.0
 20
718.6999891790147
 30
0.0
 11
0.6959975911631773
 21
717.4944858559884
 31
0.0
  0
LINE
  5
1EFF5
330
1EF51
100
AcDbEntity
  8
02製品
  6
ByBlock
100
AcDbLine
 10
0.6960187865770422
 20
732.5056252421618
 30
0.0
 11
0.0
 21
731.3000852076002
 31
0.0
  0
LINE
  5
1EFF6
330
1EF51
100
AcDbEntity
  8
02製品
  6
ByBlock
100
AcDbLine
 10
5.500000000001819
 20
666.5000000000036
 30
0.0
 11
7.10000000351647
 21
666.5000000000036
 31
0.0
  0
LINE
  5
1EFF7
330
1EF51
100
AcDbEntity
  8
02製品
  6
ByBlock
100
AcDbLine
 10
5.500000000001819
 20
683.5000000000036
 30
0.0
 11
7.10000000351647
 21
683.5000000000036
 31
0.0
  0
LINE
  5
1EFF8
330
1EF51
100
AcDbEntity
  8
02製品
  6
ByBlock
100
AcDbLine
 10
7.10000000351647
 20
683.5000000000036
 30
0.0
 11
7.10000000351647
 21
666.5000000000036
 31
0.0
  0
LINE
  5
1EFF9
330
1EF51
100
AcDbEntity
  8
02製品
  6
ByBlock
100
AcDbLine
 10
5.500000000001819
 20
683.5000000000036
 30
0.0
 11
5.500000000001819
 21
666.5000000000036
 31
0.0
  0
LINE
  5
1EFFA
330
1EF51
100
AcDbEntity
  8
02製品
  6
ByBlock
100
AcDbLine
 10
0.6960296630859375
 20
667.494461059574
 30
0.0
 11
5.500000000001819
 21
667.494461059574
 31
0.0
  0
LINE
  5
1EFFB
330
1EF51
100
AcDbEntity
  8
02製品
  6
ByBlock
100
AcDbLine
 10
0.0
 20
681.3000852076002
 30
0.0
 11
0.0
 21
668.6999891790147
 31
0.0
  0
ARC
  5
1EFFC
330
1EF51
100
AcDbEntity
  8
02製品
  6
ByBlock
100
AcDbCircle
 10
12.00000000000182
 20
675.0000000000036
 30
0.0
 40
12.0
100
AcDbArc
 50
161.7759804502288
 51
198.2237823143827
  0
LINE
  5
1EFFD
330
1EF51
100
AcDbEntity
  8
02製品
  6
ByBlock
100
AcDbLine
 10
0.601898193359375
 20
671.2472534179724
 30
0.0
 11
5.500000000001819
 21
671.2472534179724
 31
0.0
  0
LINE
  5
1EFFE
330
1EF51
100
AcDbEntity
  8
02製品
  6
ByBlock
100
AcDbLine
 10
0.6019134521502565
 20
678.7528076171911
 30
0.0
 11
5.500000000001819
 21
678.7528076171911
 31
0.0
  0
LINE
  5
1EFFF
330
1EF51
100
AcDbEntity
  8
02製品
  6
ByBlock
100
AcDbLine
 10
0.6960296630859375
 20
682.5055694580115
 30
0.0
 11
5.500000000001819
 21
682.5055694580115
 31
0.0
  0
LINE
  5
1F000
330
1EF51
100
AcDbEntity
  8
02製品
  6
ByBlock
100
AcDbLine
 10
0.6019017629496375
 20
678.7528312723134
 30
0.0
 11
0.0
 21
681.3000852076002
 31
0.0
  0
LINE
  5
1F001
330
1EF51
100
AcDbEntity
  8
02製品
  6
ByBlock
100
AcDbLine
 10
0.0
 20
668.6999891790147
 30
0.0
 11
0.6018760334500257
 21
671.2473005513148
 31
0.0
  0
LINE
  5
1F002
330
1EF51
100
AcDbEntity
  8
02製品
  6
ByBlock
100
AcDbLine
 10
0.0
 20
668.6999891790147
 30
0.0
 11
0.6959975911631773
 21
667.4944858559884
 31
0.0
  0
LINE
  5
1F003
330
1EF51
100
AcDbEntity
  8
02製品
  6
ByBlock
100
AcDbLine
 10
0.6960187865770422
 20
682.5056252421618
 30
0.0
 11
0.0
 21
681.3000852076002
 31
0.0
  0
LINE
  5
1F004
330
1EF51
100
AcDbEntity
  8
02製品
  6
ByBlock
100
AcDbLine
 10
5.500000000001819
 20
606.5000000000036
 30
0.0
 11
7.10000000351647
 21
606.5000000000036
 31
0.0
  0
LINE
  5
1F005
330
1EF51
100
AcDbEntity
  8
02製品
  6
ByBlock
100
AcDbLine
 10
5.500000000001819
 20
623.5000000000036
 30
0.0
 11
7.10000000351647
 21
623.5000000000036
 31
0.0
  0
LINE
  5
1F006
330
1EF51
100
AcDbEntity
  8
02製品
  6
ByBlock
100
AcDbLine
 10
7.10000000351647
 20
623.5000000000036
 30
0.0
 11
7.10000000351647
 21
606.5000000000036
 31
0.0
  0
LINE
  5
1F007
330
1EF51
100
AcDbEntity
  8
02製品
  6
ByBlock
100
AcDbLine
 10
5.500000000001819
 20
623.5000000000036
 30
0.0
 11
5.500000000001819
 21
606.5000000000036
 31
0.0
  0
LINE
  5
1F008
330
1EF51
100
AcDbEntity
  8
02製品
  6
ByBlock
100
AcDbLine
 10
0.6960296630859375
 20
607.494461059574
 30
0.0
 11
5.500000000001819
 21
607.494461059574
 31
0.0
  0
LINE
  5
1F009
330
1EF51
100
AcDbEntity
  8
02製品
  6
ByBlock
100
AcDbLine
 10
0.0
 20
621.3000852076002
 30
0.0
 11
0.0
 21
608.6999891790147
 31
0.0
  0
ARC
  5
1F00A
330
1EF51
100
AcDbEntity
  8
02製品
  6
ByBlock
100
AcDbCircle
 10
12.00000000000364
 20
615.0000000000036
 30
0.0
 40
12.0
100
AcDbArc
 50
161.7759804502288
 51
198.2237823143786
  0
LINE
  5
1F00B
330
1EF51
100
AcDbEntity
  8
02製品
  6
ByBlock
100
AcDbLine
 10
0.601898193359375
 20
611.2472534179724
 30
0.0
 11
5.500000000001819
 21
611.2472534179724
 31
0.0
  0
LINE
  5
1F00C
330
1EF51
100
AcDbEntity
  8
02製品
  6
ByBlock
100
AcDbLine
 10
0.6019134521520755
 20
618.7528076171911
 30
0.0
 11
5.500000000001819
 21
618.7528076171911
 31
0.0
  0
LINE
  5
1F00D
330
1EF51
100
AcDbEntity
  8
02製品
  6
ByBlock
100
AcDbLine
 10
0.6960296630859375
 20
622.5055694580115
 30
0.0
 11
5.500000000001819
 21
622.5055694580115
 31
0.0
  0
LINE
  5
1F00E
330
1EF51
100
AcDbEntity
  8
02製品
  6
ByBlock
100
AcDbLine
 10
0.6019017629496375
 20
618.7528312723134
 30
0.0
 11
0.0
 21
621.3000852076002
 31
0.0
  0
LINE
  5
1F00F
330
1EF51
100
AcDbEntity
  8
02製品
  6
ByBlock
100
AcDbLine
 10
0.0
 20
608.6999891790147
 30
0.0
 11
0.6018760334500257
 21
611.2473005513148
 31
0.0
  0
LINE
  5
1F010
330
1EF51
100
AcDbEntity
  8
02製品
  6
ByBlock
100
AcDbLine
 10
0.0
 20
608.6999891790147
 30
0.0
 11
0.6959975911631773
 21
607.4944858559884
 31
0.0
  0
LINE
  5
1F011
330
1EF51
100
AcDbEntity
  8
02製品
  6
ByBlock
100
AcDbLine
 10
0.6960187865770422
 20
622.5056252421618
 30
0.0
 11
0.0
 21
621.3000852076002
 31
0.0
  0
LINE
  5
1F012
330
1EF51
100
AcDbEntity
  8
02製品
  6
ByBlock
100
AcDbLine
 10
1226.700000007031
 20
716.5000000000036
 30
0.0
 11
1225.100000003516
 21
716.5000000000036
 31
0.0
  0
LINE
  5
1F013
330
1EF51
100
AcDbEntity
  8
02製品
  6
ByBlock
100
AcDbLine
 10
1226.700000007031
 20
733.5000000000036
 30
0.0
 11
1225.100000003516
 21
733.5000000000036
 31
0.0
  0
LINE
  5
1F014
330
1EF51
100
AcDbEntity
  8
02製品
  6
ByBlock
100
AcDbLine
 10
1225.100000003516
 20
733.5000000000036
 30
0.0
 11
1225.100000003516
 21
716.5000000000036
 31
0.0
  0
LINE
  5
1F015
330
1EF51
100
AcDbEntity
  8
02製品
  6
ByBlock
100
AcDbLine
 10
1226.700000007031
 20
733.5000000000036
 30
0.0
 11
1226.700000007031
 21
716.5000000000036
 31
0.0
  0
LINE
  5
1F016
330
1EF51
100
AcDbEntity
  8
02製品
  6
ByBlock
100
AcDbLine
 10
1231.503970343947
 20
717.494461059574
 30
0.0
 11
1226.700000007031
 21
717.494461059574
 31
0.0
  0
LINE
  5
1F017
330
1EF51
100
AcDbEntity
  8
02製品
  6
ByBlock
100
AcDbLine
 10
1232.200000007033
 20
731.3000852076002
 30
0.0
 11
1232.200000007033
 21
718.6999891790147
 31
0.0
  0
ARC
  5
1F018
330
1EF51
100
AcDbEntity
  8
02製品
  6
ByBlock
100
AcDbCircle
 10
1220.200000007031
 20
725.0000000000036
 30
0.0
 40
12.0
100
AcDbArc
 50
341.7762176856174
 51
18.22401954977122
  0
LINE
  5
1F019
330
1EF51
100
AcDbEntity
  8
02製品
  6
ByBlock
100
AcDbLine
 10
1231.598101813674
 20
721.2472534179724
 30
0.0
 11
1226.700000007031
 21
721.2472534179724
 31
0.0
  0
LINE
  5
1F01A
330
1EF51
100
AcDbEntity
  8
02製品
  6
ByBlock
100
AcDbLine
 10
1231.598086554883
 20
728.7528076171911
 30
0.0
 11
1226.700000007031
 21
728.7528076171911
 31
0.0
  0
LINE
  5
1F01B
330
1EF51
100
AcDbEntity
  8
02製品
  6
ByBlock
100
AcDbLine
 10
1231.503970343947
 20
732.5055694580115
 30
0.0
 11
1226.700000007031
 21
732.5055694580115
 31
0.0
  0
LINE
  5
1F01C
330
1EF51
100
AcDbEntity
  8
02製品
  6
ByBlock
100
AcDbLine
 10
1231.598098244083
 20
728.7528312723134
 30
0.0
 11
1232.200000007033
 21
731.3000852076002
 31
0.0
  0
LINE
  5
1F01D
330
1EF51
100
AcDbEntity
  8
02製品
  6
ByBlock
100
AcDbLine
 10
1232.200000007033
 20
718.6999891790147
 30
0.0
 11
1231.598123973583
 21
721.2473005513148
 31
0.0
  0
LINE
  5
1F01E
330
1EF51
100
AcDbEntity
  8
02製品
  6
ByBlock
100
AcDbLine
 10
1232.200000007033
 20
718.6999891790147
 30
0.0
 11
1231.50400241587
 21
717.4944858559884
 31
0.0
  0
LINE
  5
1F01F
330
1EF51
100
AcDbEntity
  8
02製品
  6
ByBlock
100
AcDbLine
 10
1231.503981220456
 20
732.5056252421618
 30
0.0
 11
1232.200000007033
 21
731.3000852076002
 31
0.0
  0
LINE
  5
1F020
330
1EF51
100
AcDbEntity
  8
02製品
  6
ByBlock
100
AcDbLine
 10
1226.700000007031
 20
666.5000000000036
 30
0.0
 11
1225.100000003516
 21
666.5000000000036
 31
0.0
  0
LINE
  5
1F021
330
1EF51
100
AcDbEntity
  8
02製品
  6
ByBlock
100
AcDbLine
 10
1226.700000007031
 20
683.5000000000036
 30
0.0
 11
1225.100000003516
 21
683.5000000000036
 31
0.0
  0
LINE
  5
1F022
330
1EF51
100
AcDbEntity
  8
02製品
  6
ByBlock
100
AcDbLine
 10
1225.100000003516
 20
683.5000000000036
 30
0.0
 11
1225.100000003516
 21
666.5000000000036
 31
0.0
  0
LINE
  5
1F023
330
1EF51
100
AcDbEntity
  8
02製品
  6
ByBlock
100
AcDbLine
 10
1226.700000007031
 20
683.5000000000036
 30
0.0
 11
1226.700000007031
 21
666.5000000000036
 31
0.0
  0
LINE
  5
1F024
330
1EF51
100
AcDbEntity
  8
02製品
  6
ByBlock
100
AcDbLine
 10
1231.503970343947
 20
667.494461059574
 30
0.0
 11
1226.700000007031
 21
667.494461059574
 31
0.0
  0
LINE
  5
1F025
330
1EF51
100
AcDbEntity
  8
02製品
  6
ByBlock
100
AcDbLine
 10
1232.200000007033
 20
681.3000852076002
 30
0.0
 11
1232.200000007033
 21
668.6999891790147
 31
0.0
  0
ARC
  5
1F026
330
1EF51
100
AcDbEntity
  8
02製品
  6
ByBlock
100
AcDbCircle
 10
1220.200000007031
 20
675.0000000000036
 30
0.0
 40
12.0
100
AcDbArc
 50
341.7762176856174
 51
18.22401954977122
  0
LINE
  5
1F027
330
1EF51
100
AcDbEntity
  8
02製品
  6
ByBlock
100
AcDbLine
 10
1231.598101813674
 20
671.2472534179724
 30
0.0
 11
1226.700000007031
 21
671.2472534179724
 31
0.0
  0
LINE
  5
1F028
330
1EF51
100
AcDbEntity
  8
02製品
  6
ByBlock
100
AcDbLine
 10
1231.598086554883
 20
678.7528076171911
 30
0.0
 11
1226.700000007031
 21
678.7528076171911
 31
0.0
  0
LINE
  5
1F029
330
1EF51
100
AcDbEntity
  8
02製品
  6
ByBlock
100
AcDbLine
 10
1231.503970343947
 20
682.5055694580115
 30
0.0
 11
1226.700000007031
 21
682.5055694580115
 31
0.0
  0
LINE
  5
1F02A
330
1EF51
100
AcDbEntity
  8
02製品
  6
ByBlock
100
AcDbLine
 10
1231.598098244083
 20
678.7528312723134
 30
0.0
 11
1232.200000007033
 21
681.3000852076002
 31
0.0
  0
LINE
  5
1F02B
330
1EF51
100
AcDbEntity
  8
02製品
  6
ByBlock
100
AcDbLine
 10
1232.200000007033
 20
668.6999891790147
 30
0.0
 11
1231.598123973583
 21
671.2473005513148
 31
0.0
  0
LINE
  5
1F02C
330
1EF51
100
AcDbEntity
  8
02製品
  6
ByBlock
100
AcDbLine
 10
1232.200000007033
 20
668.6999891790147
 30
0.0
 11
1231.50400241587
 21
667.4944858559884
 31
0.0
  0
LINE
  5
1F02D
330
1EF51
100
AcDbEntity
  8
02製品
  6
ByBlock
100
AcDbLine
 10
1231.503981220456
 20
682.5056252421618
 30
0.0
 11
1232.200000007033
 21
681.3000852076002
 31
0.0
  0
LINE
  5
1F02E
330
1EF51
100
AcDbEntity
  8
02製品
  6
ByBlock
100
AcDbLine
 10
1226.700000007031
 20
606.5000000000036
 30
0.0
 11
1225.100000003516
 21
606.5000000000036
 31
0.0
  0
LINE
  5
1F02F
330
1EF51
100
AcDbEntity
  8
02製品
  6
ByBlock
100
AcDbLine
 10
1226.700000007031
 20
623.5000000000036
 30
0.0
 11
1225.100000003516
 21
623.5000000000036
 31
0.0
  0
LINE
  5
1F030
330
1EF51
100
AcDbEntity
  8
02製品
  6
ByBlock
100
AcDbLine
 10
1225.100000003516
 20
623.5000000000036
 30
0.0
 11
1225.100000003516
 21
606.5000000000036
 31
0.0
  0
LINE
  5
1F031
330
1EF51
100
AcDbEntity
  8
02製品
  6
ByBlock
100
AcDbLine
 10
1226.700000007031
 20
623.5000000000036
 30
0.0
 11
1226.700000007031
 21
606.5000000000036
 31
0.0
  0
LINE
  5
1F032
330
1EF51
100
AcDbEntity
  8
02製品
  6
ByBlock
100
AcDbLine
 10
1231.503970343947
 20
607.494461059574
 30
0.0
 11
1226.700000007031
 21
607.494461059574
 31
0.0
  0
LINE
  5
1F033
330
1EF51
100
AcDbEntity
  8
02製品
  6
ByBlock
100
AcDbLine
 10
1232.200000007033
 20
621.3000852076002
 30
0.0
 11
1232.200000007033
 21
608.6999891790147
 31
0.0
  0
ARC
  5
1F034
330
1EF51
100
AcDbEntity
  8
02製品
  6
ByBlock
100
AcDbCircle
 10
1220.200000007029
 20
615.0000000000036
 30
0.0
 40
12.0
100
AcDbArc
 50
341.7762176856215
 51
18.22401954977122
  0
LINE
  5
1F035
330
1EF51
100
AcDbEntity
  8
02製品
  6
ByBlock
100
AcDbLine
 10
1231.598101813674
 20
611.2472534179724
 30
0.0
 11
1226.700000007031
 21
611.2472534179724
 31
0.0
  0
LINE
  5
1F036
330
1EF51
100
AcDbEntity
  8
02製品
  6
ByBlock
100
AcDbLine
 10
1231.598086554881
 20
618.7528076171911
 30
0.0
 11
1226.700000007031
 21
618.7528076171911
 31
0.0
  0
LINE
  5
1F037
330
1EF51
100
AcDbEntity
  8
02製品
  6
ByBlock
100
AcDbLine
 10
1231.503970343947
 20
622.5055694580115
 30
0.0
 11
1226.700000007031
 21
622.5055694580115
 31
0.0
  0
LINE
  5
1F038
330
1EF51
100
AcDbEntity
  8
02製品
  6
ByBlock
100
AcDbLine
 10
1231.598098244083
 20
618.7528312723134
 30
0.0
 11
1232.200000007033
 21
621.3000852076002
 31
0.0
  0
LINE
  5
1F039
330
1EF51
100
AcDbEntity
  8
02製品
  6
ByBlock
100
AcDbLine
 10
1232.200000007033
 20
608.6999891790147
 30
0.0
 11
1231.598123973583
 21
611.2473005513148
 31
0.0
  0
LINE
  5
1F03A
330
1EF51
100
AcDbEntity
  8
02製品
  6
ByBlock
100
AcDbLine
 10
1232.200000007033
 20
608.6999891790147
 30
0.0
 11
1231.50400241587
 21
607.4944858559884
 31
0.0
  0
LINE
  5
1F03B
330
1EF51
100
AcDbEntity
  8
02製品
  6
ByBlock
100
AcDbLine
 10
1231.503981220456
 20
622.5056252421618
 30
0.0
 11
1232.200000007033
 21
621.3000852076002
 31
0.0
  0
ENDBLK
  5
1F03D
330
1EF51
100
AcDbEntity
  8
0
100
AcDbBlockEnd
  0
ENDSEC
  0
SECTION
  2
ENTITIES
  0
TEXT
  5
1D51A
330
1F
100
AcDbEntity
  8
01注記寸法
100
AcDbText
 10
6711.915352943101
 20
6358.946666580014
 30
0.0
 40
40.0
  1
3-TCL066
 72
     1
 11
6815.915352943101
 21
6378.946666580014
 31
0.0
100
AcDbText
 73
     2
  0
LINE
  5
1DD94
330
1F
100
AcDbEntity
  8
1　製品
100
AcDbLine
 10
4649.526983925634
 20
8076.014359464186
 30
0.0
 11
3982.526983925634
 21
8076.014359464171
 31
0.0
  0
LINE
  5
1DD95
330
1F
100
AcDbEntity
  8
1　製品
100
AcDbLine
 10
3659.526983925634
 20
8036.014359464185
 30
0.0
 11
4649.526983925634
 21
8036.014359464185
 31
0.0
  0
LINE
  5
1DDA6
330
1F
100
AcDbEntity
  8
1　製品
100
AcDbLine
 10
4649.526983925634
 20
8819.014359464187
 30
0.0
 11
3659.526983925634
 21
8819.014359464185
 31
0.0
  0
LINE
  5
1DDA7
330
1F
100
AcDbEntity
  8
1　製品
100
AcDbLine
 10
4649.526983925634
 20
8779.014359464185
 30
0.0
 11
3659.526983925634
 21
8779.014359464201
 31
0.0
  0
INSERT
  5
1ED85
330
1F
100
AcDbEntity
  8
01注記寸法
100
AcDbBlockReference
  2
A$C30975
 10
5270.78065666095
 20
6849.304292165341
 30
0.0
  0
INSERT
  5
1EF50
330
1F
100
AcDbEntity
  8
01注記寸法
100
AcDbBlockReference
  2
A$C5316
 10
3435.526983925634
 20
8032.014359464178
 30
0.0
  0
INSERT
  5
1F03E
330
1F
100
AcDbEntity
  8
01注記寸法
100
AcDbBlockReference
  2
A$C15031
 10
3428.426983922118
 20
6849.304292165341
 30
0.0
  0
LINE
  5
1F0E7
330
1F
100
AcDbEntity
  8
02製品
  6
ByBlock
100
AcDbLine
 10
5277.680656664467
 20
7115.304292165343
 30
0.0
 11
5277.680656664467
 21
7103.304292165343
 31
0.0
  0
ARC
  5
1F0E8
330
1F
100
AcDbEntity
  8
02製品
  6
ByBlock
100
AcDbCircle
 10
5285.150775979745
 20
7109.304292165343
 30
0.0
 40
12.47011931527778
100
AcDbArc
 50
166.0795152477937
 51
193.9204847522063
  0
LINE
  5
1F0E9
330
1F
100
AcDbEntity
  8
02製品
  6
ByBlock
100
AcDbLine
 10
5273.046897438663
 20
7106.304292165343
 30
0.0
 11
5276.680656664467
 21
7106.304292165343
 31
0.0
  0
LINE
  5
1F0EA
330
1F
100
AcDbEntity
  8
02製品
  6
ByBlock
100
AcDbLine
 10
5273.046897438663
 20
7112.304292165343
 30
0.0
 11
5276.680656664467
 21
7112.304292165343
 31
0.0
  0
LINE
  5
1F0EB
330
1F
100
AcDbEntity
  8
02製品
  6
ByBlock
100
AcDbLine
 10
5272.680656664467
 20
7104.75425654794
 30
0.0
 11
5273.046897438663
 21
7106.304292165343
 31
0.0
  0
LINE
  5
1F0EC
330
1F
100
AcDbEntity
  8
02製品
  6
ByBlock
100
AcDbLine
 10
5272.680656664467
 20
7104.75425654794
 30
0.0
 11
5273.37665425563
 21
7103.548753224914
 31
0.0
  0
LINE
  5
1F0ED
330
1F
100
AcDbEntity
  8
02製品
  6
ByBlock
100
AcDbLine
 10
5273.37665425563
 20
7103.548753224914
 30
0.0
 11
5276.680656664467
 21
7103.548753224914
 31
0.0
  0
LINE
  5
1F0EE
330
1F
100
AcDbEntity
  8
02製品
  6
ByBlock
100
AcDbLine
 10
5273.37665425563
 20
7115.059831105773
 30
0.0
 11
5276.680656664467
 21
7115.059861623351
 31
0.0
  0
LINE
  5
1F0EF
330
1F
100
AcDbEntity
  8
02製品
  6
ByBlock
100
AcDbLine
 10
5276.680656664467
 20
7115.304292165343
 30
0.0
 11
5276.680656664467
 21
7103.304292165343
 31
0.0
  0
LINE
  5
1F0F0
330
1F
100
AcDbEntity
  8
02製品
  6
ByBlock
100
AcDbLine
 10
5276.680656664467
 20
7115.304292165343
 30
0.0
 11
5277.680656664467
 21
7115.304292165343
 31
0.0
  0
LINE
  5
1F0F1
330
1F
100
AcDbEntity
  8
02製品
  6
ByBlock
100
AcDbLine
 10
5276.680656664467
 20
7103.304292165343
 30
0.0
 11
5277.680656664467
 21
7103.304292165343
 31
0.0
  0
LINE
  5
1F0F2
330
1F
100
AcDbEntity
  8
02製品
  6
ByBlock
100
AcDbLine
 10
5272.680656664467
 20
7113.854327782747
 30
0.0
 11
5272.680656664467
 21
7104.75425654794
 31
0.0
  0
LINE
  5
1F0F3
330
1F
100
AcDbEntity
  8
02製品
  6
ByBlock
100
AcDbLine
 10
5272.680656664467
 20
7113.854327782747
 30
0.0
 11
5273.37665425563
 21
7115.059831105773
 31
0.0
  0
LINE
  5
1F0F4
330
1F
100
AcDbEntity
  8
02製品
  6
ByBlock
100
AcDbLine
 10
5272.680656664467
 20
7113.854327782747
 30
0.0
 11
5273.046897438663
 21
7112.304292165343
 31
0.0
  0
ARC
  5
1F0F5
330
1F
100
AcDbEntity
  8
02製品
  6
ByBlock
100
AcDbCircle
 10
6061.610537349193
 20
7109.304292165345
 30
0.0
 40
12.47011931527778
100
AcDbArc
 50
346.0795152477937
 51
13.92048475220634
  0
LINE
  5
1F0F6
330
1F
100
AcDbEntity
  8
02製品
  6
ByBlock
100
AcDbLine
 10
6074.080656664471
 20
7104.754256547942
 30
0.0
 11
6073.384659073307
 21
7103.548753224915
 31
0.0
  0
LINE
  5
1F0F7
330
1F
100
AcDbEntity
  8
02製品
  6
ByBlock
100
AcDbLine
 10
6070.080656664471
 20
7103.304292165345
 30
0.0
 11
6069.080656664471
 21
7103.304292165345
 31
0.0
  0
LINE
  5
1F0F8
330
1F
100
AcDbEntity
  8
02製品
  6
ByBlock
100
AcDbLine
 10
6070.080656664471
 20
7115.304292165345
 30
0.0
 11
6070.080656664471
 21
7103.304292165345
 31
0.0
  0
LINE
  5
1F0F9
330
1F
100
AcDbEntity
  8
02製品
  6
ByBlock
100
AcDbLine
 10
6070.080656664471
 20
7115.304292165345
 30
0.0
 11
6069.080656664471
 21
7115.304292165345
 31
0.0
  0
LINE
  5
1F0FA
330
1F
100
AcDbEntity
  8
02製品
  6
ByBlock
100
AcDbLine
 10
6073.384659073307
 20
7115.059831105775
 30
0.0
 11
6070.080656664471
 21
7115.059861623353
 31
0.0
  0
LINE
  5
1F0FB
330
1F
100
AcDbEntity
  8
02製品
  6
ByBlock
100
AcDbLine
 10
6073.714415890275
 20
7112.304292165345
 30
0.0
 11
6070.080656664471
 21
7112.304292165345
 31
0.0
  0
LINE
  5
1F0FC
330
1F
100
AcDbEntity
  8
02製品
  6
ByBlock
100
AcDbLine
 10
6073.714415890275
 20
7106.304292165345
 30
0.0
 11
6070.080656664471
 21
7106.304292165345
 31
0.0
  0
LINE
  5
1F0FD
330
1F
100
AcDbEntity
  8
02製品
  6
ByBlock
100
AcDbLine
 10
6074.080656664471
 20
7113.854327782748
 30
0.0
 11
6073.384659073307
 21
7115.059831105775
 31
0.0
  0
LINE
  5
1F0FE
330
1F
100
AcDbEntity
  8
02製品
  6
ByBlock
100
AcDbLine
 10
6073.384659073307
 20
7103.548753224915
 30
0.0
 11
6070.080656664471
 21
7103.548753224915
 31
0.0
  0
LINE
  5
1F0FF
330
1F
100
AcDbEntity
  8
02製品
  6
ByBlock
100
AcDbLine
 10
6074.080656664471
 20
7113.854327782748
 30
0.0
 11
6074.080656664471
 21
7104.754256547942
 31
0.0
  0
LINE
  5
1F100
330
1F
100
AcDbEntity
  8
02製品
  6
ByBlock
100
AcDbLine
 10
6074.080656664471
 20
7104.754256547942
 30
0.0
 11
6073.714415890275
 21
7106.304292165345
 31
0.0
  0
LINE
  5
1F101
330
1F
100
AcDbEntity
  8
02製品
  6
ByBlock
100
AcDbLine
 10
6074.080656664471
 20
7113.854327782748
 30
0.0
 11
6073.714415890275
 21
7112.304292165345
 31
0.0
  0
LINE
  5
1F164
330
1F
100
AcDbEntity
  8
02製品
  6
ByBlock
100
AcDbLine
 10
5277.280656660953
 20
7100.804292165343
 30
0.0
 11
5278.880656664468
 21
7100.804292165343
 31
0.0
  0
LINE
  5
1F165
330
1F
100
AcDbEntity
  8
02製品
  6
ByBlock
100
AcDbLine
 10
5277.280656660953
 20
7117.804292165343
 30
0.0
 11
5278.880656664468
 21
7117.804292165343
 31
0.0
  0
LINE
  5
1F166
330
1F
100
AcDbEntity
  8
02製品
  6
ByBlock
100
AcDbLine
 10
5278.880656664468
 20
7117.804292165343
 30
0.0
 11
5278.880656664468
 21
7100.804292165343
 31
0.0
  0
LINE
  5
1F167
330
1F
100
AcDbEntity
  8
02製品
  6
ByBlock
100
AcDbLine
 10
5277.280656660953
 20
7117.804292165343
 30
0.0
 11
5277.280656660953
 21
7100.804292165343
 31
0.0
  0
LINE
  5
1F168
330
1F
100
AcDbEntity
  8
02製品
  6
ByBlock
100
AcDbLine
 10
5272.476686324037
 20
7101.798753224914
 30
0.0
 11
5277.280656660953
 21
7101.798753224914
 31
0.0
  0
LINE
  5
1F169
330
1F
100
AcDbEntity
  8
02製品
  6
ByBlock
100
AcDbLine
 10
5271.780656660952
 20
7115.60437737294
 30
0.0
 11
5271.780656660952
 21
7103.004281344354
 31
0.0
  0
ARC
  5
1F16A
330
1F
100
AcDbEntity
  8
02製品
  6
ByBlock
100
AcDbCircle
 10
5283.780656660954
 20
7109.304292165343
 30
0.0
 40
12.0
100
AcDbArc
 50
161.7759804502274
 51
198.2237823143786
  0
LINE
  5
1F16B
330
1F
100
AcDbEntity
  8
02製品
  6
ByBlock
100
AcDbLine
 10
5272.382554854311
 20
7105.551545583312
 30
0.0
 11
5277.280656660953
 21
7105.551545583312
 31
0.0
  0
LINE
  5
1F16C
330
1F
100
AcDbEntity
  8
02製品
  6
ByBlock
100
AcDbLine
 10
5272.382570113103
 20
7113.057099782531
 30
0.0
 11
5277.280656660953
 21
7113.057099782531
 31
0.0
  0
LINE
  5
1F16D
330
1F
100
AcDbEntity
  8
02製品
  6
ByBlock
100
AcDbLine
 10
5272.476686324037
 20
7116.809861623351
 30
0.0
 11
5277.280656660953
 21
7116.809861623351
 31
0.0
  0
LINE
  5
1F16E
330
1F
100
AcDbEntity
  8
02製品
  6
ByBlock
100
AcDbLine
 10
5272.382558423901
 20
7113.057123437653
 30
0.0
 11
5271.780656660952
 21
7115.60437737294
 31
0.0
  0
LINE
  5
1F16F
330
1F
100
AcDbEntity
  8
02製品
  6
ByBlock
100
AcDbLine
 10
5271.780656660952
 20
7103.004281344354
 30
0.0
 11
5272.382532694402
 21
7105.551592716654
 31
0.0
  0
LINE
  5
1F170
330
1F
100
AcDbEntity
  8
02製品
  6
ByBlock
100
AcDbLine
 10
5271.780656660952
 20
7103.004281344354
 30
0.0
 11
5272.476654252115
 21
7101.798778021328
 31
0.0
  0
LINE
  5
1F171
330
1F
100
AcDbEntity
  8
02製品
  6
ByBlock
100
AcDbLine
 10
5272.476675447529
 20
7116.809917407501
 30
0.0
 11
5271.780656660952
 21
7115.60437737294
 31
0.0
  0
LINE
  5
1F172
330
1F
100
AcDbEntity
  8
02製品
  6
ByBlock
100
AcDbLine
 10
5277.680656664467
 20
7115.304292165343
 30
0.0
 11
5277.680656664467
 21
7103.304292165343
 31
0.0
  0
ARC
  5
1F173
330
1F
100
AcDbEntity
  8
02製品
  6
ByBlock
100
AcDbCircle
 10
5285.150775979745
 20
7109.304292165343
 30
0.0
 40
12.47011931527778
100
AcDbArc
 50
166.0795152477937
 51
193.9204847522063
  0
LINE
  5
1F174
330
1F
100
AcDbEntity
  8
02製品
  6
ByBlock
100
AcDbLine
 10
5273.046897438663
 20
7106.304292165343
 30
0.0
 11
5276.680656664467
 21
7106.304292165343
 31
0.0
  0
LINE
  5
1F175
330
1F
100
AcDbEntity
  8
02製品
  6
ByBlock
100
AcDbLine
 10
5273.046897438663
 20
7112.304292165343
 30
0.0
 11
5276.680656664467
 21
7112.304292165343
 31
0.0
  0
LINE
  5
1F176
330
1F
100
AcDbEntity
  8
02製品
  6
ByBlock
100
AcDbLine
 10
5272.680656664467
 20
7104.75425654794
 30
0.0
 11
5273.046897438663
 21
7106.304292165343
 31
0.0
  0
LINE
  5
1F177
330
1F
100
AcDbEntity
  8
02製品
  6
ByBlock
100
AcDbLine
 10
5272.680656664467
 20
7104.75425654794
 30
0.0
 11
5273.37665425563
 21
7103.548753224914
 31
0.0
  0
LINE
  5
1F178
330
1F
100
AcDbEntity
  8
02製品
  6
ByBlock
100
AcDbLine
 10
5273.37665425563
 20
7103.548753224914
 30
0.0
 11
5276.680656664467
 21
7103.548753224914
 31
0.0
  0
LINE
  5
1F179
330
1F
100
AcDbEntity
  8
02製品
  6
ByBlock
100
AcDbLine
 10
5273.37665425563
 20
7115.059831105773
 30
0.0
 11
5276.680656664467
 21
7115.059861623351
 31
0.0
  0
LINE
  5
1F17A
330
1F
100
AcDbEntity
  8
02製品
  6
ByBlock
100
AcDbLine
 10
5276.680656664467
 20
7115.304292165343
 30
0.0
 11
5276.680656664467
 21
7103.304292165343
 31
0.0
  0
LINE
  5
1F17B
330
1F
100
AcDbEntity
  8
02製品
  6
ByBlock
100
AcDbLine
 10
5276.680656664467
 20
7115.304292165343
 30
0.0
 11
5277.680656664467
 21
7115.304292165343
 31
0.0
  0
LINE
  5
1F17C
330
1F
100
AcDbEntity
  8
02製品
  6
ByBlock
100
AcDbLine
 10
5276.680656664467
 20
7103.304292165343
 30
0.0
 11
5277.680656664467
 21
7103.304292165343
 31
0.0
  0
LINE
  5
1F17D
330
1F
100
AcDbEntity
  8
02製品
  6
ByBlock
100
AcDbLine
 10
5272.680656664467
 20
7113.854327782747
 30
0.0
 11
5272.680656664467
 21
7104.75425654794
 31
0.0
  0
LINE
  5
1F17E
330
1F
100
AcDbEntity
  8
02製品
  6
ByBlock
100
AcDbLine
 10
5272.680656664467
 20
7113.854327782747
 30
0.0
 11
5273.37665425563
 21
7115.059831105773
 31
0.0
  0
LINE
  5
1F17F
330
1F
100
AcDbEntity
  8
02製品
  6
ByBlock
100
AcDbLine
 10
5272.680656664467
 20
7113.854327782747
 30
0.0
 11
5273.046897438663
 21
7112.304292165343
 31
0.0
  0
ARC
  5
1F180
330
1F
100
AcDbEntity
  8
02製品
  6
ByBlock
100
AcDbCircle
 10
6061.610537349193
 20
7109.304292165345
 30
0.0
 40
12.47011931527778
100
AcDbArc
 50
346.0795152477937
 51
13.92048475220634
  0
LINE
  5
1F181
330
1F
100
AcDbEntity
  8
02製品
  6
ByBlock
100
AcDbLine
 10
6074.080656664471
 20
7104.754256547942
 30
0.0
 11
6073.384659073307
 21
7103.548753224915
 31
0.0
  0
LINE
  5
1F182
330
1F
100
AcDbEntity
  8
02製品
  6
ByBlock
100
AcDbLine
 10
6070.080656664471
 20
7103.304292165345
 30
0.0
 11
6069.080656664471
 21
7103.304292165345
 31
0.0
  0
LINE
  5
1F183
330
1F
100
AcDbEntity
  8
02製品
  6
ByBlock
100
AcDbLine
 10
6070.080656664471
 20
7115.304292165345
 30
0.0
 11
6070.080656664471
 21
7103.304292165345
 31
0.0
  0
LINE
  5
1F184
330
1F
100
AcDbEntity
  8
02製品
  6
ByBlock
100
AcDbLine
 10
6070.080656664471
 20
7115.304292165345
 30
0.0
 11
6069.080656664471
 21
7115.304292165345
 31
0.0
  0
LINE
  5
1F185
330
1F
100
AcDbEntity
  8
02製品
  6
ByBlock
100
AcDbLine
 10
6073.384659073307
 20
7115.059831105775
 30
0.0
 11
6070.080656664471
 21
7115.059861623353
 31
0.0
  0
LINE
  5
1F186
330
1F
100
AcDbEntity
  8
02製品
  6
ByBlock
100
AcDbLine
 10
6073.714415890275
 20
7112.304292165345
 30
0.0
 11
6070.080656664471
 21
7112.304292165345
 31
0.0
  0
LINE
  5
1F187
330
1F
100
AcDbEntity
  8
02製品
  6
ByBlock
100
AcDbLine
 10
6073.714415890275
 20
7106.304292165345
 30
0.0
 11
6070.080656664471
 21
7106.304292165345
 31
0.0
  0
LINE
  5
1F188
330
1F
100
AcDbEntity
  8
02製品
  6
ByBlock
100
AcDbLine
 10
6074.080656664471
 20
7113.854327782748
 30
0.0
 11
6073.384659073307
 21
7115.059831105775
 31
0.0
  0
LINE
  5
1F189
330
1F
100
AcDbEntity
  8
02製品
  6
ByBlock
100
AcDbLine
 10
6073.384659073307
 20
7103.548753224915
 30
0.0
 11
6070.080656664471
 21
7103.548753224915
 31
0.0
  0
LINE
  5
1F18A
330
1F
100
AcDbEntity
  8
02製品
  6
ByBlock
100
AcDbLine
 10
6074.080656664471
 20
7113.854327782748
 30
0.0
 11
6074.080656664471
 21
7104.754256547942
 31
0.0
  0
LINE
  5
1F18B
330
1F
100
AcDbEntity
  8
02製品
  6
ByBlock
100
AcDbLine
 10
6074.080656664471
 20
7104.754256547942
 30
0.0
 11
6073.714415890275
 21
7106.304292165345
 31
0.0
  0
LINE
  5
1F18C
330
1F
100
AcDbEntity
  8
02製品
  6
ByBlock
100
AcDbLine
 10
6074.080656664471
 20
7113.854327782748
 30
0.0
 11
6073.714415890275
 21
7112.304292165345
 31
0.0
  0
LINE
  5
1F18D
330
1F
100
AcDbEntity
  8
02製品
  6
ByBlock
100
AcDbLine
 10
6074.284627004899
 20
7101.798753224915
 30
0.0
 11
6069.480656667983
 21
7101.798753224915
 31
0.0
  0
LINE
  5
1F18E
330
1F
100
AcDbEntity
  8
02製品
  6
ByBlock
100
AcDbLine
 10
6074.980656667984
 20
7103.004281344356
 30
0.0
 11
6074.284659076821
 21
7101.79877802133
 31
0.0
  0
LINE
  5
1F18F
330
1F
100
AcDbEntity
  8
02製品
  6
ByBlock
100
AcDbLine
 10
6074.980656667984
 20
7115.604377372942
 30
0.0
 11
6074.980656667984
 21
7103.004281344356
 31
0.0
  0
ARC
  5
1F190
330
1F
100
AcDbEntity
  8
02製品
  6
ByBlock
100
AcDbCircle
 10
6062.980656667982
 20
7109.304292165345
 30
0.0
 40
12.0
100
AcDbArc
 50
341.7762176856215
 51
18.22401954977258
  0
LINE
  5
1F191
330
1F
100
AcDbEntity
  8
02製品
  6
ByBlock
100
AcDbLine
 10
6074.378758474625
 20
7105.551545583314
 30
0.0
 11
6069.480656667983
 21
7105.551545583314
 31
0.0
  0
LINE
  5
1F192
330
1F
100
AcDbEntity
  8
02製品
  6
ByBlock
100
AcDbLine
 10
6074.378743215833
 20
7113.057099782533
 30
0.0
 11
6069.480656667983
 21
7113.057099782533
 31
0.0
  0
LINE
  5
1F193
330
1F
100
AcDbEntity
  8
02製品
  6
ByBlock
100
AcDbLine
 10
6074.284627004899
 20
7116.809861623353
 30
0.0
 11
6069.480656667983
 21
7116.809861623353
 31
0.0
  0
LINE
  5
1F194
330
1F
100
AcDbEntity
  8
02製品
  6
ByBlock
100
AcDbLine
 10
6074.378754905035
 20
7113.057123437655
 30
0.0
 11
6074.980656667984
 21
7115.604377372942
 31
0.0
  0
LINE
  5
1F195
330
1F
100
AcDbEntity
  8
02製品
  6
ByBlock
100
AcDbLine
 10
6074.980656667984
 20
7103.004281344356
 30
0.0
 11
6074.378780634534
 21
7105.551592716656
 31
0.0
  0
LINE
  5
1F196
330
1F
100
AcDbEntity
  8
02製品
  6
ByBlock
100
AcDbLine
 10
6074.284637881407
 20
7116.809917407503
 30
0.0
 11
6074.980656667984
 21
7115.604377372942
 31
0.0
  0
LINE
  5
1F1A6
330
1F
100
AcDbEntity
  8
02製品
  6
ByBlock
100
AcDbLine
 10
6069.480656667983
 20
7100.804292165343
 30
0.0
 11
6067.880656664468
 21
7100.804292165343
 31
0.0
  0
LINE
  5
1F1A7
330
1F
100
AcDbEntity
  8
02製品
  6
ByBlock
100
AcDbLine
 10
6069.480656667983
 20
7117.804292165343
 30
0.0
 11
6069.480656667983
 21
7100.804292165343
 31
0.0
  0
LINE
  5
1F1A8
330
1F
100
AcDbEntity
  8
02製品
  6
ByBlock
100
AcDbLine
 10
6069.480656667983
 20
7117.804292165343
 30
0.0
 11
6067.880656664468
 21
7117.804292165343
 31
0.0
  0
ENDSEC
  0
SECTION
  2
OBJECTS
  0
DICTIONARY
  5
C
330
0
100
AcDbDictionary
281
     1
  3
ACAD_DETAILVIEWSTYLE
350
ADAF
  3
ACAD_GROUP
350
D
  3
ACAD_IMAGE_VARS
350
6A88
  3
ACAD_LAYOUT
350
1A
  3
ACAD_MLINESTYLE
350
17
  3
ACAD_PLOTSETTINGS
350
19
  3
ACAD_PLOTSTYLENAME
350
E
  3
ACAD_SCALELIST
350
6A4E
  3
ACAD_SECTIONVIEWSTYLE
350
ADB0
  3
AcadDim
350
813A
  3
AcDbVariableDictionary
350
79E
  3
AEC_DISP_REPS
350
8259
  3
AEC_DISPLAY_PROPS_DEFAULTS
350
825B
  3
AEC_VARS
350
8257
  3
APPDATA
350
6A87
  3
DWGPROPS
350
1F1A9
  0
DICTIONARY
  5
7A6F
330
2
100
AcDbDictionary
280
     1
281
     1
  3
ACAD_LAYERFILTERS
360
A22F
  3
ACAD_LAYERSTATES
360
7A70
  3
ACLYDICTIONARY
360
163AB
  0
DICTIONARY
  5
CBD6
330
1F
100
AcDbDictionary
280
     1
281
     1
  3
ACAD_SORTENTS
360
CBD7
  0
DICTIONARY
  5
1D20F
330
1D20E
100
AcDbDictionary
280
     1
281
     1
  3
ACAD_SORTENTS
360
1D210
  0
DICTIONARY
  5
1D23D
330
1D23C
100
AcDbDictionary
280
     1
281
     1
  3
ACAD_SORTENTS
360
1D23E
  0
DICTIONARY
  5
1ECC9
330
1EC9E
100
AcDbDictionary
280
     1
281
     1
  3
ACAD_SORTENTS
360
1ECCA
  0
DICTIONARY
  5
1EEC9
330
1EE9D
100
AcDbDictionary
280
     1
281
     1
  3
ACAD_SORTENTS
360
1EECA
  0
DICTIONARY
  5
1EF7C
330
1EF51
100
AcDbDictionary
280
     1
281
     1
  3
ACAD_SORTENTS
360
1EF7D
  0
DICTIONARY
  5
ADAF
102
{ACAD_REACTORS
330
C
102
}
330
C
100
AcDbDictionary
281
     1
  0
DICTIONARY
  5
D
102
{ACAD_REACTORS
330
C
102
}
330
C
100
AcDbDictionary
281
     1
  0
RASTERVARIABLES
  5
6A88
102
{ACAD_REACTORS
330
C
102
}
330
C
100
AcDbRasterVariables
 90
        0
 70
     1
 71
     1
 72
     1
  0
DICTIONARY
  5
1A
102
{ACAD_REACTORS
330
C
102
}
330
C
100
AcDbDictionary
281
     1
  3
Layout1
350
1E
  3
Layout2
350
26
  3
Model
350
22
  0
DICTIONARY
  5
17
102
{ACAD_REACTORS
330
C
102
}
330
C
100
AcDbDictionary
281
     1
  3
Standard
350
18
  0
DICTIONARY
  5
19
102
{ACAD_REACTORS
330
C
102
}
330
C
100
AcDbDictionary
281
     1
  0
ACDBDICTIONARYWDFLT
  5
E
102
{ACAD_REACTORS
330
C
102
}
330
C
100
AcDbDictionary
281
     1
  3
Normal
350
F
100
AcDbDictionaryWithDefault
340
F
  0
DICTIONARY
  5
6A4E
102
{ACAD_REACTORS
330
C
102
}
330
C
100
AcDbDictionary
281
     1
  3
A0
350
6A4F
  3
A1
350
6A50
  3
A2
350
6A51
  3
A3
350
6A52
  3
A4
350
6A53
  3
A5
350
6A54
  3
A6
350
6A55
  3
A7
350
6A56
  3
A8
350
6A57
  3
A9
350
6A58
  3
B0
350
6A59
  3
B1
350
6A5A
  3
B2
350
6A5B
  3
B3
350
6A5C
  3
B4
350
6A5D
  3
B5
350
6A5E
  3
B6
350
6A5F
  3
B7
350
6A60
  3
B8
350
6A61
  3
B9
350
6A62
  3
C0
350
6A63
  3
C1
350
6A64
  3
C2
350
6A65
  3
C3
350
6A66
  3
C4
350
6A67
  3
C5
350
6A68
  3
C6
350
6A69
  3
C7
350
6A6A
  3
C8
350
6A6B
  3
C9
350
6A6C
  3
D0
350
6A6D
  3
D1
350
6A6E
  3
D2
350
6A6F
  0
DICTIONARY
  5
ADB0
102
{ACAD_REACTORS
330
C
102
}
330
C
100
AcDbDictionary
281
     1
  0
XRECORD
  5
813A
102
{ACAD_REACTORS
330
C
102
}
330
C
100
AcDbXrecord
280
     1
340
0
 72
     0
 71
     0
 70
     0
 69
     0
 68
     1
 67
     3
 66
     0
 65
     0
 64
     0
 63
     3
 62
     1
 61
     0
 60
     0
 40
0.0
  0
DICTIONARY
  5
79E
102
{ACAD_REACTORS
330
C
102
}
330
C
100
AcDbDictionary
281
     1
  3
DIMASSOC
350
79F
  3
SORTENTS
350
264F
  0
DICTIONARY
  5
8259
102
{ACAD_REACTORS
330
C
102
}
330
C
100
AcDbDictionary
281
     1
  3
AecDbDispRep2dSection
350
825A
  3
AecDbDispRepAnchor
350
8294
  3
AecDbDispRepAnchorEntToNode
350
8295
  3
AecDbDispRepClipVolModel
350
8261
  3
AecDbDispRepClipVolPlan
350
8263
  3
AecDbDispRepClipVolResSubDiv
350
8266
  3
AecDbDispRepClipVolResult
350
8265
  3
AecDbDispRepDisplayTheme
350
8268
  3
AecDbDispRepEditInPlaceProfile
350
8299
  3
AecDbDispRepEntRef
350
826A
  3
AecDbDispRepLayoutCurve
350
826C
  3
AecDbDispRepLayoutGrid2d
350
826E
  3
AecDbDispRepLayoutGrid3d
350
8270
  3
AecDbDispRepMaskBlockRef
350
8272
  3
AecDbDispRepMaskBlockRefRcp
350
8274
  3
AecDbDispRepMassElemModel
350
8276
  3
AecDbDispRepMassElemPlan100
350
827C
  3
AecDbDispRepMassElemPlan50
350
827A
  3
AecDbDispRepMassElemRcp
350
827E
  3
AecDbDispRepMassElemSchem
350
8278
  3
AecDbDispRepMassGroupModel
350
8280
  3
AecDbDispRepMassGroupPlan
350
8282
  3
AecDbDispRepMassGroupPlan100
350
8286
  3
AecDbDispRepMassGroupPlan50
350
8284
  3
AecDbDispRepMassGroupRcp
350
8288
  3
AecDbDispRepMaterial
350
8297
  3
AecDbDispRepMvBlockRef
350
828A
  3
AecDbDispRepMvBlockRefModel
350
828B
  3
AecDbDispRepMvBlockRefPlan100
350
828C
  3
AecDbDispRepMvBlockRefPlan50
350
828D
  3
AecDbDispRepPolygonModel
350
828E
  3
AecDbDispRepPolygonTrueColour
350
8290
  3
AecDbDispRepSlice
350
8292
  0
DICTIONARY
  5
825B
102
{ACAD_REACTORS
330
C
102
}
330
C
100
AcDbDictionary
281
     1
  3
*A1
350
825C
  3
*A10
350
827D
  3
*A11
350
827F
  3
*A12
350
8296
  3
*A13
350
8281
  3
*A14
350
8285
  3
*A15
350
8262
  3
*A16
350
8287
  3
*A17
350
8289
  3
*A18
350
828F
  3
*A19
350
8291
  3
*A2
350
826D
  3
*A20
350
8293
  3
*A21
350
8298
  3
*A22
350
8273
  3
*A23
350
829A
  3
*A24
350
8264
  3
*A25
350
8267
  3
*A26
350
8269
  3
*A27
350
826B
  3
*A3
350
826F
  3
*A4
350
8283
  3
*A5
350
8271
  3
*A6
350
8275
  3
*A7
350
8277
  3
*A8
350
8279
  3
*A9
350
827B
  0
DICTIONARY
  5
8257
102
{ACAD_REACTORS
330
C
102
}
330
C
100
AcDbDictionary
281
     1
  3
AEC_VARS_DWG_SETUP
350
8258
  0
DICTIONARY
  5
6A87
102
{ACAD_REACTORS
330
C
102
}
330
C
100
AcDbDictionary
281
     1
  0
XRECORD
  5
1F1A9
102
{ACAD_REACTORS
330
C
102
}
330
C
100
AcDbXrecord
280
     1
  1
DWGPROPS COOKIE
  2

  3

  4

  6

  7

  8
2212
  9

300
=
301
=
302
=
303
=
304
=
305
=
306
=
307
=
308
=
309
=
 40
0.0
 41
2455859.030048461
 42
2458844.182293576
  1

 90
        0
  0
DICTIONARY
  5
A22F
102
{ACAD_REACTORS
330
7A6F
102
}
330
7A6F
100
AcDbDictionary
280
     1
281
     1
  0
DICTIONARY
  5
7A70
102
{ACAD_REACTORS
330
7A6F
102
}
330
7A6F
100
AcDbDictionary
281
     1
  0
DICTIONARY
  5
163AB
102
{ACAD_REACTORS
330
7A6F
102
}
330
7A6F
100
AcDbDictionary
281
     1
1001
ACAD
1000
<All
  0
SORTENTSTABLE
  5
CBD7
102
{ACAD_REACTORS
330
CBD6
102
}
330
CBD6
100
AcDbSortentsTable
330
1F
331
0
  5
98EA
  0
SORTENTSTABLE
  5
1D210
102
{ACAD_REACTORS
330
1D20F
102
}
330
1D20F
100
AcDbSortentsTable
330
1D20E
  0
SORTENTSTABLE
  5
1D23E
102
{ACAD_REACTORS
330
1D23D
102
}
330
1D23D
100
AcDbSortentsTable
330
1D23C
  0
SORTENTSTABLE
  5
1ECCA
102
{ACAD_REACTORS
330
1ECC9
102
}
330
1ECC9
100
AcDbSortentsTable
330
1EC9E
  0
SORTENTSTABLE
  5
1EECA
102
{ACAD_REACTORS
330
1EEC9
102
}
330
1EEC9
100
AcDbSortentsTable
330
1EE9D
  0
SORTENTSTABLE
  5
1EF7D
102
{ACAD_REACTORS
330
1EF7C
102
}
330
1EF7C
100
AcDbSortentsTable
330
1EF51
  0
LAYOUT
  5
1E
102
{ACAD_REACTORS
330
1A
102
}
330
1A
100
AcDbPlotSettings
  1

  2

  4

  6

 40
0.0
 41
0.0
 42
0.0
 43
0.0
 44
0.0
 45
0.0
 46
0.0
 47
0.0
 48
0.0
 49
0.0
140
0.0
141
0.0
142
1.0
143
1.0
 70
   688
 72
     0
 73
     0
 74
     5
  7
monochrome.ctb
 75
    16
147
1.0
148
0.0
149
0.0
100
AcDbLayout
  1
Layout1
 70
     1
 71
     1
 10
0.0
 20
0.0
 11
420.0
 21
297.0
 12
0.0
 22
0.0
 32
0.0
 14
1.000000000000000E+20
 24
1.000000000000000E+20
 34
1.000000000000000E+20
 15
-1.000000000000000E+20
 25
-1.000000000000000E+20
 35
-1.000000000000000E+20
146
0.0
 13
0.0
 23
0.0
 33
0.0
 16
1.0
 26
0.0
 36
0.0
 17
0.0
 27
1.0
 37
0.0
 76
     0
330
1B
  0
LAYOUT
  5
26
102
{ACAD_REACTORS
330
1A
102
}
330
1A
100
AcDbPlotSettings
  1

  2

  4

  6

 40
0.0
 41
0.0
 42
0.0
 43
0.0
 44
0.0
 45
0.0
 46
0.0
 47
0.0
 48
0.0
 49
0.0
140
0.0
141
0.0
142
1.0
143
1.0
 70
   688
 72
     0
 73
     0
 74
     5
  7
monochrome.ctb
 75
    16
147
1.0
148
0.0
149
0.0
100
AcDbLayout
  1
Layout2
 70
     1
 71
     2
 10
0.0
 20
0.0
 11
12.0
 21
9.0
 12
0.0
 22
0.0
 32
0.0
 14
0.0
 24
0.0
 34
0.0
 15
0.0
 25
0.0
 35
0.0
146
0.0
 13
0.0
 23
0.0
 33
0.0
 16
1.0
 26
0.0
 36
0.0
 17
0.0
 27
1.0
 37
0.0
 76
     0
330
23
  0
LAYOUT
  5
22
102
{ACAD_REACTORS
330
1A
102
}
330
1A
100
AcDbPlotSettings
  1

  2
none_device
  4
A3
  6

 40
3.174999952316284
 41
3.174999952316284
 42
3.17498779296875
 43
3.17498779296875
 44
297.0318298339844
 45
420.1583251953125
 46
-3.16
 47
-3.1
 48
-90.0
 49
-90.0
140
329.9999999999998
141
207.0
142
1.0
143
1.0
 70
 11940
 72
     1
 73
     1
 74
     4
  7
monochrome.ctb
 75
     0
147
1.0
148
90.0
149
90.0
100
AcDbLayout
  1
Model
 70
     1
 71
     0
 10
3035.915352943101
 20
6238.946666580014
 11
7235.915352943101
 21
9208.946666580014
 12
0.0
 22
0.0
 32
0.0
 14
3428.426983922118
 24
6359.346666580013
 34
0.0
 15
6917.0353529431
 25
8823.014359464192
 35
0.0
146
0.0
 13
0.0
 23
0.0
 33
0.0
 16
1.0
 26
0.0
 36
0.0
 17
0.0
 27
1.0
 37
0.0
 76
     0
330
1F
331
A2A1
  0
MLINESTYLE
  5
18
102
{ACAD_REACTORS
330
17
102
}
330
17
100
AcDbMlineStyle
  2
STANDARD
 70
     0
  3

 62
   256
 51
90.0
 52
90.0
 71
     2
 49
0.5
 62
   256
  6
BYLAYER
 49
-0.5
 62
   256
  6
BYLAYER
  0
ACDBPLACEHOLDER
  5
F
102
{ACAD_REACTORS
330
E
102
}
330
E
  0
SCALE
  5
6A4F
102
{ACAD_REACTORS
330
6A4E
102
}
330
6A4E
100
AcDbScale
 70
     0
300
1:1
140
1.0
141
1.0
290
     1
  0
SCALE
  5
6A50
102
{ACAD_REACTORS
330
6A4E
102
}
330
6A4E
100
AcDbScale
 70
     0
300
1:2
140
1.0
141
2.0
290
     0
  0
SCALE
  5
6A51
102
{ACAD_REACTORS
330
6A4E
102
}
330
6A4E
100
AcDbScale
 70
     0
300
1:4
140
1.0
141
4.0
290
     0
  0
SCALE
  5
6A52
102
{ACAD_REACTORS
330
6A4E
102
}
330
6A4E
100
AcDbScale
 70
     0
300
1:5
140
1.0
141
5.0
290
     0
  0
SCALE
  5
6A53
102
{ACAD_REACTORS
330
6A4E
102
}
330
6A4E
100
AcDbScale
 70
     0
300
1:8
140
1.0
141
8.0
290
     0
  0
SCALE
  5
6A54
102
{ACAD_REACTORS
330
6A4E
102
}
330
6A4E
100
AcDbScale
 70
     0
300
1:10
140
1.0
141
10.0
290
     0
  0
SCALE
  5
6A55
102
{ACAD_REACTORS
330
6A4E
102
}
330
6A4E
100
AcDbScale
 70
     0
300
1:16
140
1.0
141
16.0
290
     0
  0
SCALE
  5
6A56
102
{ACAD_REACTORS
330
6A4E
102
}
330
6A4E
100
AcDbScale
 70
     0
300
1:20
140
1.0
141
20.0
290
     0
  0
SCALE
  5
6A57
102
{ACAD_REACTORS
330
6A4E
102
}
330
6A4E
100
AcDbScale
 70
     0
300
1:30
140
1.0
141
30.0
290
     0
  0
SCALE
  5
6A58
102
{ACAD_REACTORS
330
6A4E
102
}
330
6A4E
100
AcDbScale
 70
     0
300
1:40
140
1.0
141
40.0
290
     0
  0
SCALE
  5
6A59
102
{ACAD_REACTORS
330
6A4E
102
}
330
6A4E
100
AcDbScale
 70
     0
300
1:50
140
1.0
141
50.0
290
     0
  0
SCALE
  5
6A5A
102
{ACAD_REACTORS
330
6A4E
102
}
330
6A4E
100
AcDbScale
 70
     0
300
1:100
140
1.0
141
100.0
290
     0
  0
SCALE
  5
6A5B
102
{ACAD_REACTORS
330
6A4E
102
}
330
6A4E
100
AcDbScale
 70
     0
300
2:1
140
2.0
141
1.0
290
     0
  0
SCALE
  5
6A5C
102
{ACAD_REACTORS
330
6A4E
102
}
330
6A4E
100
AcDbScale
 70
     0
300
4:1
140
4.0
141
1.0
290
     0
  0
SCALE
  5
6A5D
102
{ACAD_REACTORS
330
6A4E
102
}
330
6A4E
100
AcDbScale
 70
     0
300
8:1
140
8.0
141
1.0
290
     0
  0
SCALE
  5
6A5E
102
{ACAD_REACTORS
330
6A4E
102
}
330
6A4E
100
AcDbScale
 70
     0
300
10:1
140
10.0
141
1.0
290
     0
  0
SCALE
  5
6A5F
102
{ACAD_REACTORS
330
6A4E
102
}
330
6A4E
100
AcDbScale
 70
     0
300
100:1
140
100.0
141
1.0
290
     0
  0
SCALE
  5
6A60
102
{ACAD_REACTORS
330
6A4E
102
}
330
6A4E
100
AcDbScale
 70
     0
300
1/128" = 1'-0"
140
0.0078125
141
12.0
290
     0
  0
SCALE
  5
6A61
102
{ACAD_REACTORS
330
6A4E
102
}
330
6A4E
100
AcDbScale
 70
     0
300
1/64" = 1'-0"
140
0.015625
141
12.0
290
     0
  0
SCALE
  5
6A62
102
{ACAD_REACTORS
330
6A4E
102
}
330
6A4E
100
AcDbScale
 70
     0
300
1/32" = 1'-0"
140
0.03125
141
12.0
290
     0
  0
SCALE
  5
6A63
102
{ACAD_REACTORS
330
6A4E
102
}
330
6A4E
100
AcDbScale
 70
     0
300
1/16" = 1'-0"
140
0.0625
141
12.0
290
     0
  0
SCALE
  5
6A64
102
{ACAD_REACTORS
330
6A4E
102
}
330
6A4E
100
AcDbScale
 70
     0
300
3/32" = 1'-0"
140
0.09375
141
12.0
290
     0
  0
SCALE
  5
6A65
102
{ACAD_REACTORS
330
6A4E
102
}
330
6A4E
100
AcDbScale
 70
     0
300
1/8" = 1'-0"
140
0.125
141
12.0
290
     0
  0
SCALE
  5
6A66
102
{ACAD_REACTORS
330
6A4E
102
}
330
6A4E
100
AcDbScale
 70
     0
300
3/16" = 1'-0"
140
0.1875
141
12.0
290
     0
  0
SCALE
  5
6A67
102
{ACAD_REACTORS
330
6A4E
102
}
330
6A4E
100
AcDbScale
 70
     0
300
1/4" = 1'-0"
140
0.25
141
12.0
290
     0
  0
SCALE
  5
6A68
102
{ACAD_REACTORS
330
6A4E
102
}
330
6A4E
100
AcDbScale
 70
     0
300
3/8" = 1'-0"
140
0.375
141
12.0
290
     0
  0
SCALE
  5
6A69
102
{ACAD_REACTORS
330
6A4E
102
}
330
6A4E
100
AcDbScale
 70
     0
300
1/2" = 1'-0"
140
0.5
141
12.0
290
     0
  0
SCALE
  5
6A6A
102
{ACAD_REACTORS
330
6A4E
102
}
330
6A4E
100
AcDbScale
 70
     0
300
3/4" = 1'-0"
140
0.75
141
12.0
290
     0
  0
SCALE
  5
6A6B
102
{ACAD_REACTORS
330
6A4E
102
}
330
6A4E
100
AcDbScale
 70
     0
300
1" = 1'-0"
140
1.0
141
12.0
290
     0
  0
SCALE
  5
6A6C
102
{ACAD_REACTORS
330
6A4E
102
}
330
6A4E
100
AcDbScale
 70
     0
300
1-1/2" = 1'-0"
140
1.5
141
12.0
290
     0
  0
SCALE
  5
6A6D
102
{ACAD_REACTORS
330
6A4E
102
}
330
6A4E
100
AcDbScale
 70
     0
300
3" = 1'-0"
140
3.0
141
12.0
290
     0
  0
SCALE
  5
6A6E
102
{ACAD_REACTORS
330
6A4E
102
}
330
6A4E
100
AcDbScale
 70
     0
300
6" = 1'-0"
140
6.0
141
12.0
290
     0
  0
SCALE
  5
6A6F
102
{ACAD_REACTORS
330
6A4E
102
}
330
6A4E
100
AcDbScale
 70
     0
300
1'-0" = 1'-0"
140
12.0
141
12.0
290
     0
  0
DICTIONARYVAR
  5
79F
102
{ACAD_REACTORS
330
79E
102
}
330
79E
100
DictionaryVariables
280
     0
  1
1
  0
DICTIONARYVAR
  5
264F
102
{ACAD_REACTORS
330
79E
102
}
330
79E
100
DictionaryVariables
280
     0
  1
96
  0
ACAD_PROXY_OBJECT
  5
8258
102
{ACAD_REACTORS
330
8257
102
}
330
8257
100
AcDbProxyObject
 90
      499
 91
      509
 95
  6881311
 70
     0
 93
     1864
310
51B4D146518005194651A8FC812095550000000000000B08000000000000008200000000000001807E8F2048F205000200001204000000000000581F8000000000000B0807EC3FA6DEBC0E99F8000000000001C07FE8FCC0295941A4E2D20CA600E2005C008C00E8005C008321803A80170023003A00170020898006200640
310
06001202DA008C2080248020801000140019001A801B00100021803780360037803900148010001000100010002080220019001A801B0021082008600820088008200A4008600900087A08032803180260030803C803280390029803A003200170032003B80338049C09
330
0
 94
        0
  0
ENDSEC
  0
EOF
