  0
SECTION
  2
HEADER
  9
$ACADVER
  1
AC1015
  9
$ACADMAINTVER
 70
     6
  9
$DWGCODEPAGE
  3
ANSI_932
  9
$INSBASE
 10
0.0
 20
0.0
 30
0.0
  9
$EXTMIN
 10
1002.074774558824
 20
190.3934010152284
 30
0.0
  9
$EXTMAX
 10
6413.461827411167
 20
3435.979343714918
 30
0.0
  9
$LIMMIN
 10
4.099999999999999
 20
4.1
  9
$LIMMAX
 10
415.9
 20
292.9
  9
$ORTHOMODE
 70
     1
  9
$REGENMODE
 70
     1
  9
$FILLMODE
 70
     1
  9
$QTEXTMODE
 70
     0
  9
$MIRRTEXT
 70
     1
  9
$LTSCALE
 40
0.3
  9
$ATTMODE
 70
     1
  9
$TEXTSIZE
 40
3.0
  9
$TRACEWID
 40
1.0
  9
$TEXTSTYLE
  7
Standard
  9
$CLAYER
  8
2　寸法
  9
$CELTYPE
  6
ByLayer
  9
$CECOLOR
 62
   256
  9
$CELTSCALE
 40
1.0
  9
$DISPSILH
 70
     0
  9
$DIMSCALE
 40
1.0
  9
$DIMASZ
 40
3.0
  9
$DIMEXO
 40
1.5
  9
$DIMDLI
 40
10.0
  9
$DIMRND
 40
0.0
  9
$DIMDLE
 40
0.0
  9
$DIMEXE
 40
1.0
  9
$DIMTP
 40
0.0
  9
$DIMTM
 40
0.0
  9
$DIMTXT
 40
3.0
  9
$DIMCEN
 40
1.5
  9
$DIMTSZ
 40
0.0
  9
$DIMTOL
 70
     0
  9
$DIMLIM
 70
     0
  9
$DIMTIH
 70
     0
  9
$DIMTOH
 70
     0
  9
$DIMSE1
 70
     0
  9
$DIMSE2
 70
     0
  9
$DIMTAD
 70
     1
  9
$DIMZIN
 70
     8
  9
$DIMBLK
  1
Open
  9
$DIMASO
 70
     1
  9
$DIMSHO
 70
     1
  9
$DIMPOST
  1

  9
$DIMAPOST
  1

  9
$DIMALT
 70
     0
  9
$DIMALTD
 70
     3
  9
$DIMALTF
 40
0.03937007874016
  9
$DIMLFAC
 40
1.0
  9
$DIMTOFL
 70
     1
  9
$DIMTVP
 40
0.0
  9
$DIMTIX
 70
     0
  9
$DIMSOXD
 70
     0
  9
$DIMSAH
 70
     0
  9
$DIMBLK1
  1

  9
$DIMBLK2
  1

  9
$DIMSTYLE
  2
NEMY-1
  9
$DIMCLRD
 70
     0
  9
$DIMCLRE
 70
     0
  9
$DIMCLRT
 70
     0
  9
$DIMTFAC
 40
1.0
  9
$DIMGAP
 40
1.0
  9
$DIMJUST
 70
     0
  9
$DIMSD1
 70
     0
  9
$DIMSD2
 70
     0
  9
$DIMTOLJ
 70
     0
  9
$DIMTZIN
 70
     8
  9
$DIMALTZ
 70
     0
  9
$DIMALTTZ
 70
     0
  9
$DIMUPT
 70
     0
  9
$DIMDEC
 70
     2
  9
$DIMTDEC
 70
     2
  9
$DIMALTU
 70
     2
  9
$DIMALTTD
 70
     3
  9
$DIMTXSTY
  7
Standard
  9
$DIMAUNIT
 70
     0
  9
$DIMADEC
 70
     0
  9
$DIMALTRND
 40
0.0
  9
$DIMAZIN
 70
     0
  9
$DIMDSEP
 70
    46
  9
$DIMATFIT
 70
     3
  9
$DIMFRAC
 70
     0
  9
$DIMLDRBLK
  1
Open
  9
$DIMLUNIT
 70
     2
  9
$DIMLWD
 70
    -2
  9
$DIMLWE
 70
    -2
  9
$DIMTMOVE
 70
     0
  9
$LUNITS
 70
     2
  9
$LUPREC
 70
     4
  9
$SKETCHINC
 40
1.0
  9
$FILLETRAD
 40
0.0
  9
$AUNITS
 70
     0
  9
$AUPREC
 70
     0
  9
$MENU
  1
.
  9
$ELEVATION
 40
0.0
  9
$PELEVATION
 40
0.0
  9
$THICKNESS
 40
0.0
  9
$LIMCHECK
 70
     0
  9
$CHAMFERA
 40
10.0
  9
$CHAMFERB
 40
10.0
  9
$CHAMFERC
 40
20.0
  9
$CHAMFERD
 40
0.0
  9
$SKPOLY
 70
     0
  9
$TDCREATE
 40
2454740.593452685
  9
$TDUCREATE
 40
2454740.218452685
  9
$TDUPDATE
 40
2458844.558337616
  9
$TDUUPDATE
 40
2458844.183337616
  9
$TDINDWG
 40
0.6086484606
  9
$TDUSRTIMER
 40
2458844.182438739
  9
$USRTIMER
 70
     1
  9
$ANGBASE
 50
0.0
  9
$ANGDIR
 70
     0
  9
$PDMODE
 70
     0
  9
$PDSIZE
 40
0.0
  9
$PLINEWID
 40
0.0
  9
$SPLFRAME
 70
     0
  9
$SPLINETYPE
 70
     6
  9
$SPLINESEGS
 70
     8
  9
$HANDSEED
  5
4014
  9
$SURFTAB1
 70
     6
  9
$SURFTAB2
 70
     6
  9
$SURFTYPE
 70
     6
  9
$SURFU
 70
     6
  9
$SURFV
 70
     6
  9
$UCSBASE
  2

  9
$UCSNAME
  2

  9
$UCSORG
 10
0.0
 20
0.0
 30
0.0
  9
$UCSXDIR
 10
1.0
 20
0.0
 30
0.0
  9
$UCSYDIR
 10
0.0
 20
1.0
 30
0.0
  9
$UCSORTHOREF
  2

  9
$UCSORTHOVIEW
 70
     0
  9
$UCSORGTOP
 10
0.0
 20
0.0
 30
0.0
  9
$UCSORGBOTTOM
 10
0.0
 20
0.0
 30
0.0
  9
$UCSORGLEFT
 10
0.0
 20
0.0
 30
0.0
  9
$UCSORGRIGHT
 10
0.0
 20
0.0
 30
0.0
  9
$UCSORGFRONT
 10
0.0
 20
0.0
 30
0.0
  9
$UCSORGBACK
 10
0.0
 20
0.0
 30
0.0
  9
$PUCSBASE
  2

  9
$PUCSNAME
  2

  9
$PUCSORG
 10
0.0
 20
0.0
 30
0.0
  9
$PUCSXDIR
 10
1.0
 20
0.0
 30
0.0
  9
$PUCSYDIR
 10
0.0
 20
1.0
 30
0.0
  9
$PUCSORTHOREF
  2

  9
$PUCSORTHOVIEW
 70
     0
  9
$PUCSORGTOP
 10
0.0
 20
0.0
 30
0.0
  9
$PUCSORGBOTTOM
 10
0.0
 20
0.0
 30
0.0
  9
$PUCSORGLEFT
 10
0.0
 20
0.0
 30
0.0
  9
$PUCSORGRIGHT
 10
0.0
 20
0.0
 30
0.0
  9
$PUCSORGFRONT
 10
0.0
 20
0.0
 30
0.0
  9
$PUCSORGBACK
 10
0.0
 20
0.0
 30
0.0
  9
$USERI1
 70
     0
  9
$USERI2
 70
     0
  9
$USERI3
 70
     0
  9
$USERI4
 70
     0
  9
$USERI5
 70
     0
  9
$USERR1
 40
0.0
  9
$USERR2
 40
0.0
  9
$USERR3
 40
0.0
  9
$USERR4
 40
0.0
  9
$USERR5
 40
0.0
  9
$WORLDVIEW
 70
     1
  9
$SHADEDGE
 70
     3
  9
$SHADEDIF
 70
    70
  9
$TILEMODE
 70
     1
  9
$MAXACTVP
 70
    64
  9
$PINSBASE
 10
0.0
 20
0.0
 30
0.0
  9
$PLIMCHECK
 70
     0
  9
$PEXTMIN
 10
1.000000000000000E+20
 20
1.000000000000000E+20
 30
1.000000000000000E+20
  9
$PEXTMAX
 10
-1.000000000000000E+20
 20
-1.000000000000000E+20
 30
-1.000000000000000E+20
  9
$PLIMMIN
 10
0.0
 20
0.0
  9
$PLIMMAX
 10
0.0
 20
0.0
  9
$UNITMODE
 70
     0
  9
$VISRETAIN
 70
     1
  9
$PLINEGEN
 70
     0
  9
$PSLTSCALE
 70
     1
  9
$TREEDEPTH
 70
  3020
  9
$CMLSTYLE
  2
Standard
  9
$CMLJUST
 70
     0
  9
$CMLSCALE
 40
20.0
  9
$PROXYGRAPHICS
 70
     1
  9
$MEASUREMENT
 70
     1
  9
$CELWEIGHT
370
    -1
  9
$ENDCAPS
280
     0
  9
$JOINSTYLE
280
     0
  9
$LWDISPLAY
290
     0
  9
$INSUNITS
 70
     4
  9
$HYPERLINKBASE
  1

  9
$STYLESHEET
  1
monochrome.ctb
  9
$XEDIT
290
     1
  9
$CEPSNTYPE
380
     0
  9
$PSTYLEMODE
290
     1
  9
$FINGERPRINTGUID
  2
{FDEAD578-A652-11D2-9A35-0060089B3A3F}
  9
$VERSIONGUID
  2
{717D12A9-C262-4CFE-A590-E23600634059}
  9
$EXTNAMES
290
     1
  9
$PSVPSCALE
 40
0.0
  9
$OLESTARTUP
290
     0
  0
ENDSEC
  0
SECTION
  2
CLASSES
  0
CLASS
  1
ACDBDICTIONARYWDFLT
  2
AcDbDictionaryWithDefault
  3
ObjectDBX Classes
 90
        0
280
     0
281
     0
  0
CLASS
  1
ACDBPLACEHOLDER
  2
AcDbPlaceHolder
  3
ObjectDBX Classes
 90
        0
280
     0
281
     0
  0
CLASS
  1
LAYOUT
  2
AcDbLayout
  3
ObjectDBX Classes
 90
        0
280
     0
281
     0
  0
CLASS
  1
DICTIONARYVAR
  2
AcDbDictionaryVar
  3
ObjectDBX Classes
 90
        0
280
     0
281
     0
  0
CLASS
  1
SCALE
  2
AcDbScale
  3
ObjectDBX Classes
 90
     1153
280
     0
281
     0
  0
CLASS
  1
MATERIAL
  2
AcDbMaterial
  3
ObjectDBX Classes
 90
     1153
280
     0
281
     0
  0
CLASS
  1
VISUALSTYLE
  2
AcDbVisualStyle
  3
ObjectDBX Classes
 90
     4095
280
     0
281
     0
  0
CLASS
  1
TABLESTYLE
  2
AcDbTableStyle
  3
ObjectDBX Classes
 90
     4095
280
     0
281
     0
  0
CLASS
  1
RASTERVARIABLES
  2
AcDbRasterVariables
  3
ISM
 90
        0
280
     0
281
     0
  0
CLASS
  1
MLEADERSTYLE
  2
AcDbMLeaderStyle
  3
ACDB_MLEADERSTYLE_CLASS
 90
     4095
280
     0
281
     0
  0
CLASS
  1
SUN
  2
AcDbSun
  3
SCENEOE
 90
     1153
280
     0
281
     0
  0
ENDSEC
  0
SECTION
  2
TABLES
  0
TABLE
  2
VPORT
  5
8
330
0
100
AcDbSymbolTable
 70
     4
  0
VPORT
  5
3F53
330
8
100
AcDbSymbolTableRecord
100
AcDbViewportTableRecord
  2
*Active
 70
     0
 10
0.0
 20
0.0
 11
1.0
 21
1.0
 12
3707.768300984996
 22
1813.186372365073
 13
0.0
 23
0.0
 14
10.0
 24
10.0
 15
10.0
 25
10.0
 16
0.0
 26
0.0
 36
1.0
 17
0.0
 27
0.0
 37
0.0
 40
3717.29159589816
 41
1.484848484848485
 42
50.0
 43
0.0
 44
0.0
 50
0.0
 51
0.0
 71
    16
 72
   100
 73
     1
 74
     2
 75
     0
 76
     0
 77
     0
 78
     0
281
     0
 65
     1
110
0.0
120
0.0
130
0.0
111
1.0
121
0.0
131
0.0
112
0.0
122
1.0
132
0.0
 79
     0
146
0.0
  0
ENDTAB
  0
TABLE
  2
LTYPE
  5
5
330
0
100
AcDbSymbolTable
 70
     7
  0
LTYPE
  5
14
330
5
100
AcDbSymbolTableRecord
100
AcDbLinetypeTableRecord
  2
ByBlock
 70
     0
  3

 72
    65
 73
     0
 40
0.0
  0
LTYPE
  5
15
330
5
100
AcDbSymbolTableRecord
100
AcDbLinetypeTableRecord
  2
ByLayer
 70
     0
  3

 72
    65
 73
     0
 40
0.0
  0
LTYPE
  5
16
330
5
100
AcDbSymbolTableRecord
100
AcDbLinetypeTableRecord
  2
Continuous
 70
     0
  3
Solid line
 72
    65
 73
     0
 40
0.0
  0
LTYPE
  5
BA
330
5
100
AcDbSymbolTableRecord
100
AcDbLinetypeTableRecord
  2
HIDDEN
 70
     0
  3
Hidden __ __ __ __ __ __ __ __ __ __ __ __ __ _
 72
    65
 73
     2
 40
9.524999999999999
 49
6.35
 74
     0
 49
-3.175
 74
     0
  0
ENDTAB
  0
TABLE
  2
LAYER
  5
2
102
{ACAD_XDICTIONARY
360
2770
102
}
330
0
100
AcDbSymbolTable
 70
    13
  0
LAYER
  5
10
330
2
100
AcDbSymbolTableRecord
100
AcDbLayerTableRecord
  2
0
 70
     0
 62
     7
  6
Continuous
370
    -3
390
F
  0
LAYER
  5
44
330
2
100
AcDbSymbolTableRecord
100
AcDbLayerTableRecord
  2
1　製品
 70
     0
 62
     2
  6
Continuous
370
    15
390
F
  0
LAYER
  5
45
330
2
100
AcDbSymbolTableRecord
100
AcDbLayerTableRecord
  2
2　寸法
 70
     0
 62
     7
  6
Continuous
370
     9
390
F
  0
LAYER
  5
46
330
2
100
AcDbSymbolTableRecord
100
AcDbLayerTableRecord
  2
4　注記
 70
     0
 62
     7
  6
Continuous
370
     9
390
F
  0
ENDTAB
  0
TABLE
  2
STYLE
  5
3
330
0
100
AcDbSymbolTable
 70
     3
  0
STYLE
  5
11
330
3
100
AcDbSymbolTableRecord
100
AcDbTextStyleTableRecord
  2
Standard
 70
     0
 40
0.0
 41
1.0
 50
0.0
 71
     0
 42
3.0
  3
MSGOTHIC.TTC
  4

1001
ACAD
1000
MS Gothic
1071
    32817
  0
STYLE
  5
1930
330
3
100
AcDbSymbolTableRecord
100
AcDbTextStyleTableRecord
  2
STYLE1
 70
     0
 40
0.0
 41
0.9
 50
0.0
 71
     0
 42
100.0
  3
TXT.shx
  4
extfont.shx
  0
ENDTAB
  0
TABLE
  2
VIEW
  5
6
330
0
100
AcDbSymbolTable
 70
     0
  0
ENDTAB
  0
TABLE
  2
UCS
  5
7
330
0
100
AcDbSymbolTable
 70
     0
  0
ENDTAB
  0
TABLE
  2
APPID
  5
9
330
0
100
AcDbSymbolTable
 70
     3
  0
APPID
  5
12
330
9
100
AcDbSymbolTableRecord
100
AcDbRegAppTableRecord
  2
ACAD
 70
     0
  0
APPID
  5
1963
330
9
100
AcDbSymbolTableRecord
100
AcDbRegAppTableRecord
  2
AcAecLayerStandard
 70
     0
  0
APPID
  5
3EA4
330
9
100
AcDbSymbolTableRecord
100
AcDbRegAppTableRecord
  2
ACAD_PSEXT
 70
     0
  0
ENDTAB
  0
TABLE
  2
DIMSTYLE
  5
A
330
0
100
AcDbSymbolTable
 70
    16
100
AcDbDimStyleTable
  0
DIMSTYLE
105
73
330
A
100
AcDbSymbolTableRecord
100
AcDbDimStyleTableRecord
  2
NEMY-1
 70
     0
 41
3.0
 42
1.5
 43
10.0
 44
1.0
 73
     0
 74
     0
 77
     1
 78
     8
140
3.0
141
1.5
143
0.03937007874016
147
1.0
171
     3
172
     1
178
     0
271
     2
272
     2
274
     3
283
     0
284
     8
340
11
341
8F
342
8F
  0
ENDTAB
  0
TABLE
  2
BLOCK_RECORD
  5
1
330
0
100
AcDbSymbolTable
 70
    41
  0
BLOCK_RECORD
  5
1F
330
1
100
AcDbSymbolTableRecord
100
AcDbBlockTableRecord
  2
*Model_Space
340
22
  0
BLOCK_RECORD
  5
1B
330
1
100
AcDbSymbolTableRecord
100
AcDbBlockTableRecord
  2
*Paper_Space
340
1E
  0
BLOCK_RECORD
  5
23
330
1
100
AcDbSymbolTableRecord
100
AcDbBlockTableRecord
  2
*Paper_Space0
340
26
  0
BLOCK_RECORD
  5
8F
330
1
100
AcDbSymbolTableRecord
100
AcDbBlockTableRecord
  2
_Open
340
0
102
{BLKREFS
331
3D60
331
3D74
331
3D4E
331
3D26
331
3D1D
331
3D57
331
3D61
331
3D75
331
3D4F
331
3D27
331
3D1E
331
3D58
331
3D7F
331
3D6B
331
3D80
331
3D6C
102
}
  0
ENDTAB
  0
ENDSEC
  0
SECTION
  2
BLOCKS
  0
BLOCK
  5
20
330
1F
100
AcDbEntity
  8
0
100
AcDbBlockBegin
  2
*Model_Space
 70
     0
 10
0.0
 20
0.0
 30
0.0
  3
*Model_Space
  1

  0
ENDBLK
  5
21
330
1F
100
AcDbEntity
  8
0
100
AcDbBlockEnd
  0
BLOCK
  5
1C
330
1B
100
AcDbEntity
 67
     1
  8
0
100
AcDbBlockBegin
  2
*Paper_Space
 70
     0
 10
0.0
 20
0.0
 30
0.0
  3
*Paper_Space
  1

  0
ENDBLK
  5
1D
330
1B
100
AcDbEntity
 67
     1
  8
0
100
AcDbBlockEnd
  0
BLOCK
  5
24
330
23
100
AcDbEntity
  8
0
100
AcDbBlockBegin
  2
*Paper_Space0
 70
     0
 10
0.0
 20
0.0
 30
0.0
  3
*Paper_Space0
  1

  0
ENDBLK
  5
25
330
23
100
AcDbEntity
  8
0
100
AcDbBlockEnd
  0
BLOCK
  5
93
330
8F
100
AcDbEntity
  8
0
100
AcDbBlockBegin
  2
_Open
 70
     0
 10
0.0
 20
0.0
 30
0.0
  3
_Open
  1

  0
LINE
  5
90
330
8F
100
AcDbEntity
  8
2　寸法
 62
     0
370
    -2
100
AcDbLine
 10
-1.0
 20
0.1666666666666667
 30
0.0
 11
0.0
 21
0.0
 31
0.0
  0
LINE
  5
91
330
8F
100
AcDbEntity
  8
2　寸法
 62
     0
370
    -2
100
AcDbLine
 10
-1.0
 20
-0.1666666666666667
 30
0.0
 11
0.0
 21
0.0
 31
0.0
  0
LINE
  5
92
330
8F
100
AcDbEntity
  8
2　寸法
 62
     0
370
    -2
100
AcDbLine
 10
0.0
 20
0.0
 30
0.0
 11
-1.0
 21
0.0
 31
0.0
  0
ENDBLK
  5
94
330
8F
100
AcDbEntity
  8
0
100
AcDbBlockEnd
  0
ENDSEC
  0
SECTION
  2
ENTITIES
  0
TEXT
  5
137A
330
1F
100
AcDbEntity
  8
4　注記
100
AcDbText
 10
5808.121827411168
 20
190.3934010152284
 30
0.0
 40
60.0
  1
３－ＴＣＬ０７８
 72
     4
 11
6120.0
 21
217.5
 31
0.0
100
AcDbText
  0
LINE
  5
29D0
330
1F
100
AcDbEntity
  8
1　製品
100
AcDbLine
 10
1045.274774558824
 20
1652.359426242347
 30
0.0
 11
1045.274774558824
 21
1297.359426242347
 31
0.0
  0
LINE
  5
29D1
330
1F
100
AcDbEntity
  8
1　製品
100
AcDbLine
 10
1005.274774558824
 20
1652.359426242347
 30
0.0
 11
1005.274774558824
 21
1008.359426242347
 31
0.0
  0
LINE
  5
29D2
330
1F
100
AcDbEntity
  8
1　製品
  6
HIDDEN
 48
15.0
100
AcDbLine
 10
1010.274774558824
 20
1652.359426242347
 30
0.0
 11
1010.274774558824
 21
1008.359426242347
 31
0.0
  0
LINE
  5
29D3
330
1F
100
AcDbEntity
  8
1　製品
  6
HIDDEN
 48
15.0
100
AcDbLine
 10
3254.274774558824
 20
1652.359426242347
 30
0.0
 11
3254.274774558824
 21
1008.359426242347
 31
0.0
  0
LINE
  5
29D4
330
1F
100
AcDbEntity
  8
1　製品
100
AcDbLine
 10
3219.274774558824
 20
1652.359426242347
 30
0.0
 11
3219.274774558824
 21
1302.359426242347
 31
0.0
  0
LINE
  5
29D5
330
1F
100
AcDbEntity
  8
1　製品
100
AcDbLine
 10
3259.274774558824
 20
1652.359426242347
 30
0.0
 11
3259.274774558824
 21
1008.359426242347
 31
0.0
  0
LINE
  5
2A4F
330
1F
100
AcDbEntity
  8
1　製品
  6
HIDDEN
 48
15.0
100
AcDbLine
 10
3112.474774558824
 20
1797.359426242346
 30
0.0
 11
2282.274774558824
 21
1797.359426242347
 31
0.0
  0
LINE
  5
2A50
330
1F
100
AcDbEntity
  8
1　製品
100
AcDbLine
 10
1982.274774558824
 20
1762.359426242347
 30
0.0
 11
1152.074774558824
 21
1762.359426242347
 31
0.0
  0
LINE
  5
2A51
330
1F
100
AcDbEntity
  8
1　製品
100
AcDbLine
 10
3262.474774558824
 20
1802.359426242347
 30
0.0
 11
1002.074774558824
 21
1802.359426242348
 31
0.0
  0
LINE
  5
2A52
330
1F
100
AcDbEntity
  8
1　製品
100
AcDbLine
 10
3260.074774558823
 20
3432.779343714918
 30
0.0
 11
1006.074774558823
 21
3432.779343714918
 31
0.0
  0
LINE
  5
2A53
330
1F
100
AcDbEntity
  8
1　製品
100
AcDbLine
 10
1006.074774558823
 20
2448.779343714918
 30
0.0
 11
3260.074774558823
 21
2448.779343714918
 31
0.0
  0
LINE
  5
2A54
330
1F
100
AcDbEntity
  8
1　製品
100
AcDbLine
 10
3260.074774558823
 20
3392.779343714918
 30
0.0
 11
1006.074774558823
 21
3392.779343714918
 31
0.0
  0
LINE
  5
2A55
330
1F
100
AcDbEntity
  8
1　製品
100
AcDbLine
 10
1006.074774558823
 20
2488.779343714918
 30
0.0
 11
3260.074774558823
 21
2488.779343714918
 31
0.0
  0
LINE
  5
2A56
330
1F
100
AcDbEntity
  8
1　製品
  6
HIDDEN
 48
15.0
100
AcDbLine
 10
3255.074774558823
 20
3427.779343714918
 30
0.0
 11
1011.074774558823
 21
3427.779343714918
 31
0.0
  0
LINE
  5
2A57
330
1F
100
AcDbEntity
  8
1　製品
  6
HIDDEN
 48
15.0
100
AcDbLine
 10
1011.074774558823
 20
2453.779343714918
 30
0.0
 11
3255.074774558823
 21
2453.779343714918
 31
0.0
  0
LINE
  5
2A5C
330
1F
100
AcDbEntity
  8
1　製品
100
AcDbLine
 10
1006.074774558823
 20
3432.779343714918
 30
0.0
 11
1006.074774558823
 21
2448.779343714918
 31
0.0
  0
LINE
  5
2A5D
330
1F
100
AcDbEntity
  8
1　製品
100
AcDbLine
 10
1046.074774558823
 20
3392.779343714918
 30
0.0
 11
1046.074774558823
 21
2488.779343714918
 31
0.0
  0
LINE
  5
2A5E
330
1F
100
AcDbEntity
  8
1　製品
  6
HIDDEN
 48
15.0
100
AcDbLine
 10
1011.074774558823
 20
3427.779343714918
 30
0.0
 11
1011.074774558823
 21
2453.779343714918
 31
0.0
  0
LINE
  5
2A5F
330
1F
100
AcDbEntity
  8
1　製品
100
AcDbLine
 10
1002.074774558824
 20
1802.359426242347
 30
0.0
 11
1002.074774558824
 21
1652.359426242347
 31
0.0
  0
LINE
  5
2A63
330
1F
100
AcDbEntity
  8
1　製品
100
AcDbLine
 10
1152.074774558824
 20
1762.359426242347
 30
0.0
 11
1045.274774558824
 21
1652.359426242347
 31
0.0
  0
LINE
  5
2A64
330
1F
100
AcDbEntity
  8
1　製品
100
AcDbLine
 10
1025.274774558824
 20
1675.743291522827
 30
0.0
 11
1025.274774558824
 21
1702.308894295199
 31
0.0
  0
LINE
  5
2A65
330
1F
100
AcDbEntity
  8
1　製品
100
AcDbLine
 10
1025.274774558824
 20
1675.743291522827
 30
0.0
 11
1025.274774558824
 21
1702.308894295199
 31
0.0
  0
LINE
  5
2A66
330
1F
100
AcDbEntity
  8
1　製品
100
AcDbLine
 10
1002.074774558824
 20
1652.359426242347
 30
0.0
 11
1045.274774558824
 21
1652.359426242347
 31
0.0
  0
CIRCLE
  5
2A67
330
1F
100
AcDbEntity
  8
1　製品
100
AcDbCircle
 10
1025.274774558824
 20
1725.69275957568
 30
0.0
 40
5.0
  0
LINE
  5
2A68
330
1F
100
AcDbEntity
  8
1　製品
100
AcDbLine
 10
1011.991973172638
 20
1725.69275957568
 30
0.0
 11
1038.55757594501
 21
1725.69275957568
 31
0.0
  0
CIRCLE
  5
2A69
330
1F
100
AcDbEntity
  8
1　製品
100
AcDbCircle
 10
1025.274774558824
 20
1689.026092909013
 30
0.0
 40
5.0
  0
LINE
  5
2A6A
330
1F
100
AcDbEntity
  8
1　製品
100
AcDbLine
 10
1011.991973172639
 20
1689.026092909013
 30
0.0
 11
1038.557575945011
 21
1689.026092909013
 31
0.0
  0
LINE
  5
2A6B
330
1F
100
AcDbEntity
  8
1　製品
100
AcDbLine
 10
1025.274774558824
 20
1712.409958189494
 30
0.0
 11
1025.274774558824
 21
1738.975560961866
 31
0.0
  0
CIRCLE
  5
2A6C
330
1F
100
AcDbEntity
  8
1　製品
100
AcDbCircle
 10
1025.274774558824
 20
1725.69275957568
 30
0.0
 40
5.0
  0
LINE
  5
2A6D
330
1F
100
AcDbEntity
  8
1　製品
100
AcDbLine
 10
1011.991973172638
 20
1725.69275957568
 30
0.0
 11
1038.55757594501
 21
1725.69275957568
 31
0.0
  0
CIRCLE
  5
2A6E
330
1F
100
AcDbEntity
  8
1　製品
100
AcDbCircle
 10
1025.274774558824
 20
1689.026092909013
 30
0.0
 40
5.0
  0
LINE
  5
2A6F
330
1F
100
AcDbEntity
  8
1　製品
100
AcDbLine
 10
1011.991973172639
 20
1689.026092909013
 30
0.0
 11
1038.557575945011
 21
1689.026092909013
 31
0.0
  0
LINE
  5
2A70
330
1F
100
AcDbEntity
  8
1　製品
100
AcDbLine
 10
1025.274774558824
 20
1712.409958189494
 30
0.0
 11
1025.274774558824
 21
1738.975560961866
 31
0.0
  0
LINE
  5
2A71
330
1F
100
AcDbEntity
  8
1　製品
100
AcDbLine
 10
1128.690909278343
 20
1782.359426242347
 30
0.0
 11
1102.125306505972
 21
1782.359426242347
 31
0.0
  0
CIRCLE
  5
2A72
330
1F
100
AcDbEntity
  8
1　製品
100
AcDbCircle
 10
1115.408107892157
 20
1782.359426242347
 30
0.0
 40
5.0
  0
LINE
  5
2A74
330
1F
100
AcDbEntity
  8
1　製品
100
AcDbLine
 10
1078.741441225491
 20
1769.07662485616
 30
0.0
 11
1078.741441225491
 21
1795.642227628533
 31
0.0
  0
CIRCLE
  5
2A75
330
1F
100
AcDbEntity
  8
1　製品
100
AcDbCircle
 10
1078.741441225491
 20
1782.359426242347
 30
0.0
 40
5.0
  0
LINE
  5
2A76
330
1F
100
AcDbEntity
  8
1　製品
100
AcDbLine
 10
1092.024242611677
 20
1782.359426242347
 30
0.0
 11
1065.458639839305
 21
1782.359426242347
 31
0.0
  0
LINE
  5
2A77
330
1F
100
AcDbEntity
  8
1　製品
100
AcDbLine
 10
1115.408107892157
 20
1769.076624856161
 30
0.0
 11
1115.408107892157
 21
1795.642227628533
 31
0.0
  0
LINE
  5
2A78
330
1F
100
AcDbEntity
  8
1　製品
100
AcDbLine
 10
1152.074774558824
 20
1802.359426242347
 30
0.0
 11
1152.074774558825
 21
1762.359426242347
 31
0.0
  0
LINE
  5
2A79
330
1F
100
AcDbEntity
  8
1　製品
100
AcDbLine
 10
1002.874774558823
 20
2445.579343714919
 30
0.0
 11
1156.074774558823
 21
2445.579343714917
 31
0.0
  0
LINE
  5
2A7A
330
1F
100
AcDbEntity
  8
1　製品
100
AcDbLine
 10
1002.874774558823
 20
2445.579343714919
 30
0.0
 11
1002.874774558823
 21
2488.779343714918
 31
0.0
  0
LINE
  5
2A7B
330
1F
100
AcDbEntity
  8
1　製品
100
AcDbLine
 10
1002.874774558823
 20
2488.779343714918
 30
0.0
 11
1006.074774558823
 21
2488.779343714918
 31
0.0
  0
LINE
  5
2A7C
330
1F
100
AcDbEntity
  8
1　製品
100
AcDbLine
 10
1156.074774558823
 20
2448.779343714917
 30
0.0
 11
1156.074774558823
 21
2445.579343714917
 31
0.0
  0
LINE
  5
2A8E
330
1F
100
AcDbEntity
  8
1　製品
100
AcDbLine
 10
1002.874774558823
 20
3435.979343714916
 30
0.0
 11
1156.074774558823
 21
3435.979343714918
 31
0.0
  0
LINE
  5
2A8F
330
1F
100
AcDbEntity
  8
1　製品
100
AcDbLine
 10
1002.874774558823
 20
3392.779343714918
 30
0.0
 11
1006.074774558823
 21
3392.779343714918
 31
0.0
  0
LINE
  5
2A90
330
1F
100
AcDbEntity
  8
1　製品
100
AcDbLine
 10
1002.874774558823
 20
3435.979343714916
 30
0.0
 11
1002.874774558823
 21
3392.779343714918
 31
0.0
  0
LINE
  5
2A91
330
1F
100
AcDbEntity
  8
1　製品
100
AcDbLine
 10
1156.074774558823
 20
3432.779343714918
 30
0.0
 11
1156.074774558823
 21
3435.979343714918
 31
0.0
  0
LINE
  5
2A97
330
1F
100
AcDbEntity
  8
1　製品
  6
HIDDEN
 48
15.0
100
AcDbLine
 10
2501.741441225489
 20
3392.779343714918
 30
0.0
 11
2501.74144122549
 21
2488.779343714918
 31
0.0
  0
LINE
  5
2A98
330
1F
100
AcDbEntity
  8
1　製品
100
AcDbLine
 10
2498.741441225489
 20
3392.779343714918
 30
0.0
 11
2498.74144122549
 21
2488.779343714918
 31
0.0
  0
LINE
  5
2A99
330
1F
100
AcDbEntity
  8
1　製品
100
AcDbLine
 10
2528.741441225489
 20
3392.779343714918
 30
0.0
 11
2528.74144122549
 21
2488.779343714918
 31
0.0
  0
LINE
  5
2A9A
330
1F
100
AcDbEntity
  8
1　製品
  6
HIDDEN
 48
15.0
100
AcDbLine
 10
1764.408107892156
 20
3392.779343714918
 30
0.0
 11
1764.408107892157
 21
2488.779343714918
 31
0.0
  0
LINE
  5
2A9B
330
1F
100
AcDbEntity
  8
1　製品
100
AcDbLine
 10
1737.408107892156
 20
3392.779343714918
 30
0.0
 11
1737.408107892157
 21
2488.779343714918
 31
0.0
  0
LINE
  5
2A9C
330
1F
100
AcDbEntity
  8
1　製品
100
AcDbLine
 10
1767.408107892156
 20
3392.779343714918
 30
0.0
 11
1767.408107892157
 21
2488.779343714918
 31
0.0
  0
LINE
  5
2A9D
330
1F
100
AcDbEntity
  8
1　製品
100
AcDbLine
 10
3260.074774558823
 20
2448.779343714918
 30
0.0
 11
3260.074774558823
 21
3432.779343714918
 31
0.0
  0
LINE
  5
2A9E
330
1F
100
AcDbEntity
  8
1　製品
100
AcDbLine
 10
3220.074774558823
 20
2488.779343714918
 30
0.0
 11
3220.074774558823
 21
3392.779343714918
 31
0.0
  0
LINE
  5
2A9F
330
1F
100
AcDbEntity
  8
1　製品
  6
HIDDEN
 48
15.0
100
AcDbLine
 10
3255.074774558823
 20
2453.779343714918
 30
0.0
 11
3255.074774558823
 21
3427.779343714918
 31
0.0
  0
LINE
  5
2AA0
330
1F
100
AcDbEntity
  8
1　製品
100
AcDbLine
 10
3112.474774558824
 20
1762.359426242347
 30
0.0
 11
2282.274774558824
 21
1762.359426242347
 31
0.0
  0
LINE
  5
2AA3
330
1F
100
AcDbEntity
  8
1　製品
  6
HIDDEN
 48
15.0
100
AcDbLine
 10
1766.608107892157
 20
1802.359426242347
 30
0.0
 11
1736.608107892157
 21
1802.359426242347
 31
0.0
  0
LINE
  5
2AA4
330
1F
100
AcDbEntity
  8
1　製品
  6
HIDDEN
 48
15.0
100
AcDbLine
 10
1758.608107892157
 20
1799.359426242347
 30
0.0
 11
1739.108107892157
 21
1799.359426242347
 31
0.0
  0
LINE
  5
2AA5
330
1F
100
AcDbEntity
  8
1　製品
  6
HIDDEN
 48
15.0
100
AcDbLine
 10
1736.608107892157
 20
1802.359426242347
 30
0.0
 11
1736.608107892157
 21
1801.859426242347
 31
0.0
  0
ARC
  5
2AA6
330
1F
100
AcDbEntity
  8
1　製品
  6
HIDDEN
 48
5.0
100
AcDbCircle
 10
1739.108107892157
 20
1801.859426242347
 30
0.0
 40
2.5
100
AcDbArc
 50
180.0
 51
270.0
  0
ARC
  5
2AA7
330
1F
100
AcDbEntity
  8
1　製品
  6
HIDDEN
 48
5.0
100
AcDbCircle
 10
1758.608107892157
 20
1794.359426242347
 30
0.0
 40
5.0
100
AcDbArc
 50
0.0
 51
90.0
  0
ARC
  5
2AA8
330
1F
100
AcDbEntity
  8
1　製品
  6
HIDDEN
 48
5.0
100
AcDbCircle
 10
1766.108107892157
 20
1774.859426242347
 30
0.0
 40
2.5
100
AcDbArc
 50
180.0
 51
270.0
  0
LINE
  5
2AA9
330
1F
100
AcDbEntity
  8
1　製品
  6
HIDDEN
 48
15.0
100
AcDbLine
 10
1766.108107892157
 20
1772.359426242347
 30
0.0
 11
1766.608107892157
 21
1772.359426242347
 31
0.0
  0
LINE
  5
2AAA
330
1F
100
AcDbEntity
  8
1　製品
  6
HIDDEN
 48
15.0
100
AcDbLine
 10
1763.608107892157
 20
1794.359426242347
 30
0.0
 11
1763.608107892157
 21
1774.859426242347
 31
0.0
  0
LINE
  5
2AAB
330
1F
100
AcDbEntity
  8
1　製品
  6
HIDDEN
 48
15.0
100
AcDbLine
 10
1766.608107892157
 20
1802.359426242347
 30
0.0
 11
1766.608107892157
 21
1772.359426242347
 31
0.0
  0
ARC
  5
2AC5
330
1F
100
AcDbEntity
  8
1　製品
  6
HIDDEN
 48
5.0
100
AcDbCircle
 10
2505.941441225491
 20
1794.359426242347
 30
0.0
 40
5.0
100
AcDbArc
 50
90.0
 51
180.0
  0
LINE
  5
2AC6
330
1F
100
AcDbEntity
  8
1　製品
  6
HIDDEN
 48
15.0
100
AcDbLine
 10
2497.941441225491
 20
1802.359426242347
 30
0.0
 11
2527.941441225491
 21
1802.359426242347
 31
0.0
  0
ARC
  5
2AC7
330
1F
100
AcDbEntity
  8
1　製品
  6
HIDDEN
 48
5.0
100
AcDbCircle
 10
2498.441441225491
 20
1774.859426242347
 30
0.0
 40
2.5
100
AcDbArc
 50
270.0
 51
0.0
  0
LINE
  5
2AC8
330
1F
100
AcDbEntity
  8
1　製品
  6
HIDDEN
 48
15.0
100
AcDbLine
 10
2498.441441225491
 20
1772.359426242347
 30
0.0
 11
2497.941441225491
 21
1772.359426242347
 31
0.0
  0
LINE
  5
2AC9
330
1F
100
AcDbEntity
  8
1　製品
  6
HIDDEN
 48
15.0
100
AcDbLine
 10
2500.941441225491
 20
1794.359426242347
 30
0.0
 11
2500.941441225491
 21
1774.859426242347
 31
0.0
  0
LINE
  5
2ACA
330
1F
100
AcDbEntity
  8
1　製品
  6
HIDDEN
 48
15.0
100
AcDbLine
 10
2497.941441225491
 20
1802.359426242347
 30
0.0
 11
2497.941441225491
 21
1772.359426242347
 31
0.0
  0
ARC
  5
2ACB
330
1F
100
AcDbEntity
  8
1　製品
  6
HIDDEN
 48
5.0
100
AcDbCircle
 10
2525.441441225491
 20
1801.859426242347
 30
0.0
 40
2.5
100
AcDbArc
 50
270.0
 51
0.0
  0
LINE
  5
2ACC
330
1F
100
AcDbEntity
  8
1　製品
  6
HIDDEN
 48
15.0
100
AcDbLine
 10
2527.941441225491
 20
1802.359426242347
 30
0.0
 11
2527.941441225491
 21
1801.859426242347
 31
0.0
  0
LINE
  5
2ACD
330
1F
100
AcDbEntity
  8
1　製品
  6
HIDDEN
 48
15.0
100
AcDbLine
 10
2505.941441225491
 20
1799.359426242347
 30
0.0
 11
2525.441441225491
 21
1799.359426242347
 31
0.0
  0
LINE
  5
2AD8
330
1F
100
AcDbEntity
  8
1　製品
100
AcDbLine
 10
3112.474774558824
 20
1762.359426242347
 30
0.0
 11
3219.274774558824
 21
1652.359426242347
 31
0.0
  0
LINE
  5
2AD9
330
1F
100
AcDbEntity
  8
1　製品
100
AcDbLine
 10
3262.474774558824
 20
1802.359426242347
 30
0.0
 11
3262.474774558824
 21
1652.359426242347
 31
0.0
  0
LINE
  5
2ADA
330
1F
100
AcDbEntity
  8
1　製品
100
AcDbLine
 10
3239.274774558824
 20
1675.743291522827
 30
0.0
 11
3239.274774558824
 21
1702.308894295199
 31
0.0
  0
LINE
  5
2ADB
330
1F
100
AcDbEntity
  8
1　製品
100
AcDbLine
 10
3262.474774558824
 20
1652.359426242347
 30
0.0
 11
3219.274774558824
 21
1652.359426242347
 31
0.0
  0
LINE
  5
2ADC
330
1F
100
AcDbEntity
  8
1　製品
100
AcDbLine
 10
3252.557575945009
 20
1689.026092909013
 30
0.0
 11
3225.991973172637
 21
1689.026092909013
 31
0.0
  0
LINE
  5
2ADD
330
1F
100
AcDbEntity
  8
1　製品
100
AcDbLine
 10
3252.55757594501
 20
1725.69275957568
 30
0.0
 11
3225.991973172638
 21
1725.69275957568
 31
0.0
  0
LINE
  5
2ADE
330
1F
100
AcDbEntity
  8
1　製品
100
AcDbLine
 10
3239.274774558824
 20
1712.409958189494
 30
0.0
 11
3239.274774558824
 21
1738.975560961866
 31
0.0
  0
CIRCLE
  5
2ADF
330
1F
100
AcDbEntity
  8
1　製品
100
AcDbCircle
 10
3239.274774558824
 20
1689.026092909013
 30
0.0
 40
5.0
  0
CIRCLE
  5
2AE0
330
1F
100
AcDbEntity
  8
1　製品
100
AcDbCircle
 10
3239.274774558824
 20
1725.69275957568
 30
0.0
 40
5.0
  0
LINE
  5
2AE2
330
1F
100
AcDbEntity
  8
1　製品
100
AcDbLine
 10
3135.858639839304
 20
1782.359426242347
 30
0.0
 11
3162.424242611676
 21
1782.359426242347
 31
0.0
  0
LINE
  5
2AE3
330
1F
100
AcDbEntity
  8
1　製品
100
AcDbLine
 10
3112.474774558824
 20
1802.359426242347
 30
0.0
 11
3112.474774558823
 21
1762.359426242347
 31
0.0
  0
CIRCLE
  5
2AE4
330
1F
100
AcDbEntity
  8
1　製品
100
AcDbCircle
 10
3185.808107892157
 20
1782.359426242347
 30
0.0
 40
5.0
  0
LINE
  5
2AE5
330
1F
100
AcDbEntity
  8
1　製品
100
AcDbLine
 10
3185.808107892157
 20
1769.07662485616
 30
0.0
 11
3185.808107892157
 21
1795.642227628533
 31
0.0
  0
CIRCLE
  5
2AE6
330
1F
100
AcDbEntity
  8
1　製品
100
AcDbCircle
 10
3149.141441225491
 20
1782.359426242347
 30
0.0
 40
5.0
  0
LINE
  5
2AE7
330
1F
100
AcDbEntity
  8
1　製品
100
AcDbLine
 10
3149.141441225491
 20
1769.076624856161
 30
0.0
 11
3149.141441225491
 21
1795.642227628533
 31
0.0
  0
LINE
  5
2AE8
330
1F
100
AcDbEntity
  8
1　製品
100
AcDbLine
 10
3172.525306505971
 20
1782.359426242347
 30
0.0
 11
3199.090909278343
 21
1782.359426242347
 31
0.0
  0
LINE
  5
2AFA
330
1F
100
AcDbEntity
  8
1　製品
100
AcDbLine
 10
3263.274774558823
 20
2445.579343714919
 30
0.0
 11
3110.074774558823
 21
2445.579343714917
 31
0.0
  0
LINE
  5
2AFC
330
1F
100
AcDbEntity
  8
1　製品
100
AcDbLine
 10
3110.074774558823
 20
2448.779343714917
 30
0.0
 11
3110.074774558823
 21
2445.579343714917
 31
0.0
  0
LINE
  5
2AFD
330
1F
100
AcDbEntity
  8
1　製品
100
AcDbLine
 10
3263.274774558823
 20
2445.579343714919
 30
0.0
 11
3263.274774558823
 21
2488.779343714918
 31
0.0
  0
LINE
  5
2AFE
330
1F
100
AcDbEntity
  8
1　製品
100
AcDbLine
 10
3263.274774558823
 20
2488.779343714918
 30
0.0
 11
3260.074774558823
 21
2488.779343714918
 31
0.0
  0
LINE
  5
2B05
330
1F
100
AcDbEntity
  8
1　製品
100
AcDbLine
 10
3263.274774558823
 20
3435.979343714916
 30
0.0
 11
3110.074774558823
 21
3435.979343714918
 31
0.0
  0
LINE
  5
2B06
330
1F
100
AcDbEntity
  8
1　製品
100
AcDbLine
 10
3110.074774558823
 20
3432.779343714918
 30
0.0
 11
3110.074774558823
 21
3435.979343714918
 31
0.0
  0
LINE
  5
2B07
330
1F
100
AcDbEntity
  8
1　製品
100
AcDbLine
 10
3263.274774558823
 20
3392.779343714918
 30
0.0
 11
3260.074774558823
 21
3392.779343714918
 31
0.0
  0
LINE
  5
2B08
330
1F
100
AcDbEntity
  8
1　製品
100
AcDbLine
 10
3263.274774558823
 20
3435.979343714916
 30
0.0
 11
3263.274774558823
 21
3392.779343714918
 31
0.0
  0
LINE
  5
2B0C
330
1F
100
AcDbEntity
  8
1　製品
  6
HIDDEN
 48
15.0
100
AcDbLine
 10
4000.200276592113
 20
1652.359426242348
 30
0.0
 11
4000.200276592113
 21
1008.359426242348
 31
0.0
  0
LINE
  5
2B0D
330
1F
100
AcDbEntity
  8
1　製品
100
AcDbLine
 10
3995.200276592113
 20
1652.359426242348
 30
0.0
 11
3995.200276592113
 21
1008.359426242348
 31
0.0
  0
LINE
  5
2B0E
330
1F
100
AcDbEntity
  8
1　製品
100
AcDbLine
 10
4035.200276592113
 20
1802.359426242348
 30
0.0
 11
4035.200276592113
 21
1008.359426242348
 31
0.0
  0
LINE
  5
2B0F
330
1F
100
AcDbEntity
  8
1　製品
100
AcDbLine
 10
4936.000276592113
 20
1802.359426242348
 30
0.0
 11
4936.000276592113
 21
1008.359426242348
 31
0.0
  0
LINE
  5
2B10
330
1F
100
AcDbEntity
  8
1　製品
100
AcDbLine
 10
4976.000276592113
 20
1652.359426242348
 30
0.0
 11
4976.000276592113
 21
1008.359426242348
 31
0.0
  0
LINE
  5
2B11
330
1F
100
AcDbEntity
  8
1　製品
  6
HIDDEN
 48
15.0
100
AcDbLine
 10
4971.000276592113
 20
1652.359426242348
 30
0.0
 11
4971.000276592113
 21
1008.359426242348
 31
0.0
  0
LINE
  5
2B51
330
1F
100
AcDbEntity
  8
1　製品
  6
HIDDEN
 48
15.0
100
AcDbLine
 10
4035.200276592113
 20
1297.359426242348
 30
0.0
 11
4936.000276592113
 21
1297.359426242348
 31
0.0
  0
LINE
  5
2B52
330
1F
100
AcDbEntity
  8
1　製品
100
AcDbLine
 10
4035.200276592113
 20
1262.359426242348
 30
0.0
 11
4936.000276592113
 21
1262.359426242348
 31
0.0
  0
LINE
  5
2B53
330
1F
100
AcDbEntity
  8
1　製品
100
AcDbLine
 10
4035.200276592113
 20
1302.359426242348
 30
0.0
 11
4936.000276592113
 21
1302.359426242348
 31
0.0
  0
LWPOLYLINE
  5
2B60
330
1F
100
AcDbEntity
  8
1　製品
100
AcDbPolyline
 90
        4
 70
     1
 43
0.0
 10
4035.200276592113
 20
1002.359426242348
 10
3995.200276592113
 20
1002.359426242348
 10
3995.200276592113
 20
1008.359426242348
 10
4035.200276592113
 20
1008.359426242348
  0
LWPOLYLINE
  5
2B74
330
1F
100
AcDbEntity
  8
1　製品
100
AcDbPolyline
 90
        4
 70
     1
 43
0.0
 10
4936.000276592114
 20
1002.359426242348
 10
4976.000276592114
 20
1002.359426242348
 10
4976.000276592114
 20
1008.359426242348
 10
4936.000276592114
 20
1008.359426242348
  0
LINE
  5
2BB2
330
1F
100
AcDbEntity
  8
1　製品
  6
HIDDEN
 48
15.0
100
AcDbLine
 10
4936.000276592113
 20
1797.359426242348
 30
0.0
 11
4035.200276592113
 21
1797.359426242348
 31
0.0
  0
LINE
  5
2BB3
330
1F
100
AcDbEntity
  8
1　製品
100
AcDbLine
 10
4936.000276592113
 20
1762.359426242348
 30
0.0
 11
4035.200276592113
 21
1762.359426242348
 31
0.0
  0
LINE
  5
2BB4
330
1F
100
AcDbEntity
  8
1　製品
100
AcDbLine
 10
4979.200276592113
 20
1802.359426242348
 30
0.0
 11
3992.000276592114
 21
1802.359426242348
 31
0.0
  0
LINE
  5
2BB5
330
1F
100
AcDbEntity
  8
1　製品
100
AcDbLine
 10
4001.917475205927
 20
1725.692759575681
 30
0.0
 11
4028.4830779783
 21
1725.692759575681
 31
0.0
  0
CIRCLE
  5
2BB6
330
1F
100
AcDbEntity
  8
1　製品
100
AcDbCircle
 10
4015.200276592113
 20
1725.692759575681
 30
0.0
 40
5.0
  0
LINE
  5
2BB7
330
1F
100
AcDbEntity
  8
1　製品
100
AcDbLine
 10
4001.917475205928
 20
1689.026092909014
 30
0.0
 11
4028.483077978301
 21
1689.026092909014
 31
0.0
  0
CIRCLE
  5
2BB8
330
1F
100
AcDbEntity
  8
1　製品
100
AcDbCircle
 10
4015.200276592113
 20
1689.026092909014
 30
0.0
 40
5.0
  0
LINE
  5
2BB9
330
1F
100
AcDbEntity
  8
1　製品
100
AcDbLine
 10
4028.483077978299
 20
1782.359426242348
 30
0.0
 11
4001.917475205927
 21
1782.359426242348
 31
0.0
  0
CIRCLE
  5
2BBA
330
1F
100
AcDbEntity
  8
1　製品
100
AcDbCircle
 10
4015.200276592113
 20
1782.359426242348
 30
0.0
 40
5.0
  0
LINE
  5
2BBB
330
1F
100
AcDbEntity
  8
1　製品
100
AcDbLine
 10
3992.000276592114
 20
1652.359426242348
 30
0.0
 11
4035.200276592113
 21
1652.359426242348
 31
0.0
  0
LINE
  5
2BBE
330
1F
100
AcDbEntity
  8
1　製品
100
AcDbLine
 10
3992.000276592114
 20
1802.359426242348
 30
0.0
 11
3992.000276592114
 21
1652.359426242348
 31
0.0
  0
LINE
  5
2BBF
330
1F
100
AcDbEntity
  8
1　製品
100
AcDbLine
 10
4015.200276592113
 20
1675.743291522828
 30
0.0
 11
4015.200276592113
 21
1702.3088942952
 31
0.0
  0
LINE
  5
2BC0
330
1F
100
AcDbEntity
  8
1　製品
100
AcDbLine
 10
4015.200276592113
 20
1712.409958189495
 30
0.0
 11
4015.200276592113
 21
1738.975560961867
 31
0.0
  0
LINE
  5
2BC1
330
1F
100
AcDbEntity
  8
1　製品
100
AcDbLine
 10
4015.200276592113
 20
1769.076624856161
 30
0.0
 11
4015.200276592113
 21
1795.642227628534
 31
0.0
  0
LINE
  5
2BE5
330
1F
100
AcDbEntity
  8
1　製品
100
AcDbLine
 10
4969.283077978299
 20
1725.692759575681
 30
0.0
 11
4942.717475205926
 21
1725.692759575681
 31
0.0
  0
LINE
  5
2BE6
330
1F
100
AcDbEntity
  8
1　製品
100
AcDbLine
 10
4979.200276592112
 20
1652.359426242348
 30
0.0
 11
4936.000276592113
 21
1652.359426242348
 31
0.0
  0
LINE
  5
2BE7
330
1F
100
AcDbEntity
  8
1　製品
100
AcDbLine
 10
4969.283077978298
 20
1689.026092909014
 30
0.0
 11
4942.717475205925
 21
1689.026092909014
 31
0.0
  0
LINE
  5
2BE8
330
1F
100
AcDbEntity
  8
1　製品
100
AcDbLine
 10
4942.717475205927
 20
1782.359426242348
 30
0.0
 11
4969.283077978299
 21
1782.359426242348
 31
0.0
  0
LINE
  5
2BE9
330
1F
100
AcDbEntity
  8
1　製品
100
AcDbLine
 10
4979.200276592112
 20
1802.359426242348
 30
0.0
 11
4979.200276592112
 21
1652.359426242348
 31
0.0
  0
LINE
  5
2BEC
330
1F
100
AcDbEntity
  8
1　製品
100
AcDbLine
 10
4956.000276592113
 20
1675.743291522828
 30
0.0
 11
4956.000276592113
 21
1702.3088942952
 31
0.0
  0
CIRCLE
  5
2BED
330
1F
100
AcDbEntity
  8
1　製品
100
AcDbCircle
 10
4956.000276592113
 20
1725.692759575681
 30
0.0
 40
5.0
  0
CIRCLE
  5
2BEE
330
1F
100
AcDbEntity
  8
1　製品
100
AcDbCircle
 10
4956.000276592113
 20
1689.026092909014
 30
0.0
 40
5.0
  0
LINE
  5
2BEF
330
1F
100
AcDbEntity
  8
1　製品
100
AcDbLine
 10
4956.000276592113
 20
1712.409958189495
 30
0.0
 11
4956.000276592113
 21
1738.975560961867
 31
0.0
  0
LINE
  5
2BF0
330
1F
100
AcDbEntity
  8
1　製品
100
AcDbLine
 10
4956.000276592113
 20
1769.076624856161
 30
0.0
 11
4956.000276592113
 21
1795.642227628534
 31
0.0
  0
CIRCLE
  5
2BF1
330
1F
100
AcDbEntity
  8
1　製品
100
AcDbCircle
 10
4956.000276592113
 20
1782.359426242348
 30
0.0
 40
5.0
  0
LINE
  5
3DAB
330
1F
100
AcDbEntity
  8
1　製品
100
AcDbLine
 10
1005.274774558824
 20
1008.359426242347
 30
0.0
 11
1005.274774558824
 21
1002.359426242347
 31
0.0
  0
LINE
  5
3DAC
330
1F
100
AcDbEntity
  8
1　製品
100
AcDbLine
 10
1055.274774558824
 20
1002.359426242347
 30
0.0
 11
1055.274774558824
 21
1008.359426242347
 31
0.0
  0
LINE
  5
3DAD
330
1F
100
AcDbEntity
  8
1　製品
100
AcDbLine
 10
1055.274774558824
 20
1002.359426242347
 30
0.0
 11
1005.274774558824
 21
1002.359426242347
 31
0.0
  0
LINE
  5
3DAE
330
1F
100
AcDbEntity
  8
1　製品
100
AcDbLine
 10
1055.274774558824
 20
1008.359426242347
 30
0.0
 11
1005.274774558824
 21
1008.359426242347
 31
0.0
  0
LINE
  5
3DB7
330
1F
100
AcDbEntity
  8
1　製品
100
AcDbLine
 10
3259.274774558824
 20
1008.359426242347
 30
0.0
 11
3259.274774558824
 21
1002.359426242347
 31
0.0
  0
LINE
  5
3DB9
330
1F
100
AcDbEntity
  8
1　製品
100
AcDbLine
 10
3209.274774558826
 20
1002.359426242347
 30
0.0
 11
3259.274774558824
 21
1002.359426242347
 31
0.0
  0
LINE
  5
3DBA
330
1F
100
AcDbEntity
  8
1　製品
100
AcDbLine
 10
3209.274774558826
 20
1008.359426242347
 30
0.0
 11
3259.274774558824
 21
1008.359426242347
 31
0.0
  0
LINE
  5
3DBB
330
1F
100
AcDbEntity
  8
1　製品
100
AcDbLine
 10
3209.274774558826
 20
1008.359426242347
 30
0.0
 11
3209.274774558826
 21
1002.359426242347
 31
0.0
  0
LINE
  5
3E0F
330
1F
100
AcDbEntity
  8
1　製品
100
AcDbLine
 10
2132.274774558829
 20
1052.359426242347
 30
0.0
 11
2132.274774558819
 21
1602.359426242347
 31
0.0
  0
LINE
  5
3E11
330
1F
100
AcDbEntity
  8
1　製品
 48
10.0
100
AcDbLine
 10
2092.274774558817
 20
1602.359426242346
 30
0.0
 11
2092.274774558824
 21
1297.359426242347
 31
0.0
  0
LINE
  5
3E12
330
1F
100
AcDbEntity
  8
1　製品
100
AcDbLine
 10
2132.274774558824
 20
1008.359426242347
 30
0.0
 11
2132.274774558822
 21
1602.359426242347
 31
0.0
  0
LINE
  5
3E14
330
1F
100
AcDbEntity
  8
1　製品
 48
10.0
100
AcDbLine
 10
2172.274774558824
 20
1602.359426242347
 30
0.0
 11
2172.274774558824
 21
1297.359426242347
 31
0.0
  0
LINE
  5
3E15
330
1F
100
AcDbEntity
  8
1　製品
 48
10.0
100
AcDbLine
 10
2262.274774558824
 20
1008.359426242347
 30
0.0
 11
2002.274774558824
 21
1008.359426242347
 31
0.0
  0
LINE
  5
3E16
330
1F
100
AcDbEntity
  8
1　製品
 48
10.0
100
AcDbLine
 10
2262.274774558824
 20
1002.359426242347
 30
0.0
 11
2002.274774558824
 21
1002.359426242347
 31
0.0
  0
LINE
  5
3E19
330
1F
100
AcDbEntity
  8
1　製品
100
AcDbLine
 10
2002.274774558824
 20
1008.359426242347
 30
0.0
 11
2002.274774558824
 21
1002.359426242347
 31
0.0
  0
LINE
  5
3E1B
330
1F
100
AcDbEntity
  8
1　製品
100
AcDbLine
 10
2262.274774558824
 20
1008.359426242347
 30
0.0
 11
2262.274774558824
 21
1002.359426242347
 31
0.0
  0
LINE
  5
3E2B
330
1F
100
AcDbEntity
  8
1　製品
100
AcDbLine
 10
2092.274774558817
 20
1652.359426242347
 30
0.0
 11
1982.274774558824
 21
1762.359426242348
 31
0.0
  0
LINE
  5
3E2D
330
1F
100
AcDbEntity
  8
1　製品
100
AcDbLine
 10
1982.274774558824
 20
1802.359426242347
 30
0.0
 11
1982.274774558824
 21
1762.359426242348
 31
0.0
  0
CIRCLE
  5
3E2E
330
1F
100
AcDbEntity
  8
1　製品
100
AcDbCircle
 10
2112.274774558815
 20
1725.69275957568
 30
0.0
 40
5.0
  0
LINE
  5
3E2F
330
1F
100
AcDbEntity
  8
1　製品
100
AcDbLine
 10
2112.274774558815
 20
1712.409958189494
 30
0.0
 11
2112.274774558813
 21
1738.975560961866
 31
0.0
  0
CIRCLE
  5
3E30
330
1F
100
AcDbEntity
  8
1　製品
100
AcDbCircle
 10
2152.274774558824
 20
1725.69275957568
 30
0.0
 40
5.0
  0
LINE
  5
3E31
330
1F
100
AcDbEntity
  8
1　製品
100
AcDbLine
 10
2152.274774558824
 20
1712.409958189494
 30
0.0
 11
2152.274774558824
 21
1738.975560961867
 31
0.0
  0
LINE
  5
3E37
330
1F
100
AcDbEntity
  8
1　製品
100
AcDbLine
 10
2172.274774558824
 20
1652.359426242347
 30
0.0
 11
2282.274774558824
 21
1762.359426242347
 31
0.0
  0
LINE
  5
3E3F
330
1F
100
AcDbEntity
  8
1　製品
100
AcDbLine
 10
2092.274774558817
 20
1652.359426242346
 30
0.0
 11
2172.274774558824
 21
1652.359426242346
 31
0.0
  0
LINE
  5
3E40
330
1F
100
AcDbEntity
  8
1　製品
100
AcDbLine
 10
2092.274774558819
 20
1652.359426242346
 30
0.0
 11
2092.274774558817
 21
1602.359426242347
 31
0.0
  0
LINE
  5
3E41
330
1F
100
AcDbEntity
  8
1　製品
100
AcDbLine
 10
2112.274774558815
 20
1675.743291522827
 30
0.0
 11
2112.274774558815
 21
1702.308894295199
 31
0.0
  0
LINE
  5
3E42
330
1F
100
AcDbEntity
  8
1　製品
100
AcDbLine
 10
2098.99197317263
 20
1689.026092909013
 30
0.0
 11
2125.557575945002
 21
1689.026092909013
 31
0.0
  0
LINE
  5
3E43
330
1F
100
AcDbEntity
  8
1　製品
100
AcDbLine
 10
2098.991973172628
 20
1725.692759575679
 30
0.0
 11
2125.557575945
 21
1725.69275957568
 31
0.0
  0
CIRCLE
  5
3E44
330
1F
100
AcDbEntity
  8
1　製品
100
AcDbCircle
 10
2112.274774558817
 20
1689.026092909013
 30
0.0
 40
5.0
  0
LINE
  5
3E45
330
1F
100
AcDbEntity
  8
1　製品
100
AcDbLine
 10
2132.274774558824
 20
1651.159426242348
 30
0.0
 11
2132.274774558824
 21
1602.359426242347
 31
0.0
  0
LINE
  5
3E46
330
1F
100
AcDbEntity
  8
1　製品
100
AcDbLine
 10
2172.274774558824
 20
1652.359426242346
 30
0.0
 11
2172.274774558824
 21
1601.159426242348
 31
0.0
  0
LINE
  5
3E47
330
1F
100
AcDbEntity
  8
1　製品
100
AcDbLine
 10
2152.274774558824
 20
1675.743291522827
 30
0.0
 11
2152.274774558824
 21
1702.3088942952
 31
0.0
  0
LINE
  5
3E48
330
1F
100
AcDbEntity
  8
1　製品
100
AcDbLine
 10
2165.557575945011
 20
1689.026092909013
 30
0.0
 11
2138.991973172639
 21
1689.026092909013
 31
0.0
  0
LINE
  5
3E49
330
1F
100
AcDbEntity
  8
1　製品
100
AcDbLine
 10
2165.557575945011
 20
1725.69275957568
 30
0.0
 11
2138.991973172639
 21
1725.69275957568
 31
0.0
  0
CIRCLE
  5
3E4A
330
1F
100
AcDbEntity
  8
1　製品
100
AcDbCircle
 10
2152.274774558824
 20
1689.026092909013
 30
0.0
 40
5.0
  0
LINE
  5
3E4B
330
1F
100
AcDbEntity
  8
1　製品
100
AcDbLine
 10
2065.658639839305
 20
1782.359426242348
 30
0.0
 11
2092.224242611677
 21
1782.359426242348
 31
0.0
  0
CIRCLE
  5
3E4C
330
1F
100
AcDbEntity
  8
1　製品
100
AcDbCircle
 10
2078.941441225492
 20
1782.359426242348
 30
0.0
 40
5.0
  0
LINE
  5
3E4D
330
1F
100
AcDbEntity
  8
1　製品
100
AcDbLine
 10
2078.941441225492
 20
1769.076624856162
 30
0.0
 11
2078.941441225492
 21
1795.642227628535
 31
0.0
  0
LINE
  5
3E4E
330
1F
100
AcDbEntity
  8
1　製品
100
AcDbLine
 10
2198.890909278343
 20
1782.359426242348
 30
0.0
 11
2172.325306505973
 21
1782.359426242348
 31
0.0
  0
CIRCLE
  5
3E4F
330
1F
100
AcDbEntity
  8
1　製品
100
AcDbCircle
 10
2185.608107892158
 20
1782.359426242348
 30
0.0
 40
5.0
  0
LINE
  5
3E50
330
1F
100
AcDbEntity
  8
1　製品
100
AcDbLine
 10
2185.608107892158
 20
1769.076624856162
 30
0.0
 11
2185.608107892158
 21
1795.642227628535
 31
0.0
  0
LINE
  5
3E51
330
1F
100
AcDbEntity
  8
1　製品
100
AcDbLine
 10
2018.941441225492
 20
1769.076624856162
 30
0.0
 11
2018.941441225492
 21
1795.642227628535
 31
0.0
  0
CIRCLE
  5
3E52
330
1F
100
AcDbEntity
  8
1　製品
100
AcDbCircle
 10
2018.941441225492
 20
1782.359426242348
 30
0.0
 40
5.0
  0
LINE
  5
3E53
330
1F
100
AcDbEntity
  8
1　製品
100
AcDbLine
 10
2005.658639839305
 20
1782.359426242348
 30
0.0
 11
2032.224242611675
 21
1782.359426242348
 31
0.0
  0
LINE
  5
3E54
330
1F
100
AcDbEntity
  8
1　製品
100
AcDbLine
 10
2282.274774558824
 20
1802.359426242347
 30
0.0
 11
2282.274774558824
 21
1762.359426242348
 31
0.0
  0
LINE
  5
3E55
330
1F
100
AcDbEntity
  8
1　製品
100
AcDbLine
 10
2258.890909278343
 20
1782.359426242348
 30
0.0
 11
2232.325306505973
 21
1782.359426242348
 31
0.0
  0
LINE
  5
3E56
330
1F
100
AcDbEntity
  8
1　製品
100
AcDbLine
 10
2245.608107892158
 20
1769.076624856162
 30
0.0
 11
2245.608107892158
 21
1795.642227628535
 31
0.0
  0
CIRCLE
  5
3E57
330
1F
100
AcDbEntity
  8
1　製品
100
AcDbCircle
 10
2245.608107892158
 20
1782.359426242348
 30
0.0
 40
5.0
  0
LINE
  5
3E89
330
1F
100
AcDbEntity
  8
1　製品
100
AcDbLine
 10
1005.274774558824
 20
1302.359426242347
 30
0.0
 11
2129.774774558823
 21
1302.359426242347
 31
0.0
  0
LINE
  5
3E8A
330
1F
100
AcDbEntity
  8
1　製品
100
AcDbLine
 10
1005.274774558824
 20
1262.359426242347
 30
0.0
 11
2129.774774558823
 21
1262.359426242347
 31
0.0
  0
LINE
  5
3E8B
330
1F
100
AcDbEntity
  8
1　製品
  6
HIDDEN
 48
15.0
100
AcDbLine
 10
1045.274774558824
 20
1297.359426242347
 30
0.0
 11
2092.274774558825
 21
1297.359426242347
 31
0.0
  0
LINE
  5
3E8C
330
1F
100
AcDbEntity
  8
1　製品
100
AcDbLine
 10
3259.274774558824
 20
1302.359426242347
 30
0.0
 11
2134.774774558823
 21
1302.359426242347
 31
0.0
  0
LINE
  5
3E8D
330
1F
100
AcDbEntity
  8
1　製品
  6
HIDDEN
 48
15.0
100
AcDbLine
 10
3219.274774558824
 20
1297.359426242347
 30
0.0
 11
2172.274774558823
 21
1297.359426242347
 31
0.0
  0
LINE
  5
3E8E
330
1F
100
AcDbEntity
  8
1　製品
100
AcDbLine
 10
3259.274774558824
 20
1262.359426242347
 30
0.0
 11
2134.774774558823
 21
1262.359426242347
 31
0.0
  0
LINE
  5
3E95
330
1F
100
AcDbEntity
  8
1　製品
  6
HIDDEN
 48
15.0
100
AcDbLine
 10
1982.274774558824
 20
1797.359426242347
 30
0.0
 11
1152.074774558824
 21
1797.359426242347
 31
0.0
  0
LINE
  5
3E98
330
1F
100
AcDbEntity
  8
1　製品
  6
HIDDEN
 48
15.0
100
AcDbLine
 10
2137.27477455882
 20
1652.359426242346
 30
0.0
 11
2137.27477455882
 21
1008.359426242346
 31
0.0
  0
LINE
  5
3E99
330
1F
100
AcDbEntity
  8
1　製品
  6
HIDDEN
 48
15.0
100
AcDbLine
 10
2127.274774558824
 20
1652.359426242347
 30
0.0
 11
2127.274774558824
 21
1008.359426242347
 31
0.0
  0
LINE
  5
3ED9
330
1F
100
AcDbEntity
  8
1　製品
100
AcDbLine
 10
3220.074774558816
 20
2597.579343714918
 30
0.0
 11
2976.234774558814
 21
2488.779343714918
 31
0.0
  0
LINE
  5
3EDA
330
1F
100
AcDbEntity
  8
1　製品
100
AcDbLine
 10
3220.074774558816
 20
2575.819343714918
 30
0.0
 11
3025.002774558816
 21
2488.779343714918
 31
0.0
  0
LINE
  5
3EDB
330
1F
100
AcDbEntity
  8
1　製品
100
AcDbLine
 10
3122.538774558827
 20
2488.779343714918
 30
0.0
 11
3025.002774558821
 21
2532.299343714921
 31
0.0
  0
LINE
  5
3EDC
330
1F
100
AcDbEntity
  8
1　製品
100
AcDbLine
 10
3073.770774558825
 20
2488.779343714918
 30
0.0
 11
3000.61877455882
 21
2521.41934371492
 31
0.0
  0
LINE
  5
3EDD
330
1F
100
AcDbEntity
  8
1　製品
100
AcDbLine
 10
3025.002774558827
 20
2488.779343714918
 30
0.0
 11
2976.234774558821
 21
2510.539343714921
 31
0.0
  0
LINE
  5
3EDE
330
1F
100
AcDbEntity
  8
1　製品
100
AcDbLine
 10
2976.234774558829
 20
2488.779343714918
 30
0.0
 11
2951.850774558823
 21
2499.65934371492
 31
0.0
  0
LINE
  5
3EDF
330
1F
100
AcDbEntity
  8
1　製品
100
AcDbLine
 10
3220.074774558816
 20
2532.299343714923
 30
0.0
 11
3122.53877455882
 21
2575.81934371492
 31
0.0
  0
LINE
  5
3EE0
330
1F
100
AcDbEntity
  8
1　製品
100
AcDbLine
 10
3220.074774558816
 20
2554.059343714922
 30
0.0
 11
3146.92277455882
 21
2586.69934371492
 31
0.0
  0
LINE
  5
3EE1
330
1F
100
AcDbEntity
  8
1　製品
100
AcDbLine
 10
3220.074774558816
 20
2510.539343714921
 30
0.0
 11
3098.154774558821
 21
2564.93934371492
 31
0.0
  0
LINE
  5
3EE2
330
1F
100
AcDbEntity
  8
1　製品
100
AcDbLine
 10
3220.074774558823
 20
2488.779343714918
 30
0.0
 11
3073.77077455882
 21
2554.05934371492
 31
0.0
  0
LINE
  5
3EE3
330
1F
100
AcDbEntity
  8
1　製品
100
AcDbLine
 10
3220.074774558816
 20
2554.059343714918
 30
0.0
 11
3073.770774558814
 21
2488.779343714918
 31
0.0
  0
LINE
  5
3EE4
330
1F
100
AcDbEntity
  8
1　製品
100
AcDbLine
 10
3220.074774558816
 20
2532.299343714918
 30
0.0
 11
3122.538774558814
 21
2488.779343714918
 31
0.0
  0
LINE
  5
3EE5
330
1F
100
AcDbEntity
  8
1　製品
100
AcDbLine
 10
3220.074774558816
 20
2510.539343714918
 30
0.0
 11
3171.306774558816
 21
2488.779343714918
 31
0.0
  0
LINE
  5
3EE6
330
1F
100
AcDbEntity
  8
1　製品
100
AcDbLine
 10
3171.306774558825
 20
2488.779343714918
 30
0.0
 11
3049.38677455882
 21
2543.17934371492
 31
0.0
  0
LINE
  5
3EE7
330
1F
100
AcDbEntity
  8
1　製品
100
AcDbLine
 10
3220.074774558816
 20
2575.819343714922
 30
0.0
 11
3171.30677455882
 21
2597.57934371492
 31
0.0
  0
LINE
  5
3EE8
330
1F
100
AcDbEntity
  8
1　製品
100
AcDbLine
 10
3220.074774558816
 20
2597.579343714922
 30
0.0
 11
3195.690774558821
 21
2608.459343714921
 31
0.0
  0
LINE
  5
3EE9
330
1F
100
AcDbEntity
  8
1　製品
100
AcDbLine
 10
2414.840156133012
 20
2936.49149742295
 30
0.0
 11
2557.71515613301
 21
3000.241497422949
 31
0.0
  0
LINE
  5
3EEA
330
1F
100
AcDbEntity
  8
1　製品
100
AcDbLine
 10
2386.265156133011
 20
2949.24149742295
 30
0.0
 11
2529.140156133011
 21
3012.99149742295
 31
0.0
  0
LINE
  5
3EEB
330
1F
100
AcDbEntity
  8
1　製品
100
AcDbLine
 10
2386.265156133013
 20
2974.74149742295
 30
0.0
 11
2529.140156133011
 21
2910.991497422949
 31
0.0
  0
LINE
  5
3EEC
330
1F
100
AcDbEntity
  8
1　製品
100
AcDbLine
 10
2414.840156133014
 20
2987.49149742295
 30
0.0
 11
2557.715156133012
 21
2923.74149742295
 31
0.0
  0
LINE
  5
3EED
330
1F
100
AcDbEntity
  8
1　製品
100
AcDbLine
 10
2471.990156133013
 20
2910.99149742295
 30
0.0
 11
2614.865156133012
 21
2974.741497422949
 31
0.0
  0
LINE
  5
3EEE
330
1F
100
AcDbEntity
  8
1　製品
100
AcDbLine
 10
2443.415156133013
 20
2923.74149742295
 30
0.0
 11
2586.290156133013
 21
2987.491497422949
 31
0.0
  0
LINE
  5
3EEF
330
1F
100
AcDbEntity
  8
1　製品
100
AcDbLine
 10
2443.415156133013
 20
3000.24149742295
 30
0.0
 11
2586.290156133013
 21
2936.491497422949
 31
0.0
  0
LINE
  5
3EF0
330
1F
100
AcDbEntity
  8
1　製品
100
AcDbLine
 10
2471.990156133012
 20
3012.991497422949
 30
0.0
 11
2614.865156133012
 21
2949.241497422949
 31
0.0
  0
LINE
  5
3EF1
330
1F
100
AcDbEntity
  8
1　製品
100
AcDbLine
 10
1650.265156133013
 20
2974.74149742297
 30
0.0
 11
1793.140156133011
 21
2910.99149742297
 31
0.0
  0
LINE
  5
3EF2
330
1F
100
AcDbEntity
  8
1　製品
100
AcDbLine
 10
1678.840156133014
 20
2987.491497422971
 30
0.0
 11
1821.715156133012
 21
2923.74149742297
 31
0.0
  0
LINE
  5
3EF3
330
1F
100
AcDbEntity
  8
1　製品
100
AcDbLine
 10
1650.265156133011
 20
2949.24149742297
 30
0.0
 11
1793.140156133011
 21
3012.99149742297
 31
0.0
  0
LINE
  5
3EF4
330
1F
100
AcDbEntity
  8
1　製品
100
AcDbLine
 10
1678.840156133012
 20
2936.49149742297
 30
0.0
 11
1821.71515613301
 21
3000.24149742297
 31
0.0
  0
LINE
  5
3EF5
330
1F
100
AcDbEntity
  8
1　製品
100
AcDbLine
 10
1735.990156133012
 20
3012.99149742297
 30
0.0
 11
1878.865156133012
 21
2949.24149742297
 31
0.0
  0
LINE
  5
3EF6
330
1F
100
AcDbEntity
  8
1　製品
100
AcDbLine
 10
1735.990156133013
 20
2910.991497422971
 30
0.0
 11
1878.865156133012
 21
2974.74149742297
 31
0.0
  0
LINE
  5
3EF7
330
1F
100
AcDbEntity
  8
1　製品
100
AcDbLine
 10
1707.415156133013
 20
2923.741497422971
 30
0.0
 11
1850.290156133013
 21
2987.49149742297
 31
0.0
  0
LINE
  5
3EF8
330
1F
100
AcDbEntity
  8
1　製品
100
AcDbLine
 10
1707.415156133013
 20
3000.24149742297
 30
0.0
 11
1850.290156133013
 21
2936.49149742297
 31
0.0
  0
LINE
  5
3EF9
330
1F
100
AcDbEntity
  8
1　製品
100
AcDbLine
 10
1046.074774558834
 20
3283.979343715023
 30
0.0
 11
1289.914774558836
 21
3392.779343715022
 31
0.0
  0
LINE
  5
3EFA
330
1F
100
AcDbEntity
  8
1　製品
100
AcDbLine
 10
1241.146774558822
 20
3392.779343715023
 30
0.0
 11
1289.914774558827
 21
3371.019343715019
 31
0.0
  0
LINE
  5
3EFB
330
1F
100
AcDbEntity
  8
1　製品
100
AcDbLine
 10
1046.074774558834
 20
3327.499343715022
 30
0.0
 11
1192.378774558836
 21
3392.779343715022
 31
0.0
  0
LINE
  5
3EFC
330
1F
100
AcDbEntity
  8
1　製品
100
AcDbLine
 10
1046.074774558834
 20
3305.739343715023
 30
0.0
 11
1241.146774558836
 21
3392.779343715022
 31
0.0
  0
LINE
  5
3EFD
330
1F
100
AcDbEntity
  8
1　製品
100
AcDbLine
 10
1046.074774558825
 20
3392.779343715023
 30
0.0
 11
1192.37877455883
 21
3327.49934371502
 31
0.0
  0
LINE
  5
3EFE
330
1F
100
AcDbEntity
  8
1　製品
100
AcDbLine
 10
1046.074774558834
 20
3371.019343715019
 30
0.0
 11
1167.994774558829
 21
3316.61934371502
 31
0.0
  0
LINE
  5
3EFF
330
1F
100
AcDbEntity
  8
1　製品
100
AcDbLine
 10
1046.074774558834
 20
3349.259343715017
 30
0.0
 11
1143.610774558831
 21
3305.73934371502
 31
0.0
  0
LINE
  5
3F00
330
1F
100
AcDbEntity
  8
1　製品
100
AcDbLine
 10
1094.842774558825
 20
3392.779343715023
 30
0.0
 11
1216.762774558829
 21
3338.37934371502
 31
0.0
  0
LINE
  5
3F01
330
1F
100
AcDbEntity
  8
1　製品
100
AcDbLine
 10
1046.074774558834
 20
3305.739343715019
 30
0.0
 11
1094.842774558831
 21
3283.97934371502
 31
0.0
  0
LINE
  5
3F02
330
1F
100
AcDbEntity
  8
1　製品
100
AcDbLine
 10
1046.074774558834
 20
3327.499343715019
 30
0.0
 11
1119.226774558831
 21
3294.85934371502
 31
0.0
  0
LINE
  5
3F03
330
1F
100
AcDbEntity
  8
1　製品
100
AcDbLine
 10
1046.074774558834
 20
3283.979343715018
 30
0.0
 11
1070.458774558831
 21
3273.09934371502
 31
0.0
  0
LINE
  5
3F04
330
1F
100
AcDbEntity
  8
1　製品
100
AcDbLine
 10
1046.074774558834
 20
3349.259343715023
 30
0.0
 11
1143.610774558836
 21
3392.779343715022
 31
0.0
  0
LINE
  5
3F05
330
1F
100
AcDbEntity
  8
1　製品
100
AcDbLine
 10
1046.074774558834
 20
3371.019343715023
 30
0.0
 11
1094.842774558834
 21
3392.779343715023
 31
0.0
  0
LINE
  5
3F06
330
1F
100
AcDbEntity
  8
1　製品
100
AcDbLine
 10
1192.378774558825
 20
3392.779343715023
 30
0.0
 11
1265.530774558829
 21
3360.13934371502
 31
0.0
  0
LINE
  5
3F07
330
1F
100
AcDbEntity
  8
1　製品
100
AcDbLine
 10
1143.610774558825
 20
3392.779343715023
 30
0.0
 11
1241.146774558829
 21
3349.25934371502
 31
0.0
  0
LINE
  5
3F08
330
1F
100
AcDbEntity
  8
1　製品
100
AcDbLine
 10
1289.914774558822
 20
3392.779343715023
 30
0.0
 11
1314.298774558829
 21
3381.899343715019
 31
0.0
  0
LINE
  5
3F19
330
1F
100
AcDbEntity
  8
1　製品
100
AcDbLine
 10
3239.274774558825
 20
1269.076624856161
 30
0.0
 11
3239.274774558825
 21
1295.642227628533
 31
0.0
  0
CIRCLE
  5
3F1A
330
1F
100
AcDbEntity
  8
1　製品
100
AcDbCircle
 10
3239.274774558825
 20
1282.359426242347
 30
0.0
 40
5.0
  0
LINE
  5
3F1B
330
1F
100
AcDbEntity
  8
1　製品
100
AcDbLine
 10
3252.55757594501
 20
1282.359426242347
 30
0.0
 11
3225.991973172638
 21
1282.359426242347
 31
0.0
  0
LINE
  5
3F1C
330
1F
100
AcDbEntity
  8
1　製品
100
AcDbLine
 10
3219.274774558824
 20
1262.359426242347
 30
0.0
 11
3219.274774558824
 21
1008.359426242347
 31
0.0
  0
LINE
  5
3F1D
330
1F
100
AcDbEntity
  8
1　製品
 48
10.0
100
AcDbLine
 10
2172.274774558824
 20
1262.359426242347
 30
0.0
 11
2172.274774558824
 21
1008.359426242347
 31
0.0
  0
LINE
  5
3F1E
330
1F
100
AcDbEntity
  8
1　製品
 48
10.0
100
AcDbLine
 10
2092.274774558825
 20
1262.359426242347
 30
0.0
 11
2092.274774558832
 21
1008.359426242347
 31
0.0
  0
LINE
  5
3F1F
330
1F
100
AcDbEntity
  8
1　製品
100
AcDbLine
 10
1045.274774558824
 20
1262.359426242347
 30
0.0
 11
1045.274774558824
 21
1008.359426242347
 31
0.0
  0
LINE
  5
3F20
330
1F
100
AcDbEntity
  8
1　製品
100
AcDbLine
 10
2138.991973172637
 20
1282.359426242347
 30
0.0
 11
2165.557575945009
 21
1282.359426242347
 31
0.0
  0
LINE
  5
3F21
330
1F
100
AcDbEntity
  8
1　製品
100
AcDbLine
 10
2152.274774558822
 20
1269.076624856161
 30
0.0
 11
2152.274774558822
 21
1295.642227628533
 31
0.0
  0
CIRCLE
  5
3F22
330
1F
100
AcDbEntity
  8
1　製品
100
AcDbCircle
 10
2152.274774558822
 20
1282.359426242347
 30
0.0
 40
5.0
  0
LINE
  5
3F23
330
1F
100
AcDbEntity
  8
1　製品
100
AcDbLine
 10
2125.557575945011
 20
1282.359426242347
 30
0.0
 11
2098.991973172639
 21
1282.359426242347
 31
0.0
  0
CIRCLE
  5
3F24
330
1F
100
AcDbEntity
  8
1　製品
100
AcDbCircle
 10
2112.274774558826
 20
1282.359426242347
 30
0.0
 40
5.0
  0
LINE
  5
3F25
330
1F
100
AcDbEntity
  8
1　製品
100
AcDbLine
 10
2112.274774558826
 20
1269.076624856161
 30
0.0
 11
2112.274774558826
 21
1295.642227628533
 31
0.0
  0
LINE
  5
3F26
330
1F
100
AcDbEntity
  8
1　製品
100
AcDbLine
 10
1011.991973172638
 20
1282.359426242347
 30
0.0
 11
1038.55757594501
 21
1282.359426242347
 31
0.0
  0
LINE
  5
3F27
330
1F
100
AcDbEntity
  8
1　製品
100
AcDbLine
 10
1025.274774558823
 20
1269.076624856161
 30
0.0
 11
1025.274774558823
 21
1295.642227628533
 31
0.0
  0
CIRCLE
  5
3F28
330
1F
100
AcDbEntity
  8
1　製品
100
AcDbCircle
 10
1025.274774558823
 20
1282.359426242347
 30
0.0
 40
5.0
  0
LINE
  5
3F6B
330
1F
100
AcDbEntity
  8
1　製品
100
AcDbLine
 10
2134.774774558823
 20
1262.359426242347
 30
0.0
 11
2134.774774558823
 21
1302.359426242347
 31
0.0
  0
LINE
  5
3F6C
330
1F
100
AcDbEntity
  8
1　製品
100
AcDbLine
 10
2129.774774558823
 20
1262.359426242347
 30
0.0
 11
2129.774774558823
 21
1302.359426242347
 31
0.0
  0
ENDSEC
  0
SECTION
  2
OBJECTS
  0
DICTIONARY
  5
C
330
0
100
AcDbDictionary
281
     1
  3
ACAD_GROUP
350
D
  3
ACAD_IMAGE_VARS
350
16A4
  3
ACAD_LAYOUT
350
1A
  3
ACAD_MLINESTYLE
350
17
  3
ACAD_PLOTSETTINGS
350
19
  3
ACAD_PLOTSTYLENAME
350
E
  3
ACAD_SCALELIST
350
166A
  3
AcDbVariableDictionary
350
6EF
  3
APPDATA
350
16A3
  3
DWGPROPS
350
4013
  0
DICTIONARY
  5
2770
330
2
100
AcDbDictionary
280
     1
281
     1
  3
ACAD_LAYERSTATES
360
2771
  0
DICTIONARY
  5
D
102
{ACAD_REACTORS
330
C
102
}
330
C
100
AcDbDictionary
281
     1
  0
RASTERVARIABLES
  5
16A4
102
{ACAD_REACTORS
330
C
102
}
330
C
100
AcDbRasterVariables
 90
        0
 70
     1
 71
     1
 72
     1
  0
DICTIONARY
  5
1A
102
{ACAD_REACTORS
330
C
102
}
330
C
100
AcDbDictionary
281
     1
  3
Layout1
350
1E
  3
Layout2
350
26
  3
Model
350
22
  0
DICTIONARY
  5
17
102
{ACAD_REACTORS
330
C
102
}
330
C
100
AcDbDictionary
281
     1
  3
Standard
350
18
  0
DICTIONARY
  5
19
102
{ACAD_REACTORS
330
C
102
}
330
C
100
AcDbDictionary
281
     1
  0
ACDBDICTIONARYWDFLT
  5
E
102
{ACAD_REACTORS
330
C
102
}
330
C
100
AcDbDictionary
281
     1
  3
Normal
350
F
100
AcDbDictionaryWithDefault
340
F
  0
DICTIONARY
  5
166A
102
{ACAD_REACTORS
330
C
102
}
330
C
100
AcDbDictionary
281
     1
  3
A0
350
166B
  3
A1
350
166C
  3
A2
350
166D
  3
A3
350
166E
  3
A4
350
166F
  3
A5
350
1670
  3
A6
350
1671
  3
A7
350
1672
  3
A8
350
1673
  3
A9
350
1674
  3
B0
350
1675
  3
B1
350
1676
  3
B2
350
1677
  3
B3
350
1678
  3
B4
350
1679
  3
B5
350
167A
  3
B6
350
167B
  3
B7
350
167C
  3
B8
350
167D
  3
B9
350
167E
  3
C0
350
167F
  3
C1
350
1680
  3
C2
350
1681
  3
C3
350
1682
  3
C4
350
1683
  3
C5
350
1684
  3
C6
350
1685
  3
C7
350
1686
  3
C8
350
1687
  3
C9
350
1688
  3
D0
350
1689
  3
D1
350
168A
  3
D2
350
168B
  0
DICTIONARY
  5
6EF
102
{ACAD_REACTORS
330
C
102
}
330
C
100
AcDbDictionary
281
     1
  3
DIMASSOC
350
6F0
  0
DICTIONARY
  5
16A3
102
{ACAD_REACTORS
330
C
102
}
330
C
100
AcDbDictionary
281
     1
  0
XRECORD
  5
4013
102
{ACAD_REACTORS
330
C
102
}
330
C
100
AcDbXrecord
280
     1
  1
DWGPROPS COOKIE
  2

  3

  4

  6

  7

  8
2212
  9

300
=
301
=
302
=
303
=
304
=
305
=
306
=
307
=
308
=
309
=
 40
0.0
 41
2454740.218452685
 42
2458844.183337616
  1

 90
        0
  0
DICTIONARY
  5
2771
102
{ACAD_REACTORS
330
2770
102
}
330
2770
100
AcDbDictionary
281
     1
  0
LAYOUT
  5
1E
102
{ACAD_REACTORS
330
1A
102
}
330
1A
100
AcDbPlotSettings
  1

  2

  4

  6

 40
0.0
 41
0.0
 42
0.0
 43
0.0
 44
0.0
 45
0.0
 46
0.0
 47
0.0
 48
0.0
 49
0.0
140
0.0
141
0.0
142
1.0
143
1.0
 70
   688
 72
     0
 73
     0
 74
     5
  7
monochrome.ctb
 75
    16
147
1.0
148
0.0
149
0.0
100
AcDbLayout
  1
Layout1
 70
     1
 71
     1
 10
0.0
 20
0.0
 11
420.0
 21
297.0
 12
0.0
 22
0.0
 32
0.0
 14
1.000000000000000E+20
 24
1.000000000000000E+20
 34
1.000000000000000E+20
 15
-1.000000000000000E+20
 25
-1.000000000000000E+20
 35
-1.000000000000000E+20
146
0.0
 13
0.0
 23
0.0
 33
0.0
 16
1.0
 26
0.0
 36
0.0
 17
0.0
 27
1.0
 37
0.0
 76
     0
330
1B
  0
LAYOUT
  5
26
102
{ACAD_REACTORS
330
1A
102
}
330
1A
100
AcDbPlotSettings
  1

  2

  4

  6

 40
0.0
 41
0.0
 42
0.0
 43
0.0
 44
0.0
 45
0.0
 46
0.0
 47
0.0
 48
0.0
 49
0.0
140
0.0
141
0.0
142
1.0
143
1.0
 70
   688
 72
     0
 73
     0
 74
     5
  7
monochrome.ctb
 75
    16
147
1.0
148
0.0
149
0.0
100
AcDbLayout
  1
Layout2
 70
     1
 71
     2
 10
0.0
 20
0.0
 11
12.0
 21
9.0
 12
0.0
 22
0.0
 32
0.0
 14
0.0
 24
0.0
 34
0.0
 15
0.0
 25
0.0
 35
0.0
146
0.0
 13
0.0
 23
0.0
 33
0.0
 16
1.0
 26
0.0
 36
0.0
 17
0.0
 27
1.0
 37
0.0
 76
     0
330
23
  0
LAYOUT
  5
22
102
{ACAD_REACTORS
330
1A
102
}
330
1A
100
AcDbPlotSettings
  1

  2
none_device
  4
A3
  6

 40
4.857749938964844
 41
4.942420959472656
 42
4.9423828125
 43
4.857757568359375
 44
297.0106506347656
 45
420.0313415527344
 46
-0.79
 47
-0.78
 48
0.0
 49
0.0
140
0.0
141
0.0
142
1.0
143
1.0
 70
 11956
 72
     1
 73
     1
 74
     2
  7
monochrome.ctb
 75
    16
147
1.0
148
-4.099999999999999
149
-4.1
100
AcDbLayout
  1
Model
 70
     1
 71
     0
 10
0.0
 20
0.0
 11
12.0
 21
9.0
 12
0.0
 22
0.0
 32
0.0
 14
1002.074774558824
 24
190.3934010152284
 34
0.0
 15
6413.461827411167
 25
3435.979343714918
 35
0.0
146
0.0
 13
0.0
 23
0.0
 33
0.0
 16
1.0
 26
0.0
 36
0.0
 17
0.0
 27
1.0
 37
0.0
 76
     0
330
1F
331
3F53
  0
MLINESTYLE
  5
18
102
{ACAD_REACTORS
330
17
102
}
330
17
100
AcDbMlineStyle
  2
STANDARD
 70
     0
  3

 62
   256
 51
90.0
 52
90.0
 71
     2
 49
0.5
 62
   256
  6
BYLAYER
 49
-0.5
 62
   256
  6
BYLAYER
  0
ACDBPLACEHOLDER
  5
F
102
{ACAD_REACTORS
330
E
102
}
330
E
  0
SCALE
  5
166B
102
{ACAD_REACTORS
330
166A
102
}
330
166A
100
AcDbScale
 70
     0
300
1:1
140
1.0
141
1.0
290
     1
  0
SCALE
  5
166C
102
{ACAD_REACTORS
330
166A
102
}
330
166A
100
AcDbScale
 70
     0
300
1:2
140
1.0
141
2.0
290
     0
  0
SCALE
  5
166D
102
{ACAD_REACTORS
330
166A
102
}
330
166A
100
AcDbScale
 70
     0
300
1:4
140
1.0
141
4.0
290
     0
  0
SCALE
  5
166E
102
{ACAD_REACTORS
330
166A
102
}
330
166A
100
AcDbScale
 70
     0
300
1:5
140
1.0
141
5.0
290
     0
  0
SCALE
  5
166F
102
{ACAD_REACTORS
330
166A
102
}
330
166A
100
AcDbScale
 70
     0
300
1:8
140
1.0
141
8.0
290
     0
  0
SCALE
  5
1670
102
{ACAD_REACTORS
330
166A
102
}
330
166A
100
AcDbScale
 70
     0
300
1:10
140
1.0
141
10.0
290
     0
  0
SCALE
  5
1671
102
{ACAD_REACTORS
330
166A
102
}
330
166A
100
AcDbScale
 70
     0
300
1:16
140
1.0
141
16.0
290
     0
  0
SCALE
  5
1672
102
{ACAD_REACTORS
330
166A
102
}
330
166A
100
AcDbScale
 70
     0
300
1:20
140
1.0
141
20.0
290
     0
  0
SCALE
  5
1673
102
{ACAD_REACTORS
330
166A
102
}
330
166A
100
AcDbScale
 70
     0
300
1:30
140
1.0
141
30.0
290
     0
  0
SCALE
  5
1674
102
{ACAD_REACTORS
330
166A
102
}
330
166A
100
AcDbScale
 70
     0
300
1:40
140
1.0
141
40.0
290
     0
  0
SCALE
  5
1675
102
{ACAD_REACTORS
330
166A
102
}
330
166A
100
AcDbScale
 70
     0
300
1:50
140
1.0
141
50.0
290
     0
  0
SCALE
  5
1676
102
{ACAD_REACTORS
330
166A
102
}
330
166A
100
AcDbScale
 70
     0
300
1:100
140
1.0
141
100.0
290
     0
  0
SCALE
  5
1677
102
{ACAD_REACTORS
330
166A
102
}
330
166A
100
AcDbScale
 70
     0
300
2:1
140
2.0
141
1.0
290
     0
  0
SCALE
  5
1678
102
{ACAD_REACTORS
330
166A
102
}
330
166A
100
AcDbScale
 70
     0
300
4:1
140
4.0
141
1.0
290
     0
  0
SCALE
  5
1679
102
{ACAD_REACTORS
330
166A
102
}
330
166A
100
AcDbScale
 70
     0
300
8:1
140
8.0
141
1.0
290
     0
  0
SCALE
  5
167A
102
{ACAD_REACTORS
330
166A
102
}
330
166A
100
AcDbScale
 70
     0
300
10:1
140
10.0
141
1.0
290
     0
  0
SCALE
  5
167B
102
{ACAD_REACTORS
330
166A
102
}
330
166A
100
AcDbScale
 70
     0
300
100:1
140
100.0
141
1.0
290
     0
  0
SCALE
  5
167C
102
{ACAD_REACTORS
330
166A
102
}
330
166A
100
AcDbScale
 70
     0
300
1/128" = 1'-0"
140
0.0078125
141
12.0
290
     0
  0
SCALE
  5
167D
102
{ACAD_REACTORS
330
166A
102
}
330
166A
100
AcDbScale
 70
     0
300
1/64" = 1'-0"
140
0.015625
141
12.0
290
     0
  0
SCALE
  5
167E
102
{ACAD_REACTORS
330
166A
102
}
330
166A
100
AcDbScale
 70
     0
300
1/32" = 1'-0"
140
0.03125
141
12.0
290
     0
  0
SCALE
  5
167F
102
{ACAD_REACTORS
330
166A
102
}
330
166A
100
AcDbScale
 70
     0
300
1/16" = 1'-0"
140
0.0625
141
12.0
290
     0
  0
SCALE
  5
1680
102
{ACAD_REACTORS
330
166A
102
}
330
166A
100
AcDbScale
 70
     0
300
3/32" = 1'-0"
140
0.09375
141
12.0
290
     0
  0
SCALE
  5
1681
102
{ACAD_REACTORS
330
166A
102
}
330
166A
100
AcDbScale
 70
     0
300
1/8" = 1'-0"
140
0.125
141
12.0
290
     0
  0
SCALE
  5
1682
102
{ACAD_REACTORS
330
166A
102
}
330
166A
100
AcDbScale
 70
     0
300
3/16" = 1'-0"
140
0.1875
141
12.0
290
     0
  0
SCALE
  5
1683
102
{ACAD_REACTORS
330
166A
102
}
330
166A
100
AcDbScale
 70
     0
300
1/4" = 1'-0"
140
0.25
141
12.0
290
     0
  0
SCALE
  5
1684
102
{ACAD_REACTORS
330
166A
102
}
330
166A
100
AcDbScale
 70
     0
300
3/8" = 1'-0"
140
0.375
141
12.0
290
     0
  0
SCALE
  5
1685
102
{ACAD_REACTORS
330
166A
102
}
330
166A
100
AcDbScale
 70
     0
300
1/2" = 1'-0"
140
0.5
141
12.0
290
     0
  0
SCALE
  5
1686
102
{ACAD_REACTORS
330
166A
102
}
330
166A
100
AcDbScale
 70
     0
300
3/4" = 1'-0"
140
0.75
141
12.0
290
     0
  0
SCALE
  5
1687
102
{ACAD_REACTORS
330
166A
102
}
330
166A
100
AcDbScale
 70
     0
300
1" = 1'-0"
140
1.0
141
12.0
290
     0
  0
SCALE
  5
1688
102
{ACAD_REACTORS
330
166A
102
}
330
166A
100
AcDbScale
 70
     0
300
1-1/2" = 1'-0"
140
1.5
141
12.0
290
     0
  0
SCALE
  5
1689
102
{ACAD_REACTORS
330
166A
102
}
330
166A
100
AcDbScale
 70
     0
300
3" = 1'-0"
140
3.0
141
12.0
290
     0
  0
SCALE
  5
168A
102
{ACAD_REACTORS
330
166A
102
}
330
166A
100
AcDbScale
 70
     0
300
6" = 1'-0"
140
6.0
141
12.0
290
     0
  0
SCALE
  5
168B
102
{ACAD_REACTORS
330
166A
102
}
330
166A
100
AcDbScale
 70
     0
300
1'-0" = 1'-0"
140
12.0
141
12.0
290
     0
  0
DICTIONARYVAR
  5
6F0
102
{ACAD_REACTORS
330
6EF
102
}
330
6EF
100
DictionaryVariables
280
     0
  1
1
  0
ENDSEC
  0
EOF
