  0
SECTION
  2
HEADER
  9
$ACADVER
  1
AC1015
  9
$ACADMAINTVER
 70
     6
  9
$DWGCODEPAGE
  3
ANSI_932
  9
$INSBASE
 10
0.0
 20
0.0
 30
0.0
  9
$EXTMIN
 10
35.0
 20
136.0
 30
0.0
  9
$EXTMAX
 10
201.0
 20
262.0
 30
0.0
  9
$LIMMIN
 10
0.0
 20
0.0
  9
$LIMMAX
 10
420.0
 20
297.0
  9
$ORTHOMODE
 70
     1
  9
$REGENMODE
 70
     1
  9
$FILLMODE
 70
     1
  9
$QTEXTMODE
 70
     0
  9
$MIRRTEXT
 70
     1
  9
$LTSCALE
 40
0.3
  9
$ATTMODE
 70
     1
  9
$TEXTSIZE
 40
3.0
  9
$TRACEWID
 40
1.0
  9
$TEXTSTYLE
  7
Standard
  9
$CLAYER
  8
01注記寸法
  9
$CELTYPE
  6
ByLayer
  9
$CECOLOR
 62
   256
  9
$CELTSCALE
 40
1.0
  9
$DISPSILH
 70
     0
  9
$DIMSCALE
 40
1.0
  9
$DIMASZ
 40
3.0
  9
$DIMEXO
 40
1.5
  9
$DIMDLI
 40
10.0
  9
$DIMRND
 40
0.0
  9
$DIMDLE
 40
0.0
  9
$DIMEXE
 40
1.0
  9
$DIMTP
 40
0.0
  9
$DIMTM
 40
0.0
  9
$DIMTXT
 40
3.0
  9
$DIMCEN
 40
1.5
  9
$DIMTSZ
 40
0.0
  9
$DIMTOL
 70
     0
  9
$DIMLIM
 70
     0
  9
$DIMTIH
 70
     0
  9
$DIMTOH
 70
     0
  9
$DIMSE1
 70
     0
  9
$DIMSE2
 70
     0
  9
$DIMTAD
 70
     1
  9
$DIMZIN
 70
     8
  9
$DIMBLK
  1
Open
  9
$DIMASO
 70
     1
  9
$DIMSHO
 70
     1
  9
$DIMPOST
  1

  9
$DIMAPOST
  1

  9
$DIMALT
 70
     0
  9
$DIMALTD
 70
     3
  9
$DIMALTF
 40
0.03937007874016
  9
$DIMLFAC
 40
1.0
  9
$DIMTOFL
 70
     1
  9
$DIMTVP
 40
0.0
  9
$DIMTIX
 70
     0
  9
$DIMSOXD
 70
     0
  9
$DIMSAH
 70
     0
  9
$DIMBLK1
  1

  9
$DIMBLK2
  1

  9
$DIMSTYLE
  2
NEMY-1
  9
$DIMCLRD
 70
     0
  9
$DIMCLRE
 70
     0
  9
$DIMCLRT
 70
     0
  9
$DIMTFAC
 40
1.0
  9
$DIMGAP
 40
1.0
  9
$DIMJUST
 70
     0
  9
$DIMSD1
 70
     0
  9
$DIMSD2
 70
     0
  9
$DIMTOLJ
 70
     0
  9
$DIMTZIN
 70
     8
  9
$DIMALTZ
 70
     0
  9
$DIMALTTZ
 70
     0
  9
$DIMUPT
 70
     0
  9
$DIMDEC
 70
     1
  9
$DIMTDEC
 70
     1
  9
$DIMALTU
 70
     2
  9
$DIMALTTD
 70
     3
  9
$DIMTXSTY
  7
Standard
  9
$DIMAUNIT
 70
     0
  9
$DIMADEC
 70
     0
  9
$DIMALTRND
 40
0.0
  9
$DIMAZIN
 70
     0
  9
$DIMDSEP
 70
    46
  9
$DIMATFIT
 70
     3
  9
$DIMFRAC
 70
     0
  9
$DIMLDRBLK
  1
Open
  9
$DIMLUNIT
 70
     2
  9
$DIMLWD
 70
    -2
  9
$DIMLWE
 70
    -2
  9
$DIMTMOVE
 70
     0
  9
$LUNITS
 70
     2
  9
$LUPREC
 70
     4
  9
$SKETCHINC
 40
1.0
  9
$FILLETRAD
 40
9.0
  9
$AUNITS
 70
     0
  9
$AUPREC
 70
     0
  9
$MENU
  1
.
  9
$ELEVATION
 40
0.0
  9
$PELEVATION
 40
0.0
  9
$THICKNESS
 40
0.0
  9
$LIMCHECK
 70
     0
  9
$CHAMFERA
 40
1.0
  9
$CHAMFERB
 40
1.0
  9
$CHAMFERC
 40
20.0
  9
$CHAMFERD
 40
0.0
  9
$SKPOLY
 70
     0
  9
$TDCREATE
 40
2455859.405048461
  9
$TDUCREATE
 40
2455859.030048461
  9
$TDUPDATE
 40
2458970.393874942
  9
$TDUUPDATE
 40
2458970.018874942
  9
$TDINDWG
 40
1.0048951968
  9
$TDUSRTIMER
 40
0.0022860185
  9
$USRTIMER
 70
     1
  9
$ANGBASE
 50
0.0
  9
$ANGDIR
 70
     0
  9
$PDMODE
 70
     0
  9
$PDSIZE
 40
0.0
  9
$PLINEWID
 40
0.0
  9
$SPLFRAME
 70
     0
  9
$SPLINETYPE
 70
     6
  9
$SPLINESEGS
 70
     8
  9
$HANDSEED
  5
E48F
  9
$SURFTAB1
 70
     6
  9
$SURFTAB2
 70
     6
  9
$SURFTYPE
 70
     6
  9
$SURFU
 70
     6
  9
$SURFV
 70
     6
  9
$UCSBASE
  2

  9
$UCSNAME
  2

  9
$UCSORG
 10
0.0
 20
0.0
 30
0.0
  9
$UCSXDIR
 10
1.0
 20
0.0
 30
0.0
  9
$UCSYDIR
 10
0.0
 20
1.0
 30
0.0
  9
$UCSORTHOREF
  2

  9
$UCSORTHOVIEW
 70
     0
  9
$UCSORGTOP
 10
0.0
 20
0.0
 30
0.0
  9
$UCSORGBOTTOM
 10
0.0
 20
0.0
 30
0.0
  9
$UCSORGLEFT
 10
0.0
 20
0.0
 30
0.0
  9
$UCSORGRIGHT
 10
0.0
 20
0.0
 30
0.0
  9
$UCSORGFRONT
 10
0.0
 20
0.0
 30
0.0
  9
$UCSORGBACK
 10
0.0
 20
0.0
 30
0.0
  9
$PUCSBASE
  2

  9
$PUCSNAME
  2

  9
$PUCSORG
 10
0.0
 20
0.0
 30
0.0
  9
$PUCSXDIR
 10
1.0
 20
0.0
 30
0.0
  9
$PUCSYDIR
 10
0.0
 20
1.0
 30
0.0
  9
$PUCSORTHOREF
  2

  9
$PUCSORTHOVIEW
 70
     0
  9
$PUCSORGTOP
 10
0.0
 20
0.0
 30
0.0
  9
$PUCSORGBOTTOM
 10
0.0
 20
0.0
 30
0.0
  9
$PUCSORGLEFT
 10
0.0
 20
0.0
 30
0.0
  9
$PUCSORGRIGHT
 10
0.0
 20
0.0
 30
0.0
  9
$PUCSORGFRONT
 10
0.0
 20
0.0
 30
0.0
  9
$PUCSORGBACK
 10
0.0
 20
0.0
 30
0.0
  9
$USERI1
 70
     0
  9
$USERI2
 70
     0
  9
$USERI3
 70
     0
  9
$USERI4
 70
     0
  9
$USERI5
 70
     0
  9
$USERR1
 40
0.0
  9
$USERR2
 40
0.0
  9
$USERR3
 40
0.0
  9
$USERR4
 40
0.0
  9
$USERR5
 40
0.0
  9
$WORLDVIEW
 70
     1
  9
$SHADEDGE
 70
     3
  9
$SHADEDIF
 70
    70
  9
$TILEMODE
 70
     1
  9
$MAXACTVP
 70
    64
  9
$PINSBASE
 10
0.0
 20
0.0
 30
0.0
  9
$PLIMCHECK
 70
     0
  9
$PEXTMIN
 10
1.000000000000000E+20
 20
1.000000000000000E+20
 30
1.000000000000000E+20
  9
$PEXTMAX
 10
-1.000000000000000E+20
 20
-1.000000000000000E+20
 30
-1.000000000000000E+20
  9
$PLIMMIN
 10
-7.5
 20
-20.0
  9
$PLIMMAX
 10
412.5
 20
277.0
  9
$UNITMODE
 70
     0
  9
$VISRETAIN
 70
     1
  9
$PLINEGEN
 70
     0
  9
$PSLTSCALE
 70
     1
  9
$TREEDEPTH
 70
  3020
  9
$CMLSTYLE
  2
Standard
  9
$CMLJUST
 70
     0
  9
$CMLSCALE
 40
20.0
  9
$PROXYGRAPHICS
 70
     1
  9
$MEASUREMENT
 70
     1
  9
$CELWEIGHT
370
    -1
  9
$ENDCAPS
280
     0
  9
$JOINSTYLE
280
     0
  9
$LWDISPLAY
290
     0
  9
$INSUNITS
 70
     4
  9
$HYPERLINKBASE
  1

  9
$STYLESHEET
  1
monochrome.ctb
  9
$XEDIT
290
     1
  9
$CEPSNTYPE
380
     0
  9
$PSTYLEMODE
290
     1
  9
$FINGERPRINTGUID
  2
{FDEAD578-A652-11D2-9A35-0060089B3A3F}
  9
$VERSIONGUID
  2
{11DB8456-EC16-47A0-BA21-BBDA07550E8A}
  9
$EXTNAMES
290
     1
  9
$PSVPSCALE
 40
0.0
  9
$OLESTARTUP
290
     0
  0
ENDSEC
  0
SECTION
  2
CLASSES
  0
CLASS
  1
ACDBDICTIONARYWDFLT
  2
AcDbDictionaryWithDefault
  3
ObjectDBX Classes
 90
        0
280
     0
281
     0
  0
CLASS
  1
ACDBPLACEHOLDER
  2
AcDbPlaceHolder
  3
ObjectDBX Classes
 90
        0
280
     0
281
     0
  0
CLASS
  1
LAYOUT
  2
AcDbLayout
  3
ObjectDBX Classes
 90
        0
280
     0
281
     0
  0
CLASS
  1
DICTIONARYVAR
  2
AcDbDictionaryVar
  3
ObjectDBX Classes
 90
        0
280
     0
281
     0
  0
CLASS
  1
SCALE
  2
AcDbScale
  3
ObjectDBX Classes
 90
     1153
280
     0
281
     0
  0
CLASS
  1
MATERIAL
  2
AcDbMaterial
  3
ObjectDBX Classes
 90
     1153
280
     0
281
     0
  0
CLASS
  1
VISUALSTYLE
  2
AcDbVisualStyle
  3
ObjectDBX Classes
 90
     4095
280
     0
281
     0
  0
CLASS
  1
TABLESTYLE
  2
AcDbTableStyle
  3
ObjectDBX Classes
 90
     4095
280
     0
281
     0
  0
CLASS
  1
RASTERVARIABLES
  2
AcDbRasterVariables
  3
ISM
 90
        0
280
     0
281
     0
  0
CLASS
  1
SORTENTSTABLE
  2
AcDbSortentsTable
  3
ObjectDBX Classes
 90
        0
280
     0
281
     0
  0
CLASS
  1
SUN
  2
AcDbSun
  3
SCENEOE
 90
     1153
280
     0
281
     0
  0
CLASS
  1
MLEADERSTYLE
  2
AcDbMLeaderStyle
  3
ACDB_MLEADERSTYLE_CLASS
 90
     4095
280
     0
281
     0
  0
ENDSEC
  0
SECTION
  2
TABLES
  0
TABLE
  2
VPORT
  5
8
330
0
100
AcDbSymbolTable
 70
     1
  0
VPORT
  5
7A57
330
8
100
AcDbSymbolTableRecord
100
AcDbViewportTableRecord
  2
*Active
 70
     0
 10
0.0
 20
0.0
 11
1.0
 21
1.0
 12
118.5203786644896
 22
199.2923177544023
 13
0.0
 23
0.0
 14
10.0
 24
10.0
 15
10.0
 25
10.0
 16
0.0
 26
0.0
 36
1.0
 17
0.0
 27
0.0
 37
0.0
 40
204.9792
 41
2.29737609329446
 42
50.0
 43
0.0
 44
0.0
 50
0.0
 51
0.0
 71
    16
 72
   100
 73
     1
 74
     2
 75
     0
 76
     0
 77
     0
 78
     0
281
     0
 65
     1
110
0.0
120
0.0
130
0.0
111
1.0
121
0.0
131
0.0
112
0.0
122
1.0
132
0.0
 79
     0
146
0.0
  0
ENDTAB
  0
TABLE
  2
LTYPE
  5
5
330
0
100
AcDbSymbolTable
 70
     5
  0
LTYPE
  5
14
330
5
100
AcDbSymbolTableRecord
100
AcDbLinetypeTableRecord
  2
ByBlock
 70
     0
  3

 72
    65
 73
     0
 40
0.0
  0
LTYPE
  5
15
330
5
100
AcDbSymbolTableRecord
100
AcDbLinetypeTableRecord
  2
ByLayer
 70
     0
  3

 72
    65
 73
     0
 40
0.0
  0
LTYPE
  5
16
330
5
100
AcDbSymbolTableRecord
100
AcDbLinetypeTableRecord
  2
Continuous
 70
     0
  3
Solid line
 72
    65
 73
     0
 40
0.0
  0
LTYPE
  5
BA
330
5
100
AcDbSymbolTableRecord
100
AcDbLinetypeTableRecord
  2
HIDDEN
 70
     0
  3
Hidden __ __ __ __ __ __ __ __ __ __ __ __ __ _
 72
    65
 73
     2
 40
9.524999999999999
 49
6.35
 74
     0
 49
-3.175
 74
     0
  0
LTYPE
  5
BB
330
5
100
AcDbSymbolTableRecord
100
AcDbLinetypeTableRecord
  2
PHANTOM
 70
     0
  3
Phantom ______  __  __  ______  __  __  ______
 72
    65
 73
     6
 40
63.5
 49
31.75
 74
     0
 49
-6.35
 74
     0
 49
6.35
 74
     0
 49
-6.35
 74
     0
 49
6.35
 74
     0
 49
-6.35
 74
     0
  0
LTYPE
  5
BC
330
5
100
AcDbSymbolTableRecord
100
AcDbLinetypeTableRecord
  2
CENTER
 70
     0
  3
Center ____ _ ____ _ ____ _ ____ _ ____ _ ____
 72
    65
 73
     4
 40
50.8
 49
31.75
 74
     0
 49
-6.35
 74
     0
 49
6.35
 74
     0
 49
-6.35
 74
     0
  0
LTYPE
  5
47C
330
5
100
AcDbSymbolTableRecord
100
AcDbLinetypeTableRecord
  2
DOT
 70
     0
  3
Dot . . . . . . . . . . . . . . . . . . . . . .
 72
    65
 73
     2
 40
6.35
 49
0.0
 74
     0
 49
-6.35
 74
     0
  0
ENDTAB
  0
TABLE
  2
LAYER
  5
2
102
{ACAD_XDICTIONARY
360
7A6F
102
}
330
0
100
AcDbSymbolTable
 70
    12
  0
LAYER
  5
10
330
2
100
AcDbSymbolTableRecord
100
AcDbLayerTableRecord
  2
0
 70
     0
 62
     7
  6
Continuous
370
    -3
390
F
  0
LAYER
  5
45
330
2
100
AcDbSymbolTableRecord
100
AcDbLayerTableRecord
  2
01注記寸法
 70
     0
 62
     7
  6
Continuous
370
     9
390
F
  0
LAYER
  5
46
330
2
100
AcDbSymbolTableRecord
100
AcDbLayerTableRecord
  2
02実線
 70
     0
 62
     2
  6
Continuous
370
    15
390
F
  0
LAYER
  5
7E52
330
2
100
AcDbSymbolTableRecord
100
AcDbLayerTableRecord
  2
03破線
 70
     0
 62
     3
  6
HIDDEN
370
     9
390
F
  0
LAYER
  5
7E55
330
2
100
AcDbSymbolTableRecord
100
AcDbLayerTableRecord
  2
04一点鎖線
 70
     0
 62
    70
  6
CENTER
370
     9
390
F
  0
LAYER
  5
7E58
330
2
100
AcDbSymbolTableRecord
100
AcDbLayerTableRecord
  2
05二点鎖線
 70
     0
 62
   110
  6
PHANTOM
370
     9
390
F
  0
LAYER
  5
7E5B
330
2
100
AcDbSymbolTableRecord
100
AcDbLayerTableRecord
  2
06点線
 70
     0
 62
    96
  6
DOT
370
     9
390
F
  0
LAYER
  5
7E5E
330
2
100
AcDbSymbolTableRecord
100
AcDbLayerTableRecord
  2
07その他
 70
     0
 62
     6
  6
Continuous
370
     5
390
F
  0
LAYER
  5
7E60
330
2
100
AcDbSymbolTableRecord
100
AcDbLayerTableRecord
  2
08非表示
 70
     0
 62
     4
  6
Continuous
290
     0
370
     0
390
F
  0
LAYER
  5
7E62
330
2
100
AcDbSymbolTableRecord
100
AcDbLayerTableRecord
  2
09図枠
 70
     0
 62
     1
  6
Continuous
370
    30
390
F
  0
LAYER
  5
835A
330
2
100
AcDbSymbolTableRecord
100
AcDbLayerTableRecord
  2
10副資材
 70
     0
 62
    51
  6
Continuous
290
     0
370
    -3
390
F
1001
AcAecLayerStandard
1000

1000

  0
LAYER
  5
DAFB
330
2
100
AcDbSymbolTableRecord
100
AcDbLayerTableRecord
  2
Defpoints
 70
     0
 62
     7
  6
Continuous
290
     0
370
    -3
390
F
  0
ENDTAB
  0
TABLE
  2
STYLE
  5
3
330
0
100
AcDbSymbolTable
 70
     2
  0
STYLE
  5
11
330
3
100
AcDbSymbolTableRecord
100
AcDbTextStyleTableRecord
  2
Standard
 70
     0
 40
0.0
 41
1.0
 50
0.0
 71
     0
 42
3.0
  3
MSGOTHIC.TTC
  4

1001
ACAD
1000
MS Gothic
1071
    32817
  0
STYLE
  5
47B
330
3
100
AcDbSymbolTableRecord
100
AcDbTextStyleTableRecord
  2

 70
     1
 40
0.0
 41
1.0
 50
0.0
 71
     0
 42
3.0
  3
ltypeshp.shx
  4

  0
ENDTAB
  0
TABLE
  2
VIEW
  5
6
330
0
100
AcDbSymbolTable
 70
     0
  0
ENDTAB
  0
TABLE
  2
UCS
  5
7
330
0
100
AcDbSymbolTable
 70
     0
  0
ENDTAB
  0
TABLE
  2
APPID
  5
9
330
0
100
AcDbSymbolTable
 70
     6
  0
APPID
  5
12
330
9
100
AcDbSymbolTableRecord
100
AcDbRegAppTableRecord
  2
ACAD
 70
     0
  0
APPID
  5
6A9E
330
9
100
AcDbSymbolTableRecord
100
AcDbRegAppTableRecord
  2
ACAD_DSTYLE_DIMRADIAL_EXTENSION
 70
     0
  0
APPID
  5
742C
330
9
100
AcDbSymbolTableRecord
100
AcDbRegAppTableRecord
  2
ACAD_PSEXT
 70
     0
  0
APPID
  5
742D
330
9
100
AcDbSymbolTableRecord
100
AcDbRegAppTableRecord
  2
ACAD_DSTYLE_DIMJAG
 70
     0
  0
APPID
  5
742E
330
9
100
AcDbSymbolTableRecord
100
AcDbRegAppTableRecord
  2
ACAD_DSTYLE_DIMTALN
 70
     0
  0
APPID
  5
835C
330
9
100
AcDbSymbolTableRecord
100
AcDbRegAppTableRecord
  2
AcAecLayerStandard
 70
     0
  0
ENDTAB
  0
TABLE
  2
DIMSTYLE
  5
A
330
0
100
AcDbSymbolTable
 70
    24
100
AcDbDimStyleTable
  0
DIMSTYLE
105
73
102
{ACAD_REACTORS
102
}
330
A
100
AcDbSymbolTableRecord
100
AcDbDimStyleTableRecord
  2
NEMY-1
 70
     0
 41
3.0
 42
1.5
 43
10.0
 44
1.0
 73
     0
 74
     0
 77
     1
 78
     8
140
3.0
141
1.5
143
0.03937007874016
147
1.0
171
     3
172
     1
178
     0
271
     1
272
     1
274
     3
283
     0
284
     8
340
11
341
8F
342
8F
  0
DIMSTYLE
105
4DCE
330
A
100
AcDbSymbolTableRecord
100
AcDbDimStyleTableRecord
  2
NEMY-2
 70
     0
 40
2.0
 41
3.0
 42
1.5
 43
10.0
 44
1.0
 73
     0
 74
     0
 77
     1
 78
     8
140
3.0
141
1.5
143
0.03937007874016
147
1.0
171
     3
172
     1
178
     0
271
     1
272
     1
274
     3
283
     0
284
     8
340
11
341
8F
342
8F
  0
DIMSTYLE
105
4DCF
330
A
100
AcDbSymbolTableRecord
100
AcDbDimStyleTableRecord
  2
NEMY-3
 70
     0
 40
3.0
 41
3.0
 42
1.5
 43
10.0
 44
1.0
 73
     0
 74
     0
 77
     1
 78
     8
140
3.0
141
1.5
143
0.03937007874016
147
1.0
171
     3
172
     1
178
     0
271
     1
272
     1
274
     3
283
     0
284
     8
340
11
341
8F
342
8F
  0
DIMSTYLE
105
4DD0
330
A
100
AcDbSymbolTableRecord
100
AcDbDimStyleTableRecord
  2
NEMY-5
 70
     0
 40
5.0
 41
3.0
 42
1.5
 43
10.0
 44
1.0
 73
     0
 74
     0
 77
     1
 78
     8
140
3.0
141
1.5
143
0.03937007874016
147
1.0
171
     3
172
     1
178
     0
271
     1
272
     1
274
     3
283
     0
284
     8
340
11
341
8F
342
8F
  0
DIMSTYLE
105
4DD1
330
A
100
AcDbSymbolTableRecord
100
AcDbDimStyleTableRecord
  2
NEMY-8
 70
     0
 40
8.0
 41
3.0
 42
1.5
 43
10.0
 44
1.0
 73
     0
 74
     0
 77
     1
 78
     8
140
3.0
141
1.5
143
0.03937007874016
147
1.0
171
     3
172
     1
178
     0
271
     1
272
     1
274
     3
283
     0
284
     8
340
11
341
8F
342
8F
  0
DIMSTYLE
105
4DD2
330
A
100
AcDbSymbolTableRecord
100
AcDbDimStyleTableRecord
  2
NEMY-15
 70
     0
 40
15.0
 41
3.0
 42
1.5
 43
10.0
 44
1.0
 73
     0
 74
     0
 77
     1
 78
     8
140
3.0
141
1.5
143
0.03937007874016
147
1.0
171
     3
172
     1
178
     0
271
     1
272
     1
274
     3
283
     0
284
     8
340
11
341
8F
342
8F
  0
DIMSTYLE
105
4DD3
330
A
100
AcDbSymbolTableRecord
100
AcDbDimStyleTableRecord
  2
NEMY-10
 70
     0
 40
10.0
 41
3.0
 42
1.5
 43
10.0
 44
1.0
 73
     0
 74
     0
 77
     1
 78
     8
140
3.0
141
1.5
143
0.03937007874016
147
1.0
171
     3
172
     1
178
     0
271
     1
272
     1
274
     3
283
     0
284
     8
340
11
341
8F
342
8F
  0
DIMSTYLE
105
4DD4
330
A
100
AcDbSymbolTableRecord
100
AcDbDimStyleTableRecord
  2
NEMY-25
 70
     0
 40
25.0
 41
3.0
 42
1.5
 43
10.0
 44
1.0
 73
     0
 74
     0
 77
     1
 78
     8
140
3.0
141
1.5
143
0.03937007874016
147
1.0
171
     3
172
     1
178
     0
271
     1
272
     1
274
     3
283
     0
284
     8
340
11
341
8F
342
8F
  0
DIMSTYLE
105
4DD5
330
A
100
AcDbSymbolTableRecord
100
AcDbDimStyleTableRecord
  2
NEMY-30
 70
     0
 40
30.0
 41
3.0
 42
1.5
 43
10.0
 44
1.0
 73
     0
 74
     0
 77
     1
 78
     8
140
3.0
141
1.5
143
0.03937007874016
147
1.0
171
     3
172
     1
178
     0
271
     1
272
     1
274
     3
283
     0
284
     8
340
11
341
8F
342
8F
  0
DIMSTYLE
105
4DD6
330
A
100
AcDbSymbolTableRecord
100
AcDbDimStyleTableRecord
  2
NEMY-50
 70
     0
 40
50.0
 41
3.0
 42
1.5
 43
10.0
 44
1.0
 73
     0
 74
     0
 77
     1
 78
     8
140
3.0
141
1.5
143
0.03937007874016
147
1.0
171
     3
172
     1
178
     0
271
     1
272
     1
274
     3
283
     0
284
     8
340
11
341
8F
342
8F
  0
DIMSTYLE
105
4E6F
330
A
100
AcDbSymbolTableRecord
100
AcDbDimStyleTableRecord
  2
NEMY-20
 70
     0
 40
20.0
 41
3.0
 42
1.5
 43
10.0
 44
1.0
 73
     0
 74
     0
 77
     1
 78
     8
140
3.0
141
1.5
143
0.03937007874016
147
1.0
171
     3
172
     1
178
     0
271
     1
272
     1
274
     3
283
     0
284
     8
340
11
341
8F
342
8F
  0
DIMSTYLE
105
4F44
330
A
100
AcDbSymbolTableRecord
100
AcDbDimStyleTableRecord
  2
NEMY-10$3
 70
     0
 40
10.0
 41
3.0
 42
1.5
 43
10.0
 44
1.0
 77
     1
 78
     8
140
3.0
141
1.5
143
0.03937007874016
147
1.0
171
     3
172
     1
178
     0
271
     1
272
     1
274
     3
283
     0
284
     8
340
11
341
8F
342
8F
  0
DIMSTYLE
105
4F45
330
A
100
AcDbSymbolTableRecord
100
AcDbDimStyleTableRecord
  2
NEMY-1$3
 70
     0
 41
3.0
 42
1.5
 43
10.0
 44
1.0
 77
     1
 78
     8
140
3.0
141
1.5
143
0.03937007874016
147
1.0
171
     3
172
     1
178
     0
271
     1
272
     1
274
     3
283
     0
284
     8
340
11
341
8F
342
8F
  0
DIMSTYLE
105
4F46
330
A
100
AcDbSymbolTableRecord
100
AcDbDimStyleTableRecord
  2
NEMY-12
 70
     0
 40
12.0
 41
3.0
 42
1.5
 43
10.0
 44
1.0
 73
     0
 74
     0
 77
     1
 78
     8
140
3.0
141
1.5
143
0.03937007874016
147
1.0
171
     3
172
     1
178
     0
271
     1
272
     1
274
     3
283
     0
284
     8
340
11
341
8F
342
8F
  0
DIMSTYLE
105
4F47
330
A
100
AcDbSymbolTableRecord
100
AcDbDimStyleTableRecord
  2
NEMY-12$3
 70
     0
 40
12.0
 41
3.0
 42
1.5
 43
10.0
 44
1.0
 77
     1
 78
     8
140
3.0
141
1.5
143
0.03937007874016
147
1.0
171
     3
172
     1
178
     0
271
     1
272
     1
274
     3
283
     0
284
     8
340
11
341
8F
342
8F
  0
DIMSTYLE
105
5E6E
330
A
100
AcDbSymbolTableRecord
100
AcDbDimStyleTableRecord
  2
NEMY-8$3
 70
     0
 40
8.0
 41
3.0
 42
1.5
 43
10.0
 44
1.0
 77
     1
 78
     8
140
3.0
141
1.5
143
0.03937007874016
147
1.0
171
     3
172
     1
178
     0
271
     1
272
     1
274
     3
283
     0
284
     8
340
11
341
8F
342
8F
  0
DIMSTYLE
105
5E6F
330
A
100
AcDbSymbolTableRecord
100
AcDbDimStyleTableRecord
  2
NEMY-50$3
 70
     0
 40
50.0
 41
3.0
 42
1.5
 43
10.0
 44
1.0
 77
     1
 78
     8
140
3.0
141
1.5
143
0.03937007874016
147
1.0
171
     3
172
     1
178
     0
271
     1
272
     1
274
     3
283
     0
284
     8
340
11
341
8F
342
8F
  0
DIMSTYLE
105
5E70
330
A
100
AcDbSymbolTableRecord
100
AcDbDimStyleTableRecord
  2
NEMY-5$3
 70
     0
 40
5.0
 41
3.0
 42
1.5
 43
10.0
 44
1.0
 77
     1
 78
     8
140
3.0
141
1.5
143
0.03937007874016
147
1.0
171
     3
172
     1
178
     0
271
     1
272
     1
274
     3
283
     0
284
     8
340
11
341
8F
342
8F
  0
DIMSTYLE
105
5E71
330
A
100
AcDbSymbolTableRecord
100
AcDbDimStyleTableRecord
  2
NEMY-30$3
 70
     0
 40
30.0
 41
3.0
 42
1.5
 43
10.0
 44
1.0
 77
     1
 78
     8
140
3.0
141
1.5
143
0.03937007874016
147
1.0
171
     3
172
     1
178
     0
271
     1
272
     1
274
     3
283
     0
284
     8
340
11
341
8F
342
8F
  0
DIMSTYLE
105
5E72
330
A
100
AcDbSymbolTableRecord
100
AcDbDimStyleTableRecord
  2
NEMY-3$3
 70
     0
 40
3.0
 41
3.0
 42
1.5
 43
10.0
 44
1.0
 77
     1
 78
     8
140
3.0
141
1.5
143
0.03937007874016
147
1.0
171
     3
172
     1
178
     0
271
     1
272
     1
274
     3
283
     0
284
     8
340
11
341
8F
342
8F
  0
DIMSTYLE
105
5E73
330
A
100
AcDbSymbolTableRecord
100
AcDbDimStyleTableRecord
  2
NEMY-25$3
 70
     0
 40
25.0
 41
3.0
 42
1.5
 43
10.0
 44
1.0
 77
     1
 78
     8
140
3.0
141
1.5
143
0.03937007874016
147
1.0
171
     3
172
     1
178
     0
271
     1
272
     1
274
     3
283
     0
284
     8
340
11
341
8F
342
8F
  0
DIMSTYLE
105
5E74
330
A
100
AcDbSymbolTableRecord
100
AcDbDimStyleTableRecord
  2
NEMY-20$3
 70
     0
 40
20.0
 41
3.0
 42
1.5
 43
10.0
 44
1.0
 77
     1
 78
     8
140
3.0
141
1.5
143
0.03937007874016
147
1.0
171
     3
172
     1
178
     0
271
     1
272
     1
274
     3
283
     0
284
     8
340
11
341
8F
342
8F
  0
DIMSTYLE
105
5E75
330
A
100
AcDbSymbolTableRecord
100
AcDbDimStyleTableRecord
  2
NEMY-2$3
 70
     0
 40
2.0
 41
3.0
 42
1.5
 43
10.0
 44
1.0
 77
     1
 78
     8
140
3.0
141
1.5
143
0.03937007874016
147
1.0
171
     3
172
     1
178
     0
271
     1
272
     1
274
     3
283
     0
284
     8
340
11
341
8F
342
8F
  0
DIMSTYLE
105
5E76
330
A
100
AcDbSymbolTableRecord
100
AcDbDimStyleTableRecord
  2
NEMY-15$3
 70
     0
 40
15.0
 41
3.0
 42
1.5
 43
10.0
 44
1.0
 77
     1
 78
     8
140
3.0
141
1.5
143
0.03937007874016
147
1.0
171
     3
172
     1
178
     0
271
     1
272
     1
274
     3
283
     0
284
     8
340
11
341
8F
342
8F
  0
ENDTAB
  0
TABLE
  2
BLOCK_RECORD
  5
1
330
0
100
AcDbSymbolTable
 70
     9
  0
BLOCK_RECORD
  5
1F
102
{ACAD_XDICTIONARY
360
969E
102
}
330
1
100
AcDbSymbolTableRecord
100
AcDbBlockTableRecord
  2
*Model_Space
340
22
  0
BLOCK_RECORD
  5
1B
330
1
100
AcDbSymbolTableRecord
100
AcDbBlockTableRecord
  2
*Paper_Space
340
1E
  0
BLOCK_RECORD
  5
8F
330
1
100
AcDbSymbolTableRecord
100
AcDbBlockTableRecord
  2
_Open
340
0
102
{BLKREFS
331
DB0B
331
DB18
331
DB4F
331
E141
331
E14E
331
E416
331
E422
331
DB0C
331
DB19
331
DB50
331
E142
331
E14F
331
E417
331
E423
331
E15D
331
E15E
102
}
  0
BLOCK_RECORD
  5
DB05
330
1
100
AcDbSymbolTableRecord
100
AcDbBlockTableRecord
  2
*D813
340
0
  0
BLOCK_RECORD
  5
DB12
330
1
100
AcDbSymbolTableRecord
100
AcDbBlockTableRecord
  2
*D814
340
0
  0
BLOCK_RECORD
  5
DB49
330
1
100
AcDbSymbolTableRecord
100
AcDbBlockTableRecord
  2
*D818
340
0
  0
BLOCK_RECORD
  5
E13B
330
1
100
AcDbSymbolTableRecord
100
AcDbBlockTableRecord
  2
*D841
340
0
  0
BLOCK_RECORD
  5
E148
330
1
100
AcDbSymbolTableRecord
100
AcDbBlockTableRecord
  2
*D842
340
0
  0
BLOCK_RECORD
  5
E155
330
1
100
AcDbSymbolTableRecord
100
AcDbBlockTableRecord
  2
*D843
340
0
  0
BLOCK_RECORD
  5
E410
330
1
100
AcDbSymbolTableRecord
100
AcDbBlockTableRecord
  2
*D847
340
0
  0
BLOCK_RECORD
  5
E41C
330
1
100
AcDbSymbolTableRecord
100
AcDbBlockTableRecord
  2
*D848
340
0
  0
ENDTAB
  0
ENDSEC
  0
SECTION
  2
BLOCKS
  0
BLOCK
  5
20
330
1F
100
AcDbEntity
  8
0
100
AcDbBlockBegin
  2
*Model_Space
 70
     0
 10
0.0
 20
0.0
 30
0.0
  3
*Model_Space
  1

  0
ENDBLK
  5
21
330
1F
100
AcDbEntity
  8
0
100
AcDbBlockEnd
  0
BLOCK
  5
1C
330
1B
100
AcDbEntity
 67
     1
  8
0
100
AcDbBlockBegin
  2
*Paper_Space
 70
     0
 10
0.0
 20
0.0
 30
0.0
  3
*Paper_Space
  1

  0
ENDBLK
  5
1D
330
1B
100
AcDbEntity
 67
     1
  8
0
100
AcDbBlockEnd
  0
BLOCK
  5
93
330
8F
100
AcDbEntity
  8
0
100
AcDbBlockBegin
  2
_Open
 70
     0
 10
0.0
 20
0.0
 30
0.0
  3
_Open
  1

  0
LINE
  5
90
330
8F
100
AcDbEntity
  8
01注記寸法
 62
     0
370
    -2
100
AcDbLine
 10
-1.0
 20
0.1666666666666667
 30
0.0
 11
0.0
 21
0.0
 31
0.0
  0
LINE
  5
91
330
8F
100
AcDbEntity
  8
01注記寸法
 62
     0
370
    -2
100
AcDbLine
 10
-1.0
 20
-0.1666666666666667
 30
0.0
 11
0.0
 21
0.0
 31
0.0
  0
LINE
  5
92
330
8F
100
AcDbEntity
  8
01注記寸法
 62
     0
370
    -2
100
AcDbLine
 10
0.0
 20
0.0
 30
0.0
 11
-1.0
 21
0.0
 31
0.0
  0
ENDBLK
  5
94
330
8F
100
AcDbEntity
  8
0
100
AcDbBlockEnd
  0
BLOCK
  5
DB06
330
DB05
100
AcDbEntity
  8
0
100
AcDbBlockBegin
  2
*D813
 70
     1
 10
0.0
 20
0.0
 30
0.0
  3
*D813
  1

  0
LINE
  5
DB08
330
DB05
100
AcDbEntity
  8
01注記寸法
 62
     0
370
    -2
100
AcDbLine
 10
38.5
 20
197.0
 30
0.0
 11
29.0
 21
197.0
 31
0.0
  0
LINE
  5
DB09
330
DB05
100
AcDbEntity
  8
01注記寸法
 62
     0
370
    -2
100
AcDbLine
 10
38.5
 20
257.0
 30
0.0
 11
29.0
 21
257.0
 31
0.0
  0
LINE
  5
DB0A
330
DB05
100
AcDbEntity
  8
01注記寸法
 62
     0
370
    -2
100
AcDbLine
 10
30.0
 20
200.0
 30
0.0
 11
30.0
 21
254.0
 31
0.0
  0
INSERT
  5
DB0B
330
DB05
100
AcDbEntity
  8
01注記寸法
 62
     0
370
    -2
100
AcDbBlockReference
  2
_Open
 10
30.0
 20
197.0
 30
0.0
 41
3.0
 42
3.0
 43
3.0
 50
270.0
  0
INSERT
  5
DB0C
330
DB05
100
AcDbEntity
  8
01注記寸法
 62
     0
370
    -2
100
AcDbBlockReference
  2
_Open
 10
30.0
 20
257.0
 30
0.0
 41
3.0
 42
3.0
 43
3.0
 50
90.0
  0
MTEXT
  5
DB0D
330
DB05
100
AcDbEntity
  8
01注記寸法
 62
     0
100
AcDbMText
 10
27.5
 20
227.0
 30
0.0
 40
3.0
 41
0.0
 71
     5
 72
     1
  1
Ｄ
 11
5.921189464667499E-17
 21
1.0
 31
0.0
 73
     1
 44
1.0
  0
POINT
  5
DB0E
330
DB05
100
AcDbEntity
  8
Defpoints
 62
     0
100
AcDbPoint
 10
40.0
 20
197.0
 30
0.0
  0
POINT
  5
DB0F
330
DB05
100
AcDbEntity
  8
Defpoints
 62
     0
100
AcDbPoint
 10
40.0
 20
257.0
 30
0.0
  0
POINT
  5
DB10
330
DB05
100
AcDbEntity
  8
Defpoints
 62
     0
100
AcDbPoint
 10
30.0
 20
257.0
 30
0.0
  0
ENDBLK
  5
DB07
330
DB05
100
AcDbEntity
  8
0
100
AcDbBlockEnd
  0
BLOCK
  5
DB13
330
DB12
100
AcDbEntity
  8
0
100
AcDbBlockBegin
  2
*D814
 70
     1
 10
0.0
 20
0.0
 30
0.0
  3
*D814
  1

  0
LINE
  5
DB15
330
DB12
100
AcDbEntity
  8
01注記寸法
 62
     0
370
    -2
100
AcDbLine
 10
40.0
 20
258.5
 30
0.0
 11
40.0
 21
268.0
 31
0.0
  0
LINE
  5
DB16
330
DB12
100
AcDbEntity
  8
01注記寸法
 62
     0
370
    -2
100
AcDbLine
 10
140.0
 20
258.5
 30
0.0
 11
140.0
 21
268.0
 31
0.0
  0
LINE
  5
DB17
330
DB12
100
AcDbEntity
  8
01注記寸法
 62
     0
370
    -2
100
AcDbLine
 10
43.0
 20
267.0
 30
0.0
 11
137.0
 21
267.0
 31
0.0
  0
INSERT
  5
DB18
330
DB12
100
AcDbEntity
  8
01注記寸法
 62
     0
370
    -2
100
AcDbBlockReference
  2
_Open
 10
40.0
 20
267.0
 30
0.0
 41
3.0
 42
3.0
 43
3.0
 50
180.0
  0
INSERT
  5
DB19
330
DB12
100
AcDbEntity
  8
01注記寸法
 62
     0
370
    -2
100
AcDbBlockReference
  2
_Open
 10
140.0
 20
267.0
 30
0.0
 41
3.0
 42
3.0
 43
3.0
  0
MTEXT
  5
DB1A
330
DB12
100
AcDbEntity
  8
01注記寸法
 62
     0
100
AcDbMText
 10
90.0
 20
269.5
 30
0.0
 40
3.0
 41
0.0
 71
     5
 72
     1
  1
Ｗ
 73
     1
 44
1.0
  0
POINT
  5
DB1B
330
DB12
100
AcDbEntity
  8
Defpoints
 62
     0
100
AcDbPoint
 10
40.0
 20
257.0
 30
0.0
  0
POINT
  5
DB1C
330
DB12
100
AcDbEntity
  8
Defpoints
 62
     0
100
AcDbPoint
 10
140.0
 20
257.0
 30
0.0
  0
POINT
  5
DB1D
330
DB12
100
AcDbEntity
  8
Defpoints
 62
     0
100
AcDbPoint
 10
140.0
 20
267.0
 30
0.0
  0
ENDBLK
  5
DB14
330
DB12
100
AcDbEntity
  8
0
100
AcDbBlockEnd
  0
BLOCK
  5
DB4A
330
DB49
100
AcDbEntity
  8
0
100
AcDbBlockBegin
  2
*D818
 70
     1
 10
0.0
 20
0.0
 30
0.0
  3
*D818
  1

  0
LINE
  5
DB4C
330
DB49
100
AcDbEntity
  8
01注記寸法
 62
     0
370
    -2
100
AcDbLine
 10
38.49999999999955
 20
141.0
 30
0.0
 11
29.0
 21
141.0
 31
0.0
  0
LINE
  5
DB4D
330
DB49
100
AcDbEntity
  8
01注記寸法
 62
     0
370
    -2
100
AcDbLine
 10
38.5
 20
167.0
 30
0.0
 11
29.0
 21
167.0
 31
0.0
  0
LINE
  5
DB4E
330
DB49
100
AcDbEntity
  8
01注記寸法
 62
     0
370
    -2
100
AcDbLine
 10
30.0
 20
144.0
 30
0.0
 11
30.0
 21
164.0
 31
0.0
  0
INSERT
  5
DB4F
330
DB49
100
AcDbEntity
  8
01注記寸法
 62
     0
370
    -2
100
AcDbBlockReference
  2
_Open
 10
30.0
 20
141.0
 30
0.0
 41
3.0
 42
3.0
 43
3.0
 50
270.0
  0
INSERT
  5
DB50
330
DB49
100
AcDbEntity
  8
01注記寸法
 62
     0
370
    -2
100
AcDbBlockReference
  2
_Open
 10
30.0
 20
167.0
 30
0.0
 41
3.0
 42
3.0
 43
3.0
 50
90.0
  0
MTEXT
  5
DB51
330
DB49
100
AcDbEntity
  8
01注記寸法
 62
     0
100
AcDbMText
 10
27.5
 20
154.0
 30
0.0
 40
3.0
 41
0.0
 71
     5
 72
     1
  1
26
 11
0.0
 21
1.0
 31
0.0
 73
     1
 44
1.0
  0
POINT
  5
DB52
330
DB49
100
AcDbEntity
  8
Defpoints
 62
     0
100
AcDbPoint
 10
39.99999999999955
 20
141.0
 30
0.0
  0
POINT
  5
DB53
330
DB49
100
AcDbEntity
  8
Defpoints
 62
     0
100
AcDbPoint
 10
40.0
 20
167.0
 30
0.0
  0
POINT
  5
DB54
330
DB49
100
AcDbEntity
  8
Defpoints
 62
     0
100
AcDbPoint
 10
30.0
 20
167.0
 30
0.0
  0
ENDBLK
  5
DB4B
330
DB49
100
AcDbEntity
  8
0
100
AcDbBlockEnd
  0
BLOCK
  5
E13C
330
E13B
100
AcDbEntity
  8
0
100
AcDbBlockBegin
  2
*D841
 70
     1
 10
0.0
 20
0.0
 30
0.0
  3
*D841
  1

  0
LINE
  5
E13E
330
E13B
100
AcDbEntity
  8
01注記寸法
 62
     0
370
    -2
100
AcDbLine
 10
245.0
 20
247.5
 30
0.0
 11
245.0
 21
254.5
 31
0.0
  0
LINE
  5
E13F
330
E13B
100
AcDbEntity
  8
01注記寸法
 62
     0
370
    -2
100
AcDbLine
 10
232.5
 20
237.0
 30
0.0
 11
232.5
 21
254.5
 31
0.0
  0
LINE
  5
E140
330
E13B
100
AcDbEntity
  8
01注記寸法
 62
     0
370
    -2
100
AcDbLine
 10
242.0
 20
253.5
 30
0.0
 11
235.5
 21
253.5
 31
0.0
  0
INSERT
  5
E141
330
E13B
100
AcDbEntity
  8
01注記寸法
 62
     0
370
    -2
100
AcDbBlockReference
  2
_Open
 10
245.0
 20
253.5
 30
0.0
 41
3.0
 42
3.0
 43
3.0
  0
INSERT
  5
E142
330
E13B
100
AcDbEntity
  8
01注記寸法
 62
     0
370
    -2
100
AcDbBlockReference
  2
_Open
 10
232.5
 20
253.5
 30
0.0
 41
3.0
 42
3.0
 43
3.0
 50
180.0
  0
MTEXT
  5
E143
330
E13B
100
AcDbEntity
  8
01注記寸法
 62
     0
100
AcDbMText
 10
238.75
 20
256.0
 30
0.0
 40
3.0
 41
0.0
 71
     5
 72
     1
  1
25
 73
     1
 44
1.0
  0
POINT
  5
E144
330
E13B
100
AcDbEntity
  8
Defpoints
 62
     0
100
AcDbPoint
 10
245.0
 20
246.0
 30
0.0
  0
POINT
  5
E145
330
E13B
100
AcDbEntity
  8
Defpoints
 62
     0
100
AcDbPoint
 10
232.5
 20
235.5
 30
0.0
  0
POINT
  5
E146
330
E13B
100
AcDbEntity
  8
Defpoints
 62
     0
100
AcDbPoint
 10
232.5
 20
253.5
 30
0.0
  0
ENDBLK
  5
E13D
330
E13B
100
AcDbEntity
  8
0
100
AcDbBlockEnd
  0
BLOCK
  5
E149
330
E148
100
AcDbEntity
  8
0
100
AcDbBlockBegin
  2
*D842
 70
     1
 10
0.0
 20
0.0
 30
0.0
  3
*D842
  1

  0
LINE
  5
E14B
330
E148
100
AcDbEntity
  8
01注記寸法
 62
     0
370
    -2
100
AcDbLine
 10
231.0
 20
233.0
 30
0.0
 11
209.0
 21
233.0
 31
0.0
  0
LINE
  5
E14C
330
E148
100
AcDbEntity
  8
01注記寸法
 62
     0
370
    -2
100
AcDbLine
 10
231.0
 20
224.0
 30
0.0
 11
209.0
 21
224.0
 31
0.0
  0
LINE
  5
E14D
330
E148
100
AcDbEntity
  8
01注記寸法
 62
     0
370
    -2
100
AcDbLine
 10
210.0
 20
230.0
 30
0.0
 11
210.0
 21
227.0
 31
0.0
  0
INSERT
  5
E14E
330
E148
100
AcDbEntity
  8
01注記寸法
 62
     0
370
    -2
100
AcDbBlockReference
  2
_Open
 10
210.0
 20
233.0
 30
0.0
 41
3.0
 42
3.0
 43
3.0
 50
90.0
  0
INSERT
  5
E14F
330
E148
100
AcDbEntity
  8
01注記寸法
 62
     0
370
    -2
100
AcDbBlockReference
  2
_Open
 10
210.0
 20
224.0
 30
0.0
 41
3.0
 42
3.0
 43
3.0
 50
270.0
  0
MTEXT
  5
E150
330
E148
100
AcDbEntity
  8
01注記寸法
 62
     0
100
AcDbMText
 10
207.5
 20
228.5
 30
0.0
 40
3.0
 41
0.0
 71
     5
 72
     1
  1
18
 11
0.0
 21
1.0
 31
0.0
 73
     1
 44
1.0
  0
POINT
  5
E151
330
E148
100
AcDbEntity
  8
Defpoints
 62
     0
100
AcDbPoint
 10
232.5
 20
233.0
 30
0.0
  0
POINT
  5
E152
330
E148
100
AcDbEntity
  8
Defpoints
 62
     0
100
AcDbPoint
 10
232.5
 20
224.0
 30
0.0
  0
POINT
  5
E153
330
E148
100
AcDbEntity
  8
Defpoints
 62
     0
100
AcDbPoint
 10
210.0
 20
224.0
 30
0.0
  0
ENDBLK
  5
E14A
330
E148
100
AcDbEntity
  8
0
100
AcDbBlockEnd
  0
BLOCK
  5
E156
330
E155
100
AcDbEntity
  8
0
100
AcDbBlockBegin
  2
*D843
 70
     1
 10
0.0
 20
0.0
 30
0.0
  3
*D843
  1

  0
LINE
  5
E158
330
E155
100
AcDbEntity
  8
01注記寸法
 62
     0
370
    -2
100
AcDbLine
 10
285.6928943586678
 20
251.0
 30
0.0
 11
293.5028943586677
 21
251.0
 31
0.0
  0
LINE
  5
E159
330
E155
100
AcDbEntity
  8
01注記寸法
 62
     0
370
    -2
100
AcDbLine
 10
293.5028943586677
 20
251.0
 30
0.0
 11
301.587348246271
 21
235.1786082388302
 31
0.0
  0
LINE
  5
E15A
330
E155
100
AcDbEntity
  8
01注記寸法
 62
     0
370
    -2
100
AcDbLine
 10
308.412651753729
 20
221.8213917611698
 30
0.0
 11
309.7777124552206
 21
219.1499484656377
 31
0.0
  0
MTEXT
  5
E15B
330
E155
100
AcDbEntity
  8
01注記寸法
 62
     0
100
AcDbMText
 10
289.0978943586678
 20
253.743
 30
0.0
 40
3.0
 41
0.0
 71
     5
 72
     1
  1
φ18
 73
     1
 44
1.0
  0
LINE
  5
E15C
330
E155
100
AcDbEntity
  8
01注記寸法
 62
     0
370
    -2
100
AcDbLine
 10
307.0475910522374
 20
224.4928350567019
 30
0.0
 11
302.9524089477626
 21
232.5071649432981
 31
0.0
  0
INSERT
  5
E15D
330
E155
100
AcDbEntity
  8
01注記寸法
 62
     0
370
    -2
100
AcDbBlockReference
  2
_Open
 10
307.0475910522374
 20
224.4928350567019
 30
0.0
 41
3.0
 42
3.0
 43
3.0
 50
117.0662361165039
  0
INSERT
  5
E15E
330
E155
100
AcDbEntity
  8
01注記寸法
 62
     0
370
    -2
100
AcDbBlockReference
  2
_Open
 10
302.9524089477626
 20
232.5071649432981
 30
0.0
 41
3.0
 42
3.0
 43
3.0
 50
297.0662361165039
  0
POINT
  5
E15F
330
E155
100
AcDbEntity
  8
Defpoints
 62
     0
100
AcDbPoint
 10
302.9524089477626
 20
232.5071649432981
 30
0.0
  0
POINT
  5
E160
330
E155
100
AcDbEntity
  8
Defpoints
 62
     0
100
AcDbPoint
 10
307.0475910522374
 20
224.4928350567019
 30
0.0
  0
ENDBLK
  5
E157
330
E155
100
AcDbEntity
  8
0
100
AcDbBlockEnd
  0
BLOCK
  5
E411
330
E410
100
AcDbEntity
  8
0
100
AcDbBlockBegin
  2
*D847
 70
     1
 10
0.0
 20
0.0
 30
0.0
  3
*D847
  1

  0
LINE
  5
E413
330
E410
100
AcDbEntity
  8
01注記寸法
 62
     0
370
    -2
100
AcDbLine
 10
107.5000000000004
 20
17.5
 30
0.0
 11
112.9999999999999
 21
17.5
 31
0.0
  0
LINE
  5
E414
330
E410
100
AcDbEntity
  8
01注記寸法
 62
     0
370
    -2
100
AcDbLine
 10
102.5000000000004
 20
28.5
 30
0.0
 11
112.9999999999999
 21
28.5
 31
0.0
  0
LINE
  5
E415
330
E410
100
AcDbEntity
  8
01注記寸法
 62
     0
370
    -2
100
AcDbLine
 10
111.9999999999999
 20
20.5
 30
0.0
 11
111.9999999999999
 21
25.5
 31
0.0
  0
INSERT
  5
E416
330
E410
100
AcDbEntity
  8
01注記寸法
 62
     0
370
    -2
100
AcDbBlockReference
  2
_Open
 10
111.9999999999999
 20
17.5
 30
0.0
 41
3.0
 42
3.0
 43
3.0
 50
270.0
  0
INSERT
  5
E417
330
E410
100
AcDbEntity
  8
01注記寸法
 62
     0
370
    -2
100
AcDbBlockReference
  2
_Open
 10
111.9999999999999
 20
28.5
 30
0.0
 41
3.0
 42
3.0
 43
3.0
 50
90.0
  0
MTEXT
  5
E418
330
E410
100
AcDbEntity
  8
01注記寸法
 62
     0
100
AcDbMText
 10
109.2494999999999
 20
23.0
 30
0.0
 40
3.0
 41
0.0
 71
     5
 72
     1
  1
(22)
 11
0.0
 21
1.0
 31
0.0
 73
     1
 44
1.0
  0
POINT
  5
E419
330
E410
100
AcDbEntity
  8
Defpoints
 62
     0
100
AcDbPoint
 10
106.0000000000004
 20
17.5
 30
0.0
  0
POINT
  5
E41A
330
E410
100
AcDbEntity
  8
Defpoints
 62
     0
100
AcDbPoint
 10
101.0000000000004
 20
28.5
 30
0.0
  0
POINT
  5
E41B
330
E410
100
AcDbEntity
  8
Defpoints
 62
     0
100
AcDbPoint
 10
111.9999999999999
 20
28.5
 30
0.0
  0
ENDBLK
  5
E412
330
E410
100
AcDbEntity
  8
0
100
AcDbBlockEnd
  0
BLOCK
  5
E41D
330
E41C
100
AcDbEntity
  8
0
100
AcDbBlockBegin
  2
*D848
 70
     1
 10
0.0
 20
0.0
 30
0.0
  3
*D848
  1

  0
LINE
  5
E41F
330
E41C
100
AcDbEntity
  8
01注記寸法
 62
     0
370
    -2
100
AcDbLine
 10
107.5
 20
17.5
 30
0.0
 11
125.5
 21
17.5
 31
0.0
  0
LINE
  5
E420
330
E41C
100
AcDbEntity
  8
01注記寸法
 62
     0
370
    -2
100
AcDbLine
 10
89.49552102785128
 20
46.0
 30
0.0
 11
125.5
 21
46.0
 31
0.0
  0
LINE
  5
E421
330
E41C
100
AcDbEntity
  8
01注記寸法
 62
     0
370
    -2
100
AcDbLine
 10
124.5
 20
20.5
 30
0.0
 11
124.5
 21
43.0
 31
0.0
  0
INSERT
  5
E422
330
E41C
100
AcDbEntity
  8
01注記寸法
 62
     0
370
    -2
100
AcDbBlockReference
  2
_Open
 10
124.5
 20
17.5
 30
0.0
 41
3.0
 42
3.0
 43
3.0
 50
270.0
  0
INSERT
  5
E423
330
E41C
100
AcDbEntity
  8
01注記寸法
 62
     0
370
    -2
100
AcDbBlockReference
  2
_Open
 10
124.5
 20
46.0
 30
0.0
 41
3.0
 42
3.0
 43
3.0
 50
90.0
  0
MTEXT
  5
E424
330
E41C
100
AcDbEntity
  8
01注記寸法
 62
     0
100
AcDbMText
 10
121.6895
 20
31.75
 30
0.0
 40
3.0
 41
0.0
 71
     5
 72
     1
  1
基礎上長(Ｌ)
 11
0.0
 21
1.0
 31
0.0
 73
     1
 44
1.0
  0
POINT
  5
E425
330
E41C
100
AcDbEntity
  8
Defpoints
 62
     0
100
AcDbPoint
 10
106.0
 20
17.5
 30
0.0
  0
POINT
  5
E426
330
E41C
100
AcDbEntity
  8
Defpoints
 62
     0
100
AcDbPoint
 10
87.99552102785128
 20
46.0
 30
0.0
  0
POINT
  5
E427
330
E41C
100
AcDbEntity
  8
Defpoints
 62
     0
100
AcDbPoint
 10
124.5
 20
46.0
 30
0.0
  0
ENDBLK
  5
E41E
330
E41C
100
AcDbEntity
  8
0
100
AcDbBlockEnd
  0
ENDSEC
  0
SECTION
  2
ENTITIES
  0
LWPOLYLINE
  5
D922
330
1F
100
AcDbEntity
  8
02実線
100
AcDbPolyline
 90
        4
 70
     1
 43
0.0
 10
40.0
 20
197.0
 10
40.0
 20
257.0
 10
140.0
 20
257.0
 10
140.0
 20
197.0
  0
LINE
  5
D927
330
1F
100
AcDbEntity
  8
04一点鎖線
100
AcDbLine
 10
90.0
 20
192.0
 30
0.0
 11
90.0
 21
262.0
 31
0.0
  0
LINE
  5
D928
330
1F
100
AcDbEntity
  8
04一点鎖線
100
AcDbLine
 10
145.0
 20
227.0
 30
0.0
 11
35.0
 21
227.0
 31
0.0
  0
LWPOLYLINE
  5
DA56
102
{ACAD_REACTORS
330
DAFC
102
}
330
1F
100
AcDbEntity
  8
02実線
100
AcDbPolyline
 90
        4
 70
     1
 43
0.0
 10
188.5
 20
255.0000000000007
 10
188.5
 20
249.0000000000007
 10
191.3000000000002
 20
249.0000000000007
 10
191.3000000000002
 20
255.0000000000007
  0
LWPOLYLINE
  5
DA57
102
{ACAD_REACTORS
330
DAFC
102
}
330
1F
100
AcDbEntity
  8
02実線
100
AcDbPolyline
 90
        4
 70
     1
 43
0.0
 10
188.5
 20
235.0000000000007
 10
188.5
 20
229.0000000000007
 10
191.3000000000002
 20
229.0000000000007
 10
191.3000000000002
 20
235.0000000000007
  0
LWPOLYLINE
  5
DA58
102
{ACAD_REACTORS
330
DAFC
102
}
330
1F
100
AcDbEntity
  8
02実線
100
AcDbPolyline
 90
        4
 70
     1
 43
0.0
 10
188.5
 20
215.0000000000007
 10
188.5
 20
209.0000000000008
 10
191.3000000000002
 20
209.0000000000008
 10
191.3000000000002
 20
215.0000000000007
  0
LWPOLYLINE
  5
DA59
102
{ACAD_REACTORS
330
DAFC
102
}
330
1F
100
AcDbEntity
  8
02実線
100
AcDbPolyline
 90
        4
 70
     1
 43
0.0
 10
174.0
 20
209.5000000000003
 10
174.0
 20
214.5000000000004
 10
177.5
 20
214.5000000000004
 10
177.5
 20
209.5000000000003
  0
LWPOLYLINE
  5
DA5A
102
{ACAD_REACTORS
330
DAFC
102
}
330
1F
100
AcDbEntity
  8
02実線
100
AcDbPolyline
 90
        4
 70
     1
 43
0.0
 10
174.0
 20
229.5000000000005
 10
174.0
 20
234.5000000000005
 10
177.5
 20
234.5000000000005
 10
177.5
 20
229.5000000000005
  0
LWPOLYLINE
  5
DA5B
102
{ACAD_REACTORS
330
DAFC
102
}
330
1F
100
AcDbEntity
  8
02実線
100
AcDbPolyline
 90
        4
 70
     1
 43
0.0
 10
174.0
 20
249.5000000000005
 10
174.0
 20
254.5000000000005
 10
177.5
 20
254.5000000000005
 10
177.5
 20
249.5000000000005
  0
LWPOLYLINE
  5
DA5C
102
{ACAD_REACTORS
330
DAFC
102
}
330
1F
100
AcDbEntity
  8
02実線
100
AcDbPolyline
 90
        4
 70
     1
 43
0.0
 10
177.5
 20
257.0000000000005
 10
177.5
 20
197.0
 10
188.5
 20
197.0
 10
188.5
 20
257.0000000000005
  0
LWPOLYLINE
  5
DA5D
102
{ACAD_REACTORS
330
DAFC
102
}
330
1F
100
AcDbEntity
  8
02実線
100
AcDbPolyline
 90
        4
 70
     1
 43
0.0
 10
190.6999999999998
 20
238.75
 10
190.6999999999998
 20
245.25
 10
188.5
 20
245.25
 10
188.5
 20
238.75
  0
LWPOLYLINE
  5
DA5E
102
{ACAD_REACTORS
330
DAFC
102
}
330
1F
100
AcDbEntity
  8
02実線
100
AcDbPolyline
 90
        4
 70
     1
 43
0.0
 10
190.6999999999998
 20
218.75
 10
190.6999999999998
 20
225.25
 10
188.5
 20
225.25
 10
188.5
 20
218.75
  0
LWPOLYLINE
  5
DA5F
102
{ACAD_REACTORS
330
DAFC
102
}
330
1F
100
AcDbEntity
  8
02実線
100
AcDbPolyline
 90
        4
 70
     1
 43
0.0
 10
190.6999999999998
 20
198.7499999999999
 10
190.6999999999998
 20
205.2499999999999
 10
188.5
 20
205.2499999999999
 10
188.5
 20
198.7499999999999
  0
LWPOLYLINE
  5
DA60
102
{ACAD_REACTORS
330
DAFC
102
}
330
1F
100
AcDbEntity
  8
02実線
100
AcDbPolyline
 90
        4
 70
     1
 43
0.0
 10
177.5
 20
245.7500000000005
 10
177.5
 20
238.2500000000005
 10
175.6999999999998
 20
238.2500000000005
 10
175.6999999999998
 20
245.7500000000005
  0
LWPOLYLINE
  5
DA61
102
{ACAD_REACTORS
330
DAFC
102
}
330
1F
100
AcDbEntity
  8
02実線
100
AcDbPolyline
 90
        4
 70
     1
 43
0.0
 10
177.5
 20
225.7500000000004
 10
177.5
 20
218.2500000000004
 10
175.6999999999998
 20
218.2500000000004
 10
175.6999999999998
 20
225.7500000000004
  0
LWPOLYLINE
  5
DA62
102
{ACAD_REACTORS
330
DAFC
102
}
330
1F
100
AcDbEntity
  8
02実線
100
AcDbPolyline
 90
        4
 70
     1
 43
0.0
 10
177.5
 20
205.7500000000003
 10
177.5
 20
198.2500000000003
 10
175.6999999999998
 20
198.2500000000003
 10
175.6999999999998
 20
205.7500000000003
  0
LINE
  5
DA63
102
{ACAD_REACTORS
330
DAFC
102
}
330
1F
100
AcDbEntity
  8
02実線
100
AcDbLine
 10
188.5
 20
238.2500000000007
 30
0.0
 11
190.3000000000002
 21
238.2500000000007
 31
0.0
  0
LINE
  5
DA64
102
{ACAD_REACTORS
330
DAFC
102
}
330
1F
100
AcDbEntity
  8
02実線
100
AcDbLine
 10
190.3000000000002
 20
245.7500000000007
 30
0.0
 11
188.5
 21
245.7500000000007
 31
0.0
  0
LINE
  5
DA65
102
{ACAD_REACTORS
330
DAFC
102
}
330
1F
100
AcDbEntity
  8
02実線
100
AcDbLine
 10
188.5
 20
218.2500000000007
 30
0.0
 11
190.3000000000002
 21
218.2500000000007
 31
0.0
  0
LINE
  5
DA66
102
{ACAD_REACTORS
330
DAFC
102
}
330
1F
100
AcDbEntity
  8
02実線
100
AcDbLine
 10
190.3000000000002
 20
225.7500000000007
 30
0.0
 11
188.5
 21
225.7500000000007
 31
0.0
  0
LINE
  5
DA67
102
{ACAD_REACTORS
330
DAFC
102
}
330
1F
100
AcDbEntity
  8
02実線
100
AcDbLine
 10
188.5
 20
198.2500000000008
 30
0.0
 11
190.3000000000002
 21
198.2500000000008
 31
0.0
  0
LINE
  5
DA68
102
{ACAD_REACTORS
330
DAFC
102
}
330
1F
100
AcDbEntity
  8
02実線
100
AcDbLine
 10
190.3000000000002
 20
205.7500000000008
 30
0.0
 11
188.5
 21
205.7500000000008
 31
0.0
  0
LINE
  5
DA69
102
{ACAD_REACTORS
330
DAFC
102
}
330
1F
100
AcDbEntity
  8
02実線
100
AcDbLine
 10
175.3000000000002
 20
198.7500000000003
 30
0.0
 11
175.3000000000002
 21
205.2500000000003
 31
0.0
  0
LINE
  5
DA6A
102
{ACAD_REACTORS
330
DAFC
102
}
330
1F
100
AcDbEntity
  8
02実線
100
AcDbLine
 10
175.3000000000002
 20
218.7500000000004
 30
0.0
 11
175.3000000000002
 21
225.2500000000004
 31
0.0
  0
LINE
  5
DA6B
102
{ACAD_REACTORS
330
DAFC
102
}
330
1F
100
AcDbEntity
  8
02実線
100
AcDbLine
 10
175.3000000000002
 20
238.7500000000005
 30
0.0
 11
175.3000000000002
 21
245.2500000000005
 31
0.0
  0
LINE
  5
DA6C
102
{ACAD_REACTORS
330
DAFC
102
}
330
1F
100
AcDbEntity
  8
02実線
100
AcDbLine
 10
192.0
 20
249.5
 30
0.0
 11
192.0
 21
254.5
 31
0.0
  0
LINE
  5
DA6D
102
{ACAD_REACTORS
330
DAFC
102
}
330
1F
100
AcDbEntity
  8
02実線
100
AcDbLine
 10
192.0
 20
229.5
 30
0.0
 11
192.0
 21
234.5
 31
0.0
  0
LINE
  5
DA6E
102
{ACAD_REACTORS
330
DAFC
102
}
330
1F
100
AcDbEntity
  8
02実線
100
AcDbLine
 10
192.0
 20
209.4999999999999
 30
0.0
 11
192.0
 21
214.5
 31
0.0
  0
LINE
  5
DA6F
102
{ACAD_REACTORS
330
DAFC
102
}
330
1F
100
AcDbEntity
  8
02実線
100
AcDbLine
 10
177.5
 20
249.0000000000005
 30
0.0
 11
174.6999999999998
 21
249.0000000000005
 31
0.0
  0
LINE
  5
DA70
102
{ACAD_REACTORS
330
DAFC
102
}
330
1F
100
AcDbEntity
  8
02実線
100
AcDbLine
 10
174.6999999999998
 20
255.0000000000005
 30
0.0
 11
177.5
 21
255.0000000000005
 31
0.0
  0
LINE
  5
DA71
102
{ACAD_REACTORS
330
DAFC
102
}
330
1F
100
AcDbEntity
  8
02実線
100
AcDbLine
 10
177.5
 20
229.0000000000005
 30
0.0
 11
174.6999999999998
 21
229.0000000000005
 31
0.0
  0
LINE
  5
DA72
102
{ACAD_REACTORS
330
DAFC
102
}
330
1F
100
AcDbEntity
  8
02実線
100
AcDbLine
 10
174.6999999999998
 20
235.0000000000005
 30
0.0
 11
177.5
 21
235.0000000000005
 31
0.0
  0
LINE
  5
DA73
102
{ACAD_REACTORS
330
DAFC
102
}
330
1F
100
AcDbEntity
  8
02実線
100
AcDbLine
 10
177.5
 20
209.0000000000003
 30
0.0
 11
174.6999999999998
 21
209.0000000000003
 31
0.0
  0
LINE
  5
DA74
102
{ACAD_REACTORS
330
DAFC
102
}
330
1F
100
AcDbEntity
  8
02実線
100
AcDbLine
 10
174.6999999999998
 20
215.0000000000004
 30
0.0
 11
177.5
 21
215.0000000000004
 31
0.0
  0
LINE
  5
DA75
102
{ACAD_REACTORS
330
DAFC
102
}
330
1F
100
AcDbEntity
  8
02実線
100
AcDbLine
 10
174.6999999999998
 20
254.5000000000005
 30
0.0
 11
174.6999999999998
 21
255.0000000000005
 31
0.0
  0
LINE
  5
DA76
102
{ACAD_REACTORS
330
DAFC
102
}
330
1F
100
AcDbEntity
  8
02実線
100
AcDbLine
 10
175.3000000000002
 20
245.2500000000005
 30
0.0
 11
175.6999999999998
 21
245.2500000000005
 31
0.0
  0
LINE
  5
DA77
102
{ACAD_REACTORS
330
DAFC
102
}
330
1F
100
AcDbEntity
  8
02実線
100
AcDbLine
 10
192.0
 20
254.5
 30
0.0
 11
191.3000000000002
 21
254.5
 31
0.0
  0
LINE
  5
DA78
102
{ACAD_REACTORS
330
DAFC
102
}
330
1F
100
AcDbEntity
  8
02実線
100
AcDbLine
 10
191.3000000000002
 20
249.5
 30
0.0
 11
192.0
 21
249.5
 31
0.0
  0
LINE
  5
DA79
102
{ACAD_REACTORS
330
DAFC
102
}
330
1F
100
AcDbEntity
  8
02実線
100
AcDbLine
 10
174.6999999999998
 20
249.0000000000005
 30
0.0
 11
174.6999999999998
 21
249.5000000000005
 31
0.0
  0
LINE
  5
DA7A
102
{ACAD_REACTORS
330
DAFC
102
}
330
1F
100
AcDbEntity
  8
02実線
100
AcDbLine
 10
175.6999999999998
 20
238.7500000000005
 30
0.0
 11
175.3000000000002
 21
238.7500000000005
 31
0.0
  0
LINE
  5
DA7B
102
{ACAD_REACTORS
330
DAFC
102
}
330
1F
100
AcDbEntity
  8
02実線
100
AcDbLine
 10
190.3000000000002
 20
245.25
 30
0.0
 11
190.3000000000002
 21
245.7500000000007
 31
0.0
  0
LINE
  5
DA7C
102
{ACAD_REACTORS
330
DAFC
102
}
330
1F
100
AcDbEntity
  8
02実線
100
AcDbLine
 10
192.0
 20
234.5
 30
0.0
 11
191.3000000000002
 21
234.5
 31
0.0
  0
LINE
  5
DA7D
102
{ACAD_REACTORS
330
DAFC
102
}
330
1F
100
AcDbEntity
  8
02実線
100
AcDbLine
 10
190.3000000000002
 20
225.25
 30
0.0
 11
190.3000000000002
 21
225.7500000000007
 31
0.0
  0
LINE
  5
DA7E
102
{ACAD_REACTORS
330
DAFC
102
}
330
1F
100
AcDbEntity
  8
02実線
100
AcDbLine
 10
191.3000000000002
 20
229.5
 30
0.0
 11
192.0
 21
229.5
 31
0.0
  0
LINE
  5
DA7F
102
{ACAD_REACTORS
330
DAFC
102
}
330
1F
100
AcDbEntity
  8
02実線
100
AcDbLine
 10
190.3000000000002
 20
238.2500000000007
 30
0.0
 11
190.3000000000002
 21
238.75
 31
0.0
  0
LINE
  5
DA80
102
{ACAD_REACTORS
330
DAFC
102
}
330
1F
100
AcDbEntity
  8
02実線
100
AcDbLine
 10
191.3000000000002
 20
209.4999999999999
 30
0.0
 11
192.0
 21
209.4999999999999
 31
0.0
  0
LINE
  5
DA81
102
{ACAD_REACTORS
330
DAFC
102
}
330
1F
100
AcDbEntity
  8
02実線
100
AcDbLine
 10
192.0
 20
214.5
 30
0.0
 11
191.3000000000002
 21
214.5
 31
0.0
  0
LINE
  5
DA82
102
{ACAD_REACTORS
330
DAFC
102
}
330
1F
100
AcDbEntity
  8
02実線
100
AcDbLine
 10
190.3000000000002
 20
218.2500000000007
 30
0.0
 11
190.3000000000002
 21
218.75
 31
0.0
  0
LINE
  5
DA83
102
{ACAD_REACTORS
330
DAFC
102
}
330
1F
100
AcDbEntity
  8
02実線
100
AcDbLine
 10
190.3000000000002
 20
205.2499999999999
 30
0.0
 11
190.3000000000002
 21
205.7500000000008
 31
0.0
  0
LINE
  5
DA84
102
{ACAD_REACTORS
330
DAFC
102
}
330
1F
100
AcDbEntity
  8
02実線
100
AcDbLine
 10
190.3000000000002
 20
198.2500000000008
 30
0.0
 11
190.3000000000002
 21
198.7499999999999
 31
0.0
  0
LINE
  5
DA85
102
{ACAD_REACTORS
330
DAFC
102
}
330
1F
100
AcDbEntity
  8
02実線
100
AcDbLine
 10
175.6999999999998
 20
198.7500000000003
 30
0.0
 11
175.3000000000002
 21
198.7500000000003
 31
0.0
  0
LINE
  5
DA86
102
{ACAD_REACTORS
330
DAFC
102
}
330
1F
100
AcDbEntity
  8
02実線
100
AcDbLine
 10
175.3000000000002
 20
205.2500000000003
 30
0.0
 11
175.6999999999998
 21
205.2500000000003
 31
0.0
  0
LINE
  5
DA87
102
{ACAD_REACTORS
330
DAFC
102
}
330
1F
100
AcDbEntity
  8
02実線
100
AcDbLine
 10
174.6999999999998
 20
214.5000000000004
 30
0.0
 11
174.6999999999998
 21
215.0000000000004
 31
0.0
  0
LINE
  5
DA88
102
{ACAD_REACTORS
330
DAFC
102
}
330
1F
100
AcDbEntity
  8
02実線
100
AcDbLine
 10
174.6999999999998
 20
209.0000000000003
 30
0.0
 11
174.6999999999998
 21
209.5000000000003
 31
0.0
  0
LINE
  5
DA89
102
{ACAD_REACTORS
330
DAFC
102
}
330
1F
100
AcDbEntity
  8
02実線
100
AcDbLine
 10
175.6999999999998
 20
218.7500000000004
 30
0.0
 11
175.3000000000002
 21
218.7500000000004
 31
0.0
  0
LINE
  5
DA8A
102
{ACAD_REACTORS
330
DAFC
102
}
330
1F
100
AcDbEntity
  8
02実線
100
AcDbLine
 10
174.6999999999998
 20
234.5000000000005
 30
0.0
 11
174.6999999999998
 21
235.0000000000005
 31
0.0
  0
LINE
  5
DA8B
102
{ACAD_REACTORS
330
DAFC
102
}
330
1F
100
AcDbEntity
  8
02実線
100
AcDbLine
 10
175.3000000000002
 20
225.2500000000004
 30
0.0
 11
175.6999999999998
 21
225.2500000000004
 31
0.0
  0
LINE
  5
DA8C
102
{ACAD_REACTORS
330
DAFC
102
}
330
1F
100
AcDbEntity
  8
02実線
100
AcDbLine
 10
174.6999999999998
 20
229.0000000000005
 30
0.0
 11
174.6999999999998
 21
229.5000000000005
 31
0.0
  0
LWPOLYLINE
  5
DA8D
102
{ACAD_REACTORS
330
DAFC
102
}
330
1F
100
AcDbEntity
  8
02実線
100
AcDbPolyline
 90
        4
 70
     1
 43
0.0
 10
170.0
 20
197.0
 10
170.0
 20
257.0000000000005
 10
174.0
 20
257.0000000000005
 10
174.0
 20
197.0
  0
LWPOLYLINE
  5
DA8E
102
{ACAD_REACTORS
330
DAFC
102
}
330
1F
100
AcDbEntity
  8
02実線
100
AcDbPolyline
 90
        4
 70
     1
 43
0.0
 10
196.0
 20
196.9999999999996
 10
196.0
 20
257.0
 10
192.0
 20
257.0
 10
192.0
 20
196.9999999999996
  0
LINE
  5
DA95
102
{ACAD_REACTORS
330
DAFC
102
}
330
1F
100
AcDbEntity
  8
04一点鎖線
100
AcDbLine
 10
165.0
 20
226.9910420557021
 30
0.0
 11
201.0
 21
226.9910420557021
 31
0.0
  0
LINE
  5
DA96
102
{ACAD_REACTORS
330
DAFD
102
}
330
1F
100
AcDbEntity
  8
02実線
100
AcDbLine
 10
97.99999999999773
 20
145.6999999999998
 30
0.0
 11
97.49999999999773
 21
145.6999999999998
 31
0.0
  0
LINE
  5
DA97
102
{ACAD_REACTORS
330
DAFD
102
}
330
1F
100
AcDbEntity
  8
02実線
100
AcDbLine
 10
101.7499999999977
 20
146.3000000000002
 30
0.0
 11
101.7499999999977
 21
146.6999999999998
 31
0.0
  0
LINE
  5
DA98
102
{ACAD_REACTORS
330
DAFD
102
}
330
1F
100
AcDbEntity
  8
02実線
100
AcDbLine
 10
92.49999999999773
 20
145.6999999999998
 30
0.0
 11
91.99999999999773
 21
145.6999999999998
 31
0.0
  0
LINE
  5
DA99
102
{ACAD_REACTORS
330
DAFD
102
}
330
1F
100
AcDbEntity
  8
02実線
100
AcDbLine
 10
108.2499999999977
 20
146.6999999999998
 30
0.0
 11
108.2499999999977
 21
146.3000000000002
 31
0.0
  0
LINE
  5
DA9A
102
{ACAD_REACTORS
330
DAFD
102
}
330
1F
100
AcDbEntity
  8
02実線
100
AcDbLine
 10
117.9999999999977
 20
145.6999999999998
 30
0.0
 11
117.4999999999977
 21
145.6999999999998
 31
0.0
  0
LINE
  5
DA9B
102
{ACAD_REACTORS
330
DAFD
102
}
330
1F
100
AcDbEntity
  8
02実線
100
AcDbLine
 10
137.9999999999977
 20
145.6999999999998
 30
0.0
 11
137.4999999999977
 21
145.6999999999998
 31
0.0
  0
LINE
  5
DA9C
102
{ACAD_REACTORS
330
DAFD
102
}
330
1F
100
AcDbEntity
  8
02実線
100
AcDbLine
 10
112.4999999999977
 20
145.6999999999998
 30
0.0
 11
111.9999999999977
 21
145.6999999999998
 31
0.0
  0
LINE
  5
DA9D
102
{ACAD_REACTORS
330
DAFD
102
}
330
1F
100
AcDbEntity
  8
02実線
100
AcDbLine
 10
121.7499999999977
 20
146.3000000000002
 30
0.0
 11
121.7499999999977
 21
146.6999999999998
 31
0.0
  0
LINE
  5
DA9E
102
{ACAD_REACTORS
330
DAFD
102
}
330
1F
100
AcDbEntity
  8
02実線
100
AcDbLine
 10
128.2499999999977
 20
146.6999999999998
 30
0.0
 11
128.2499999999977
 21
146.3000000000002
 31
0.0
  0
LINE
  5
DA9F
102
{ACAD_REACTORS
330
DAFD
102
}
330
1F
100
AcDbEntity
  8
02実線
100
AcDbLine
 10
132.4999999999977
 20
145.6999999999998
 30
0.0
 11
131.9999999999977
 21
145.6999999999998
 31
0.0
  0
LINE
  5
DAA0
102
{ACAD_REACTORS
330
DAFD
102
}
330
1F
100
AcDbEntity
  8
02実線
100
AcDbLine
 10
128.7499999999973
 20
161.3000000000002
 30
0.0
 11
128.2499999999982
 21
161.3000000000002
 31
0.0
  0
LINE
  5
DAA1
102
{ACAD_REACTORS
330
DAFD
102
}
330
1F
100
AcDbEntity
  8
02実線
100
AcDbLine
 10
132.4999999999982
 20
163.0
 30
0.0
 11
132.4999999999982
 21
162.3000000000002
 31
0.0
  0
LINE
  5
DAA2
102
{ACAD_REACTORS
330
DAFD
102
}
330
1F
100
AcDbEntity
  8
02実線
100
AcDbLine
 10
137.4999999999982
 20
162.3000000000002
 30
0.0
 11
137.4999999999982
 21
163.0
 31
0.0
  0
LINE
  5
DAA3
102
{ACAD_REACTORS
330
DAFD
102
}
330
1F
100
AcDbEntity
  8
02実線
100
AcDbLine
 10
121.7499999999982
 20
161.3000000000002
 30
0.0
 11
121.2499999999973
 21
161.3000000000002
 31
0.0
  0
LINE
  5
DAA4
102
{ACAD_REACTORS
330
DAFD
102
}
330
1F
100
AcDbEntity
  8
02実線
100
AcDbLine
 10
108.7499999999973
 20
161.3000000000002
 30
0.0
 11
108.2499999999982
 21
161.3000000000002
 31
0.0
  0
LINE
  5
DAA5
102
{ACAD_REACTORS
330
DAFD
102
}
330
1F
100
AcDbEntity
  8
02実線
100
AcDbLine
 10
112.4999999999982
 20
163.0
 30
0.0
 11
112.4999999999982
 21
162.3000000000002
 31
0.0
  0
LINE
  5
DAA6
102
{ACAD_REACTORS
330
DAFD
102
}
330
1F
100
AcDbEntity
  8
02実線
100
AcDbLine
 10
117.4999999999982
 20
162.3000000000002
 30
0.0
 11
117.4999999999982
 21
163.0
 31
0.0
  0
LINE
  5
DAA7
102
{ACAD_REACTORS
330
DAFD
102
}
330
1F
100
AcDbEntity
  8
02実線
100
AcDbLine
 10
97.49999999999818
 20
162.3000000000002
 30
0.0
 11
97.49999999999818
 21
163.0
 31
0.0
  0
LINE
  5
DAA8
102
{ACAD_REACTORS
330
DAFD
102
}
330
1F
100
AcDbEntity
  8
02実線
100
AcDbLine
 10
101.7499999999982
 20
161.3000000000002
 30
0.0
 11
101.2499999999973
 21
161.3000000000002
 31
0.0
  0
LINE
  5
DAA9
102
{ACAD_REACTORS
330
DAFD
102
}
330
1F
100
AcDbEntity
  8
02実線
100
AcDbLine
 10
92.49999999999818
 20
163.0
 30
0.0
 11
92.49999999999818
 21
162.3000000000002
 31
0.0
  0
LINE
  5
DAAA
102
{ACAD_REACTORS
330
DAFD
102
}
330
1F
100
AcDbEntity
  8
02実線
100
AcDbLine
 10
131.9999999999977
 20
145.6999999999998
 30
0.0
 11
131.9999999999977
 21
148.5
 31
0.0
  0
LINE
  5
DAAB
102
{ACAD_REACTORS
330
DAFD
102
}
330
1F
100
AcDbEntity
  8
02実線
100
AcDbLine
 10
137.9999999999977
 20
148.5
 30
0.0
 11
137.9999999999977
 21
145.6999999999998
 31
0.0
  0
LINE
  5
DAAC
102
{ACAD_REACTORS
330
DAFD
102
}
330
1F
100
AcDbEntity
  8
02実線
100
AcDbLine
 10
111.9999999999977
 20
145.6999999999998
 30
0.0
 11
111.9999999999977
 21
148.5
 31
0.0
  0
LINE
  5
DAAD
102
{ACAD_REACTORS
330
DAFD
102
}
330
1F
100
AcDbEntity
  8
02実線
100
AcDbLine
 10
117.9999999999977
 20
148.5
 30
0.0
 11
117.9999999999977
 21
145.6999999999998
 31
0.0
  0
LINE
  5
DAAE
102
{ACAD_REACTORS
330
DAFD
102
}
330
1F
100
AcDbEntity
  8
02実線
100
AcDbLine
 10
91.99999999999773
 20
145.6999999999998
 30
0.0
 11
91.99999999999773
 21
148.5
 31
0.0
  0
LINE
  5
DAAF
102
{ACAD_REACTORS
330
DAFD
102
}
330
1F
100
AcDbEntity
  8
02実線
100
AcDbLine
 10
97.99999999999773
 20
148.5
 30
0.0
 11
97.99999999999773
 21
145.6999999999998
 31
0.0
  0
LINE
  5
DAB0
102
{ACAD_REACTORS
330
DAFD
102
}
330
1F
100
AcDbEntity
  8
02実線
100
AcDbLine
 10
137.4999999999982
 20
163.0
 30
0.0
 11
132.4999999999982
 21
163.0
 31
0.0
  0
LINE
  5
DAB1
102
{ACAD_REACTORS
330
DAFD
102
}
330
1F
100
AcDbEntity
  8
02実線
100
AcDbLine
 10
117.4999999999982
 20
163.0
 30
0.0
 11
112.4999999999982
 21
163.0
 31
0.0
  0
LINE
  5
DAB2
102
{ACAD_REACTORS
330
DAFD
102
}
330
1F
100
AcDbEntity
  8
02実線
100
AcDbLine
 10
97.49999999999818
 20
163.0
 30
0.0
 11
92.49999999999818
 21
163.0
 31
0.0
  0
LINE
  5
DAB3
102
{ACAD_REACTORS
330
DAFD
102
}
330
1F
100
AcDbEntity
  8
02実線
100
AcDbLine
 10
108.2499999999977
 20
146.3000000000002
 30
0.0
 11
101.7499999999977
 21
146.3000000000002
 31
0.0
  0
LINE
  5
DAB4
102
{ACAD_REACTORS
330
DAFD
102
}
330
1F
100
AcDbEntity
  8
02実線
100
AcDbLine
 10
128.2499999999977
 20
146.3000000000002
 30
0.0
 11
121.7499999999977
 21
146.3000000000002
 31
0.0
  0
LINE
  5
DAB5
102
{ACAD_REACTORS
330
DAFD
102
}
330
1F
100
AcDbEntity
  8
02実線
100
AcDbLine
 10
121.2499999999973
 20
161.3000000000002
 30
0.0
 11
121.2499999999973
 21
159.5
 31
0.0
  0
LINE
  5
DAB6
102
{ACAD_REACTORS
330
DAFD
102
}
330
1F
100
AcDbEntity
  8
02実線
100
AcDbLine
 10
128.7499999999973
 20
159.5
 30
0.0
 11
128.7499999999973
 21
161.3000000000002
 31
0.0
  0
LINE
  5
DAB7
102
{ACAD_REACTORS
330
DAFD
102
}
330
1F
100
AcDbEntity
  8
02実線
100
AcDbLine
 10
101.2499999999973
 20
161.3000000000002
 30
0.0
 11
101.2499999999973
 21
159.5
 31
0.0
  0
LINE
  5
DAB8
102
{ACAD_REACTORS
330
DAFD
102
}
330
1F
100
AcDbEntity
  8
02実線
100
AcDbLine
 10
108.7499999999973
 20
159.5
 30
0.0
 11
108.7499999999973
 21
161.3000000000002
 31
0.0
  0
LWPOLYLINE
  5
DAB9
102
{ACAD_REACTORS
330
DAFD
102
}
330
1F
100
AcDbEntity
  8
02実線
100
AcDbPolyline
 90
        4
 70
     1
 43
0.0
 10
121.2499999999977
 20
148.5
 10
128.7499999999977
 20
148.5
 10
128.7499999999977
 20
146.6999999999998
 10
121.2499999999977
 20
146.6999999999998
  0
LWPOLYLINE
  5
DABA
102
{ACAD_REACTORS
330
DAFD
102
}
330
1F
100
AcDbEntity
  8
02実線
100
AcDbPolyline
 90
        4
 70
     1
 43
0.0
 10
101.2499999999977
 20
148.5
 10
108.7499999999977
 20
148.5
 10
108.7499999999977
 20
146.6999999999998
 10
101.2499999999977
 20
146.6999999999998
  0
LWPOLYLINE
  5
DABB
102
{ACAD_REACTORS
330
DAFD
102
}
330
1F
100
AcDbEntity
  8
02実線
100
AcDbPolyline
 90
        4
 70
     1
 43
0.0
 10
128.2499999999982
 20
161.6999999999998
 10
121.7499999999982
 20
161.6999999999998
 10
121.7499999999982
 20
159.5
 10
128.2499999999982
 20
159.5
  0
LWPOLYLINE
  5
DABC
102
{ACAD_REACTORS
330
DAFD
102
}
330
1F
100
AcDbEntity
  8
02実線
100
AcDbPolyline
 90
        4
 70
     1
 43
0.0
 10
108.2499999999982
 20
161.6999999999998
 10
101.7499999999982
 20
161.6999999999998
 10
101.7499999999982
 20
159.5
 10
108.2499999999982
 20
159.5
  0
LWPOLYLINE
  5
DABD
102
{ACAD_REACTORS
330
DAFD
102
}
330
1F
100
AcDbEntity
  8
02実線
100
AcDbPolyline
 90
        4
 70
     1
 43
0.0
 10
39.99999999999818
 20
148.5
 10
139.9999999999968
 20
148.5
 10
139.9999999999968
 20
159.5
 10
39.99999999999818
 20
159.5
  0
LWPOLYLINE
  5
DABE
102
{ACAD_REACTORS
330
DAFD
102
}
330
1F
100
AcDbEntity
  8
02実線
100
AcDbPolyline
 90
        4
 70
     1
 43
0.0
 10
97.49999999999773
 20
145.0
 10
92.49999999999773
 20
145.0
 10
92.49999999999773
 20
148.5
 10
97.49999999999773
 20
148.5
  0
LWPOLYLINE
  5
DABF
102
{ACAD_REACTORS
330
DAFD
102
}
330
1F
100
AcDbEntity
  8
02実線
100
AcDbPolyline
 90
        4
 70
     1
 43
0.0
 10
117.4999999999977
 20
145.0
 10
112.4999999999977
 20
145.0
 10
112.4999999999977
 20
148.5
 10
117.4999999999977
 20
148.5
  0
LWPOLYLINE
  5
DAC0
102
{ACAD_REACTORS
330
DAFD
102
}
330
1F
100
AcDbEntity
  8
02実線
100
AcDbPolyline
 90
        4
 70
     1
 43
0.0
 10
137.4999999999977
 20
145.0
 10
132.4999999999977
 20
145.0
 10
132.4999999999977
 20
148.5
 10
137.4999999999977
 20
148.5
  0
LWPOLYLINE
  5
DAC1
102
{ACAD_REACTORS
330
DAFD
102
}
330
1F
100
AcDbEntity
  8
02実線
100
AcDbPolyline
 90
        4
 70
     1
 43
0.0
 10
131.9999999999973
 20
159.5
 10
137.9999999999973
 20
159.5
 10
137.9999999999973
 20
162.3000000000002
 10
131.9999999999973
 20
162.3000000000002
  0
LWPOLYLINE
  5
DAC2
102
{ACAD_REACTORS
330
DAFD
102
}
330
1F
100
AcDbEntity
  8
02実線
100
AcDbPolyline
 90
        4
 70
     1
 43
0.0
 10
111.9999999999973
 20
159.5
 10
117.9999999999973
 20
159.5
 10
117.9999999999973
 20
162.3000000000002
 10
111.9999999999973
 20
162.3000000000002
  0
LWPOLYLINE
  5
DAC3
102
{ACAD_REACTORS
330
DAFD
102
}
330
1F
100
AcDbEntity
  8
02実線
100
AcDbPolyline
 90
        4
 70
     1
 43
0.0
 10
91.99999999999727
 20
159.5
 10
97.99999999999727
 20
159.5
 10
97.99999999999727
 20
162.3000000000002
 10
91.99999999999727
 20
162.3000000000002
  0
LWPOLYLINE
  5
DAC4
102
{ACAD_REACTORS
330
DAFD
102
}
330
1F
100
AcDbEntity
  8
02実線
100
AcDbPolyline
 90
        4
 70
     1
 43
0.0
 10
139.9999999999982
 20
141.0
 10
39.99999999999955
 20
141.0
 10
39.99999999999955
 20
145.0
 10
139.9999999999982
 20
145.0
  0
LWPOLYLINE
  5
DAC5
102
{ACAD_REACTORS
330
DAFD
102
}
330
1F
100
AcDbEntity
  8
02実線
100
AcDbPolyline
 90
        4
 70
     1
 43
0.0
 10
139.9999999999986
 20
167.0
 10
40.0
 20
167.0
 10
40.0
 20
163.0
 10
139.9999999999986
 20
163.0
  0
LWPOLYLINE
  5
DAC6
102
{ACAD_REACTORS
330
DAFD
102
}
330
1F
100
AcDbEntity
  8
02実線
100
AcDbPolyline
 90
        4
 70
     1
 43
0.0
 10
71.99999999999727
 20
159.5
 10
77.99999999999727
 20
159.5
 10
77.99999999999727
 20
162.3000000000002
 10
71.99999999999727
 20
162.3000000000002
  0
LWPOLYLINE
  5
DAC7
102
{ACAD_REACTORS
330
DAFD
102
}
330
1F
100
AcDbEntity
  8
02実線
100
AcDbPolyline
 90
        4
 70
     1
 43
0.0
 10
77.49999999999773
 20
145.0
 10
72.49999999999773
 20
145.0
 10
72.49999999999773
 20
148.5
 10
77.49999999999773
 20
148.5
  0
LWPOLYLINE
  5
DAC8
102
{ACAD_REACTORS
330
DAFD
102
}
330
1F
100
AcDbEntity
  8
02実線
100
AcDbPolyline
 90
        4
 70
     1
 43
0.0
 10
88.24999999999818
 20
161.6999999999998
 10
81.74999999999818
 20
161.6999999999998
 10
81.74999999999818
 20
159.5
 10
88.24999999999818
 20
159.5
  0
LWPOLYLINE
  5
DAC9
102
{ACAD_REACTORS
330
DAFD
102
}
330
1F
100
AcDbEntity
  8
02実線
100
AcDbPolyline
 90
        4
 70
     1
 43
0.0
 10
81.24999999999773
 20
148.5
 10
88.74999999999773
 20
148.5
 10
88.74999999999773
 20
146.6999999999998
 10
81.24999999999773
 20
146.6999999999998
  0
LINE
  5
DACA
102
{ACAD_REACTORS
330
DAFD
102
}
330
1F
100
AcDbEntity
  8
02実線
100
AcDbLine
 10
88.74999999999727
 20
159.5
 30
0.0
 11
88.74999999999727
 21
161.3000000000002
 31
0.0
  0
LINE
  5
DACB
102
{ACAD_REACTORS
330
DAFD
102
}
330
1F
100
AcDbEntity
  8
02実線
100
AcDbLine
 10
81.24999999999727
 20
161.3000000000002
 30
0.0
 11
81.24999999999727
 21
159.5
 31
0.0
  0
LINE
  5
DACC
102
{ACAD_REACTORS
330
DAFD
102
}
330
1F
100
AcDbEntity
  8
02実線
100
AcDbLine
 10
88.24999999999773
 20
146.3000000000002
 30
0.0
 11
81.74999999999773
 21
146.3000000000002
 31
0.0
  0
LINE
  5
DACD
102
{ACAD_REACTORS
330
DAFD
102
}
330
1F
100
AcDbEntity
  8
02実線
100
AcDbLine
 10
77.49999999999818
 20
163.0
 30
0.0
 11
72.49999999999818
 21
163.0
 31
0.0
  0
LINE
  5
DACE
102
{ACAD_REACTORS
330
DAFD
102
}
330
1F
100
AcDbEntity
  8
02実線
100
AcDbLine
 10
77.99999999999773
 20
148.5
 30
0.0
 11
77.99999999999773
 21
145.6999999999998
 31
0.0
  0
LINE
  5
DACF
102
{ACAD_REACTORS
330
DAFD
102
}
330
1F
100
AcDbEntity
  8
02実線
100
AcDbLine
 10
71.99999999999773
 20
145.6999999999998
 30
0.0
 11
71.99999999999773
 21
148.5
 31
0.0
  0
LINE
  5
DAD0
102
{ACAD_REACTORS
330
DAFD
102
}
330
1F
100
AcDbEntity
  8
02実線
100
AcDbLine
 10
72.49999999999818
 20
163.0
 30
0.0
 11
72.49999999999818
 21
162.3000000000002
 31
0.0
  0
LINE
  5
DAD1
102
{ACAD_REACTORS
330
DAFD
102
}
330
1F
100
AcDbEntity
  8
02実線
100
AcDbLine
 10
81.74999999999818
 20
161.3000000000002
 30
0.0
 11
81.24999999999727
 21
161.3000000000002
 31
0.0
  0
LINE
  5
DAD2
102
{ACAD_REACTORS
330
DAFD
102
}
330
1F
100
AcDbEntity
  8
02実線
100
AcDbLine
 10
77.49999999999818
 20
162.3000000000002
 30
0.0
 11
77.49999999999818
 21
163.0
 31
0.0
  0
LINE
  5
DAD3
102
{ACAD_REACTORS
330
DAFD
102
}
330
1F
100
AcDbEntity
  8
02実線
100
AcDbLine
 10
88.74999999999727
 20
161.3000000000002
 30
0.0
 11
88.24999999999818
 21
161.3000000000002
 31
0.0
  0
LINE
  5
DAD4
102
{ACAD_REACTORS
330
DAFD
102
}
330
1F
100
AcDbEntity
  8
02実線
100
AcDbLine
 10
88.24999999999773
 20
146.6999999999998
 30
0.0
 11
88.24999999999773
 21
146.3000000000002
 31
0.0
  0
LINE
  5
DAD5
102
{ACAD_REACTORS
330
DAFD
102
}
330
1F
100
AcDbEntity
  8
02実線
100
AcDbLine
 10
72.49999999999773
 20
145.6999999999998
 30
0.0
 11
71.99999999999773
 21
145.6999999999998
 31
0.0
  0
LINE
  5
DAD6
102
{ACAD_REACTORS
330
DAFD
102
}
330
1F
100
AcDbEntity
  8
02実線
100
AcDbLine
 10
81.74999999999773
 20
146.3000000000002
 30
0.0
 11
81.74999999999773
 21
146.6999999999998
 31
0.0
  0
LINE
  5
DAD7
102
{ACAD_REACTORS
330
DAFD
102
}
330
1F
100
AcDbEntity
  8
02実線
100
AcDbLine
 10
77.99999999999773
 20
145.6999999999998
 30
0.0
 11
77.49999999999773
 21
145.6999999999998
 31
0.0
  0
LWPOLYLINE
  5
DAD8
102
{ACAD_REACTORS
330
DAFD
102
}
330
1F
100
AcDbEntity
  8
02実線
100
AcDbPolyline
 90
        4
 70
     1
 43
0.0
 10
51.99999999999727
 20
159.5
 10
57.99999999999727
 20
159.5
 10
57.99999999999727
 20
162.3000000000002
 10
51.99999999999727
 20
162.3000000000002
  0
LWPOLYLINE
  5
DAD9
102
{ACAD_REACTORS
330
DAFD
102
}
330
1F
100
AcDbEntity
  8
02実線
100
AcDbPolyline
 90
        4
 70
     1
 43
0.0
 10
57.49999999999773
 20
145.0
 10
52.49999999999773
 20
145.0
 10
52.49999999999773
 20
148.5
 10
57.49999999999773
 20
148.5
  0
LWPOLYLINE
  5
DADA
102
{ACAD_REACTORS
330
DAFD
102
}
330
1F
100
AcDbEntity
  8
02実線
100
AcDbPolyline
 90
        4
 70
     1
 43
0.0
 10
68.24999999999818
 20
161.6999999999998
 10
61.74999999999818
 20
161.6999999999998
 10
61.74999999999818
 20
159.5
 10
68.24999999999818
 20
159.5
  0
LWPOLYLINE
  5
DADB
102
{ACAD_REACTORS
330
DAFD
102
}
330
1F
100
AcDbEntity
  8
02実線
100
AcDbPolyline
 90
        4
 70
     1
 43
0.0
 10
61.24999999999773
 20
148.5
 10
68.74999999999773
 20
148.5
 10
68.74999999999773
 20
146.6999999999998
 10
61.24999999999773
 20
146.6999999999998
  0
LINE
  5
DADC
102
{ACAD_REACTORS
330
DAFD
102
}
330
1F
100
AcDbEntity
  8
02実線
100
AcDbLine
 10
68.74999999999727
 20
159.5
 30
0.0
 11
68.74999999999727
 21
161.3000000000002
 31
0.0
  0
LINE
  5
DADD
102
{ACAD_REACTORS
330
DAFD
102
}
330
1F
100
AcDbEntity
  8
02実線
100
AcDbLine
 10
61.24999999999727
 20
161.3000000000002
 30
0.0
 11
61.24999999999727
 21
159.5
 31
0.0
  0
LINE
  5
DADE
102
{ACAD_REACTORS
330
DAFD
102
}
330
1F
100
AcDbEntity
  8
02実線
100
AcDbLine
 10
68.24999999999773
 20
146.3000000000002
 30
0.0
 11
61.74999999999773
 21
146.3000000000002
 31
0.0
  0
LINE
  5
DADF
102
{ACAD_REACTORS
330
DAFD
102
}
330
1F
100
AcDbEntity
  8
02実線
100
AcDbLine
 10
57.49999999999818
 20
163.0
 30
0.0
 11
52.49999999999818
 21
163.0
 31
0.0
  0
LINE
  5
DAE0
102
{ACAD_REACTORS
330
DAFD
102
}
330
1F
100
AcDbEntity
  8
02実線
100
AcDbLine
 10
57.99999999999773
 20
148.5
 30
0.0
 11
57.99999999999773
 21
145.6999999999998
 31
0.0
  0
LINE
  5
DAE1
102
{ACAD_REACTORS
330
DAFD
102
}
330
1F
100
AcDbEntity
  8
02実線
100
AcDbLine
 10
51.99999999999773
 20
145.6999999999998
 30
0.0
 11
51.99999999999773
 21
148.5
 31
0.0
  0
LINE
  5
DAE2
102
{ACAD_REACTORS
330
DAFD
102
}
330
1F
100
AcDbEntity
  8
02実線
100
AcDbLine
 10
52.49999999999818
 20
163.0
 30
0.0
 11
52.49999999999818
 21
162.3000000000002
 31
0.0
  0
LINE
  5
DAE3
102
{ACAD_REACTORS
330
DAFD
102
}
330
1F
100
AcDbEntity
  8
02実線
100
AcDbLine
 10
61.74999999999818
 20
161.3000000000002
 30
0.0
 11
61.24999999999727
 21
161.3000000000002
 31
0.0
  0
LINE
  5
DAE4
102
{ACAD_REACTORS
330
DAFD
102
}
330
1F
100
AcDbEntity
  8
02実線
100
AcDbLine
 10
57.49999999999818
 20
162.3000000000002
 30
0.0
 11
57.49999999999818
 21
163.0
 31
0.0
  0
LINE
  5
DAE5
102
{ACAD_REACTORS
330
DAFD
102
}
330
1F
100
AcDbEntity
  8
02実線
100
AcDbLine
 10
68.74999999999727
 20
161.3000000000002
 30
0.0
 11
68.24999999999818
 21
161.3000000000002
 31
0.0
  0
LINE
  5
DAE6
102
{ACAD_REACTORS
330
DAFD
102
}
330
1F
100
AcDbEntity
  8
02実線
100
AcDbLine
 10
68.24999999999773
 20
146.6999999999998
 30
0.0
 11
68.24999999999773
 21
146.3000000000002
 31
0.0
  0
LINE
  5
DAE7
102
{ACAD_REACTORS
330
DAFD
102
}
330
1F
100
AcDbEntity
  8
02実線
100
AcDbLine
 10
52.49999999999773
 20
145.6999999999998
 30
0.0
 11
51.99999999999773
 21
145.6999999999998
 31
0.0
  0
LINE
  5
DAE8
102
{ACAD_REACTORS
330
DAFD
102
}
330
1F
100
AcDbEntity
  8
02実線
100
AcDbLine
 10
61.74999999999773
 20
146.3000000000002
 30
0.0
 11
61.74999999999773
 21
146.6999999999998
 31
0.0
  0
LINE
  5
DAE9
102
{ACAD_REACTORS
330
DAFD
102
}
330
1F
100
AcDbEntity
  8
02実線
100
AcDbLine
 10
57.99999999999773
 20
145.6999999999998
 30
0.0
 11
57.49999999999773
 21
145.6999999999998
 31
0.0
  0
LWPOLYLINE
  5
DAEA
102
{ACAD_REACTORS
330
DAFD
102
}
330
1F
100
AcDbEntity
  8
02実線
100
AcDbPolyline
 90
        4
 70
     1
 43
0.0
 10
48.24999999999818
 20
161.6999999999998
 10
41.74999999999818
 20
161.6999999999998
 10
41.74999999999818
 20
159.5
 10
48.24999999999818
 20
159.5
  0
LWPOLYLINE
  5
DAEB
102
{ACAD_REACTORS
330
DAFD
102
}
330
1F
100
AcDbEntity
  8
02実線
100
AcDbPolyline
 90
        4
 70
     1
 43
0.0
 10
41.24999999999773
 20
148.5
 10
48.74999999999773
 20
148.5
 10
48.74999999999773
 20
146.6999999999998
 10
41.24999999999773
 20
146.6999999999998
  0
LINE
  5
DAEC
102
{ACAD_REACTORS
330
DAFD
102
}
330
1F
100
AcDbEntity
  8
02実線
100
AcDbLine
 10
48.74999999999727
 20
159.5
 30
0.0
 11
48.74999999999727
 21
161.3000000000002
 31
0.0
  0
LINE
  5
DAED
102
{ACAD_REACTORS
330
DAFD
102
}
330
1F
100
AcDbEntity
  8
02実線
100
AcDbLine
 10
41.24999999999727
 20
161.3000000000002
 30
0.0
 11
41.24999999999727
 21
159.5
 31
0.0
  0
LINE
  5
DAEE
102
{ACAD_REACTORS
330
DAFD
102
}
330
1F
100
AcDbEntity
  8
02実線
100
AcDbLine
 10
48.24999999999773
 20
146.3000000000002
 30
0.0
 11
41.74999999999773
 21
146.3000000000002
 31
0.0
  0
LINE
  5
DAEF
102
{ACAD_REACTORS
330
DAFD
102
}
330
1F
100
AcDbEntity
  8
02実線
100
AcDbLine
 10
41.74999999999818
 20
161.3000000000002
 30
0.0
 11
41.24999999999727
 21
161.3000000000002
 31
0.0
  0
LINE
  5
DAF0
102
{ACAD_REACTORS
330
DAFD
102
}
330
1F
100
AcDbEntity
  8
02実線
100
AcDbLine
 10
48.74999999999727
 20
161.3000000000002
 30
0.0
 11
48.24999999999818
 21
161.3000000000002
 31
0.0
  0
LINE
  5
DAF1
102
{ACAD_REACTORS
330
DAFD
102
}
330
1F
100
AcDbEntity
  8
02実線
100
AcDbLine
 10
48.24999999999773
 20
146.6999999999998
 30
0.0
 11
48.24999999999773
 21
146.3000000000002
 31
0.0
  0
LINE
  5
DAF2
102
{ACAD_REACTORS
330
DAFD
102
}
330
1F
100
AcDbEntity
  8
02実線
100
AcDbLine
 10
41.74999999999773
 20
146.3000000000002
 30
0.0
 11
41.74999999999773
 21
146.6999999999998
 31
0.0
  0
LINE
  5
DAF9
102
{ACAD_REACTORS
330
DAFD
102
}
330
1F
100
AcDbEntity
  8
04一点鎖線
100
AcDbLine
 10
89.99999999999773
 20
172.0
 30
0.0
 11
89.99999999999773
 21
136.0
 31
0.0
  0
VIEWPORT
  5
9F0D
330
1B
100
AcDbEntity
 67
     1
  8
0
100
AcDbViewport
 10
202.5
 20
128.5
 30
0.0
 40
486.0
 41
308.4
 68
     1
 69
     1
 12
202.5
 22
128.5
 13
0.0
 23
0.0
 14
0.5
 24
0.5
 15
0.0
 25
0.0
 16
0.0
 26
0.0
 36
1.0
 17
0.0
 27
0.0
 37
0.0
 42
50.0
 43
0.0
 44
0.0
 45
308.4
 50
0.0
 51
0.0
 72
   100
 90
   557152
  1

281
     0
 71
     1
 74
     0
110
0.0
120
0.0
130
0.0
111
1.0
121
0.0
131
0.0
112
0.0
122
1.0
132
0.0
 79
     0
146
0.0
  0
VIEWPORT
  5
9F0E
330
1B
100
AcDbEntity
 67
     1
  8
0
100
AcDbViewport
 10
202.5
 20
128.5
 30
0.0
 40
324.0
 41
205.6
 68
     2
 69
     2
 12
-3224.9849078482
 22
3553.815758143106
 13
0.0
 23
0.0
 14
0.5
 24
0.5
 15
0.0
 25
0.0
 16
0.0
 26
0.0
 36
1.0
 17
0.0
 27
0.0
 37
0.0
 42
50.0
 43
0.0
 44
0.0
 45
10712.16027781073
 50
0.0
 51
0.0
 72
   100
 90
   557152
  1

281
     0
 71
     1
 74
     0
110
0.0
120
0.0
130
0.0
111
1.0
121
0.0
131
0.0
112
0.0
122
1.0
132
0.0
 79
     0
146
0.0
  0
ENDSEC
  0
SECTION
  2
OBJECTS
  0
DICTIONARY
  5
C
330
0
100
AcDbDictionary
281
     1
  3
ACAD_DETAILVIEWSTYLE
350
D919
  3
ACAD_GROUP
350
D
  3
ACAD_IMAGE_VARS
350
6A88
  3
ACAD_LAYOUT
350
1A
  3
ACAD_MLINESTYLE
350
17
  3
ACAD_PLOTSETTINGS
350
19
  3
ACAD_PLOTSTYLENAME
350
E
  3
ACAD_SCALELIST
350
6A4E
  3
ACAD_SECTIONVIEWSTYLE
350
D91A
  3
AcadDim
350
DED1
  3
AcDbVariableDictionary
350
79E
  3
APPDATA
350
6A87
  3
DWGPROPS
350
E48E
  0
DICTIONARY
  5
7A6F
330
2
100
AcDbDictionary
280
     1
281
     1
  3
ACAD_LAYERSTATES
360
7A70
  3
ACLYDICTIONARY
360
A99D
  0
DICTIONARY
  5
969E
330
1F
100
AcDbDictionary
280
     1
281
     1
  3
ACAD_SORTENTS
360
969F
  0
DICTIONARY
  5
D919
102
{ACAD_REACTORS
330
C
102
}
330
C
100
AcDbDictionary
281
     1
  0
DICTIONARY
  5
D
102
{ACAD_REACTORS
330
C
102
}
330
C
100
AcDbDictionary
281
     1
  3
*A1
350
DAFC
  3
*A2
350
DAFD
  3
*A3
350
E136
  3
*A4
350
E137
  3
*A5
350
E42C
  3
*A6
350
E42D
  3
*A7
350
E42E
  3
*A8
350
E42F
  0
RASTERVARIABLES
  5
6A88
102
{ACAD_REACTORS
330
C
102
}
330
C
100
AcDbRasterVariables
 90
        0
 70
     1
 71
     1
 72
     1
  0
DICTIONARY
  5
1A
102
{ACAD_REACTORS
330
C
102
}
330
C
100
AcDbDictionary
281
     1
  3
Layout1
350
1E
  3
Model
350
22
  0
DICTIONARY
  5
17
102
{ACAD_REACTORS
330
C
102
}
330
C
100
AcDbDictionary
281
     1
  3
Standard
350
18
  0
DICTIONARY
  5
19
102
{ACAD_REACTORS
330
C
102
}
330
C
100
AcDbDictionary
281
     1
  0
ACDBDICTIONARYWDFLT
  5
E
102
{ACAD_REACTORS
330
C
102
}
330
C
100
AcDbDictionary
281
     1
  3
Normal
350
F
100
AcDbDictionaryWithDefault
340
F
  0
DICTIONARY
  5
6A4E
102
{ACAD_REACTORS
330
C
102
}
330
C
100
AcDbDictionary
281
     1
  3
A0
350
6A4F
  3
A1
350
6A50
  3
A2
350
6A51
  3
A3
350
6A52
  3
A4
350
6A53
  3
A5
350
6A54
  3
A6
350
6A55
  3
A7
350
6A56
  3
A8
350
6A57
  3
A9
350
6A58
  3
B0
350
6A59
  3
B1
350
6A5A
  3
B2
350
6A5B
  3
B3
350
6A5C
  3
B4
350
6A5D
  3
B5
350
6A5E
  3
B6
350
6A5F
  3
B7
350
6A60
  3
B8
350
6A61
  3
B9
350
6A62
  3
C0
350
6A63
  3
C1
350
6A64
  3
C2
350
6A65
  3
C3
350
6A66
  3
C4
350
6A67
  3
C5
350
6A68
  3
C6
350
6A69
  3
C7
350
6A6A
  3
C8
350
6A6B
  3
C9
350
6A6C
  3
D0
350
6A6D
  3
D1
350
6A6E
  3
D2
350
6A6F
  0
DICTIONARY
  5
D91A
102
{ACAD_REACTORS
330
C
102
}
330
C
100
AcDbDictionary
281
     1
  0
XRECORD
  5
DED1
102
{ACAD_REACTORS
330
C
102
}
330
C
100
AcDbXrecord
280
     1
340
0
 72
     0
 71
     0
 70
     0
 69
     0
 68
     1
 67
     3
 66
     0
 65
     0
 64
     0
 63
     3
 62
     1
 61
     0
 60
     0
 40
0.0
  0
DICTIONARY
  5
79E
102
{ACAD_REACTORS
330
C
102
}
330
C
100
AcDbDictionary
281
     1
  3
DIMASSOC
350
79F
  3
SORTENTS
350
264F
  0
DICTIONARY
  5
6A87
102
{ACAD_REACTORS
330
C
102
}
330
C
100
AcDbDictionary
281
     1
  0
XRECORD
  5
E48E
102
{ACAD_REACTORS
330
C
102
}
330
C
100
AcDbXrecord
280
     1
  1
DWGPROPS COOKIE
  2

  3

  4

  6

  7

  8
2344
  9

300
=
301
=
302
=
303
=
304
=
305
=
306
=
307
=
308
=
309
=
 40
0.0
 41
2455859.030048461
 42
2458970.018874942
  1

 90
        0
  0
DICTIONARY
  5
7A70
102
{ACAD_REACTORS
330
7A6F
102
}
330
7A6F
100
AcDbDictionary
281
     1
  0
DICTIONARY
  5
A99D
102
{ACAD_REACTORS
330
7A6F
102
}
330
7A6F
100
AcDbDictionary
281
     1
1001
ACAD
1000
<All
  0
SORTENTSTABLE
  5
969F
102
{ACAD_REACTORS
330
969E
102
}
330
969E
100
AcDbSortentsTable
330
1F
331
0
  5
7EAB
331
0
  5
7E78
331
0
  5
7E79
331
0
  5
7E7E
331
0
  5
7E8B
331
0
  5
7E8C
331
0
  5
7E8D
331
0
  5
7E8F
331
0
  5
7EA7
331
0
  5
7EA8
331
0
  5
7EA9
331
0
  5
7EAA
331
0
  5
7EBB
331
0
  5
7EBC
331
0
  5
7EBD
331
0
  5
7EBE
331
0
  5
7EBF
331
0
  5
7EC0
331
0
  5
7EC1
331
0
  5
7EC2
331
0
  5
7EC3
331
0
  5
7EC4
331
0
  5
7EC5
331
0
  5
7EC6
331
0
  5
7EC7
331
0
  5
7EC8
331
0
  5
7EC9
331
0
  5
7ECA
331
0
  5
7ECB
331
0
  5
7ECC
331
0
  5
7ECD
331
0
  5
7ECE
331
0
  5
7ECF
331
0
  5
7ED0
331
0
  5
7EDD
331
0
  5
E0EC
331
0
  5
7EDE
331
0
  5
7EEA
331
0
  5
7EEB
331
0
  5
7EED
331
0
  5
7EEE
331
0
  5
7EEF
331
0
  5
7EF3
331
0
  5
7EF4
331
0
  5
7EF5
331
0
  5
7EF6
331
0
  5
7EF8
331
0
  5
7EF9
331
0
  5
7EFA
331
0
  5
7EFE
331
0
  5
7EFF
331
0
  5
7F00
331
0
  5
7F01
331
0
  5
7F03
331
0
  5
7F04
331
0
  5
7F05
331
0
  5
7F09
331
0
  5
7F13
331
0
  5
7F16
331
0
  5
7F17
331
0
  5
7F1E
331
0
  5
7F47
331
0
  5
7F49
331
0
  5
7F50
331
0
  5
7F51
331
0
  5
7F52
331
0
  5
7F53
331
0
  5
7F54
331
0
  5
7F55
331
0
  5
7F56
331
0
  5
7F57
331
0
  5
7F58
331
0
  5
7F59
331
0
  5
7F5A
331
0
  5
7F5C
331
0
  5
7F8F
331
0
  5
7F90
331
0
  5
7F91
331
0
  5
7F96
331
0
  5
7F97
331
0
  5
7F98
331
0
  5
7FC2
331
0
  5
7FC3
331
0
  5
7FCA
331
0
  5
7FDE
331
0
  5
7FDF
331
0
  5
8081
331
0
  5
8082
331
0
  5
8083
331
0
  5
8084
331
0
  5
8192
331
0
  5
819D
331
0
  5
819F
331
0
  5
821A
331
0
  5
86AE
331
0
  5
86B2
331
0
  5
86B3
331
0
  5
86B4
331
0
  5
86B5
331
0
  5
86B6
331
0
  5
86B8
331
0
  5
86B9
331
0
  5
86C4
331
0
  5
8C30
331
0
  5
8C31
331
0
  5
8C35
331
0
  5
8C36
331
0
  5
8C37
331
0
  5
96A3
331
0
  5
96C4
331
0
  5
96D9
331
0
  5
9A5C
331
0
  5
9A63
331
0
  5
9A81
331
0
  5
9A8E
331
0
  5
9AA6
331
0
  5
9AAB
331
0
  5
9ABB
331
0
  5
A408
331
0
  5
B877
331
0
  5
D033
331
D922
  5
D90C
331
DA56
  5
D97D
331
0
  5
DB3B
331
0
  5
DBA1
331
0
  5
DBAC
331
0
  5
DBB7
331
0
  5
DC0C
331
0
  5
DC17
331
0
  5
DC2B
331
0
  5
DC41
331
0
  5
DEEA
331
0
  5
E01A
331
0
  5
E01B
331
0
  5
E01C
331
0
  5
E01D
331
0
  5
E01E
331
0
  5
E01F
331
0
  5
E020
331
0
  5
E021
331
0
  5
E022
331
0
  5
E023
331
0
  5
E024
331
0
  5
E025
331
0
  5
E026
331
0
  5
E027
331
0
  5
E028
331
0
  5
E029
331
0
  5
E02A
331
0
  5
E02B
331
0
  5
E02C
331
0
  5
E02D
331
0
  5
E02E
331
0
  5
E02F
331
0
  5
E06F
331
0
  5
E0C2
331
0
  5
E0C3
331
0
  5
E0C4
331
0
  5
E0C5
331
0
  5
E0C6
331
0
  5
E0C7
331
0
  5
E0C8
331
0
  5
E0C9
331
0
  5
E0CA
331
0
  5
E0CB
331
0
  5
E0CC
331
0
  5
E0CD
331
0
  5
E0CE
331
0
  5
E0CF
331
0
  5
E0D0
331
0
  5
E0D1
331
0
  5
E0D2
331
0
  5
E0D3
331
0
  5
E0D4
331
0
  5
E0D5
331
0
  5
E0D6
331
0
  5
E0D7
331
0
  5
E0D8
331
0
  5
E0D9
331
0
  5
E0DA
331
0
  5
E0DB
331
0
  5
E0DC
331
0
  5
E0DD
331
0
  5
E0DE
331
0
  5
E0DF
331
0
  5
E0E0
331
0
  5
E0E1
331
0
  5
E0E2
331
0
  5
E0E3
331
0
  5
E0E4
331
0
  5
E0E5
331
0
  5
E0E6
331
0
  5
E0E7
331
0
  5
E0E8
331
0
  5
E0E9
331
0
  5
E0EA
331
0
  5
E0EB
  0
GROUP
  5
DAFC
102
{ACAD_REACTORS
330
D
102
}
330
D
100
AcDbGroup
300

 70
     1
 71
     1
340
DA56
340
DA57
340
DA58
340
DA59
340
DA5A
340
DA5B
340
DA5C
340
DA5D
340
DA5E
340
DA5F
340
DA60
340
DA61
340
DA62
340
DA63
340
DA64
340
DA65
340
DA66
340
DA67
340
DA68
340
DA69
340
DA6A
340
DA6B
340
DA6C
340
DA6D
340
DA6E
340
DA6F
340
DA70
340
DA71
340
DA72
340
DA73
340
DA74
340
DA75
340
DA76
340
DA77
340
DA78
340
DA79
340
DA7A
340
DA7B
340
DA7C
340
DA7D
340
DA7E
340
DA7F
340
DA80
340
DA81
340
DA82
340
DA83
340
DA84
340
DA85
340
DA86
340
DA87
340
DA88
340
DA89
340
DA8A
340
DA8B
340
DA8C
340
DA8D
340
DA8E
340
DA95
  0
GROUP
  5
DAFD
102
{ACAD_REACTORS
330
D
102
}
330
D
100
AcDbGroup
300

 70
     1
 71
     1
340
DA96
340
DA97
340
DA98
340
DA99
340
DA9A
340
DA9B
340
DA9C
340
DA9D
340
DA9E
340
DA9F
340
DAA0
340
DAA1
340
DAA2
340
DAA3
340
DAA4
340
DAA5
340
DAA6
340
DAA7
340
DAA8
340
DAA9
340
DAAA
340
DAAB
340
DAAC
340
DAAD
340
DAAE
340
DAAF
340
DAB0
340
DAB1
340
DAB2
340
DAB3
340
DAB4
340
DAB5
340
DAB6
340
DAB7
340
DAB8
340
DAB9
340
DABA
340
DABB
340
DABC
340
DABD
340
DABE
340
DABF
340
DAC0
340
DAC1
340
DAC2
340
DAC3
340
DAC4
340
DAC5
340
DAC6
340
DAC7
340
DAC8
340
DAC9
340
DACA
340
DACB
340
DACC
340
DACD
340
DACE
340
DACF
340
DAD0
340
DAD1
340
DAD2
340
DAD3
340
DAD4
340
DAD5
340
DAD6
340
DAD7
340
DAD8
340
DAD9
340
DADA
340
DADB
340
DADC
340
DADD
340
DADE
340
DADF
340
DAE0
340
DAE1
340
DAE2
340
DAE3
340
DAE4
340
DAE5
340
DAE6
340
DAE7
340
DAE8
340
DAE9
340
DAEA
340
DAEB
340
DAEC
340
DAED
340
DAEE
340
DAEF
340
DAF0
340
DAF1
340
DAF2
340
DAF9
  0
GROUP
  5
E136
102
{ACAD_REACTORS
330
D
102
}
330
D
100
AcDbGroup
300

 70
     1
 71
     1
  0
GROUP
  5
E137
102
{ACAD_REACTORS
330
D
102
}
330
D
100
AcDbGroup
300

 70
     1
 71
     1
  0
GROUP
  5
E42C
102
{ACAD_REACTORS
330
D
102
}
330
D
100
AcDbGroup
300

 70
     1
 71
     1
  0
GROUP
  5
E42D
102
{ACAD_REACTORS
330
D
102
}
330
D
100
AcDbGroup
300

 70
     1
 71
     1
  0
GROUP
  5
E42E
102
{ACAD_REACTORS
330
D
102
}
330
D
100
AcDbGroup
300

 70
     1
 71
     1
  0
GROUP
  5
E42F
102
{ACAD_REACTORS
330
D
102
}
330
D
100
AcDbGroup
300

 70
     1
 71
     1
  0
LAYOUT
  5
1E
102
{ACAD_REACTORS
330
1A
102
}
330
1A
100
AcDbPlotSettings
  1

  2
none_device
  4
ISO_A3_(420.00_x_297.00_MM)
  6

 40
7.5
 41
20.0
 42
7.5
 43
20.0
 44
420.0
 45
297.0
 46
0.0
 47
0.0
 48
0.0
 49
0.0
140
0.0
141
0.0
142
1.0
143
1.0
 70
   688
 72
     1
 73
     0
 74
     5
  7

 75
    16
147
1.0
148
0.0
149
0.0
100
AcDbLayout
  1
Layout1
 70
     1
 71
     1
 10
0.0
 20
0.0
 11
412.5
 21
277.0
 12
0.0
 22
0.0
 32
0.0
 14
1.000000000000000E+20
 24
1.000000000000000E+20
 34
1.000000000000000E+20
 15
-1.000000000000000E+20
 25
-1.000000000000000E+20
 35
-1.000000000000000E+20
146
0.0
 13
0.0
 23
0.0
 33
0.0
 16
1.0
 26
0.0
 36
0.0
 17
0.0
 27
1.0
 37
0.0
 76
     0
330
1B
331
9F0D
  0
LAYOUT
  5
22
102
{ACAD_REACTORS
330
1A
102
}
330
1A
100
AcDbPlotSettings
  1

  2
none_device
  4
A3
  6

 40
3.174999952316284
 41
3.174999952316284
 42
3.17498779296875
 43
3.17498779296875
 44
297.0318298339844
 45
420.1583251953125
 46
-3.16
 47
-3.1
 48
-90.0
 49
-90.0
140
329.9999999999998
141
207.0
142
1.0
143
1.0
 70
 11940
 72
     1
 73
     1
 74
     4
  7
monochrome.ctb
 75
     0
147
1.0
148
90.0
149
90.0
100
AcDbLayout
  1
Model
 70
     1
 71
     0
 10
0.0
 20
0.0
 11
420.0
 21
297.0
 12
0.0
 22
0.0
 32
0.0
 14
35.0
 24
136.0
 34
0.0
 15
201.0
 25
262.0
 35
0.0
146
0.0
 13
0.0
 23
0.0
 33
0.0
 16
1.0
 26
0.0
 36
0.0
 17
0.0
 27
1.0
 37
0.0
 76
     0
330
1F
331
7A57
  0
MLINESTYLE
  5
18
102
{ACAD_REACTORS
330
17
102
}
330
17
100
AcDbMlineStyle
  2
STANDARD
 70
     0
  3

 62
   256
 51
90.0
 52
90.0
 71
     2
 49
0.5
 62
   256
  6
BYLAYER
 49
-0.5
 62
   256
  6
BYLAYER
  0
ACDBPLACEHOLDER
  5
F
102
{ACAD_REACTORS
330
E
102
}
330
E
  0
SCALE
  5
6A4F
102
{ACAD_REACTORS
330
6A4E
102
}
330
6A4E
100
AcDbScale
 70
     0
300
1:1
140
1.0
141
1.0
290
     1
  0
SCALE
  5
6A50
102
{ACAD_REACTORS
330
6A4E
102
}
330
6A4E
100
AcDbScale
 70
     0
300
1:2
140
1.0
141
2.0
290
     0
  0
SCALE
  5
6A51
102
{ACAD_REACTORS
330
6A4E
102
}
330
6A4E
100
AcDbScale
 70
     0
300
1:4
140
1.0
141
4.0
290
     0
  0
SCALE
  5
6A52
102
{ACAD_REACTORS
330
6A4E
102
}
330
6A4E
100
AcDbScale
 70
     0
300
1:5
140
1.0
141
5.0
290
     0
  0
SCALE
  5
6A53
102
{ACAD_REACTORS
330
6A4E
102
}
330
6A4E
100
AcDbScale
 70
     0
300
1:8
140
1.0
141
8.0
290
     0
  0
SCALE
  5
6A54
102
{ACAD_REACTORS
330
6A4E
102
}
330
6A4E
100
AcDbScale
 70
     0
300
1:10
140
1.0
141
10.0
290
     0
  0
SCALE
  5
6A55
102
{ACAD_REACTORS
330
6A4E
102
}
330
6A4E
100
AcDbScale
 70
     0
300
1:16
140
1.0
141
16.0
290
     0
  0
SCALE
  5
6A56
102
{ACAD_REACTORS
330
6A4E
102
}
330
6A4E
100
AcDbScale
 70
     0
300
1:20
140
1.0
141
20.0
290
     0
  0
SCALE
  5
6A57
102
{ACAD_REACTORS
330
6A4E
102
}
330
6A4E
100
AcDbScale
 70
     0
300
1:30
140
1.0
141
30.0
290
     0
  0
SCALE
  5
6A58
102
{ACAD_REACTORS
330
6A4E
102
}
330
6A4E
100
AcDbScale
 70
     0
300
1:40
140
1.0
141
40.0
290
     0
  0
SCALE
  5
6A59
102
{ACAD_REACTORS
330
6A4E
102
}
330
6A4E
100
AcDbScale
 70
     0
300
1:50
140
1.0
141
50.0
290
     0
  0
SCALE
  5
6A5A
102
{ACAD_REACTORS
330
6A4E
102
}
330
6A4E
100
AcDbScale
 70
     0
300
1:100
140
1.0
141
100.0
290
     0
  0
SCALE
  5
6A5B
102
{ACAD_REACTORS
330
6A4E
102
}
330
6A4E
100
AcDbScale
 70
     0
300
2:1
140
2.0
141
1.0
290
     0
  0
SCALE
  5
6A5C
102
{ACAD_REACTORS
330
6A4E
102
}
330
6A4E
100
AcDbScale
 70
     0
300
4:1
140
4.0
141
1.0
290
     0
  0
SCALE
  5
6A5D
102
{ACAD_REACTORS
330
6A4E
102
}
330
6A4E
100
AcDbScale
 70
     0
300
8:1
140
8.0
141
1.0
290
     0
  0
SCALE
  5
6A5E
102
{ACAD_REACTORS
330
6A4E
102
}
330
6A4E
100
AcDbScale
 70
     0
300
10:1
140
10.0
141
1.0
290
     0
  0
SCALE
  5
6A5F
102
{ACAD_REACTORS
330
6A4E
102
}
330
6A4E
100
AcDbScale
 70
     0
300
100:1
140
100.0
141
1.0
290
     0
  0
SCALE
  5
6A60
102
{ACAD_REACTORS
330
6A4E
102
}
330
6A4E
100
AcDbScale
 70
     0
300
1/128" = 1'-0"
140
0.0078125
141
12.0
290
     0
  0
SCALE
  5
6A61
102
{ACAD_REACTORS
330
6A4E
102
}
330
6A4E
100
AcDbScale
 70
     0
300
1/64" = 1'-0"
140
0.015625
141
12.0
290
     0
  0
SCALE
  5
6A62
102
{ACAD_REACTORS
330
6A4E
102
}
330
6A4E
100
AcDbScale
 70
     0
300
1/32" = 1'-0"
140
0.03125
141
12.0
290
     0
  0
SCALE
  5
6A63
102
{ACAD_REACTORS
330
6A4E
102
}
330
6A4E
100
AcDbScale
 70
     0
300
1/16" = 1'-0"
140
0.0625
141
12.0
290
     0
  0
SCALE
  5
6A64
102
{ACAD_REACTORS
330
6A4E
102
}
330
6A4E
100
AcDbScale
 70
     0
300
3/32" = 1'-0"
140
0.09375
141
12.0
290
     0
  0
SCALE
  5
6A65
102
{ACAD_REACTORS
330
6A4E
102
}
330
6A4E
100
AcDbScale
 70
     0
300
1/8" = 1'-0"
140
0.125
141
12.0
290
     0
  0
SCALE
  5
6A66
102
{ACAD_REACTORS
330
6A4E
102
}
330
6A4E
100
AcDbScale
 70
     0
300
3/16" = 1'-0"
140
0.1875
141
12.0
290
     0
  0
SCALE
  5
6A67
102
{ACAD_REACTORS
330
6A4E
102
}
330
6A4E
100
AcDbScale
 70
     0
300
1/4" = 1'-0"
140
0.25
141
12.0
290
     0
  0
SCALE
  5
6A68
102
{ACAD_REACTORS
330
6A4E
102
}
330
6A4E
100
AcDbScale
 70
     0
300
3/8" = 1'-0"
140
0.375
141
12.0
290
     0
  0
SCALE
  5
6A69
102
{ACAD_REACTORS
330
6A4E
102
}
330
6A4E
100
AcDbScale
 70
     0
300
1/2" = 1'-0"
140
0.5
141
12.0
290
     0
  0
SCALE
  5
6A6A
102
{ACAD_REACTORS
330
6A4E
102
}
330
6A4E
100
AcDbScale
 70
     0
300
3/4" = 1'-0"
140
0.75
141
12.0
290
     0
  0
SCALE
  5
6A6B
102
{ACAD_REACTORS
330
6A4E
102
}
330
6A4E
100
AcDbScale
 70
     0
300
1" = 1'-0"
140
1.0
141
12.0
290
     0
  0
SCALE
  5
6A6C
102
{ACAD_REACTORS
330
6A4E
102
}
330
6A4E
100
AcDbScale
 70
     0
300
1-1/2" = 1'-0"
140
1.5
141
12.0
290
     0
  0
SCALE
  5
6A6D
102
{ACAD_REACTORS
330
6A4E
102
}
330
6A4E
100
AcDbScale
 70
     0
300
3" = 1'-0"
140
3.0
141
12.0
290
     0
  0
SCALE
  5
6A6E
102
{ACAD_REACTORS
330
6A4E
102
}
330
6A4E
100
AcDbScale
 70
     0
300
6" = 1'-0"
140
6.0
141
12.0
290
     0
  0
SCALE
  5
6A6F
102
{ACAD_REACTORS
330
6A4E
102
}
330
6A4E
100
AcDbScale
 70
     0
300
1'-0" = 1'-0"
140
12.0
141
12.0
290
     0
  0
DICTIONARYVAR
  5
79F
102
{ACAD_REACTORS
330
79E
102
}
330
79E
100
DictionaryVariables
280
     0
  1
1
  0
DICTIONARYVAR
  5
264F
102
{ACAD_REACTORS
330
79E
102
}
330
79E
100
DictionaryVariables
280
     0
  1
96
  0
ENDSEC
  0
EOF
