  0
SECTION
  2
HEADER
  9
$ACADVER
  1
AC1015
  9
$ACADMAINTVER
 70
     6
  9
$DWGCODEPAGE
  3
ANSI_932
  9
$INSBASE
 10
0.0
 20
0.0
 30
0.0
  9
$EXTMIN
 10
655.0
 20
1380.0
 30
0.0
  9
$EXTMAX
 10
4355.0
 20
3665.0
 30
0.0
  9
$LIMMIN
 10
0.0
 20
0.0
  9
$LIMMAX
 10
6000.0
 20
4170.0
  9
$ORTHOMODE
 70
     0
  9
$REGENMODE
 70
     1
  9
$FILLMODE
 70
     1
  9
$QTEXTMODE
 70
     0
  9
$MIRRTEXT
 70
     1
  9
$LTSCALE
 40
14.04040404040404
  9
$ATTMODE
 70
     1
  9
$TEXTSIZE
 40
60.0
  9
$TRACEWID
 40
1.0
  9
$TEXTSTYLE
  7
STYLE1
  9
$CLAYER
  8
0
  9
$CELTYPE
  6
BYLAYER
  9
$CECOLOR
 62
   256
  9
$CELTSCALE
 40
8.0
  9
$DISPSILH
 70
     0
  9
$DIMSCALE
 40
1.0
  9
$DIMASZ
 40
35.101
  9
$DIMEXO
 40
8.7753
  9
$DIMDLI
 40
52.6515
  9
$DIMRND
 40
0.0
  9
$DIMDLE
 40
0.0
  9
$DIMEXE
 40
17.5505
  9
$DIMTP
 40
0.0
  9
$DIMTM
 40
0.0
  9
$DIMTXT
 40
35.1010101010101
  9
$DIMCEN
 40
35.101
  9
$DIMTSZ
 40
0.0
  9
$DIMTOL
 70
     0
  9
$DIMLIM
 70
     0
  9
$DIMTIH
 70
     0
  9
$DIMTOH
 70
     0
  9
$DIMSE1
 70
     0
  9
$DIMSE2
 70
     0
  9
$DIMTAD
 70
     1
  9
$DIMZIN
 70
     8
  9
$DIMBLK
  1

  9
$DIMASO
 70
     1
  9
$DIMSHO
 70
     1
  9
$DIMPOST
  1

  9
$DIMAPOST
  1

  9
$DIMALT
 70
     0
  9
$DIMALTD
 70
     2
  9
$DIMALTF
 40
0.0394
  9
$DIMLFAC
 40
1.0
  9
$DIMTOFL
 70
     1
  9
$DIMTVP
 40
1.0
  9
$DIMTIX
 70
     0
  9
$DIMSOXD
 70
     0
  9
$DIMSAH
 70
     1
  9
$DIMBLK1
  1
OPEN
  9
$DIMBLK2
  1
OPEN
  9
$DIMSTYLE
  2
ISO-25
  9
$DIMCLRD
 70
     6
  9
$DIMCLRE
 70
     6
  9
$DIMCLRT
 70
     5
  9
$DIMTFAC
 40
1.0
  9
$DIMGAP
 40
8.7753
  9
$DIMJUST
 70
     0
  9
$DIMSD1
 70
     0
  9
$DIMSD2
 70
     0
  9
$DIMTOLJ
 70
     1
  9
$DIMTZIN
 70
     0
  9
$DIMALTZ
 70
     0
  9
$DIMALTTZ
 70
     0
  9
$DIMUPT
 70
     0
  9
$DIMDEC
 70
     0
  9
$DIMTDEC
 70
     0
  9
$DIMALTU
 70
     2
  9
$DIMALTTD
 70
     2
  9
$DIMTXSTY
  7
STANDARD
  9
$DIMAUNIT
 70
     0
  9
$DIMADEC
 70
     0
  9
$DIMALTRND
 40
0.0
  9
$DIMAZIN
 70
     0
  9
$DIMDSEP
 70
    46
  9
$DIMATFIT
 70
     3
  9
$DIMFRAC
 70
     0
  9
$DIMLDRBLK
  1
OPEN
  9
$DIMLUNIT
 70
     2
  9
$DIMLWD
 70
    -2
  9
$DIMLWE
 70
    -2
  9
$DIMTMOVE
 70
     0
  9
$LUNITS
 70
     2
  9
$LUPREC
 70
     4
  9
$SKETCHINC
 40
1.0
  9
$FILLETRAD
 40
10.0
  9
$AUNITS
 70
     0
  9
$AUPREC
 70
     0
  9
$MENU
  1
.
  9
$ELEVATION
 40
0.0
  9
$PELEVATION
 40
0.0
  9
$THICKNESS
 40
0.0
  9
$LIMCHECK
 70
     0
  9
$CHAMFERA
 40
10.0
  9
$CHAMFERB
 40
10.0
  9
$CHAMFERC
 40
280.8080808080808
  9
$CHAMFERD
 40
0.0
  9
$SKPOLY
 70
     0
  9
$TDCREATE
 40
2450750.477432176
  9
$TDUCREATE
 40
2450750.102432176
  9
$TDUPDATE
 40
2458968.59401287
  9
$TDUUPDATE
 40
2458968.21901287
  9
$TDINDWG
 40
2.5007200926
  9
$TDUSRTIMER
 40
0.0024905324
  9
$USRTIMER
 70
     1
  9
$ANGBASE
 50
0.0
  9
$ANGDIR
 70
     0
  9
$PDMODE
 70
    99
  9
$PDSIZE
 40
0.0
  9
$PLINEWID
 40
0.0
  9
$SPLFRAME
 70
     0
  9
$SPLINETYPE
 70
     6
  9
$SPLINESEGS
 70
     8
  9
$HANDSEED
  5
2ECA
  9
$SURFTAB1
 70
     6
  9
$SURFTAB2
 70
     6
  9
$SURFTYPE
 70
     6
  9
$SURFU
 70
     6
  9
$SURFV
 70
     6
  9
$UCSBASE
  2

  9
$UCSNAME
  2

  9
$UCSORG
 10
0.0
 20
0.0
 30
0.0
  9
$UCSXDIR
 10
1.0
 20
0.0
 30
0.0
  9
$UCSYDIR
 10
0.0
 20
1.0
 30
0.0
  9
$UCSORTHOREF
  2

  9
$UCSORTHOVIEW
 70
     0
  9
$UCSORGTOP
 10
0.0
 20
0.0
 30
0.0
  9
$UCSORGBOTTOM
 10
0.0
 20
0.0
 30
0.0
  9
$UCSORGLEFT
 10
0.0
 20
0.0
 30
0.0
  9
$UCSORGRIGHT
 10
0.0
 20
0.0
 30
0.0
  9
$UCSORGFRONT
 10
0.0
 20
0.0
 30
0.0
  9
$UCSORGBACK
 10
0.0
 20
0.0
 30
0.0
  9
$PUCSBASE
  2

  9
$PUCSNAME
  2

  9
$PUCSORG
 10
0.0
 20
0.0
 30
0.0
  9
$PUCSXDIR
 10
1.0
 20
0.0
 30
0.0
  9
$PUCSYDIR
 10
0.0
 20
1.0
 30
0.0
  9
$PUCSORTHOREF
  2

  9
$PUCSORTHOVIEW
 70
     0
  9
$PUCSORGTOP
 10
0.0
 20
0.0
 30
0.0
  9
$PUCSORGBOTTOM
 10
0.0
 20
0.0
 30
0.0
  9
$PUCSORGLEFT
 10
0.0
 20
0.0
 30
0.0
  9
$PUCSORGRIGHT
 10
0.0
 20
0.0
 30
0.0
  9
$PUCSORGFRONT
 10
0.0
 20
0.0
 30
0.0
  9
$PUCSORGBACK
 10
0.0
 20
0.0
 30
0.0
  9
$USERI1
 70
     0
  9
$USERI2
 70
     0
  9
$USERI3
 70
     0
  9
$USERI4
 70
     0
  9
$USERI5
 70
     0
  9
$USERR1
 40
0.0
  9
$USERR2
 40
0.0
  9
$USERR3
 40
0.0
  9
$USERR4
 40
0.0
  9
$USERR5
 40
0.0
  9
$WORLDVIEW
 70
     1
  9
$SHADEDGE
 70
     3
  9
$SHADEDIF
 70
    70
  9
$TILEMODE
 70
     1
  9
$MAXACTVP
 70
    16
  9
$PINSBASE
 10
0.0
 20
0.0
 30
0.0
  9
$PLIMCHECK
 70
     0
  9
$PEXTMIN
 10
1.000000000000000E+20
 20
1.000000000000000E+20
 30
1.000000000000000E+20
  9
$PEXTMAX
 10
-1.000000000000000E+20
 20
-1.000000000000000E+20
 30
-1.000000000000000E+20
  9
$PLIMMIN
 10
0.0
 20
0.0
  9
$PLIMMAX
 10
0.0
 20
0.0
  9
$UNITMODE
 70
     0
  9
$VISRETAIN
 70
     0
  9
$PLINEGEN
 70
     0
  9
$PSLTSCALE
 70
     1
  9
$TREEDEPTH
 70
  3020
  9
$CMLSTYLE
  2
STANDARD
  9
$CMLJUST
 70
     0
  9
$CMLSCALE
 40
1.0
  9
$PROXYGRAPHICS
 70
     1
  9
$MEASUREMENT
 70
     1
  9
$CELWEIGHT
370
    -1
  9
$ENDCAPS
280
     0
  9
$JOINSTYLE
280
     0
  9
$LWDISPLAY
290
     0
  9
$INSUNITS
 70
     0
  9
$HYPERLINKBASE
  1

  9
$STYLESHEET
  1

  9
$XEDIT
290
     1
  9
$CEPSNTYPE
380
     0
  9
$PSTYLEMODE
290
     0
  9
$FINGERPRINTGUID
  2
{AD2D6278-0DDC-4A24-A4EE-D36D7E812C93}
  9
$VERSIONGUID
  2
{1C051B2F-339D-4C89-9210-0B69CD0E176C}
  9
$EXTNAMES
290
     1
  9
$PSVPSCALE
 40
0.0
  9
$OLESTARTUP
290
     0
  0
ENDSEC
  0
SECTION
  2
CLASSES
  0
CLASS
  1
LWPOLYLINE
  2
AcDbPolyline
  3
ObjectDBX Classes
 90
        0
280
     0
281
     1
  0
CLASS
  1
ACDBDICTIONARYWDFLT
  2
AcDbDictionaryWithDefault
  3
ObjectDBX Classes
 90
        0
280
     0
281
     0
  0
CLASS
  1
ACDBPLACEHOLDER
  2
AcDbPlaceHolder
  3
ObjectDBX Classes
 90
        0
280
     0
281
     0
  0
CLASS
  1
LAYOUT
  2
AcDbLayout
  3
ObjectDBX Classes
 90
        0
280
     0
281
     0
  0
CLASS
  1
LONG_TRANSACTION
  2
AcDbLongTransaction
  3
ObjectDBX Classes
 90
        0
280
     0
281
     0
  0
CLASS
  1
LWPOLYLINE
  2
AcDbPolyline
  3
ObjectDBX Classes
 90
        0
280
     0
281
     1
  0
CLASS
  1
HATCH
  2
AcDbHatch
  3
ObjectDBX Classes
 90
        0
280
     0
281
     1
  0
CLASS
  1
XRECORD
  2
AcDbXrecord
  3
ObjectDBX Classes
 90
        0
280
     0
281
     0
  0
CLASS
  1
DICTIONARYVAR
  2
AcDbDictionaryVar
  3
ObjectDBX Classes
 90
        0
280
     0
281
     0
  0
CLASS
  1
LONG_TRANSACTION
  2
AcDbLongTransaction
  3
ObjectDBX Classes
 90
        0
280
     0
281
     0
  0
CLASS
  1
LWPOLYLINE
  2
AcDbPolyline
  3
ObjectDBX Classes
 90
        0
280
     0
281
     1
  0
CLASS
  1
HATCH
  2
AcDbHatch
  3
ObjectDBX Classes
 90
        0
280
     0
281
     1
  0
CLASS
  1
XRECORD
  2
AcDbXrecord
  3
ObjectDBX Classes
 90
        0
280
     0
281
     0
  0
CLASS
  1
TABLESTYLE
  2
AcDbTableStyle
  3
ObjectDBX Classes
 90
     4095
280
     0
281
     0
  0
CLASS
  1
VISUALSTYLE
  2
AcDbVisualStyle
  3
ObjectDBX Classes
 90
     4095
280
     0
281
     0
  0
CLASS
  1
SCALE
  2
AcDbScale
  3
ObjectDBX Classes
 90
     1153
280
     0
281
     0
  0
CLASS
  1
MATERIAL
  2
AcDbMaterial
  3
ObjectDBX Classes
 90
     1153
280
     0
281
     0
  0
CLASS
  1
MLEADERSTYLE
  2
AcDbMLeaderStyle
  3
ACDB_MLEADERSTYLE_CLASS
 90
     4095
280
     0
281
     0
  0
ENDSEC
  0
SECTION
  2
TABLES
  0
TABLE
  2
VPORT
  5
8
330
0
100
AcDbSymbolTable
 70
     1
  0
VPORT
  5
2E7E
330
8
100
AcDbSymbolTableRecord
100
AcDbViewportTableRecord
  2
*Active
 70
     0
 10
0.0
 20
0.0
 11
1.0
 21
1.0
 12
2328.900943594803
 22
2573.780700687663
 13
0.0
 23
0.0
 14
5.0
 24
5.0
 15
10.0
 25
10.0
 16
0.0
 26
0.0
 36
1.0
 17
0.0
 27
0.0
 37
0.0
 40
3373.281071441543
 41
2.29737609329446
 42
50.0
 43
0.0
 44
0.0
 50
0.0
 51
0.0
 71
    16
 72
   100
 73
     1
 74
     0
 75
     0
 76
     0
 77
     0
 78
     0
281
     0
 65
     1
110
0.0
120
0.0
130
0.0
111
1.0
121
0.0
131
0.0
112
0.0
122
1.0
132
0.0
 79
     0
146
0.0
  0
ENDTAB
  0
TABLE
  2
LTYPE
  5
5
330
0
100
AcDbSymbolTable
 70
     8
  0
LTYPE
  5
14
330
5
100
AcDbSymbolTableRecord
100
AcDbLinetypeTableRecord
  2
BYBLOCK
 70
     0
  3

 72
    65
 73
     0
 40
0.0
  0
LTYPE
  5
15
330
5
100
AcDbSymbolTableRecord
100
AcDbLinetypeTableRecord
  2
BYLAYER
 70
     0
  3

 72
    65
 73
     0
 40
0.0
  0
LTYPE
  5
16
330
5
100
AcDbSymbolTableRecord
100
AcDbLinetypeTableRecord
  2
CONTINUOUS
 70
     0
  3
Solid line
 72
    65
 73
     0
 40
0.0
  0
LTYPE
  5
4B1
330
5
100
AcDbSymbolTableRecord
100
AcDbLinetypeTableRecord
  2
DASHEDX2
 70
     0
  3
____  ____  ____  ____  ____  ____  ____  ____ 
 72
    65
 73
     2
 40
1.5
 49
1.0
 74
     0
 49
-0.5
 74
     0
  0
LTYPE
  5
4B7
330
5
100
AcDbSymbolTableRecord
100
AcDbLinetypeTableRecord
  2
DASHED2
 70
     0
  3
_ _ _ _ _ _ _ _ _ _ _ _ _ _ _ _ _ _ _ _ _ _ _ _
 72
    65
 73
     2
 40
0.375
 49
0.25
 74
     0
 49
-0.125
 74
     0
  0
LTYPE
  5
7B7
330
5
100
AcDbSymbolTableRecord
100
AcDbLinetypeTableRecord
  2
HIDDEN
 70
     0
  3
__ __ __ __ __ __ __ __ __ __ __ __ __ __ __ __
 72
    65
 73
     2
 40
0.375
 49
0.25
 74
     0
 49
-0.125
 74
     0
  0
LTYPE
  5
7BF
330
5
100
AcDbSymbolTableRecord
100
AcDbLinetypeTableRecord
  2
HIDDEN2
 70
     0
  3
_ _ _ _ _ _ _ _ _ _ _ _ _ _ _ _ _ _ _ _ _ _ _ _
 72
    65
 73
     2
 40
0.1875
 49
0.125
 74
     0
 49
-0.0625
 74
     0
  0
LTYPE
  5
7C2
330
5
100
AcDbSymbolTableRecord
100
AcDbLinetypeTableRecord
  2
ACAD_ISO03W100
 70
     0
  3
__    __    __    __    __    __    __    __   
 72
    65
 73
     2
 40
30.0
 49
12.0
 74
     0
 49
-18.0
 74
     0
  0
LTYPE
  5
941
330
5
100
AcDbSymbolTableRecord
100
AcDbLinetypeTableRecord
  2
CENTER
 70
     0
  3
____ _ ____ _ ____ _ ____ _ ____ _ ____ _ ____ 
 72
    65
 73
     4
 40
2.0
 49
1.25
 74
     0
 49
-0.25
 74
     0
 49
0.25
 74
     0
 49
-0.25
 74
     0
  0
LTYPE
  5
22A0
330
5
100
AcDbSymbolTableRecord
100
AcDbLinetypeTableRecord
  2
CENTER2
 70
     0
  3
___ _ ___ _ ___ _ ___ _ ___ _ ___ _ ___ _ ___ _
 72
    65
 73
     4
 40
1.125
 49
0.75
 74
     0
 49
-0.125
 74
     0
 49
0.125
 74
     0
 49
-0.125
 74
     0
  0
ENDTAB
  0
TABLE
  2
LAYER
  5
2
102
{ACAD_XDICTIONARY
360
2E6F
102
}
330
0
100
AcDbSymbolTable
 70
     3
  0
LAYER
  5
F
330
2
100
AcDbSymbolTableRecord
100
AcDbLayerTableRecord
  2
0
 70
     0
 62
     7
  6
CONTINUOUS
370
    -3
390
2CE8
  0
LAYER
  5
1AA
330
2
100
AcDbSymbolTableRecord
100
AcDbLayerTableRecord
  2
DEFPOINTS
 70
     0
 62
     7
  6
CONTINUOUS
290
     0
370
    -3
390
2CE8
  0
LAYER
  5
2E6D
330
2
100
AcDbSymbolTableRecord
100
AcDbLayerTableRecord
  2
注記
 70
     0
 62
     7
  6
CONTINUOUS
370
    -3
390
2CE8
1001
AcAecLayerStandard
1000

1000

  0
ENDTAB
  0
TABLE
  2
STYLE
  5
3
330
0
100
AcDbSymbolTable
 70
     3
  0
STYLE
  5
10
330
3
100
AcDbSymbolTableRecord
100
AcDbTextStyleTableRecord
  2
STANDARD
 70
     0
 40
0.0
 41
1.0
 50
0.0
 71
     0
 42
35.1010101010101
  3
TXT
  4

  0
STYLE
  5
61
330
3
100
AcDbSymbolTableRecord
100
AcDbTextStyleTableRecord
  2
STYLE1
 70
     0
 40
0.0
 41
0.9
 50
0.0
 71
     0
 42
60.0
  3
C:\Program Files\AutoCAD LT\txt.shx
  4
C:\Program Files\AutoCAD LT\extfont.shx
  0
STYLE
  5
2CD9
330
3
100
AcDbSymbolTableRecord
100
AcDbTextStyleTableRecord
  2
STYLE2
 70
     0
 40
0.0
 41
0.9
 50
0.0
 71
     0
 42
70.0
  3
TXT
  4
C:\Program Files\AutoCAD LT\extfont.shx
  0
ENDTAB
  0
TABLE
  2
VIEW
  5
6
330
0
100
AcDbSymbolTable
 70
     0
  0
ENDTAB
  0
TABLE
  2
UCS
  5
7
330
0
100
AcDbSymbolTable
 70
     0
  0
ENDTAB
  0
TABLE
  2
APPID
  5
9
330
0
100
AcDbSymbolTable
 70
     2
  0
APPID
  5
11
330
9
100
AcDbSymbolTableRecord
100
AcDbRegAppTableRecord
  2
ACAD
 70
     0
  0
APPID
  5
2E6E
330
9
100
AcDbSymbolTableRecord
100
AcDbRegAppTableRecord
  2
AcAecLayerStandard
 70
     0
  0
ENDTAB
  0
TABLE
  2
DIMSTYLE
  5
A
330
0
100
AcDbSymbolTable
 70
     9
100
AcDbDimStyleTable
  0
DIMSTYLE
105
1D
330
A
100
AcDbSymbolTableRecord
100
AcDbDimStyleTableRecord
  2
STANDARD
 70
     0
178
     0
340
10
  0
DIMSTYLE
105
24
330
A
100
AcDbSymbolTableRecord
100
AcDbDimStyleTableRecord
  2
ISO-25
 70
     0
 41
35.101
 42
8.7753
 43
52.6515
 44
17.5505
 74
     0
 77
     1
 78
     8
140
35.1010101010101
141
35.101
143
0.0394
145
1.0
147
8.7753
172
     1
173
     1
176
     6
177
     6
271
     0
178
     5
271
     0
272
     0
340
10
341
64
343
64
344
64
  0
DIMSTYLE
105
25
330
A
100
AcDbSymbolTableRecord
100
AcDbDimStyleTableRecord
  2
ISO-35
 70
     0
 41
3.5
 42
0.875
 43
5.25
 44
1.75
 74
     0
 77
     1
 78
     8
140
3.5
141
3.5
143
0.0394
145
1.4
147
0.875
172
     1
178
     0
340
10
  0
DIMSTYLE
105
26
330
A
100
AcDbSymbolTableRecord
100
AcDbDimStyleTableRecord
  2
ISO-5
 70
     0
 41
5.0
 42
1.25
 43
7.5
 44
2.5
 74
     0
 77
     1
 78
     8
140
5.0
141
5.0
143
0.0394
145
2.0
147
1.25
172
     1
178
     0
340
10
  0
DIMSTYLE
105
27
330
A
100
AcDbSymbolTableRecord
100
AcDbDimStyleTableRecord
  2
ISO-7
 70
     0
 41
7.0
 42
1.75
 43
10.5
 44
3.5
 74
     0
 77
     1
 78
     8
140
7.0
141
7.0
143
0.0394
145
2.8
147
1.75
172
     1
178
     0
340
10
  0
DIMSTYLE
105
28
330
A
100
AcDbSymbolTableRecord
100
AcDbDimStyleTableRecord
  2
ISO1
 70
     0
 41
10.0
 42
2.5
 43
15.0
 44
5.0
 74
     0
 77
     1
 78
     8
140
10.0
141
10.0
143
0.0394
145
4.0
147
2.5
172
     1
178
     0
340
10
  0
DIMSTYLE
105
29
330
A
100
AcDbSymbolTableRecord
100
AcDbDimStyleTableRecord
  2
ISO1-4
 70
     0
 41
14.0
 42
3.5
 43
21.0
 44
7.0
 74
     0
 77
     1
 78
     8
140
14.0
141
14.0
143
0.0394
145
5.6
147
3.5
172
     1
178
     0
340
10
  0
DIMSTYLE
105
2A
330
A
100
AcDbSymbolTableRecord
100
AcDbDimStyleTableRecord
  2
ISO2
 70
     0
 41
20.0
 42
5.0
 43
30.0
 44
10.0
 74
     0
 77
     1
 78
     8
140
20.0
141
20.0
143
0.0394
145
8.0
147
5.0
172
     1
178
     0
340
10
  0
DIMSTYLE
105
2D56
330
A
100
AcDbSymbolTableRecord
100
AcDbDimStyleTableRecord
  2
STANDARD-WS-20
 70
     0
 40
15.0
 41
2.5
 42
2.0
 43
3.75
 44
1.25
 73
     0
 74
     0
 77
     1
 78
     8
140
3.75
141
2.5
143
0.0394
147
1.5
171
     4
172
     1
173
     1
176
     7
177
     7
271
     2
178
   256
271
     2
272
     2
273
     8
274
     4
284
     8
340
61
341
64
343
64
344
64
  0
ENDTAB
  0
TABLE
  2
BLOCK_RECORD
  5
1
330
0
100
AcDbSymbolTable
 70
     5
  0
BLOCK_RECORD
  5
1A
330
1
100
AcDbSymbolTableRecord
100
AcDbBlockTableRecord
  2
*MODEL_SPACE
340
2CEB
  0
BLOCK_RECORD
  5
17
330
1
100
AcDbSymbolTableRecord
100
AcDbBlockTableRecord
  2
*PAPER_SPACE
340
2CEC
  0
BLOCK_RECORD
  5
64
330
1
100
AcDbSymbolTableRecord
100
AcDbBlockTableRecord
  2
_OPEN
340
0
102
{BLKREFS
331
1D3C
331
1D88
331
1DD5
331
1DD7
331
1DD9
331
1DDF
331
1DE1
331
1DE2
331
1DE4
331
1DEC
331
1DED
331
1DF9
331
1DFE
331
1DFF
331
1E02
331
1E05
331
1E1D
331
1E1F
331
1E26
331
1E47
331
1E55
331
1E57
331
1E6C
331
0
331
0
331
1EA3
331
1EB1
331
1ECB
331
0
331
0
331
1EE2
331
1F16
331
1F19
331
0
331
0
331
0
331
0
331
1F79
331
1F7A
331
1F86
331
0
331
0
331
0
331
0
331
0
331
0
331
0
331
0
331
0
331
0
102
}
  0
BLOCK_RECORD
  5
1136
330
1
100
AcDbSymbolTableRecord
100
AcDbBlockTableRecord
  2
TEMP1
340
0
  0
BLOCK_RECORD
  5
1D1D
330
1
100
AcDbSymbolTableRecord
100
AcDbBlockTableRecord
  2
S1
340
0
  0
BLOCK_RECORD
  5
2CB4
330
1
100
AcDbSymbolTableRecord
100
AcDbBlockTableRecord
  2
A$C4C192C7D
340
0
  0
BLOCK_RECORD
  5
2CDA
330
1
100
AcDbSymbolTableRecord
100
AcDbBlockTableRecord
  2
A$C5C5A2866
340
0
  0
ENDTAB
  0
ENDSEC
  0
SECTION
  2
BLOCKS
  0
BLOCK
  5
1B
330
1A
100
AcDbEntity
  8
0
370
    -1
100
AcDbBlockBegin
  2
*MODEL_SPACE
 70
     0
 10
0.0
 20
0.0
 30
0.0
  3
*MODEL_SPACE
  1

  0
ENDBLK
  5
1C
330
1A
100
AcDbEntity
  8
0
370
    -1
100
AcDbBlockEnd
  0
BLOCK
  5
18
330
17
100
AcDbEntity
 67
     1
  8
0
370
    -1
100
AcDbBlockBegin
  2
*PAPER_SPACE
 70
     0
 10
0.0
 20
0.0
 30
0.0
  3
*PAPER_SPACE
  1

  0
ENDBLK
  5
19
330
17
100
AcDbEntity
 67
     1
  8
0
370
    -1
100
AcDbBlockEnd
  0
BLOCK
  5
65
330
64
100
AcDbEntity
  8
0
370
    -1
100
AcDbBlockBegin
  2
_OPEN
 70
     0
 10
0.0
 20
0.0
 30
0.0
  3
_OPEN
  1

  0
LINE
  5
66
330
64
100
AcDbEntity
  8
0
  6
ByBlock
 62
     0
370
    -1
380
     1
100
AcDbLine
 10
-1.0
 20
0.1666666666666667
 30
0.0
 11
0.0
 21
0.0
 31
0.0
  0
LINE
  5
67
330
64
100
AcDbEntity
  8
0
  6
ByBlock
 62
     0
370
    -1
380
     1
100
AcDbLine
 10
0.0
 20
0.0
 30
0.0
 11
-1.0
 21
-0.1666666666666667
 31
0.0
  0
LINE
  5
68
330
64
100
AcDbEntity
  8
0
  6
ByBlock
 62
     0
370
    -1
380
     1
100
AcDbLine
 10
0.0
 20
0.0
 30
0.0
 11
-1.0
 21
0.0
 31
0.0
  0
ENDBLK
  5
69
330
64
100
AcDbEntity
  8
0
370
    -1
100
AcDbBlockEnd
  0
BLOCK
  5
1137
330
1136
100
AcDbEntity
  8
0
 48
6.0
370
    -1
100
AcDbBlockBegin
  2
TEMP1
 70
     0
 10
0.0
 20
0.0
 30
0.0
  3
TEMP1
  1

  0
LINE
  5
1138
330
1136
100
AcDbEntity
  8
0
 62
     5
 48
6.0
370
    -1
100
AcDbLine
 10
3155.735928761031
 20
153.8618780401521
 30
0.0
 11
3585.735928761031
 21
153.8618780401521
 31
0.0
  0
LINE
  5
1139
330
1136
100
AcDbEntity
  8
0
 62
     5
 48
6.0
370
    -1
100
AcDbLine
 10
3125.735928761031
 20
293.8618780401521
 30
0.0
 11
3605.735928761031
 21
293.8618780401521
 31
0.0
  0
LINE
  5
113A
330
1136
100
AcDbEntity
  8
0
 62
     5
 48
6.0
370
    -1
100
AcDbLine
 10
2945.735928761031
 20
473.8618780401521
 30
0.0
 11
3745.735928761031
 21
473.8618780401521
 31
0.0
  0
LINE
  5
113B
330
1136
100
AcDbEntity
  8
0
 62
     5
 48
6.0
370
    -1
100
AcDbLine
 10
3165.735928761031
 20
13.86187804015208
 30
0.0
 11
3685.735928761031
 21
13.86187804015208
 31
0.0
  0
LINE
  5
113C
330
1136
100
AcDbEntity
  8
0
 62
     5
 48
6.0
370
    -1
100
AcDbLine
 10
24.47992156182954
 20
14.14252696717631
 30
0.0
 11
1344.47992156183
 21
14.14252696717631
 31
0.0
  0
LINE
  5
113D
330
1136
100
AcDbEntity
  8
0
 62
     5
 48
6.0
370
    -1
100
AcDbLine
 10
24.47992156182954
 20
154.1425269671763
 30
0.0
 11
1354.47992156183
 21
154.1425269671763
 31
0.0
  0
LINE
  5
113E
330
1136
100
AcDbEntity
  8
0
 62
     5
 48
6.0
370
    -1
100
AcDbLine
 10
24.47992156182954
 20
294.1425269671763
 30
0.0
 11
1384.47992156183
 21
294.1425269671763
 31
0.0
  0
LINE
  5
113F
330
1136
100
AcDbEntity
  8
0
 62
     5
 48
6.0
370
    -1
100
AcDbLine
 10
24.47992156182954
 20
474.1425269671763
 30
0.0
 11
2084.47992156183
 21
474.1425269671763
 31
0.0
  0
LINE
  5
1140
330
1136
100
AcDbEntity
  8
0
 62
     5
 48
6.0
370
    -1
100
AcDbLine
 10
24.47992156182954
 20
474.1425269671763
 30
0.0
 11
24.47992156182954
 21
74.14252696717631
 31
0.0
  0
LINE
  5
1141
330
1136
100
AcDbEntity
  8
0
 62
     5
 48
6.0
370
    -1
100
AcDbLine
 10
24.66044104187313
 20
74.28388251695469
 30
0.0
 11
24.66044104187313
 21
14.13042569376739
 31
0.0
  0
TEXT
  5
1142
330
1136
100
AcDbEntity
  8
0
 62
     5
 48
6.0
370
    -1
100
AcDbText
 10
594.4799215618295
 20
44.14252696717631
 30
0.0
 40
65.0
  1
３
  7
STYLE1
100
AcDbText
  0
TEXT
  5
1143
330
1136
100
AcDbEntity
  8
0
 62
     5
 48
6.0
370
    -1
100
AcDbText
 10
594.4799215618295
 20
184.1425269671763
 30
0.0
 40
65.0
  1
０
  7
STYLE1
100
AcDbText
  0
TEXT
  5
1144
330
1136
100
AcDbEntity
  8
0
 62
     5
 48
6.0
370
    -1
100
AcDbText
 10
424.4799215618295
 20
344.1425269671763
 30
0.0
 40
65.0
  1
式
  7
STYLE1
100
AcDbText
  0
TEXT
  5
1145
330
1136
100
AcDbEntity
  8
0
 62
     5
 48
6.0
370
    -1
100
AcDbText
 10
204.4799215618295
 20
344.1425269671763
 30
0.0
 40
65.0
  1
型
  7
STYLE1
100
AcDbText
  0
TEXT
  5
1146
330
1136
100
AcDbEntity
  8
0
 62
     5
 48
6.0
370
    -1
100
AcDbText
 10
304.4799215618295
 20
44.14252696717631
 30
0.0
 40
65.0
  1
０
  7
STYLE1
100
AcDbText
  0
TEXT
  5
1147
330
1136
100
AcDbEntity
  8
0
 62
     5
 48
6.0
370
    -1
100
AcDbText
 10
304.4799215618295
 20
184.1425269671763
 30
0.0
 40
65.0
  1
０
  7
STYLE1
100
AcDbText
  0
TEXT
  5
1148
330
1136
100
AcDbEntity
  8
0
 62
     5
 48
6.0
370
    -1
100
AcDbText
 10
124.4799215618295
 20
44.14252696717631
 30
0.0
 40
65.0
  1
Ｈ
  7
STYLE1
100
AcDbText
  0
TEXT
  5
1149
330
1136
100
AcDbEntity
  8
0
 62
     5
 48
6.0
370
    -1
100
AcDbText
 10
54.47992156182954
 20
44.14252696717631
 30
0.0
 40
65.0
  1
Ｌ
  7
STYLE1
100
AcDbText
  0
TEXT
  5
114A
330
1136
100
AcDbEntity
  8
0
 62
     5
 48
6.0
370
    -1
100
AcDbText
 10
244.4799215618295
 20
44.14252696717631
 30
0.0
 40
65.0
  1
１
  7
STYLE1
100
AcDbText
  0
TEXT
  5
114B
330
1136
100
AcDbEntity
  8
0
 62
     5
 48
6.0
370
    -1
100
AcDbText
 10
194.4799215618295
 20
44.14252696717631
 30
0.0
 40
65.0
  1
－
  7
STYLE1
100
AcDbText
  0
TEXT
  5
114C
330
1136
100
AcDbEntity
  8
0
 62
     5
 48
6.0
370
    -1
100
AcDbText
 10
124.4799215618295
 20
184.1425269671763
 30
0.0
 40
65.0
  1
Ｈ
  7
STYLE1
100
AcDbText
  0
TEXT
  5
114D
330
1136
100
AcDbEntity
  8
0
 62
     5
 48
6.0
370
    -1
100
AcDbText
 10
54.47992156182954
 20
184.1425269671763
 30
0.0
 40
65.0
  1
Ｌ
  7
STYLE1
100
AcDbText
  0
TEXT
  5
114E
330
1136
100
AcDbEntity
  8
0
 62
     5
 48
6.0
370
    -1
100
AcDbText
 10
244.4799215618295
 20
184.1425269671763
 30
0.0
 40
65.0
  1
１
  7
STYLE1
100
AcDbText
  0
TEXT
  5
114F
330
1136
100
AcDbEntity
  8
0
 62
     5
 48
6.0
370
    -1
100
AcDbText
 10
194.4799215618295
 20
184.1425269671763
 30
0.0
 40
65.0
  1
－
  7
STYLE1
100
AcDbText
  0
TEXT
  5
1150
330
1136
100
AcDbEntity
  8
0
 62
     5
 48
6.0
370
    -1
100
AcDbText
 10
364.4799215618295
 20
44.14252696717631
 30
0.0
 40
65.0
  1
０
  7
STYLE1
100
AcDbText
  0
TEXT
  5
1151
330
1136
100
AcDbEntity
  8
0
 62
     5
 48
6.0
370
    -1
100
AcDbText
 10
424.4799215618295
 20
44.14252696717631
 30
0.0
 40
65.0
  1
１
  7
STYLE1
100
AcDbText
  0
TEXT
  5
1152
330
1136
100
AcDbEntity
  8
0
 62
     5
 48
6.0
370
    -1
100
AcDbText
 10
544.4799215618295
 20
44.14252696717631
 30
0.0
 40
65.0
  1
１
  7
STYLE1
100
AcDbText
  0
TEXT
  5
1153
330
1136
100
AcDbEntity
  8
0
 62
     5
 48
6.0
370
    -1
100
AcDbText
 10
484.4799215618295
 20
44.14252696717631
 30
0.0
 40
65.0
  1
－
  7
STYLE1
100
AcDbText
  0
TEXT
  5
1154
330
1136
100
AcDbEntity
  8
0
 62
     5
 48
6.0
370
    -1
100
AcDbText
 10
364.4799215618295
 20
184.1425269671763
 30
0.0
 40
65.0
  1
０
  7
STYLE1
100
AcDbText
  0
TEXT
  5
1155
330
1136
100
AcDbEntity
  8
0
 62
     5
 48
6.0
370
    -1
100
AcDbText
 10
424.4799215618295
 20
184.1425269671763
 30
0.0
 40
65.0
  1
１
  7
STYLE1
100
AcDbText
  0
TEXT
  5
1156
330
1136
100
AcDbEntity
  8
0
 62
     5
 48
6.0
370
    -1
100
AcDbText
 10
544.4799215618295
 20
184.1425269671763
 30
0.0
 40
65.0
  1
１
  7
STYLE1
100
AcDbText
  0
TEXT
  5
1157
330
1136
100
AcDbEntity
  8
0
 62
     5
 48
6.0
370
    -1
100
AcDbText
 10
484.4799215618295
 20
184.1425269671763
 30
0.0
 40
65.0
  1
－
  7
STYLE1
100
AcDbText
  0
LINE
  5
1158
330
1136
100
AcDbEntity
  8
0
 62
     5
 48
6.0
370
    -1
100
AcDbLine
 10
1194.47992156183
 20
474.1425269671763
 30
0.0
 11
1194.47992156183
 21
74.14252696717631
 31
0.0
  0
LINE
  5
1159
330
1136
100
AcDbEntity
  8
0
 62
     5
 48
6.0
370
    -1
100
AcDbLine
 10
934.4799215618295
 20
474.1425269671763
 30
0.0
 11
934.4799215618295
 21
74.14252696717631
 31
0.0
  0
LINE
  5
115A
330
1136
100
AcDbEntity
  8
0
 62
     5
 48
6.0
370
    -1
100
AcDbLine
 10
694.4799215618295
 20
474.1425269671763
 30
0.0
 11
694.4799215618295
 21
74.14252696717631
 31
0.0
  0
TEXT
  5
115B
330
1136
100
AcDbEntity
  8
0
 62
     5
 48
6.0
370
    -1
100
AcDbText
 10
1034.47992156183
 20
334.1425269671763
 30
0.0
 40
65.0
  1
Ｄ
  7
STYLE1
100
AcDbText
  0
TEXT
  5
115C
330
1136
100
AcDbEntity
  8
0
 62
     5
 48
6.0
370
    -1
100
AcDbText
 10
784.4799215618295
 20
334.1425269671763
 30
0.0
 40
65.0
  1
Ｗ
  7
STYLE1
100
AcDbText
  0
TEXT
  5
115D
330
1136
100
AcDbEntity
  8
0
 62
     5
 48
6.0
370
    -1
100
AcDbText
 10
754.4799215618295
 20
44.14252696717631
 30
0.0
 40
65.0
  1
０
  7
STYLE1
100
AcDbText
  0
LINE
  5
115E
330
1136
100
AcDbEntity
  8
0
 62
     5
 48
6.0
370
    -1
100
AcDbLine
 10
694.4259312412214
 20
78.93861491790994
 30
0.0
 11
694.4259312412214
 21
14.4884900829893
 31
0.0
  0
TEXT
  5
115F
330
1136
100
AcDbEntity
  8
0
 62
     5
 48
6.0
370
    -1
100
AcDbText
 10
714.4799215618295
 20
44.14252696717631
 30
0.0
 40
65.0
  1
１
  7
STYLE1
100
AcDbText
  0
TEXT
  5
1160
330
1136
100
AcDbEntity
  8
0
 62
     5
 48
6.0
370
    -1
100
AcDbText
 10
804.4799215618295
 20
44.14252696717631
 30
0.0
 40
65.0
  1
０
  7
STYLE1
100
AcDbText
  0
TEXT
  5
1161
330
1136
100
AcDbEntity
  8
0
 62
     5
 48
6.0
370
    -1
100
AcDbText
 10
854.4799215618295
 20
44.14252696717631
 30
0.0
 40
65.0
  1
０
  7
STYLE1
100
AcDbText
  0
TEXT
  5
1162
330
1136
100
AcDbEntity
  8
0
 62
     5
 48
6.0
370
    -1
100
AcDbText
 10
754.4799215618295
 20
184.1425269671763
 30
0.0
 40
65.0
  1
０
  7
STYLE1
100
AcDbText
  0
TEXT
  5
1163
330
1136
100
AcDbEntity
  8
0
 62
     5
 48
6.0
370
    -1
100
AcDbText
 10
714.4799215618295
 20
184.1425269671763
 30
0.0
 40
65.0
  1
１
  7
STYLE1
100
AcDbText
  0
TEXT
  5
1164
330
1136
100
AcDbEntity
  8
0
 62
     5
 48
6.0
370
    -1
100
AcDbText
 10
804.4799215618295
 20
184.1425269671763
 30
0.0
 40
65.0
  1
０
  7
STYLE1
100
AcDbText
  0
TEXT
  5
1165
330
1136
100
AcDbEntity
  8
0
 62
     5
 48
6.0
370
    -1
100
AcDbText
 10
854.4799215618295
 20
184.1425269671763
 30
0.0
 40
65.0
  1
０
  7
STYLE1
100
AcDbText
  0
TEXT
  5
1166
330
1136
100
AcDbEntity
  8
0
 62
     5
 48
6.0
370
    -1
100
AcDbText
 10
1034.47992156183
 20
44.14252696717631
 30
0.0
 40
65.0
  1
７
  7
STYLE1
100
AcDbText
  0
LINE
  5
1167
330
1136
100
AcDbEntity
  8
0
 62
     5
 48
6.0
370
    -1
100
AcDbLine
 10
934.6180768742706
 20
82.51918031593232
 30
0.0
 11
934.6180768742706
 21
14.4884900829893
 31
0.0
  0
TEXT
  5
1168
330
1136
100
AcDbEntity
  8
0
 62
     5
 48
6.0
370
    -1
100
AcDbText
 10
994.4799215618295
 20
44.14252696717631
 30
0.0
 40
65.0
  1
６
  7
STYLE1
100
AcDbText
  0
LINE
  5
1169
330
1136
100
AcDbEntity
  8
0
 62
     5
 48
6.0
370
    -1
100
AcDbLine
 10
1195.735928761031
 20
73.86187804015208
 30
0.0
 11
1195.735928761031
 21
13.86187804015208
 31
0.0
  0
TEXT
  5
116A
330
1136
100
AcDbEntity
  8
0
 62
     5
 48
6.0
370
    -1
100
AcDbText
 10
1094.47992156183
 20
44.14252696717631
 30
0.0
 40
65.0
  1
５
  7
STYLE1
100
AcDbText
  0
TEXT
  5
116B
330
1136
100
AcDbEntity
  8
0
 62
     5
 48
6.0
370
    -1
100
AcDbText
 10
1034.47992156183
 20
174.1425269671763
 30
0.0
 40
65.0
  1
７
  7
STYLE1
100
AcDbText
  0
TEXT
  5
116C
330
1136
100
AcDbEntity
  8
0
 62
     5
 48
6.0
370
    -1
100
AcDbText
 10
994.4799215618295
 20
174.1425269671763
 30
0.0
 40
65.0
  1
６
  7
STYLE1
100
AcDbText
  0
TEXT
  5
116D
330
1136
100
AcDbEntity
  8
0
 62
     5
 48
6.0
370
    -1
100
AcDbText
 10
1094.47992156183
 20
174.1425269671763
 30
0.0
 40
65.0
  1
５
  7
STYLE1
100
AcDbText
  0
TEXT
  5
116E
330
1136
100
AcDbEntity
  8
0
 62
     5
 48
6.0
370
    -1
100
AcDbText
 10
2335.735928761031
 20
303.8618780401521
 30
0.0
 40
60.0
  1
外
  7
STYLE1
100
AcDbText
  0
LINE
  5
116F
330
1136
100
AcDbEntity
  8
0
 62
     5
 48
6.0
370
    -1
100
AcDbLine
 10
1455.735928761031
 20
373.8618780401521
 30
0.0
 11
2585.735928761031
 21
373.8618780401521
 31
0.0
  0
LINE
  5
1170
330
1136
100
AcDbEntity
  8
0
 62
     5
 48
6.0
370
    -1
100
AcDbLine
 10
2085.735928761031
 20
473.8618780401521
 30
0.0
 11
2945.735928761031
 21
473.8618780401521
 31
0.0
  0
TEXT
  5
1171
330
1136
100
AcDbEntity
  8
0
 62
     5
 48
6.0
370
    -1
100
AcDbText
 10
2358.918816658996
 20
45.62655145092504
 30
0.0
 40
65.0
  1
２
  7
STYLE1
100
AcDbText
  0
TEXT
  5
1172
330
1136
100
AcDbEntity
  8
0
 62
     5
 48
6.0
370
    -1
100
AcDbText
 10
2358.918816658996
 20
185.626551450925
 30
0.0
 40
65.0
  1
０
  7
STYLE1
100
AcDbText
  0
LINE
  5
1173
330
1136
100
AcDbEntity
  8
0
 62
     5
 48
6.0
370
    -1
100
AcDbLine
 10
1334.47992156183
 20
14.14252696717631
 30
0.0
 11
2724.47992156183
 21
14.14252696717631
 31
0.0
  0
LINE
  5
1174
330
1136
100
AcDbEntity
  8
0
 62
     5
 48
6.0
370
    -1
100
AcDbLine
 10
1344.47992156183
 20
154.1425269671763
 30
0.0
 11
2724.47992156183
 21
154.1425269671763
 31
0.0
  0
LINE
  5
1175
330
1136
100
AcDbEntity
  8
0
 62
     5
 48
6.0
370
    -1
100
AcDbLine
 10
1384.47992156183
 20
294.1425269671763
 30
0.0
 11
2724.47992156183
 21
294.1425269671763
 31
0.0
  0
TEXT
  5
1176
330
1136
100
AcDbEntity
  8
0
 62
     5
 48
6.0
370
    -1
100
AcDbText
 10
1764.47992156183
 20
184.1425269671763
 30
0.0
 40
65.0
  1
０
  7
STYLE1
100
AcDbText
  0
TEXT
  5
1177
330
1136
100
AcDbEntity
  8
0
 62
     5
 48
6.0
370
    -1
100
AcDbText
 10
1764.47992156183
 20
44.14252696717631
 30
0.0
 40
65.0
  1
０
  7
STYLE1
100
AcDbText
  0
TEXT
  5
1178
330
1136
100
AcDbEntity
  8
0
 62
     5
 48
6.0
370
    -1
100
AcDbText
 10
1759.740328969656
 20
502.2506224091885
 30
0.0
 40
60.0
  1
法
  7
STYLE1
100
AcDbText
  0
TEXT
  5
1179
330
1136
100
AcDbEntity
  8
0
 62
     5
 48
6.0
370
    -1
100
AcDbText
 10
1755.735928761031
 20
393.8618780401521
 30
0.0
 40
60.0
  1
取
  7
STYLE1
100
AcDbText
  0
LINE
  5
117A
330
1136
100
AcDbEntity
  8
0
 62
     5
 48
6.0
370
    -1
100
AcDbLine
 10
1455.735928761031
 20
473.8618780401521
 30
0.0
 11
1455.735928761031
 21
13.86187804015208
 31
0.0
  0
TEXT
  5
117B
330
1136
100
AcDbEntity
  8
0
 62
     5
 48
6.0
370
    -1
100
AcDbText
 10
1284.47992156183
 20
334.1425269671763
 30
0.0
 40
65.0
  1
Ｈ
  7
STYLE1
100
AcDbText
  0
TEXT
  5
117C
330
1136
100
AcDbEntity
  8
0
 62
     5
 48
6.0
370
    -1
100
AcDbText
 10
1484.47992156183
 20
184.1425269671763
 30
0.0
 40
65.0
  1
６
  7
STYLE1
100
AcDbText
  0
TEXT
  5
117D
330
1136
100
AcDbEntity
  8
0
 62
     5
 48
6.0
370
    -1
100
AcDbText
 10
1484.47992156183
 20
44.14252696717631
 30
0.0
 40
65.0
  1
６
  7
STYLE1
100
AcDbText
  0
TEXT
  5
117E
330
1136
100
AcDbEntity
  8
0
 62
     5
 48
6.0
370
    -1
100
AcDbText
 10
1254.47992156183
 20
44.14252696717631
 30
0.0
 40
65.0
  1
３
  7
STYLE1
100
AcDbText
  0
TEXT
  5
117F
330
1136
100
AcDbEntity
  8
0
 62
     5
 48
6.0
370
    -1
100
AcDbText
 10
1204.47992156183
 20
44.14252696717631
 30
0.0
 40
65.0
  1
１
  7
STYLE1
100
AcDbText
  0
TEXT
  5
1180
330
1136
100
AcDbEntity
  8
0
 62
     5
 48
6.0
370
    -1
100
AcDbText
 10
1304.47992156183
 20
44.14252696717631
 30
0.0
 40
65.0
  1
４
  7
STYLE1
100
AcDbText
  0
TEXT
  5
1181
330
1136
100
AcDbEntity
  8
0
 62
     5
 48
6.0
370
    -1
100
AcDbText
 10
1364.47992156183
 20
44.14252696717631
 30
0.0
 40
65.0
  1
０
  7
STYLE1
100
AcDbText
  0
TEXT
  5
1182
330
1136
100
AcDbEntity
  8
0
 62
     5
 48
6.0
370
    -1
100
AcDbText
 10
1254.47992156183
 20
184.1425269671763
 30
0.0
 40
65.0
  1
０
  7
STYLE1
100
AcDbText
  0
TEXT
  5
1183
330
1136
100
AcDbEntity
  8
0
 62
     5
 48
6.0
370
    -1
100
AcDbText
 10
1204.47992156183
 20
184.1425269671763
 30
0.0
 40
65.0
  1
１
  7
STYLE1
100
AcDbText
  0
TEXT
  5
1184
330
1136
100
AcDbEntity
  8
0
 62
     5
 48
6.0
370
    -1
100
AcDbText
 10
1304.47992156183
 20
184.1425269671763
 30
0.0
 40
65.0
  1
４
  7
STYLE1
100
AcDbText
  0
TEXT
  5
1185
330
1136
100
AcDbEntity
  8
0
 62
     5
 48
6.0
370
    -1
100
AcDbText
 10
1364.47992156183
 20
184.1425269671763
 30
0.0
 40
65.0
  1
０
  7
STYLE1
100
AcDbText
  0
TEXT
  5
1186
330
1136
100
AcDbEntity
  8
0
 62
     5
 48
6.0
370
    -1
100
AcDbText
 10
1598.918816658996
 20
45.62655145092504
 30
0.0
 40
65.0
  1
～
  7
STYLE1
100
AcDbText
  0
TEXT
  5
1187
330
1136
100
AcDbEntity
  8
0
 62
     5
 48
6.0
370
    -1
100
AcDbText
 10
1534.47992156183
 20
44.14252696717631
 30
0.0
 40
65.0
  1
０
  7
STYLE1
100
AcDbText
  0
TEXT
  5
1188
330
1136
100
AcDbEntity
  8
0
 62
     5
 48
6.0
370
    -1
100
AcDbText
 10
1714.47992156183
 20
44.14252696717631
 30
0.0
 40
65.0
  1
６
  7
STYLE1
100
AcDbText
  0
TEXT
  5
1189
330
1136
100
AcDbEntity
  8
0
 62
     5
 48
6.0
370
    -1
100
AcDbText
 10
1654.47992156183
 20
44.14252696717631
 30
0.0
 40
65.0
  1
７
  7
STYLE1
100
AcDbText
  0
TEXT
  5
118A
330
1136
100
AcDbEntity
  8
0
 62
     5
 48
6.0
370
    -1
100
AcDbText
 10
1598.918816658996
 20
185.626551450925
 30
0.0
 40
65.0
  1
～
  7
STYLE1
100
AcDbText
  0
TEXT
  5
118B
330
1136
100
AcDbEntity
  8
0
 62
     5
 48
6.0
370
    -1
100
AcDbText
 10
1604.47992156183
 20
294.1425269671763
 30
0.0
 40
65.0
  1
Ａ
  7
STYLE1
100
AcDbText
  0
TEXT
  5
118C
330
1136
100
AcDbEntity
  8
0
 62
     5
 48
6.0
370
    -1
100
AcDbText
 10
1534.47992156183
 20
184.1425269671763
 30
0.0
 40
65.0
  1
０
  7
STYLE1
100
AcDbText
  0
TEXT
  5
118D
330
1136
100
AcDbEntity
  8
0
 62
     5
 48
6.0
370
    -1
100
AcDbText
 10
1714.47992156183
 20
184.1425269671763
 30
0.0
 40
65.0
  1
６
  7
STYLE1
100
AcDbText
  0
TEXT
  5
118E
330
1136
100
AcDbEntity
  8
0
 62
     5
 48
6.0
370
    -1
100
AcDbText
 10
1654.47992156183
 20
184.1425269671763
 30
0.0
 40
65.0
  1
７
  7
STYLE1
100
AcDbText
  0
TEXT
  5
118F
330
1136
100
AcDbEntity
  8
0
 62
     5
 48
6.0
370
    -1
100
AcDbText
 10
1602.41889784751
 20
507.9795218130766
 30
0.0
 40
60.0
  1
寸
  7
STYLE1
100
AcDbText
  0
TEXT
  5
1190
330
1136
100
AcDbEntity
  8
0
 62
     5
 48
6.0
370
    -1
100
AcDbText
 10
1575.735928761031
 20
393.8618780401521
 30
0.0
 40
60.0
  1
機
  7
STYLE1
100
AcDbText
  0
TEXT
  5
1191
330
1136
100
AcDbEntity
  8
0
 62
     5
 48
6.0
370
    -1
100
AcDbText
 10
1665.735928761031
 20
393.8618780401521
 30
0.0
 40
60.0
  1
器
  7
STYLE1
100
AcDbText
  0
LINE
  5
1192
330
1136
100
AcDbEntity
  8
0
 62
     5
 48
6.0
370
    -1
100
AcDbLine
 10
2295.735928761031
 20
473.8618780401521
 30
0.0
 11
2295.735928761031
 21
13.86187804015208
 31
0.0
  0
TEXT
  5
1193
330
1136
100
AcDbEntity
  8
0
 62
     5
 48
6.0
370
    -1
100
AcDbText
 10
2048.918816658996
 20
185.626551450925
 30
0.0
 40
65.0
  1
～
  7
STYLE1
100
AcDbText
  0
TEXT
  5
1194
330
1136
100
AcDbEntity
  8
0
 62
     5
 48
6.0
370
    -1
100
AcDbText
 10
2048.918816658996
 20
45.62655145092504
 30
0.0
 40
65.0
  1
～
  7
STYLE1
100
AcDbText
  0
TEXT
  5
1195
330
1136
100
AcDbEntity
  8
0
 62
     5
 48
6.0
370
    -1
100
AcDbText
 10
2058.918816658996
 20
295.626551450925
 30
0.0
 40
65.0
  1
Ｂ
  7
STYLE1
100
AcDbText
  0
LINE
  5
1196
330
1136
100
AcDbEntity
  8
0
 62
     5
 48
6.0
370
    -1
100
AcDbLine
 10
1845.735928761031
 20
293.8618780401521
 30
0.0
 11
1845.735928761031
 21
13.86187804015208
 31
0.0
  0
TEXT
  5
1197
330
1136
100
AcDbEntity
  8
0
 62
     5
 48
6.0
370
    -1
100
AcDbText
 10
1928.918816658996
 20
45.62655145092504
 30
0.0
 40
65.0
  1
４
  7
STYLE1
100
AcDbText
  0
TEXT
  5
1198
330
1136
100
AcDbEntity
  8
0
 62
     5
 48
6.0
370
    -1
100
AcDbText
 10
1878.918816658996
 20
45.62655145092504
 30
0.0
 40
65.0
  1
２
  7
STYLE1
100
AcDbText
  0
TEXT
  5
1199
330
1136
100
AcDbEntity
  8
0
 62
     5
 48
6.0
370
    -1
100
AcDbText
 10
1988.918816658996
 20
45.62655145092504
 30
0.0
 40
65.0
  1
５
  7
STYLE1
100
AcDbText
  0
TEXT
  5
119A
330
1136
100
AcDbEntity
  8
0
 62
     5
 48
6.0
370
    -1
100
AcDbText
 10
1928.918816658996
 20
185.626551450925
 30
0.0
 40
65.0
  1
４
  7
STYLE1
100
AcDbText
  0
TEXT
  5
119B
330
1136
100
AcDbEntity
  8
0
 62
     5
 48
6.0
370
    -1
100
AcDbText
 10
1878.918816658996
 20
185.626551450925
 30
0.0
 40
65.0
  1
２
  7
STYLE1
100
AcDbText
  0
TEXT
  5
119C
330
1136
100
AcDbEntity
  8
0
 62
     5
 48
6.0
370
    -1
100
AcDbText
 10
1988.918816658996
 20
185.626551450925
 30
0.0
 40
65.0
  1
５
  7
STYLE1
100
AcDbText
  0
TEXT
  5
119D
330
1136
100
AcDbEntity
  8
0
 62
     5
 48
6.0
370
    -1
100
AcDbText
 10
2218.918816658996
 20
45.62655145092504
 30
0.0
 40
65.0
  1
５
  7
STYLE1
100
AcDbText
  0
TEXT
  5
119E
330
1136
100
AcDbEntity
  8
0
 62
     5
 48
6.0
370
    -1
100
AcDbText
 10
2108.918816658996
 20
45.62655145092504
 30
0.0
 40
65.0
  1
４
  7
STYLE1
100
AcDbText
  0
TEXT
  5
119F
330
1136
100
AcDbEntity
  8
0
 62
     5
 48
6.0
370
    -1
100
AcDbText
 10
2168.918816658996
 20
45.62655145092504
 30
0.0
 40
65.0
  1
２
  7
STYLE1
100
AcDbText
  0
TEXT
  5
11A0
330
1136
100
AcDbEntity
  8
0
 62
     5
 48
6.0
370
    -1
100
AcDbText
 10
2308.918816658996
 20
45.62655145092504
 30
0.0
 40
65.0
  1
１
  7
STYLE1
100
AcDbText
  0
TEXT
  5
11A1
330
1136
100
AcDbEntity
  8
0
 62
     5
 48
6.0
370
    -1
100
AcDbText
 10
2218.918816658996
 20
185.626551450925
 30
0.0
 40
65.0
  1
５
  7
STYLE1
100
AcDbText
  0
TEXT
  5
11A2
330
1136
100
AcDbEntity
  8
0
 62
     5
 48
6.0
370
    -1
100
AcDbText
 10
2108.918816658996
 20
185.626551450925
 30
0.0
 40
65.0
  1
４
  7
STYLE1
100
AcDbText
  0
TEXT
  5
11A3
330
1136
100
AcDbEntity
  8
0
 62
     5
 48
6.0
370
    -1
100
AcDbText
 10
2168.918816658996
 20
185.626551450925
 30
0.0
 40
65.0
  1
２
  7
STYLE1
100
AcDbText
  0
TEXT
  5
11A4
330
1136
100
AcDbEntity
  8
0
 62
     5
 48
6.0
370
    -1
100
AcDbText
 10
2308.918816658996
 20
185.626551450925
 30
0.0
 40
65.0
  1
１
  7
STYLE1
100
AcDbText
  0
TEXT
  5
11A5
330
1136
100
AcDbEntity
  8
0
 62
     5
 48
6.0
370
    -1
100
AcDbText
 10
1918.495736000848
 20
506.5473035032883
 30
0.0
 40
60.0
  1
表
  7
STYLE1
100
AcDbText
  0
TEXT
  5
11A6
330
1136
100
AcDbEntity
  8
0
 62
     5
 48
6.0
370
    -1
100
AcDbText
 10
1915.735928761031
 20
393.8618780401521
 30
0.0
 40
60.0
  1
穴
  7
STYLE1
100
AcDbText
  0
TEXT
  5
11A7
330
1136
100
AcDbEntity
  8
0
 62
     5
 48
6.0
370
    -1
100
AcDbText
 10
1835.735928761031
 20
393.8618780401521
 30
0.0
 40
60.0
  1
付
  7
STYLE1
100
AcDbText
  0
TEXT
  5
11A8
330
1136
100
AcDbEntity
  8
0
 62
     5
 48
6.0
370
    -1
100
AcDbText
 10
1998.755432156046
 20
393.8618780401521
 30
0.0
 40
60.0
  1
ピ
  7
STYLE1
100
AcDbText
  0
TEXT
  5
11A9
330
1136
100
AcDbEntity
  8
0
 62
     5
 48
6.0
370
    -1
100
AcDbText
 10
2018.344209548777
 20
497.9795218130766
 30
0.0
 40
60.0
  1
（
  7
STYLE1
100
AcDbText
  0
TEXT
  5
11AA
330
1136
100
AcDbEntity
  8
0
 62
     5
 48
6.0
370
    -1
100
AcDbText
 10
2144.642862244291
 20
393.8618780401521
 30
0.0
 40
60.0
  1
チ
  7
STYLE1
100
AcDbText
  0
TEXT
  5
11AB
330
1136
100
AcDbEntity
  8
0
 62
     5
 48
6.0
370
    -1
100
AcDbText
 10
2080.303052904143
 20
393.8618780401521
 30
0.0
 40
60.0
  1
ッ
  7
STYLE1
100
AcDbText
  0
TEXT
  5
11AC
330
1136
100
AcDbEntity
  8
0
 62
     5
 48
6.0
370
    -1
100
AcDbText
 10
2129.626709255455
 20
502.27618982481
 30
0.0
 40
60.0
  1
ｍ
  7
STYLE1
100
AcDbText
  0
TEXT
  5
11AD
330
1136
100
AcDbEntity
  8
0
 62
     5
 48
6.0
370
    -1
100
AcDbText
 10
2076.834495538551
 20
502.2762029071764
 30
0.0
 40
60.0
  1
ｍ
  7
STYLE1
100
AcDbText
  0
TEXT
  5
11AE
330
1136
100
AcDbEntity
  8
0
 62
     5
 48
6.0
370
    -1
100
AcDbText
 10
2178.00330015647
 20
497.9539413150887
 30
0.0
 40
60.0
  1
）
  7
STYLE1
100
AcDbText
  0
LINE
  5
11AF
330
1136
100
AcDbEntity
  8
0
 62
     5
 48
6.0
370
    -1
100
AcDbLine
 10
2725.735928761031
 20
13.86187804015208
 30
0.0
 11
3165.735928761031
 21
13.86187804015208
 31
0.0
  0
LINE
  5
11B0
330
1136
100
AcDbEntity
  8
0
 62
     5
 48
6.0
370
    -1
100
AcDbLine
 10
2705.735928761031
 20
153.8618780401521
 30
0.0
 11
3155.735928761031
 21
153.8618780401521
 31
0.0
  0
LINE
  5
11B1
330
1136
100
AcDbEntity
  8
0
 62
     5
 48
6.0
370
    -1
100
AcDbLine
 10
2715.735928761031
 20
293.8618780401521
 30
0.0
 11
3125.735928761031
 21
293.8618780401521
 31
0.0
  0
LINE
  5
11B2
330
1136
100
AcDbEntity
  8
0
 62
     5
 48
6.0
370
    -1
100
AcDbLine
 10
2595.735928761031
 20
373.8618780401521
 30
0.0
 11
2975.735928761031
 21
373.8618780401521
 31
0.0
  0
TEXT
  5
11B3
330
1136
100
AcDbEntity
  8
0
 62
     5
 48
6.0
370
    -1
100
AcDbText
 10
2935.735928761031
 20
393.8618780401521
 30
0.0
 40
60.0
  1
チ
  7
STYLE1
100
AcDbText
  0
TEXT
  5
11B4
330
1136
100
AcDbEntity
  8
0
 62
     5
 48
6.0
370
    -1
100
AcDbText
 10
2634.47992156183
 20
44.14252696717631
 30
0.0
 40
65.0
  1
０
  7
STYLE1
100
AcDbText
  0
TEXT
  5
11B5
330
1136
100
AcDbEntity
  8
0
 62
     5
 48
6.0
370
    -1
100
AcDbText
 10
2634.47992156183
 20
184.1425269671763
 30
0.0
 40
65.0
  1
０
  7
STYLE1
100
AcDbText
  0
TEXT
  5
11B6
330
1136
100
AcDbEntity
  8
0
 62
     5
 48
6.0
370
    -1
100
AcDbText
 10
2408.918816658996
 20
45.62655145092504
 30
0.0
 40
65.0
  1
３
  7
STYLE1
100
AcDbText
  0
TEXT
  5
11B7
330
1136
100
AcDbEntity
  8
0
 62
     5
 48
6.0
370
    -1
100
AcDbText
 10
2458.918816658996
 20
45.62655145092504
 30
0.0
 40
65.0
  1
０
  7
STYLE1
100
AcDbText
  0
TEXT
  5
11B8
330
1136
100
AcDbEntity
  8
0
 62
     5
 48
6.0
370
    -1
100
AcDbText
 10
2518.860408886816
 20
48.20967835726515
 30
0.0
 40
65.0
  1
×
  7
STYLE1
100
AcDbText
  0
TEXT
  5
11B9
330
1136
100
AcDbEntity
  8
0
 62
     5
 48
6.0
370
    -1
100
AcDbText
 10
2584.47992156183
 20
44.14252696717631
 30
0.0
 40
65.0
  1
６
  7
STYLE1
100
AcDbText
  0
TEXT
  5
11BA
330
1136
100
AcDbEntity
  8
0
 62
     5
 48
6.0
370
    -1
100
AcDbText
 10
2408.918816658996
 20
185.626551450925
 30
0.0
 40
65.0
  1
３
  7
STYLE1
100
AcDbText
  0
TEXT
  5
11BB
330
1136
100
AcDbEntity
  8
0
 62
     5
 48
6.0
370
    -1
100
AcDbText
 10
2458.918816658996
 20
185.626551450925
 30
0.0
 40
65.0
  1
０
  7
STYLE1
100
AcDbText
  0
TEXT
  5
11BC
330
1136
100
AcDbEntity
  8
0
 62
     5
 48
6.0
370
    -1
100
AcDbText
 10
2405.735928761031
 20
303.8618780401521
 30
0.0
 40
60.0
  1
付
  7
STYLE1
100
AcDbText
  0
TEXT
  5
11BD
330
1136
100
AcDbEntity
  8
0
 62
     5
 48
6.0
370
    -1
100
AcDbText
 10
2518.860408886816
 20
188.2096783572651
 30
0.0
 40
65.0
  1
×
  7
STYLE1
100
AcDbText
  0
TEXT
  5
11BE
330
1136
100
AcDbEntity
  8
0
 62
     5
 48
6.0
370
    -1
100
AcDbText
 10
2584.47992156183
 20
184.1425269671763
 30
0.0
 40
65.0
  1
６
  7
STYLE1
100
AcDbText
  0
TEXT
  5
11BF
330
1136
100
AcDbEntity
  8
0
 62
     5
 48
6.0
370
    -1
100
AcDbText
 10
2548.918816658996
 20
295.626551450925
 30
0.0
 40
65.0
  1
Ｃ
  7
STYLE1
100
AcDbText
  0
TEXT
  5
11C0
330
1136
100
AcDbEntity
  8
0
 62
     5
 48
6.0
370
    -1
100
AcDbText
 10
2608.860408886816
 20
298.2096783572651
 30
0.0
 40
65.0
  1
×
  7
STYLE1
100
AcDbText
  0
LINE
  5
11C1
330
1136
100
AcDbEntity
  8
0
 62
     5
 48
6.0
370
    -1
100
AcDbLine
 10
2755.735928761031
 20
373.8618780401521
 30
0.0
 11
2755.735928761031
 21
13.86187804015208
 31
0.0
  0
TEXT
  5
11C2
330
1136
100
AcDbEntity
  8
0
 62
     5
 48
6.0
370
    -1
100
AcDbText
 10
2684.47992156183
 20
44.14252696717631
 30
0.0
 40
65.0
  1
０
  7
STYLE1
100
AcDbText
  0
TEXT
  5
11C3
330
1136
100
AcDbEntity
  8
0
 62
     5
 48
6.0
370
    -1
100
AcDbText
 10
2758.918816658996
 20
45.62655145092504
 30
0.0
 40
65.0
  1
１
  7
STYLE1
100
AcDbText
  0
TEXT
  5
11C4
330
1136
100
AcDbEntity
  8
0
 62
     5
 48
6.0
370
    -1
100
AcDbText
 10
2848.918816658996
 20
45.62655145092504
 30
0.0
 40
65.0
  1
９
  7
STYLE1
100
AcDbText
  0
TEXT
  5
11C5
330
1136
100
AcDbEntity
  8
0
 62
     5
 48
6.0
370
    -1
100
AcDbText
 10
2798.918816658996
 20
45.62655145092504
 30
0.0
 40
65.0
  1
０
  7
STYLE1
100
AcDbText
  0
TEXT
  5
11C6
330
1136
100
AcDbEntity
  8
0
 62
     5
 48
6.0
370
    -1
100
AcDbText
 10
2898.918816658996
 20
45.62655145092504
 30
0.0
 40
65.0
  1
０
  7
STYLE1
100
AcDbText
  0
TEXT
  5
11C7
330
1136
100
AcDbEntity
  8
0
 62
     5
 48
6.0
370
    -1
100
AcDbText
 10
2788.918816658996
 20
185.626551450925
 30
0.0
 40
65.0
  1
８
  7
STYLE1
100
AcDbText
  0
TEXT
  5
11C8
330
1136
100
AcDbEntity
  8
0
 62
     5
 48
6.0
370
    -1
100
AcDbText
 10
2684.47992156183
 20
184.1425269671763
 30
0.0
 40
65.0
  1
０
  7
STYLE1
100
AcDbText
  0
TEXT
  5
11C9
330
1136
100
AcDbEntity
  8
0
 62
     5
 48
6.0
370
    -1
100
AcDbText
 10
2668.918816658996
 20
295.626551450925
 30
0.0
 40
65.0
  1
Ｅ
  7
STYLE1
100
AcDbText
  0
TEXT
  5
11CA
330
1136
100
AcDbEntity
  8
0
 62
     5
 48
6.0
370
    -1
100
AcDbText
 10
2838.918816658996
 20
185.626551450925
 30
0.0
 40
65.0
  1
９
  7
STYLE1
100
AcDbText
  0
TEXT
  5
11CB
330
1136
100
AcDbEntity
  8
0
 62
     5
 48
6.0
370
    -1
100
AcDbText
 10
2888.918816658996
 20
185.626551450925
 30
0.0
 40
65.0
  1
０
  7
STYLE1
100
AcDbText
  0
TEXT
  5
11CC
330
1136
100
AcDbEntity
  8
0
 62
     5
 48
6.0
370
    -1
100
AcDbText
 10
2875.735928761031
 20
303.8618780401521
 30
0.0
 40
60.0
  1
付
  7
STYLE1
100
AcDbText
  0
TEXT
  5
11CD
330
1136
100
AcDbEntity
  8
0
 62
     5
 48
6.0
370
    -1
100
AcDbText
 10
2805.735928761031
 20
303.8618780401521
 30
0.0
 40
60.0
  1
内
  7
STYLE1
100
AcDbText
  0
TEXT
  5
11CE
330
1136
100
AcDbEntity
  8
0
 62
     5
 48
6.0
370
    -1
100
AcDbText
 10
2485.735928761031
 20
393.8618780401521
 30
0.0
 40
60.0
  1
カ
  7
STYLE1
100
AcDbText
  0
TEXT
  5
11CF
330
1136
100
AcDbEntity
  8
0
 62
     5
 48
6.0
370
    -1
100
AcDbText
 10
2435.735928761031
 20
393.8618780401521
 30
0.0
 40
60.0
  1
ン
  7
STYLE1
100
AcDbText
  0
TEXT
  5
11D0
330
1136
100
AcDbEntity
  8
0
 62
     5
 48
6.0
370
    -1
100
AcDbText
 10
2375.735928761031
 20
393.8618780401521
 30
0.0
 40
60.0
  1
ア
  7
STYLE1
100
AcDbText
  0
TEXT
  5
11D1
330
1136
100
AcDbEntity
  8
0
 62
     5
 48
6.0
370
    -1
100
AcDbText
 10
2545.735928761031
 20
393.8618780401521
 30
0.0
 40
60.0
  1
―
  7
STYLE1
100
AcDbText
  0
TEXT
  5
11D2
330
1136
100
AcDbEntity
  8
0
 62
     5
 48
6.0
370
    -1
100
AcDbText
 10
2605.735928761031
 20
393.8618780401521
 30
0.0
 40
60.0
  1
ボ
  7
STYLE1
100
AcDbText
  0
TEXT
  5
11D3
330
1136
100
AcDbEntity
  8
0
 62
     5
 48
6.0
370
    -1
100
AcDbText
 10
2775.735928761031
 20
393.8618780401521
 30
0.0
 40
60.0
  1
穴
  7
STYLE1
100
AcDbText
  0
TEXT
  5
11D4
330
1136
100
AcDbEntity
  8
0
 62
     5
 48
6.0
370
    -1
100
AcDbText
 10
2665.735928761031
 20
393.8618780401521
 30
0.0
 40
60.0
  1
ル
  7
STYLE1
100
AcDbText
  0
TEXT
  5
11D5
330
1136
100
AcDbEntity
  8
0
 62
     5
 48
6.0
370
    -1
100
AcDbText
 10
2715.735928761031
 20
393.8618780401521
 30
0.0
 40
60.0
  1
ト
  7
STYLE1
100
AcDbText
  0
TEXT
  5
11D6
330
1136
100
AcDbEntity
  8
0
 62
     5
 48
6.0
370
    -1
100
AcDbText
 10
2835.735928761031
 20
393.8618780401521
 30
0.0
 40
60.0
  1
ピ
  7
STYLE1
100
AcDbText
  0
TEXT
  5
11D7
330
1136
100
AcDbEntity
  8
0
 62
     5
 48
6.0
370
    -1
100
AcDbText
 10
2885.735928761031
 20
393.8618780401521
 30
0.0
 40
60.0
  1
ッ
  7
STYLE1
100
AcDbText
  0
TEXT
  5
11D8
330
1136
100
AcDbEntity
  8
0
 62
     5
 48
6.0
370
    -1
100
AcDbText
 10
3084.47992156183
 20
44.14252696717631
 30
0.0
 40
65.0
  1
６
  7
STYLE1
100
AcDbText
  0
TEXT
  5
11D9
330
1136
100
AcDbEntity
  8
0
 62
     5
 48
6.0
370
    -1
100
AcDbText
 10
2958.860408886816
 20
48.20967835726515
 30
0.0
 40
65.0
  1
×
  7
STYLE1
100
AcDbText
  0
TEXT
  5
11DA
330
1136
100
AcDbEntity
  8
0
 62
     5
 48
6.0
370
    -1
100
AcDbText
 10
3028.918816658996
 20
45.62655145092504
 30
0.0
 40
65.0
  1
４
  7
STYLE1
100
AcDbText
  0
TEXT
  5
11DB
330
1136
100
AcDbEntity
  8
0
 62
     5
 48
6.0
370
    -1
100
AcDbText
 10
3138.918816658996
 20
45.62655145092504
 30
0.0
 40
65.0
  1
０
  7
STYLE1
100
AcDbText
  0
LINE
  5
11DC
330
1136
100
AcDbEntity
  8
0
 62
     5
 48
6.0
370
    -1
100
AcDbLine
 10
2975.735928761031
 20
373.8618780401521
 30
0.0
 11
3215.735928761031
 21
373.8618780401521
 31
0.0
  0
TEXT
  5
11DD
330
1136
100
AcDbEntity
  8
0
 62
     5
 48
6.0
370
    -1
100
AcDbText
 10
3058.860408886816
 20
298.2096783572651
 30
0.0
 40
65.0
  1
×
  7
STYLE1
100
AcDbText
  0
TEXT
  5
11DE
330
1136
100
AcDbEntity
  8
0
 62
     5
 48
6.0
370
    -1
100
AcDbText
 10
3084.47992156183
 20
184.1425269671763
 30
0.0
 40
65.0
  1
６
  7
STYLE1
100
AcDbText
  0
TEXT
  5
11DF
330
1136
100
AcDbEntity
  8
0
 62
     5
 48
6.0
370
    -1
100
AcDbText
 10
2958.860408886816
 20
188.2096783572651
 30
0.0
 40
65.0
  1
×
  7
STYLE1
100
AcDbText
  0
TEXT
  5
11E0
330
1136
100
AcDbEntity
  8
0
 62
     5
 48
6.0
370
    -1
100
AcDbText
 10
3028.918816658996
 20
185.626551450925
 30
0.0
 40
65.0
  1
４
  7
STYLE1
100
AcDbText
  0
TEXT
  5
11E1
330
1136
100
AcDbEntity
  8
0
 62
     5
 48
6.0
370
    -1
100
AcDbText
 10
2998.918816658996
 20
295.626551450925
 30
0.0
 40
65.0
  1
Ｃ
  7
STYLE1
100
AcDbText
  0
TEXT
  5
11E2
330
1136
100
AcDbEntity
  8
0
 62
     5
 48
6.0
370
    -1
100
AcDbText
 10
3138.918816658996
 20
185.626551450925
 30
0.0
 40
65.0
  1
０
  7
STYLE1
100
AcDbText
  0
TEXT
  5
11E3
330
1136
100
AcDbEntity
  8
0
 62
     5
 48
6.0
370
    -1
100
AcDbText
 10
3118.918816658996
 20
295.626551450925
 30
0.0
 40
65.0
  1
Ｅ
  7
STYLE1
100
AcDbText
  0
ENDBLK
  5
11E4
330
1136
100
AcDbEntity
  8
0
 48
6.0
370
    -1
100
AcDbBlockEnd
  0
BLOCK
  5
1F98
330
1D1D
100
AcDbEntity
  8
0
 62
     5
 48
8.0
370
    -1
100
AcDbBlockBegin
  2
S1
 70
     0
 10
0.0
 20
0.0
 30
0.0
  3
S1
  1

  0
TEXT
  5
1D1E
330
1D1D
100
AcDbEntity
  8
0
 62
     5
 48
3.0
370
    -1
100
AcDbText
 10
2865.0
 20
260.0
 30
0.0
 40
60.0
  1
１７０
 50
90.0
  7
STYLE1
100
AcDbText
  0
LINE
  5
1D1F
330
1D1D
100
AcDbEntity
  8
0
  6
ByBlock
 62
     6
 48
6.0
370
    -1
100
AcDbLine
 10
3066.2247
 20
180.0
 30
0.0
 11
2707.4495
 21
180.0
 31
0.0
  0
LINE
  5
1D20
330
1D1D
100
AcDbEntity
  8
0
  6
ByBlock
 62
     6
 48
6.0
370
    -1
100
AcDbLine
 10
3066.2247
 20
1180.0
 30
0.0
 11
2707.4495
 21
1180.0
 31
0.0
  0
TEXT
  5
1D21
330
1D1D
100
AcDbEntity
  8
0
 62
     5
 48
6.0
370
    -1
100
AcDbText
 10
2312.417951604777
 20
1220.255750026792
 30
0.0
 40
60.0
  1
２
 50
90.0
  7
STYLE1
100
AcDbText
  0
LINE
  5
1D22
330
1D1D
100
AcDbEntity
  8
0
  6
ByBlock
 62
     6
 48
6.0
370
    -1
100
AcDbLine
 10
2315.0
 20
1225.101
 30
0.0
 11
2315.0
 21
1330.404115151515
 31
0.0
  0
LINE
  5
1D23
330
1D1D
100
AcDbEntity
  8
0
 62
     5
 48
6.0
370
    -1
100
AcDbLine
 10
1070.0
 20
510.0
 30
0.0
 11
930.0
 21
510.0
 31
0.0
  0
LINE
  5
1D24
330
1D1D
100
AcDbEntity
  8
0
 62
     5
 48
6.0
370
    -1
100
AcDbLine
 10
960.0
 20
450.0
 30
0.0
 11
940.0
 21
450.0
 31
0.0
  0
LINE
  5
1D25
330
1D1D
100
AcDbEntity
  8
0
 62
     5
 48
6.0
370
    -1
100
AcDbLine
 10
940.0
 20
500.0
 30
0.0
 11
1060.0
 21
500.0
 31
0.0
  0
LINE
  5
1D26
330
1D1D
100
AcDbEntity
  8
0
 62
     5
 48
6.0
370
    -1
100
AcDbLine
 10
1060.0
 20
520.0
 30
0.0
 11
940.0
 21
520.0
 31
0.0
  0
LINE
  5
1D27
330
1D1D
100
AcDbEntity
  8
0
 62
     5
 48
6.0
370
    -1
100
AcDbLine
 10
1800.0
 20
440.0
 30
0.0
 11
680.0
 21
440.0
 31
0.0
  0
LINE
  5
1D28
330
1D1D
100
AcDbEntity
  8
0
 62
     5
 48
6.0
370
    -1
100
AcDbLine
 10
680.0
 20
350.0
 30
0.0
 11
1800.0
 21
350.0
 31
0.0
  0
LINE
  5
1D29
330
1D1D
100
AcDbEntity
  8
0
 62
     6
 48
6.0
370
    -1
100
AcDbLine
 10
815.0
 20
1250.0
 30
0.0
 11
1205.0
 21
1250.0
 31
0.0
  0
LINE
  5
1D2A
330
1D1D
100
AcDbEntity
  8
0
 62
     6
 48
6.0
370
    -1
100
AcDbLine
 10
1840.0
 20
-25.0
 30
0.0
 11
640.0
 21
-25.0
 31
0.0
  0
TEXT
  5
1D2B
330
1D1D
100
AcDbEntity
  8
0
 62
     5
 48
6.0
370
    -1
100
AcDbText
 10
935.0
 20
1178.356576920292
 30
0.0
 40
60.0
  1
－
  7
STYLE1
100
AcDbText
  0
LINE
  5
1D2C
330
1D1D
100
AcDbEntity
  8
0
 62
     5
 48
8.0
370
    -1
100
AcDbLine
 10
580.0
 20
750.0
 30
0.0
 11
580.0
 21
495.0
 31
0.0
  0
LINE
  5
1D2D
330
1D1D
100
AcDbEntity
  8
0
 62
     5
 48
8.0
370
    -1
100
AcDbLine
 10
580.0
 20
735.0
 30
0.0
 11
580.0
 21
230.0
 31
0.0
  0
LINE
  5
1D2E
330
1D1D
100
AcDbEntity
  8
0
 62
     5
 48
8.0
370
    -1
100
AcDbLine
 10
580.0
 20
1145.0
 30
0.0
 11
580.0
 21
210.0
 31
0.0
  0
LINE
  5
1D2F
330
1D1D
100
AcDbEntity
  8
0
 62
     5
 48
8.0
370
    -1
100
AcDbLine
 10
680.0
 20
1145.0
 30
0.0
 11
680.0
 21
440.0
 31
0.0
  0
LINE
  5
1D30
330
1D1D
100
AcDbEntity
  8
0
 62
     5
 48
8.0
370
    -1
100
AcDbLine
 10
580.0
 20
715.0
 30
0.0
 11
580.0
 21
505.0
 31
0.0
  0
LINE
  5
1D31
330
1D1D
100
AcDbEntity
  8
0
 62
     5
 48
8.0
370
    -1
100
AcDbLine
 10
580.0
 20
1140.0
 30
0.0
 11
580.0
 21
230.0
 31
0.0
  0
LINE
  5
1D32
330
1D1D
100
AcDbEntity
  8
0
 62
     5
 48
6.0
370
    -1
100
AcDbLine
 10
580.0
 20
655.0
 30
0.0
 11
580.0
 21
585.0
 31
0.0
  0
LINE
  5
1D33
330
1D1D
100
AcDbEntity
  8
0
 62
     5
 48
6.0
370
    -1
100
AcDbLine
 10
680.0
 20
490.0
 30
0.0
 11
680.0
 21
905.0
 31
0.0
  0
LINE
  5
1D34
330
1D1D
100
AcDbEntity
  8
0
 62
     5
 48
6.0
370
    -1
100
AcDbLine
 10
580.0
 20
490.0
 30
0.0
 11
580.0
 21
905.0
 31
0.0
  0
LINE
  5
1D35
330
1D1D
100
AcDbEntity
  8
0
 62
     5
 48
8.0
370
    -1
100
AcDbLine
 10
680.0
 20
330.0
 30
0.0
 11
680.0
 21
220.0
 31
0.0
  0
LINE
  5
1D36
330
1D1D
100
AcDbEntity
  8
0
 62
     5
 48
8.0
370
    -1
100
AcDbLine
 10
680.0
 20
350.0
 30
0.0
 11
680.0
 21
230.0
 31
0.0
  0
LINE
  5
1D37
330
1D1D
100
AcDbEntity
  8
0
 62
     5
 48
8.0
370
    -1
100
AcDbLine
 10
580.0
 20
210.0
 30
0.0
 11
580.0
 21
440.0
 31
0.0
  0
LINE
  5
1D38
330
1D1D
100
AcDbEntity
  8
0
 62
     5
 48
8.0
370
    -1
100
AcDbLine
 10
680.0
 20
350.0
 30
0.0
 11
680.0
 21
205.0
 31
0.0
  0
LINE
  5
1D39
330
1D1D
100
AcDbEntity
  8
0
 62
     5
 48
3.0
370
    -1
100
AcDbLine
 10
580.0
 20
255.0
 30
0.0
 11
580.0
 21
325.0
 31
0.0
  0
LINE
  5
1D3A
330
1D1D
100
AcDbEntity
  8
0
 62
     5
 48
3.0
370
    -1
100
AcDbLine
 10
680.0
 20
325.0
 30
0.0
 11
680.0
 21
255.0
 31
0.0
  0
LINE
  5
1D3B
330
1D1D
100
AcDbEntity
  8
0
  6
ByBlock
 62
     6
 48
6.0
370
    -1
100
AcDbLine
 10
630.0
 20
161.2247000000002
 30
0.0
 11
630.0
 21
-42.55050000000028
 31
0.0
  0
INSERT
  5
1D3C
330
1D1D
100
AcDbEntity
  8
0
  6
ByBlock
 62
     6
 48
6.0
370
    -1
100
AcDbBlockReference
  2
_OPEN
 10
630.0
 20
-25.0
 30
0.0
 41
35.101
 42
35.101
 43
35.101
 50
180.0
  0
LINE
  5
1D3D
330
1D1D
100
AcDbEntity
  8
0
 62
     5
 48
6.0
370
    -1
100
AcDbLine
 10
580.0
 20
190.0
 30
0.0
 11
680.0
 21
190.0
 31
0.0
  0
LINE
  5
1D3E
330
1D1D
100
AcDbEntity
  8
0
 62
     5
 48
6.0
370
    -1
100
AcDbLine
 10
580.0
 20
190.0
 30
0.0
 11
580.0
 21
220.0
 31
0.0
  0
LINE
  5
1D3F
330
1D1D
100
AcDbEntity
  8
0
 62
     5
 48
6.0
370
    -1
100
AcDbLine
 10
580.0
 20
255.0
 30
0.0
 11
580.0
 21
210.0
 31
0.0
  0
LINE
  5
1D40
330
1D1D
100
AcDbEntity
  8
0
 62
     5
 48
6.0
370
    -1
100
AcDbLine
 10
680.0
 20
190.0
 30
0.0
 11
680.0
 21
220.0
 31
0.0
  0
POINT
  5
1D41
330
1D1D
100
AcDbEntity
  8
DEFPOINTS
  6
ByBlock
 62
     0
 48
6.0
370
    -1
380
     1
100
AcDbPoint
 10
630.0
 20
170.0
 30
0.0
  0
CIRCLE
  5
1D42
330
1D1D
100
AcDbEntity
  8
0
 62
     5
 48
6.0
370
    -1
100
AcDbCircle
 10
630.0
 20
230.0
 30
0.0
 40
10.0
  0
LINE
  5
1D43
330
1D1D
100
AcDbEntity
  8
0
 62
     6
 48
6.0
370
    -1
100
AcDbLine
 10
630.0
 20
250.0
 30
0.0
 11
630.0
 21
210.0
 31
0.0
  0
LINE
  5
1D44
330
1D1D
100
AcDbEntity
  8
0
 62
     6
 48
6.0
370
    -1
100
AcDbLine
 10
610.0
 20
230.0
 30
0.0
 11
650.0
 21
230.0
 31
0.0
  0
LINE
  5
1D45
330
1D1D
100
AcDbEntity
  8
0
 62
     5
 48
6.0
370
    -1
100
AcDbLine
 10
680.0
 20
210.0
 30
0.0
 11
680.0
 21
255.0
 31
0.0
  0
LINE
  5
1D46
330
1D1D
100
AcDbEntity
  8
0
 62
     6
 48
6.0
370
    -1
100
AcDbLine
 10
630.0
 20
460.0
 30
0.0
 11
630.0
 21
420.0
 31
0.0
  0
CIRCLE
  5
1D47
330
1D1D
100
AcDbEntity
  8
0
  6
HIDDEN
 62
     6
 48
6.0
370
    -1
100
AcDbCircle
 10
630.0
 20
440.0
 30
0.0
 40
10.0
  0
LINE
  5
1D48
330
1D1D
100
AcDbEntity
  8
0
 62
     5
 48
6.0
370
    -1
100
AcDbLine
 10
580.0
 20
515.0
 30
0.0
 11
580.0
 21
325.0
 31
0.0
  0
LINE
  5
1D49
330
1D1D
100
AcDbEntity
  8
0
 62
     5
 48
8.0
370
    -1
100
AcDbLine
 10
680.0
 20
350.0
 30
0.0
 11
580.0
 21
350.0
 31
0.0
  0
LINE
  5
1D4A
330
1D1D
100
AcDbEntity
  8
0
 62
     5
 48
6.0
370
    -1
100
AcDbLine
 10
680.0
 20
325.0
 30
0.0
 11
680.0
 21
350.0
 31
0.0
  0
LINE
  5
1D4B
330
1D1D
100
AcDbEntity
  8
0
 62
     5
 48
8.0
370
    -1
100
AcDbLine
 10
580.0
 20
440.0
 30
0.0
 11
680.0
 21
440.0
 31
0.0
  0
LINE
  5
1D4C
330
1D1D
100
AcDbEntity
  8
0
 62
     5
 48
8.0
370
    -1
100
AcDbLine
 10
580.0
 20
440.0
 30
0.0
 11
580.0
 21
440.0
 31
0.0
  0
LINE
  5
1D4D
330
1D1D
100
AcDbEntity
  8
0
 62
     6
 48
6.0
370
    -1
100
AcDbLine
 10
610.0
 20
440.0
 30
0.0
 11
650.0
 21
440.0
 31
0.0
  0
LINE
  5
1D4E
330
1D1D
100
AcDbEntity
  8
0
 62
     5
 48
6.0
370
    -1
100
AcDbLine
 10
680.0
 20
440.0
 30
0.0
 11
680.0
 21
515.0
 31
0.0
  0
LINE
  5
1D4F
330
1D1D
100
AcDbEntity
  8
0
 62
     6
 48
6.0
370
    -1
100
AcDbLine
 10
950.0
 20
520.0
 30
0.0
 11
950.0
 21
510.0
 31
0.0
  0
LINE
  5
1D50
330
1D1D
100
AcDbEntity
  8
0
 62
     5
 48
6.0
370
    -1
100
AcDbLine
 10
940.0
 20
520.0
 30
0.0
 11
940.0
 21
510.0
 31
0.0
  0
LINE
  5
1D51
330
1D1D
100
AcDbEntity
  8
0
 62
     5
 48
6.0
370
    -1
100
AcDbLine
 10
930.0
 20
510.0
 30
0.0
 11
930.0
 21
440.0
 31
0.0
  0
LINE
  5
1D52
330
1D1D
100
AcDbEntity
  8
0
 62
     5
 48
6.0
370
    -1
100
AcDbLine
 10
940.0
 20
450.0
 30
0.0
 11
940.0
 21
500.0
 31
0.0
  0
LINE
  5
1D53
330
1D1D
100
AcDbEntity
  8
0
 62
     6
 48
6.0
370
    -1
100
AcDbLine
 10
630.0
 20
960.0
 30
0.0
 11
630.0
 21
920.0
 31
0.0
  0
LINE
  5
1D54
330
1D1D
100
AcDbEntity
  8
0
 62
     5
 48
6.0
370
    -1
100
AcDbLine
 10
680.0
 20
1040.0
 30
0.0
 11
680.0
 21
825.0
 31
0.0
  0
LINE
  5
1D55
330
1D1D
100
AcDbEntity
  8
0
 62
     5
 48
6.0
370
    -1
100
AcDbLine
 10
580.0
 20
875.0
 30
0.0
 11
580.0
 21
1040.0
 31
0.0
  0
LINE
  5
1D56
330
1D1D
100
AcDbEntity
  8
0
 62
     6
 48
6.0
370
    -1
100
AcDbLine
 10
580.0
 20
640.0
 30
0.0
 11
580.0
 21
600.0
 31
0.0
  0
LINE
  5
1D57
330
1D1D
100
AcDbEntity
  8
0
 62
     6
 48
6.0
370
    -1
100
AcDbLine
 10
630.0
 20
710.0
 30
0.0
 11
630.0
 21
670.0
 31
0.0
  0
LINE
  5
1D58
330
1D1D
100
AcDbEntity
  8
0
 62
     6
 48
6.0
370
    -1
100
AcDbLine
 10
610.0
 20
690.0
 30
0.0
 11
650.0
 21
690.0
 31
0.0
  0
CIRCLE
  5
1D59
330
1D1D
100
AcDbEntity
  8
0
 62
     5
 48
6.0
370
    -1
100
AcDbCircle
 10
630.0
 20
690.0
 30
0.0
 40
10.0
  0
LINE
  5
1D5A
330
1D1D
100
AcDbEntity
  8
0
 62
     6
 48
6.0
370
    -1
100
AcDbLine
 10
815.0
 20
1250.0
 30
0.0
 11
630.0
 21
1150.0
 31
0.0
  0
LINE
  5
1D5B
330
1D1D
100
AcDbEntity
  8
0
 62
     5
 48
8.0
370
    -1
100
AcDbLine
 10
680.0
 20
1165.0
 30
0.0
 11
680.0
 21
925.0
 31
0.0
  0
LINE
  5
1D5C
330
1D1D
100
AcDbEntity
  8
0
 62
     5
 48
8.0
370
    -1
100
AcDbLine
 10
580.0
 20
1155.0
 30
0.0
 11
580.0
 21
965.0
 31
0.0
  0
LINE
  5
1D5D
330
1D1D
100
AcDbEntity
  8
0
 62
     5
 48
6.0
370
    -1
100
AcDbLine
 10
580.0
 20
1110.0
 30
0.0
 11
580.0
 21
1040.0
 31
0.0
  0
LINE
  5
1D5E
330
1D1D
100
AcDbEntity
  8
0
 62
     5
 48
6.0
370
    -1
100
AcDbLine
 10
680.0
 20
1110.0
 30
0.0
 11
680.0
 21
1040.0
 31
0.0
  0
CIRCLE
  5
1D5F
330
1D1D
100
AcDbEntity
  8
0
 62
     5
 48
6.0
370
    -1
100
AcDbCircle
 10
630.0
 20
940.0
 30
0.0
 40
10.0
  0
LINE
  5
1D60
330
1D1D
100
AcDbEntity
  8
0
 62
     6
 48
6.0
370
    -1
100
AcDbLine
 10
610.0
 20
940.0
 30
0.0
 11
650.0
 21
940.0
 31
0.0
  0
LINE
  5
1D61
330
1D1D
100
AcDbEntity
  8
0
 62
     5
 48
6.0
370
    -1
100
AcDbLine
 10
580.0
 20
1190.0
 30
0.0
 11
680.0
 21
1190.0
 31
0.0
  0
LINE
  5
1D62
330
1D1D
100
AcDbEntity
  8
0
 62
     5
 48
6.0
370
    -1
100
AcDbLine
 10
580.0
 20
1110.0
 30
0.0
 11
580.0
 21
1190.0
 31
0.0
  0
LINE
  5
1D63
330
1D1D
100
AcDbEntity
  8
0
 62
     6
 48
6.0
370
    -1
100
AcDbLine
 10
630.0
 20
1170.0
 30
0.0
 11
630.0
 21
1130.0
 31
0.0
  0
LINE
  5
1D64
330
1D1D
100
AcDbEntity
  8
0
 62
     5
 48
6.0
370
    -1
100
AcDbLine
 10
680.0
 20
1190.0
 30
0.0
 11
680.0
 21
1110.0
 31
0.0
  0
CIRCLE
  5
1D65
330
1D1D
100
AcDbEntity
  8
0
 62
     5
 48
6.0
370
    -1
100
AcDbCircle
 10
630.0
 20
1150.0
 30
0.0
 40
10.0
  0
LINE
  5
1D66
330
1D1D
100
AcDbEntity
  8
0
 62
     6
 48
6.0
370
    -1
100
AcDbLine
 10
610.0
 20
1150.0
 30
0.0
 11
650.0
 21
1150.0
 31
0.0
  0
TEXT
  5
1D67
330
1D1D
100
AcDbEntity
  8
0
  6
HIDDEN
 62
     5
 48
3.0
370
    -1
100
AcDbText
 10
835.0
 20
1180.0
 30
0.0
 40
60.0
  1
１
  7
STYLE1
100
AcDbText
  0
TEXT
  5
1D68
330
1D1D
100
AcDbEntity
  8
0
  6
HIDDEN
 62
     5
 48
3.0
370
    -1
100
AcDbText
 10
885.0
 20
1180.0
 30
0.0
 40
60.0
  1
０
  7
STYLE1
100
AcDbText
  0
LINE
  5
1D69
330
1D1D
100
AcDbEntity
  8
0
 62
     5
 48
8.0
370
    -1
100
AcDbLine
 10
1800.0
 20
350.0
 30
0.0
 11
1900.0
 21
350.0
 31
0.0
  0
LINE
  5
1D6A
330
1D1D
100
AcDbEntity
  8
0
 62
     5
 48
8.0
370
    -1
100
AcDbLine
 10
1800.0
 20
440.0
 30
0.0
 11
1900.0
 21
440.0
 31
0.0
  0
LINE
  5
1D6B
330
1D1D
100
AcDbEntity
  8
0
 62
     5
 48
6.0
370
    -1
100
AcDbLine
 10
1800.0
 20
190.0
 30
0.0
 11
1900.0
 21
190.0
 31
0.0
  0
LINE
  5
1D6C
330
1D1D
100
AcDbEntity
  8
0
 62
     5
 48
6.0
370
    -1
100
AcDbLine
 10
1800.0
 20
1190.0
 30
0.0
 11
1900.0
 21
1190.0
 31
0.0
  0
LINE
  5
1D6D
330
1D1D
100
AcDbEntity
  8
0
 62
     5
 48
8.0
370
    -1
100
AcDbLine
 10
1800.0
 20
1145.0
 30
0.0
 11
1800.0
 21
440.0
 31
0.0
  0
LINE
  5
1D6E
330
1D1D
100
AcDbEntity
  8
0
 62
     5
 48
6.0
370
    -1
100
AcDbLine
 10
1800.0
 20
490.0
 30
0.0
 11
1800.0
 21
905.0
 31
0.0
  0
LINE
  5
1D6F
330
1D1D
100
AcDbEntity
  8
0
 62
     5
 48
6.0
370
    -1
100
AcDbLine
 10
1550.0
 20
510.0
 30
0.0
 11
1410.0
 21
510.0
 31
0.0
  0
TEXT
  5
1D70
330
1D1D
100
AcDbEntity
  8
0
 62
     5
 48
3.0
370
    -1
100
AcDbText
 10
1140.0
 20
-20.0
 30
0.0
 40
60.0
  1
９６０
  7
STYLE1
100
AcDbText
  0
LINE
  5
1D71
330
1D1D
100
AcDbEntity
  8
0
  6
CENTER
 62
     6
 48
3.0
370
    -1
100
AcDbLine
 10
1000.0
 20
550.0
 30
0.0
 11
1000.0
 21
420.0
 31
0.0
  0
LINE
  5
1D72
330
1D1D
100
AcDbEntity
  8
0
 62
     5
 48
6.0
370
    -1
100
AcDbLine
 10
1060.0
 20
510.0
 30
0.0
 11
1060.0
 21
520.0
 31
0.0
  0
LINE
  5
1D73
330
1D1D
100
AcDbEntity
  8
0
 62
     6
 48
6.0
370
    -1
100
AcDbLine
 10
1050.0
 20
520.0
 30
0.0
 11
1050.0
 21
510.0
 31
0.0
  0
LINE
  5
1D74
330
1D1D
100
AcDbEntity
  8
0
 62
     6
 48
6.0
370
    -1
100
AcDbLine
 10
1040.0
 20
520.0
 30
0.0
 11
1040.0
 21
510.0
 31
0.0
  0
LINE
  5
1D75
330
1D1D
100
AcDbEntity
  8
0
 62
     6
 48
6.0
370
    -1
100
AcDbLine
 10
1030.0
 20
520.0
 30
0.0
 11
1030.0
 21
510.0
 31
0.0
  0
LINE
  5
1D76
330
1D1D
100
AcDbEntity
  8
0
 62
     6
 48
6.0
370
    -1
100
AcDbLine
 10
1020.0
 20
520.0
 30
0.0
 11
1020.0
 21
510.0
 31
0.0
  0
LINE
  5
1D77
330
1D1D
100
AcDbEntity
  8
0
 62
     6
 48
6.0
370
    -1
100
AcDbLine
 10
1010.0
 20
520.0
 30
0.0
 11
1010.0
 21
510.0
 31
0.0
  0
LINE
  5
1D78
330
1D1D
100
AcDbEntity
  8
0
 62
     6
 48
6.0
370
    -1
100
AcDbLine
 10
1000.0
 20
520.0
 30
0.0
 11
1000.0
 21
510.0
 31
0.0
  0
LINE
  5
1D79
330
1D1D
100
AcDbEntity
  8
0
 62
     6
 48
6.0
370
    -1
100
AcDbLine
 10
980.0
 20
520.0
 30
0.0
 11
980.0
 21
510.0
 31
0.0
  0
LINE
  5
1D7A
330
1D1D
100
AcDbEntity
  8
0
 62
     6
 48
6.0
370
    -1
100
AcDbLine
 10
990.0
 20
520.0
 30
0.0
 11
990.0
 21
510.0
 31
0.0
  0
LINE
  5
1D7B
330
1D1D
100
AcDbEntity
  8
0
 62
     6
 48
6.0
370
    -1
100
AcDbLine
 10
960.0
 20
520.0
 30
0.0
 11
960.0
 21
510.0
 31
0.0
  0
LINE
  5
1D7C
330
1D1D
100
AcDbEntity
  8
0
 62
     6
 48
6.0
370
    -1
100
AcDbLine
 10
970.0
 20
520.0
 30
0.0
 11
970.0
 21
510.0
 31
0.0
  0
LINE
  5
1D7D
330
1D1D
100
AcDbEntity
  8
0
 62
     5
 48
6.0
370
    -1
100
AcDbLine
 10
960.0
 20
440.0
 30
0.0
 11
960.0
 21
450.0
 31
0.0
  0
LINE
  5
1D7E
330
1D1D
100
AcDbEntity
  8
0
 62
     5
 48
6.0
370
    -1
100
AcDbLine
 10
1060.0
 20
500.0
 30
0.0
 11
1060.0
 21
450.0
 31
0.0
  0
LINE
  5
1D7F
330
1D1D
100
AcDbEntity
  8
0
 62
     5
 48
6.0
370
    -1
100
AcDbLine
 10
1060.0
 20
450.0
 30
0.0
 11
1040.0
 21
450.0
 31
0.0
  0
LINE
  5
1D80
330
1D1D
100
AcDbEntity
  8
0
 62
     5
 48
6.0
370
    -1
100
AcDbLine
 10
1040.0
 20
450.0
 30
0.0
 11
1040.0
 21
440.0
 31
0.0
  0
LINE
  5
1D81
330
1D1D
100
AcDbEntity
  8
0
 62
     5
 48
6.0
370
    -1
100
AcDbLine
 10
1070.0
 20
440.0
 30
0.0
 11
1070.0
 21
510.0
 31
0.0
  0
LINE
  5
1D82
330
1D1D
100
AcDbEntity
  8
0
 62
     5
 48
6.0
370
    -1
100
AcDbLine
 10
1410.0
 20
510.0
 30
0.0
 11
1410.0
 21
440.0
 31
0.0
  0
LINE
  5
1D83
330
1D1D
100
AcDbEntity
  8
0
 62
     5
 48
8.0
370
    -1
100
AcDbLine
 10
1800.0
 20
335.0
 30
0.0
 11
1800.0
 21
225.0
 31
0.0
  0
LINE
  5
1D84
330
1D1D
100
AcDbEntity
  8
0
 62
     5
 48
8.0
370
    -1
100
AcDbLine
 10
1800.0
 20
350.0
 30
0.0
 11
1800.0
 21
230.0
 31
0.0
  0
LINE
  5
1D85
330
1D1D
100
AcDbEntity
  8
0
 62
     5
 48
8.0
370
    -1
100
AcDbLine
 10
1800.0
 20
350.0
 30
0.0
 11
1800.0
 21
225.0
 31
0.0
  0
LINE
  5
1D86
330
1D1D
100
AcDbEntity
  8
0
  6
HIDDEN
 62
     6
 48
3.0
370
    -1
100
AcDbLine
 10
1800.0
 20
325.0
 30
0.0
 11
1800.0
 21
255.0
 31
0.0
  0
LINE
  5
1D87
330
1D1D
100
AcDbEntity
  8
0
  6
ByBlock
 62
     6
 48
6.0
370
    -1
100
AcDbLine
 10
1850.0
 20
161.2247000000002
 30
0.0
 11
1850.0
 21
-42.55050000000028
 31
0.0
  0
INSERT
  5
1D88
330
1D1D
100
AcDbEntity
  8
0
  6
ByBlock
 62
     6
 48
6.0
370
    -1
100
AcDbBlockReference
  2
_OPEN
 10
1850.0
 20
-25.0
 30
0.0
 41
35.101
 42
35.101
 43
35.101
  0
LINE
  5
1D89
330
1D1D
100
AcDbEntity
  8
0
 62
     5
 48
6.0
370
    -1
100
AcDbLine
 10
1800.0
 20
190.0
 30
0.0
 11
1800.0
 21
215.0
 31
0.0
  0
POINT
  5
1D8A
330
1D1D
100
AcDbEntity
  8
DEFPOINTS
  6
ByBlock
 62
     0
 48
6.0
370
    -1
380
     1
100
AcDbPoint
 10
1850.0
 20
170.0
 30
0.0
  0
LINE
  5
1D8B
330
1D1D
100
AcDbEntity
  8
0
 62
     5
 48
6.0
370
    -1
100
AcDbLine
 10
1800.0
 20
255.0
 30
0.0
 11
1800.0
 21
210.0
 31
0.0
  0
LINE
  5
1D8C
330
1D1D
100
AcDbEntity
  8
0
 62
     6
 48
6.0
370
    -1
100
AcDbLine
 10
1850.0
 20
250.0
 30
0.0
 11
1850.0
 21
210.0
 31
0.0
  0
CIRCLE
  5
1D8D
330
1D1D
100
AcDbEntity
  8
0
 62
     5
 48
6.0
370
    -1
100
AcDbCircle
 10
1850.0
 20
230.0
 30
0.0
 40
10.0
  0
LINE
  5
1D8E
330
1D1D
100
AcDbEntity
  8
0
 62
     6
 48
6.0
370
    -1
100
AcDbLine
 10
1830.0
 20
230.0
 30
0.0
 11
1870.0
 21
230.0
 31
0.0
  0
LINE
  5
1D8F
330
1D1D
100
AcDbEntity
  8
0
  6
CENTER
 62
     6
 48
3.0
370
    -1
100
AcDbLine
 10
1480.0
 20
550.0
 30
0.0
 11
1480.0
 21
420.0
 31
0.0
  0
LINE
  5
1D90
330
1D1D
100
AcDbEntity
  8
0
 62
     5
 48
6.0
370
    -1
100
AcDbLine
 10
1540.0
 20
520.0
 30
0.0
 11
1420.0
 21
520.0
 31
0.0
  0
LINE
  5
1D91
330
1D1D
100
AcDbEntity
  8
0
 62
     5
 48
6.0
370
    -1
100
AcDbLine
 10
1540.0
 20
450.0
 30
0.0
 11
1520.0
 21
450.0
 31
0.0
  0
LINE
  5
1D92
330
1D1D
100
AcDbEntity
  8
0
 62
     5
 48
6.0
370
    -1
100
AcDbLine
 10
1420.0
 20
500.0
 30
0.0
 11
1540.0
 21
500.0
 31
0.0
  0
LINE
  5
1D93
330
1D1D
100
AcDbEntity
  8
0
 62
     6
 48
6.0
370
    -1
100
AcDbLine
 10
1450.0
 20
520.0
 30
0.0
 11
1450.0
 21
510.0
 31
0.0
  0
LINE
  5
1D94
330
1D1D
100
AcDbEntity
  8
0
 62
     6
 48
6.0
370
    -1
100
AcDbLine
 10
1430.0
 20
520.0
 30
0.0
 11
1430.0
 21
510.0
 31
0.0
  0
LINE
  5
1D95
330
1D1D
100
AcDbEntity
  8
0
 62
     6
 48
6.0
370
    -1
100
AcDbLine
 10
1440.0
 20
520.0
 30
0.0
 11
1440.0
 21
510.0
 31
0.0
  0
LINE
  5
1D96
330
1D1D
100
AcDbEntity
  8
0
 62
     6
 48
6.0
370
    -1
100
AcDbLine
 10
1470.0
 20
520.0
 30
0.0
 11
1470.0
 21
510.0
 31
0.0
  0
LINE
  5
1D97
330
1D1D
100
AcDbEntity
  8
0
 62
     6
 48
6.0
370
    -1
100
AcDbLine
 10
1460.0
 20
520.0
 30
0.0
 11
1460.0
 21
510.0
 31
0.0
  0
LINE
  5
1D98
330
1D1D
100
AcDbEntity
  8
0
 62
     6
 48
6.0
370
    -1
100
AcDbLine
 10
1480.0
 20
520.0
 30
0.0
 11
1480.0
 21
510.0
 31
0.0
  0
LINE
  5
1D99
330
1D1D
100
AcDbEntity
  8
0
 62
     6
 48
6.0
370
    -1
100
AcDbLine
 10
1490.0
 20
520.0
 30
0.0
 11
1490.0
 21
510.0
 31
0.0
  0
LINE
  5
1D9A
330
1D1D
100
AcDbEntity
  8
0
 62
     6
 48
6.0
370
    -1
100
AcDbLine
 10
1500.0
 20
520.0
 30
0.0
 11
1500.0
 21
510.0
 31
0.0
  0
LINE
  5
1D9B
330
1D1D
100
AcDbEntity
  8
0
 62
     6
 48
6.0
370
    -1
100
AcDbLine
 10
1510.0
 20
520.0
 30
0.0
 11
1510.0
 21
510.0
 31
0.0
  0
LINE
  5
1D9C
330
1D1D
100
AcDbEntity
  8
0
 62
     6
 48
6.0
370
    -1
100
AcDbLine
 10
1520.0
 20
520.0
 30
0.0
 11
1520.0
 21
510.0
 31
0.0
  0
LINE
  5
1D9D
330
1D1D
100
AcDbEntity
  8
0
 62
     6
 48
6.0
370
    -1
100
AcDbLine
 10
1530.0
 20
520.0
 30
0.0
 11
1530.0
 21
510.0
 31
0.0
  0
LINE
  5
1D9E
330
1D1D
100
AcDbEntity
  8
0
 62
     5
 48
6.0
370
    -1
100
AcDbLine
 10
1420.0
 20
520.0
 30
0.0
 11
1420.0
 21
510.0
 31
0.0
  0
LINE
  5
1D9F
330
1D1D
100
AcDbEntity
  8
0
 62
     5
 48
6.0
370
    -1
100
AcDbLine
 10
1420.0
 20
450.0
 30
0.0
 11
1420.0
 21
500.0
 31
0.0
  0
LINE
  5
1DA0
330
1D1D
100
AcDbEntity
  8
0
 62
     5
 48
6.0
370
    -1
100
AcDbLine
 10
1440.0
 20
450.0
 30
0.0
 11
1420.0
 21
450.0
 31
0.0
  0
LINE
  5
1DA1
330
1D1D
100
AcDbEntity
  8
0
 62
     5
 48
6.0
370
    -1
100
AcDbLine
 10
1440.0
 20
440.0
 30
0.0
 11
1440.0
 21
450.0
 31
0.0
  0
LINE
  5
1DA2
330
1D1D
100
AcDbEntity
  8
0
 62
     5
 48
6.0
370
    -1
100
AcDbLine
 10
1520.0
 20
450.0
 30
0.0
 11
1520.0
 21
440.0
 31
0.0
  0
LINE
  5
1DA3
330
1D1D
100
AcDbEntity
  8
0
 62
     5
 48
6.0
370
    -1
100
AcDbLine
 10
1540.0
 20
510.0
 30
0.0
 11
1540.0
 21
520.0
 31
0.0
  0
LINE
  5
1DA4
330
1D1D
100
AcDbEntity
  8
0
 62
     5
 48
6.0
370
    -1
100
AcDbLine
 10
1540.0
 20
500.0
 30
0.0
 11
1540.0
 21
450.0
 31
0.0
  0
LINE
  5
1DA5
330
1D1D
100
AcDbEntity
  8
0
 62
     5
 48
6.0
370
    -1
100
AcDbLine
 10
1550.0
 20
440.0
 30
0.0
 11
1550.0
 21
510.0
 31
0.0
  0
CIRCLE
  5
1DA6
330
1D1D
100
AcDbEntity
  8
0
  6
HIDDEN
 62
     6
 48
6.0
370
    -1
100
AcDbCircle
 10
1850.0
 20
440.0
 30
0.0
 40
10.0
  0
LINE
  5
1DA7
330
1D1D
100
AcDbEntity
  8
0
 62
     6
 48
6.0
370
    -1
100
AcDbLine
 10
1850.0
 20
460.0
 30
0.0
 11
1850.0
 21
420.0
 31
0.0
  0
LINE
  5
1DA8
330
1D1D
100
AcDbEntity
  8
0
 62
     6
 48
6.0
370
    -1
100
AcDbLine
 10
1830.0
 20
440.0
 30
0.0
 11
1870.0
 21
440.0
 31
0.0
  0
TEXT
  5
1DA9
330
1D1D
100
AcDbEntity
  8
0
 62
     5
 48
6.0
370
    -1
100
AcDbText
 10
1045.811691987066
 20
1179.814375728069
 30
0.0
 40
60.0
  1
１
  7
STYLE1
100
AcDbText
  0
CIRCLE
  5
1DAA
330
1D1D
100
AcDbEntity
  8
0
 62
     5
 48
6.0
370
    -1
100
AcDbCircle
 10
1027.527204035079
 20
1207.661834827355
 30
0.0
 40
16.0431227616429
  0
LINE
  5
1DAB
330
1D1D
100
AcDbEntity
  8
0
 62
     5
 48
6.0
370
    -1
100
AcDbLine
 10
1045.34055948172
 20
1231.01319890573
 30
0.0
 11
1008.600498709242
 21
1183.19848728065
 31
0.0
  0
TEXT
  5
1DAC
330
1D1D
100
AcDbEntity
  8
0
 62
     5
 48
6.0
370
    -1
100
AcDbText
 10
1100.0
 20
1180.0
 30
0.0
 40
60.0
  1
３
  7
STYLE1
100
AcDbText
  0
LINE
  5
1DAD
330
1D1D
100
AcDbEntity
  8
0
 62
     6
 48
6.0
370
    -1
100
AcDbLine
 10
1850.0
 20
960.0
 30
0.0
 11
1850.0
 21
920.0
 31
0.0
  0
LINE
  5
1DAE
330
1D1D
100
AcDbEntity
  8
0
 62
     5
 48
6.0
370
    -1
100
AcDbLine
 10
1800.0
 20
875.0
 30
0.0
 11
1800.0
 21
1040.0
 31
0.0
  0
LINE
  5
1DAF
330
1D1D
100
AcDbEntity
  8
0
 62
     6
 48
6.0
370
    -1
100
AcDbLine
 10
1850.0
 20
710.0
 30
0.0
 11
1850.0
 21
670.0
 31
0.0
  0
LINE
  5
1DB0
330
1D1D
100
AcDbEntity
  8
0
 62
     6
 48
6.0
370
    -1
100
AcDbLine
 10
1830.0
 20
690.0
 30
0.0
 11
1870.0
 21
690.0
 31
0.0
  0
CIRCLE
  5
1DB1
330
1D1D
100
AcDbEntity
  8
0
 62
     5
 48
6.0
370
    -1
100
AcDbCircle
 10
1850.0
 20
690.0
 30
0.0
 40
10.0
  0
LINE
  5
1DB2
330
1D1D
100
AcDbEntity
  8
0
 62
     5
 48
8.0
370
    -1
100
AcDbLine
 10
1800.0
 20
1140.0
 30
0.0
 11
1800.0
 21
1015.0
 31
0.0
  0
LINE
  5
1DB3
330
1D1D
100
AcDbEntity
  8
0
 62
     5
 48
6.0
370
    -1
100
AcDbLine
 10
1800.0
 20
1040.0
 30
0.0
 11
1800.0
 21
1110.0
 31
0.0
  0
CIRCLE
  5
1DB4
330
1D1D
100
AcDbEntity
  8
0
 62
     5
 48
6.0
370
    -1
100
AcDbCircle
 10
1850.0
 20
940.0
 30
0.0
 40
10.0
  0
LINE
  5
1DB5
330
1D1D
100
AcDbEntity
  8
0
 62
     6
 48
6.0
370
    -1
100
AcDbLine
 10
1830.0
 20
940.0
 30
0.0
 11
1870.0
 21
940.0
 31
0.0
  0
LINE
  5
1DB6
330
1D1D
100
AcDbEntity
  8
0
 62
     5
 48
6.0
370
    -1
100
AcDbLine
 10
1800.0
 20
1110.0
 30
0.0
 11
1800.0
 21
1190.0
 31
0.0
  0
LINE
  5
1DB7
330
1D1D
100
AcDbEntity
  8
0
 62
     6
 48
6.0
370
    -1
100
AcDbLine
 10
1850.0
 20
1170.0
 30
0.0
 11
1850.0
 21
1130.0
 31
0.0
  0
POINT
  5
1DB8
330
1D1D
100
AcDbEntity
  8
DEFPOINTS
  6
ByBlock
 62
     0
 48
6.0
370
    -1
380
     1
100
AcDbPoint
 10
1880.0
 20
1150.0
 30
0.0
  0
LINE
  5
1DB9
330
1D1D
100
AcDbEntity
  8
0
 62
     6
 48
6.0
370
    -1
100
AcDbLine
 10
1830.0
 20
1150.0
 30
0.0
 11
1870.0
 21
1150.0
 31
0.0
  0
CIRCLE
  5
1DBA
330
1D1D
100
AcDbEntity
  8
0
 62
     5
 48
6.0
370
    -1
100
AcDbCircle
 10
1850.0
 20
1150.0
 30
0.0
 40
10.0
  0
LINE
  5
1DBB
330
1D1D
100
AcDbEntity
  8
0
 62
     5
 48
8.0
370
    -1
100
AcDbLine
 10
1900.0
 20
1130.0
 30
0.0
 11
1900.0
 21
200.0
 31
0.0
  0
LINE
  5
1DBC
330
1D1D
100
AcDbEntity
  8
0
 62
     5
 48
8.0
370
    -1
100
AcDbLine
 10
1900.0
 20
1135.0
 30
0.0
 11
1900.0
 21
235.0
 31
0.0
  0
TEXT
  5
1DBD
330
1D1D
100
AcDbEntity
  8
0
 62
     5
 48
3.0
370
    -1
100
AcDbText
 10
2310.0
 20
475.0
 30
0.0
 40
60.0
  1
２３０
 50
90.0
  7
STYLE1
100
AcDbText
  0
LINE
  5
1DBE
330
1D1D
100
AcDbEntity
  8
0
 62
     6
 48
6.0
370
    -1
100
AcDbLine
 10
2725.0
 20
740.0
 30
0.0
 11
2725.0
 21
595.0
 31
0.0
  0
LINE
  5
1DBF
330
1D1D
100
AcDbEntity
  8
0
  6
ByBlock
 62
     6
 48
6.0
370
    -1
100
AcDbLine
 10
2315.0
 20
450.1010000000001
 30
0.0
 11
2315.0
 21
858.6741949494949
 31
0.0
  0
LINE
  5
1DC0
330
1D1D
100
AcDbEntity
  8
0
  6
ByBlock
 62
     6
 48
6.0
370
    -1
100
AcDbLine
 10
2725.0
 20
215.1010000000001
 30
0.0
 11
2725.0
 21
653.6741949494949
 31
0.0
  0
LINE
  5
1DC1
330
1D1D
100
AcDbEntity
  8
0
 62
     5
 48
6.0
370
    -1
100
AcDbLine
 10
1900.0
 20
490.0
 30
0.0
 11
1900.0
 21
905.0
 31
0.0
  0
LINE
  5
1DC2
330
1D1D
100
AcDbEntity
  8
0
 62
     5
 48
8.0
370
    -1
100
AcDbLine
 10
1900.0
 20
340.0
 30
0.0
 11
1900.0
 21
225.0
 31
0.0
  0
LINE
  5
1DC3
330
1D1D
100
AcDbEntity
  8
0
  6
HIDDEN
 62
     6
 48
3.0
370
    -1
100
AcDbLine
 10
1900.0
 20
325.0
 30
0.0
 11
1900.0
 21
255.0
 31
0.0
  0
TEXT
  5
1DC4
330
1D1D
100
AcDbEntity
  8
0
 62
     5
 48
3.0
370
    -1
100
AcDbText
 10
2310.0
 20
230.0
 30
0.0
 40
60.0
  1
１５０
 50
90.0
  7
STYLE1
100
AcDbText
  0
LINE
  5
1DC5
330
1D1D
100
AcDbEntity
  8
0
  6
ByBlock
 62
     6
 48
6.0
370
    -1
100
AcDbLine
 10
2315.0
 20
265.1010000000001
 30
0.0
 11
2315.0
 21
300.2020000000002
 31
0.0
  0
LINE
  5
1DC6
330
1D1D
100
AcDbEntity
  8
0
  6
ByBlock
 62
     6
 48
6.0
370
    -1
100
AcDbLine
 10
2315.0
 20
265.1010000000001
 30
0.0
 11
2315.0
 21
398.6741949494944
 31
0.0
  0
LINE
  5
1DC7
330
1D1D
100
AcDbEntity
  8
0
 62
     6
 48
6.0
370
    -1
100
AcDbLine
 10
1920.0
 20
190.0
 30
0.0
 11
2330.0
 21
190.0
 31
0.0
  0
LINE
  5
1DC8
330
1D1D
100
AcDbEntity
  8
0
  6
ByBlock
 62
     6
 48
6.0
370
    -1
100
AcDbLine
 10
1948.7753
 20
230.0
 30
0.0
 11
2332.5505
 21
230.0
 31
0.0
  0
LINE
  5
1DC9
330
1D1D
100
AcDbEntity
  8
0
 62
     5
 48
6.0
370
    -1
100
AcDbLine
 10
1900.0
 20
190.0
 30
0.0
 11
1900.0
 21
215.0
 31
0.0
  0
POINT
  5
1DCA
330
1D1D
100
AcDbEntity
  8
DEFPOINTS
  6
ByBlock
 62
     0
 48
6.0
370
    -1
380
     1
100
AcDbPoint
 10
1935.0
 20
190.0
 30
0.0
  0
LINE
  5
1DCB
330
1D1D
100
AcDbEntity
  8
0
 62
     6
 48
6.0
370
    -1
100
AcDbLine
 10
1910.0
 20
230.0
 30
0.0
 11
2000.0
 21
230.0
 31
0.0
  0
LINE
  5
1DCC
330
1D1D
100
AcDbEntity
  8
0
 62
     5
 48
6.0
370
    -1
100
AcDbLine
 10
1900.0
 20
210.0
 30
0.0
 11
1900.0
 21
255.0
 31
0.0
  0
LINE
  5
1DCD
330
1D1D
100
AcDbEntity
  8
0
  6
ByBlock
 62
     6
 48
6.0
370
    -1
100
AcDbLine
 10
2315.0
 20
154.8989999999999
 30
0.0
 11
2315.0
 21
49.59588484848518
 31
0.0
  0
TEXT
  5
1DCE
330
1D1D
100
AcDbEntity
  8
0
 62
     5
 48
6.0
370
    -1
100
AcDbText
 10
2312.417951604777
 20
60.25575002679216
 30
0.0
 40
60.0
  1
２
 50
90.0
  7
STYLE1
100
AcDbText
  0
LINE
  5
1DCF
330
1D1D
100
AcDbEntity
  8
0
  6
ByBlock
 62
     6
 48
6.0
370
    -1
100
AcDbLine
 10
2246.2247
 20
190.0
 30
0.0
 11
2237.4495
 21
190.0
 31
0.0
  0
LINE
  5
1DD0
330
1D1D
100
AcDbEntity
  8
0
  6
ByBlock
 62
     6
 48
6.0
370
    -1
100
AcDbLine
 10
2246.2247
 20
230.0
 30
0.0
 11
2237.4495
 21
230.0
 31
0.0
  0
LINE
  5
1DD1
330
1D1D
100
AcDbEntity
  8
0
  6
ByBlock
 62
     6
 48
6.0
370
    -1
100
AcDbLine
 10
2315.0
 20
230.0
 30
0.0
 11
2315.0
 21
190.0
 31
0.0
  0
TEXT
  5
1DD2
330
1D1D
100
AcDbEntity
  8
0
 62
     5
 48
6.0
370
    -1
100
AcDbText
 10
2312.472644319481
 20
124.5140631725208
 30
0.0
 40
60.0
  1
０
 50
90.0
  7
STYLE1
100
AcDbText
  0
POINT
  5
1DD3
330
1D1D
100
AcDbEntity
  8
DEFPOINTS
  6
ByBlock
 62
     0
 48
6.0
370
    -1
380
     1
100
AcDbPoint
 10
2300.0
 20
190.0
 30
0.0
  0
POINT
  5
1DD4
330
1D1D
100
AcDbEntity
  8
DEFPOINTS
  6
ByBlock
 62
     0
 48
6.0
370
    -1
380
     1
100
AcDbPoint
 10
2300.0
 20
190.0
 30
0.0
  0
INSERT
  5
1DD5
330
1D1D
100
AcDbEntity
  8
0
  6
ByBlock
 62
     6
 48
6.0
370
    -1
100
AcDbBlockReference
  2
_OPEN
 10
2315.0
 20
190.0
 30
0.0
 41
35.101
 42
35.101
 43
35.101
 50
90.0
  0
POINT
  5
1DD6
330
1D1D
100
AcDbEntity
  8
DEFPOINTS
  6
ByBlock
 62
     0
 48
6.0
370
    -1
380
     1
100
AcDbPoint
 10
2315.0
 20
230.0
 30
0.0
  0
INSERT
  5
1DD7
330
1D1D
100
AcDbEntity
  8
0
  6
ByBlock
 62
     6
 48
6.0
370
    -1
100
AcDbBlockReference
  2
_OPEN
 10
2315.0
 20
230.0
 30
0.0
 41
35.101
 42
35.101
 43
35.101
 50
270.0
  0
POINT
  5
1DD8
330
1D1D
100
AcDbEntity
  8
DEFPOINTS
  6
ByBlock
 62
     0
 48
6.0
370
    -1
380
     1
100
AcDbPoint
 10
2315.0
 20
230.0
 30
0.0
  0
INSERT
  5
1DD9
330
1D1D
100
AcDbEntity
  8
0
  6
ByBlock
 62
     6
 48
6.0
370
    -1
100
AcDbBlockReference
  2
_OPEN
 10
2315.0
 20
230.0
 30
0.0
 41
35.101
 42
35.101
 43
35.101
 50
270.0
  0
LINE
  5
1DDA
330
1D1D
100
AcDbEntity
  8
0
  6
ByBlock
 62
     6
 48
6.0
370
    -1
100
AcDbLine
 10
1933.7753
 20
440.0
 30
0.0
 11
2317.5505
 21
440.0
 31
0.0
  0
LINE
  5
1DDB
330
1D1D
100
AcDbEntity
  8
0
  6
ByBlock
 62
     6
 48
6.0
370
    -1
100
AcDbLine
 10
1933.7753
 20
440.0
 30
0.0
 11
2317.5505
 21
440.0
 31
0.0
  0
LINE
  5
1DDC
330
1D1D
100
AcDbEntity
  8
0
 62
     5
 48
6.0
370
    -1
100
AcDbLine
 10
1900.0
 20
325.0
 30
0.0
 11
1900.0
 21
495.0
 31
0.0
  0
LINE
  5
1DDD
330
1D1D
100
AcDbEntity
  8
0
 62
     6
 48
6.0
370
    -1
100
AcDbLine
 10
1910.0
 20
440.0
 30
0.0
 11
1950.0
 21
440.0
 31
0.0
  0
LINE
  5
1DDE
330
1D1D
100
AcDbEntity
  8
0
 62
     6
 48
6.0
370
    -1
100
AcDbLine
 10
2315.0
 20
460.0
 30
0.0
 11
2315.0
 21
335.0
 31
0.0
  0
INSERT
  5
1DDF
330
1D1D
100
AcDbEntity
  8
0
  6
ByBlock
 62
     6
 48
6.0
370
    -1
100
AcDbBlockReference
  2
_OPEN
 10
2315.0
 20
440.0
 30
0.0
 41
35.101
 42
35.101
 43
35.101
 50
90.0
  0
LINE
  5
1DE0
330
1D1D
100
AcDbEntity
  8
0
  6
ByBlock
 62
     6
 48
6.0
370
    -1
100
AcDbLine
 10
2315.0
 20
454.8989999999999
 30
0.0
 11
2315.0
 21
321.3258050505046
 31
0.0
  0
INSERT
  5
1DE1
330
1D1D
100
AcDbEntity
  8
0
  6
ByBlock
 62
     6
 48
6.0
370
    -1
100
AcDbBlockReference
  2
_OPEN
 10
2315.0
 20
440.0
 30
0.0
 41
35.101
 42
35.101
 43
35.101
 50
270.0
  0
INSERT
  5
1DE2
330
1D1D
100
AcDbEntity
  8
0
  6
ByBlock
 62
     6
 48
6.0
370
    -1
100
AcDbBlockReference
  2
_OPEN
 10
2725.0
 20
180.0
 30
0.0
 41
-35.101
 42
35.101
 43
35.101
 50
90.0
  0
POINT
  5
1DE3
330
1D1D
100
AcDbEntity
  8
DEFPOINTS
  6
ByBlock
 62
     0
 48
6.0
370
    -1
380
     1
100
AcDbPoint
 10
2725.0
 20
180.0
 30
0.0
  0
INSERT
  5
1DE4
330
1D1D
100
AcDbEntity
  8
0
  6
ByBlock
 62
     6
 48
6.0
370
    -1
100
AcDbBlockReference
  2
_OPEN
 10
2315.0
 20
940.0
 30
0.0
 41
35.101
 42
35.101
 43
35.101
 50
90.0
  0
LINE
  5
1DE5
330
1D1D
100
AcDbEntity
  8
0
 62
     5
 48
6.0
370
    -1
100
AcDbLine
 10
1900.0
 20
1040.0
 30
0.0
 11
1900.0
 21
825.0
 31
0.0
  0
LINE
  5
1DE6
330
1D1D
100
AcDbEntity
  8
0
 62
     6
 48
6.0
370
    -1
100
AcDbLine
 10
2315.0
 20
940.0
 30
0.0
 11
2315.0
 21
740.0
 31
0.0
  0
LINE
  5
1DE7
330
1D1D
100
AcDbEntity
  8
0
  6
ByBlock
 62
     6
 48
6.0
370
    -1
100
AcDbLine
 10
2315.0
 20
1114.899
 30
0.0
 11
2315.0
 21
911.3258050505051
 31
0.0
  0
LINE
  5
1DE8
330
1D1D
100
AcDbEntity
  8
0
  6
ByBlock
 62
     6
 48
6.0
370
    -1
100
AcDbLine
 10
1948.7753
 20
690.0
 30
0.0
 11
2332.5505
 21
690.0
 31
0.0
  0
LINE
  5
1DE9
330
1D1D
100
AcDbEntity
  8
0
  6
ByBlock
 62
     6
 48
6.0
370
    -1
100
AcDbLine
 10
1948.7753
 20
690.0
 30
0.0
 11
2332.5505
 21
690.0
 31
0.0
  0
LINE
  5
1DEA
330
1D1D
100
AcDbEntity
  8
0
 62
     6
 48
6.0
370
    -1
100
AcDbLine
 10
1910.0
 20
690.0
 30
0.0
 11
1980.0
 21
690.0
 31
0.0
  0
TEXT
  5
1DEB
330
1D1D
100
AcDbEntity
  8
0
 62
     5
 48
3.0
370
    -1
100
AcDbText
 10
2310.0
 20
720.0
 30
0.0
 40
60.0
  1
２３０
 50
90.0
  7
STYLE1
100
AcDbText
  0
INSERT
  5
1DEC
330
1D1D
100
AcDbEntity
  8
0
  6
ByBlock
 62
     6
 48
6.0
370
    -1
100
AcDbBlockReference
  2
_OPEN
 10
2315.0
 20
690.0
 30
0.0
 41
35.101
 42
35.101
 43
35.101
 50
90.0
  0
INSERT
  5
1DED
330
1D1D
100
AcDbEntity
  8
0
  6
ByBlock
 62
     6
 48
6.0
370
    -1
100
AcDbBlockReference
  2
_OPEN
 10
2315.0
 20
690.0
 30
0.0
 41
35.101
 42
35.101
 43
35.101
 50
270.0
  0
LINE
  5
1DEE
330
1D1D
100
AcDbEntity
  8
0
  6
ByBlock
 62
     6
 48
6.0
370
    -1
100
AcDbLine
 10
1948.7753
 20
940.0
 30
0.0
 11
2332.5505
 21
940.0
 31
0.0
  0
LINE
  5
1DEF
330
1D1D
100
AcDbEntity
  8
0
 62
     6
 48
6.0
370
    -1
100
AcDbLine
 10
1925.0
 20
1190.0
 30
0.0
 11
2335.0
 21
1190.0
 31
0.0
  0
LINE
  5
1DF0
330
1D1D
100
AcDbEntity
  8
0
  6
ByBlock
 62
     6
 48
6.0
370
    -1
100
AcDbLine
 10
1948.7753
 20
1150.0
 30
0.0
 11
2332.5505
 21
1150.0
 31
0.0
  0
LINE
  5
1DF1
330
1D1D
100
AcDbEntity
  8
0
 62
     5
 48
8.0
370
    -1
100
AcDbLine
 10
1900.0
 20
1145.0
 30
0.0
 11
1900.0
 21
995.0
 31
0.0
  0
LINE
  5
1DF2
330
1D1D
100
AcDbEntity
  8
0
 62
     5
 48
6.0
370
    -1
100
AcDbLine
 10
1900.0
 20
1110.0
 30
0.0
 11
1900.0
 21
1040.0
 31
0.0
  0
LINE
  5
1DF3
330
1D1D
100
AcDbEntity
  8
0
 62
     6
 48
6.0
370
    -1
100
AcDbLine
 10
1910.0
 20
940.0
 30
0.0
 11
1980.0
 21
940.0
 31
0.0
  0
LINE
  5
1DF4
330
1D1D
100
AcDbEntity
  8
0
 62
     5
 48
6.0
370
    -1
100
AcDbLine
 10
1900.0
 20
1190.0
 30
0.0
 11
1900.0
 21
1110.0
 31
0.0
  0
LINE
  5
1DF5
330
1D1D
100
AcDbEntity
  8
0
 62
     6
 48
6.0
370
    -1
100
AcDbLine
 10
1910.0
 20
1150.0
 30
0.0
 11
1980.0
 21
1150.0
 31
0.0
  0
POINT
  5
1DF6
330
1D1D
100
AcDbEntity
  8
DEFPOINTS
  6
ByBlock
 62
     0
 48
6.0
370
    -1
380
     1
100
AcDbPoint
 10
1935.0
 20
1190.0
 30
0.0
  0
TEXT
  5
1DF7
330
1D1D
100
AcDbEntity
  8
0
 62
     5
 48
3.0
370
    -1
100
AcDbText
 10
2310.0
 20
945.0
 30
0.0
 40
60.0
  1
１５０
 50
90.0
  7
STYLE1
100
AcDbText
  0
LINE
  5
1DF8
330
1D1D
100
AcDbEntity
  8
0
  6
ByBlock
 62
     6
 48
6.0
370
    -1
100
AcDbLine
 10
2315.0
 20
1114.899
 30
0.0
 11
2315.0
 21
1079.798
 31
0.0
  0
INSERT
  5
1DF9
330
1D1D
100
AcDbEntity
  8
0
  6
ByBlock
 62
     6
 48
6.0
370
    -1
100
AcDbBlockReference
  2
_OPEN
 10
2315.0
 20
940.0
 30
0.0
 41
35.101
 42
35.101
 43
35.101
 50
270.0
  0
LINE
  5
1DFA
330
1D1D
100
AcDbEntity
  8
0
  6
ByBlock
 62
     6
 48
6.0
370
    -1
100
AcDbLine
 10
2246.2247
 20
1190.0
 30
0.0
 11
2237.4495
 21
1190.0
 31
0.0
  0
LINE
  5
1DFB
330
1D1D
100
AcDbEntity
  8
0
  6
ByBlock
 62
     6
 48
6.0
370
    -1
100
AcDbLine
 10
2315.0
 20
1150.0
 30
0.0
 11
2315.0
 21
1190.0
 31
0.0
  0
LINE
  5
1DFC
330
1D1D
100
AcDbEntity
  8
0
  6
ByBlock
 62
     6
 48
6.0
370
    -1
100
AcDbLine
 10
2261.2247
 20
1150.0
 30
0.0
 11
2252.4495
 21
1150.0
 31
0.0
  0
POINT
  5
1DFD
330
1D1D
100
AcDbEntity
  8
DEFPOINTS
  6
ByBlock
 62
     0
 48
6.0
370
    -1
380
     1
100
AcDbPoint
 10
2315.0
 20
1150.0
 30
0.0
  0
INSERT
  5
1DFE
330
1D1D
100
AcDbEntity
  8
0
  6
ByBlock
 62
     6
 48
6.0
370
    -1
100
AcDbBlockReference
  2
_OPEN
 10
2315.0
 20
1150.0
 30
0.0
 41
35.101
 42
35.101
 43
35.101
 50
90.0
  0
INSERT
  5
1DFF
330
1D1D
100
AcDbEntity
  8
0
  6
ByBlock
 62
     6
 48
6.0
370
    -1
100
AcDbBlockReference
  2
_OPEN
 10
2315.0
 20
1150.0
 30
0.0
 41
35.101
 42
35.101
 43
35.101
 50
90.0
  0
POINT
  5
1E00
330
1D1D
100
AcDbEntity
  8
DEFPOINTS
  6
ByBlock
 62
     0
 48
6.0
370
    -1
380
     1
100
AcDbPoint
 10
2300.0
 20
1190.0
 30
0.0
  0
POINT
  5
1E01
330
1D1D
100
AcDbEntity
  8
DEFPOINTS
  6
ByBlock
 62
     0
 48
6.0
370
    -1
380
     1
100
AcDbPoint
 10
2300.0
 20
1190.0
 30
0.0
  0
INSERT
  5
1E02
330
1D1D
100
AcDbEntity
  8
0
  6
ByBlock
 62
     6
 48
6.0
370
    -1
100
AcDbBlockReference
  2
_OPEN
 10
2315.0
 20
1190.0
 30
0.0
 41
35.101
 42
35.101
 43
35.101
 50
270.0
  0
LINE
  5
1E03
330
1D1D
100
AcDbEntity
  8
0
  6
ByBlock
 62
     6
 48
6.0
370
    -1
100
AcDbLine
 10
2725.0
 20
1144.899
 30
0.0
 11
2725.0
 21
706.3258050505051
 31
0.0
  0
TEXT
  5
1E04
330
1D1D
100
AcDbEntity
  8
0
 62
     5
 48
6.0
370
    -1
100
AcDbText
 10
2722.251338987313
 20
647.4454154798404
 30
0.0
 40
65.0
  1
Ｈ
 50
90.0
  7
STYLE1
100
AcDbText
  0
INSERT
  5
1E05
330
1D1D
100
AcDbEntity
  8
0
  6
ByBlock
 62
     6
 48
6.0
370
    -1
100
AcDbBlockReference
  2
_OPEN
 10
2725.0
 20
1180.0
 30
0.0
 41
-35.101
 42
35.101
 43
35.101
 50
270.0
  0
TEXT
  5
1E06
330
1D1D
100
AcDbEntity
  8
0
 62
     5
 48
6.0
370
    -1
100
AcDbText
 10
828.3225311742972
 20
1259.213567263498
 30
0.0
 40
60.0
  1
ア
  7
STYLE1
100
AcDbText
  0
TEXT
  5
1E07
330
1D1D
100
AcDbEntity
  8
0
 62
     5
 48
6.0
370
    -1
100
AcDbText
 10
899.7186254703265
 20
1259.213567263498
 30
0.0
 40
60.0
  1
ン
  7
STYLE1
100
AcDbText
  0
TEXT
  5
1E08
330
1D1D
100
AcDbEntity
  8
0
 62
     5
 48
6.0
370
    -1
100
AcDbText
 10
1035.378791005322
 20
1256.349117561553
 30
0.0
 40
60.0
  1
―
  7
STYLE1
100
AcDbText
  0
TEXT
  5
1E09
330
1D1D
100
AcDbEntity
  8
0
 62
     5
 48
6.0
370
    -1
100
AcDbText
 10
969.7186254703265
 20
1259.213567263498
 30
0.0
 40
60.0
  1
カ
  7
STYLE1
100
AcDbText
  0
TEXT
  5
1E0A
330
1D1D
100
AcDbEntity
  8
0
 62
     5
 48
6.0
370
    -1
100
AcDbText
 10
1115.833395486392
 20
1254.988310738181
 30
0.0
 40
60.0
  1
孔
  7
STYLE1
100
AcDbText
  0
TEXT
  5
1E0B
330
1D1D
100
AcDbEntity
  8
0
 62
     5
 48
6.0
370
    -1
100
AcDbText
 10
2312.472644319481
 20
1284.514063172521
 30
0.0
 40
60.0
  1
０
 50
90.0
  7
STYLE1
100
AcDbText
  0
LINE
  5
1E0C
330
1D1D
100
AcDbEntity
  8
0
 62
     6
 48
8.0
370
    -1
100
AcDbLine
 10
4115.0
 20
215.0
 30
0.0
 11
4115.0
 21
-55.0
 31
0.0
  0
LINE
  5
1E0D
330
1D1D
100
AcDbEntity
  8
0
 62
     5
 48
8.0
370
    -1
100
AcDbLine
 10
3189.898971344599
 20
539.5315944158706
 30
0.0
 11
4115.0
 21
340.0
 31
0.0
  0
LINE
  5
1E0E
330
1D1D
100
AcDbEntity
  8
0
  6
ByBlock
 62
     6
 48
3.0
370
    -1
100
AcDbLine
 10
3223.7753
 20
180.0
 30
0.0
 11
4477.5505
 21
180.0
 31
0.0
  0
LINE
  5
1E0F
330
1D1D
100
AcDbEntity
  8
0
  6
HIDDEN
 62
     6
 48
6.0
370
    -1
100
AcDbLine
 10
4115.0
 20
340.0
 30
0.0
 11
3190.0
 21
340.0
 31
0.0
  0
LINE
  5
1E10
330
1D1D
100
AcDbEntity
  8
0
 62
     5
 48
6.0
370
    -1
100
AcDbLine
 10
3695.0
 20
430.0
 30
0.0
 11
4180.0
 21
430.0
 31
0.0
  0
LINE
  5
1E11
330
1D1D
100
AcDbEntity
  8
0
  6
HIDDEN
 62
     6
 48
6.0
370
    -1
100
AcDbLine
 10
3340.0
 20
330.0
 30
0.0
 11
3990.0
 21
330.0
 31
0.0
  0
LINE
  5
1E12
330
1D1D
100
AcDbEntity
  8
0
  6
HIDDEN
 62
     6
 48
6.0
370
    -1
100
AcDbLine
 10
3190.0
 20
260.0
 30
0.0
 11
4115.0
 21
260.0
 31
0.0
  0
LINE
  5
1E13
330
1D1D
100
AcDbEntity
  8
0
 62
     5
 48
6.0
370
    -1
100
AcDbLine
 10
3190.0
 20
250.0
 30
0.0
 11
4070.0
 21
250.0
 31
0.0
  0
LINE
  5
1E14
330
1D1D
100
AcDbEntity
  8
0
  6
ByBlock
 62
     6
 48
6.0
370
    -1
100
AcDbLine
 10
4084.898999999999
 20
-35.0
 30
0.0
 11
3130.101
 21
-35.0
 31
0.0
  0
LINE
  5
1E15
330
1D1D
100
AcDbEntity
  8
0
 62
     5
 48
6.0
370
    -1
100
AcDbLine
 10
3190.0
 20
200.0
 30
0.0
 11
3190.0
 21
1160.0
 31
0.0
  0
LINE
  5
1E16
330
1D1D
100
AcDbEntity
  8
0
 62
     5
 48
6.0
370
    -1
100
AcDbLine
 10
3095.0
 20
180.0
 30
0.0
 11
3095.0
 21
1180.0
 31
0.0
  0
TEXT
  5
1E17
330
1D1D
100
AcDbEntity
  8
0
 62
     5
 48
6.0
370
    -1
100
AcDbText
 10
3277.27777403174
 20
-27.22575787708956
 30
0.0
 40
65.0
  1
５
  7
STYLE1
100
AcDbText
  0
LINE
  5
1E18
330
1D1D
100
AcDbEntity
  8
0
  6
HIDDEN
 62
     6
 48
6.0
370
    -1
100
AcDbLine
 10
3660.0
 20
430.0
 30
0.0
 11
3190.0
 21
430.0
 31
0.0
  0
LINE
  5
1E19
330
1D1D
100
AcDbEntity
  8
0
  6
HIDDEN
 62
     6
 48
6.0
370
    -1
100
AcDbLine
 10
3259.993903877184
 20
330.0
 30
0.0
 11
3330.0
 21
330.0
 31
0.0
  0
LINE
  5
1E1A
330
1D1D
100
AcDbEntity
  8
0
 62
     6
 48
6.0
370
    -1
100
AcDbLine
 10
2870.0
 20
560.0
 30
0.0
 11
2870.0
 21
180.0
 31
0.0
  0
LINE
  5
1E1B
330
1D1D
100
AcDbEntity
  8
0
  6
HIDDEN
 62
     6
 48
6.0
370
    -1
100
AcDbLine
 10
3260.0
 20
260.0
 30
0.0
 11
3260.0
 21
330.147054797415
 31
0.0
  0
LINE
  5
1E1C
330
1D1D
100
AcDbEntity
  8
0
  6
HIDDEN
 62
     6
 48
6.0
370
    -1
100
AcDbLine
 10
3250.0
 20
260.0
 30
0.0
 11
3250.0
 21
340.0
 31
0.0
  0
INSERT
  5
1E1D
330
1D1D
100
AcDbEntity
  8
0
  6
ByBlock
 62
     6
 48
6.0
370
    -1
100
AcDbBlockReference
  2
_OPEN
 10
2870.0
 20
180.0
 30
0.0
 41
-35.101
 42
35.101
 43
35.101
 50
90.0
  0
LINE
  5
1E1E
330
1D1D
100
AcDbEntity
  8
0
  6
ByBlock
 62
     6
 48
6.0
370
    -1
100
AcDbLine
 10
3095.0
 20
146.2247000000002
 30
0.0
 11
3095.0
 21
-52.55050000000028
 31
0.0
  0
INSERT
  5
1E1F
330
1D1D
100
AcDbEntity
  8
0
  6
ByBlock
 62
     6
 48
6.0
370
    -1
100
AcDbBlockReference
  2
_OPEN
 10
3095.0
 20
-35.0
 30
0.0
 41
-35.101
 42
35.101
 43
35.101
  0
POINT
  5
1E20
330
1D1D
100
AcDbEntity
  8
DEFPOINTS
  6
ByBlock
 62
     0
 48
6.0
370
    -1
380
     1
100
AcDbPoint
 10
3095.0
 20
-35.0
 30
0.0
  0
ARC
  5
1E21
330
1D1D
100
AcDbEntity
  8
0
 62
     5
 48
6.0
370
    -1
100
AcDbCircle
 10
3170.0
 20
200.0
 30
0.0
 40
20.0
100
AcDbArc
 50
270.0
 51
0.0
  0
LINE
  5
1E22
330
1D1D
100
AcDbEntity
  8
0
 62
     5
 48
6.0
370
    -1
100
AcDbLine
 10
3170.0
 20
180.0
 30
0.0
 11
3095.0
 21
180.0
 31
0.0
  0
POINT
  5
1E23
330
1D1D
100
AcDbEntity
  8
DEFPOINTS
  6
ByBlock
 62
     0
 48
6.0
370
    -1
380
     1
100
AcDbPoint
 10
3095.0
 20
155.0
 30
0.0
  0
POINT
  5
1E24
330
1D1D
100
AcDbEntity
  8
DEFPOINTS
  6
ByBlock
 62
     0
 48
6.0
370
    -1
380
     1
100
AcDbPoint
 10
3065.0
 20
180.0
 30
0.0
  0
LINE
  5
1E25
330
1D1D
100
AcDbEntity
  8
0
 62
     6
 48
6.0
370
    -1
100
AcDbLine
 10
3050.0
 20
560.0
 30
0.0
 11
2850.0
 21
560.0
 31
0.0
  0
INSERT
  5
1E26
330
1D1D
100
AcDbEntity
  8
0
  6
ByBlock
 62
     6
 48
6.0
370
    -1
100
AcDbBlockReference
  2
_OPEN
 10
2870.0
 20
560.0
 30
0.0
 41
35.101
 42
35.101
 43
35.101
 50
90.0
  0
LINE
  5
1E27
330
1D1D
100
AcDbEntity
  8
0
 62
     6
 48
6.0
370
    -1
100
AcDbLine
 10
3140.0
 20
470.0
 30
0.0
 11
3140.0
 21
430.0
 31
0.0
  0
CIRCLE
  5
1E28
330
1D1D
100
AcDbEntity
  8
0
 62
     5
 48
6.0
370
    -1
100
AcDbCircle
 10
3140.0
 20
315.0
 30
0.0
 40
10.0
  0
LINE
  5
1E29
330
1D1D
100
AcDbEntity
  8
0
 62
     6
 48
6.0
370
    -1
100
AcDbLine
 10
3140.0
 20
335.0
 30
0.0
 11
3140.0
 21
295.0
 31
0.0
  0
LINE
  5
1E2A
330
1D1D
100
AcDbEntity
  8
0
 62
     6
 48
6.0
370
    -1
100
AcDbLine
 10
3160.0
 20
315.0
 30
0.0
 11
3120.0
 21
315.0
 31
0.0
  0
LINE
  5
1E2B
330
1D1D
100
AcDbEntity
  8
0
  6
HIDDEN
 62
     6
 48
6.0
370
    -1
100
AcDbLine
 10
3190.0
 20
330.0
 30
0.0
 11
3249.981637169189
 21
330.0
 31
0.0
  0
LINE
  5
1E2C
330
1D1D
100
AcDbEntity
  8
0
 62
     6
 48
6.0
370
    -1
100
AcDbLine
 10
3160.0
 20
450.0
 30
0.0
 11
3120.0
 21
450.0
 31
0.0
  0
CIRCLE
  5
1E2D
330
1D1D
100
AcDbEntity
  8
0
 62
     5
 48
6.0
370
    -1
100
AcDbCircle
 10
3140.0
 20
450.0
 30
0.0
 40
10.0
  0
LINE
  5
1E2E
330
1D1D
100
AcDbEntity
  8
0
 62
     5
 48
6.0
370
    -1
100
AcDbLine
 10
3120.0
 20
560.0
 30
0.0
 11
3070.0
 21
560.0
 31
0.0
  0
LINE
  5
1E2F
330
1D1D
100
AcDbEntity
  8
0
  6
HIDDEN
 62
     6
 48
6.0
370
    -1
100
AcDbLine
 10
3330.0
 20
260.0
 30
0.0
 11
3330.0
 21
330.147054797415
 31
0.0
  0
LINE
  5
1E30
330
1D1D
100
AcDbEntity
  8
0
  6
HIDDEN
 62
     6
 48
6.0
370
    -1
100
AcDbLine
 10
3340.0
 20
340.0
 30
0.0
 11
3340.0
 21
260.0
 31
0.0
  0
TEXT
  5
1E31
330
1D1D
100
AcDbEntity
  8
0
 62
     5
 48
6.0
370
    -1
100
AcDbText
 10
3496.560780232852
 20
-27.22575787708956
 30
0.0
 40
65.0
  1
５
  7
STYLE1
100
AcDbText
  0
TEXT
  5
1E32
330
1D1D
100
AcDbEntity
  8
0
 62
     5
 48
6.0
370
    -1
100
AcDbText
 10
3401.327767702984
 20
-27.22738895610564
 30
0.0
 40
65.0
  1
２
  7
STYLE1
100
AcDbText
  0
TEXT
  5
1E33
330
1D1D
100
AcDbEntity
  8
0
 62
     5
 48
6.0
370
    -1
100
AcDbText
 10
3337.32312100233
 20
-27.25133898731292
 30
0.0
 40
65.0
  1
０
  7
STYLE1
100
AcDbText
  0
TEXT
  5
1E34
330
1D1D
100
AcDbEntity
  8
0
 62
     5
 48
6.0
370
    -1
100
AcDbText
 10
3469.808598684947
 20
-20.95203882443639
 30
0.0
 40
65.0
  1
．
  7
STYLE1
100
AcDbText
  0
TEXT
  5
1E35
330
1D1D
100
AcDbEntity
  8
0
 62
     5
 48
6.0
370
    -1
100
AcDbText
 10
3566.884310577007
 20
-25.76731450356419
 30
0.0
 40
65.0
  1
～
  7
STYLE1
100
AcDbText
  0
TEXT
  5
1E36
330
1D1D
100
AcDbEntity
  8
0
 62
     5
 48
6.0
370
    -1
100
AcDbText
 10
3705.0
 20
-27.67066972180146
 30
0.0
 40
65.0
  1
３
  7
STYLE1
100
AcDbText
  0
TEXT
  5
1E37
330
1D1D
100
AcDbEntity
  8
0
 62
     5
 48
6.0
370
    -1
100
AcDbText
 10
3641.560780232852
 20
-27.22575787708956
 30
0.0
 40
65.0
  1
５
  7
STYLE1
100
AcDbText
  0
LINE
  5
1E38
330
1D1D
100
AcDbEntity
  8
0
  6
HIDDEN
 62
     6
 48
6.0
370
    -1
100
AcDbLine
 10
3460.0
 20
440.0
 30
0.0
 11
3460.0
 21
430.0
 31
0.0
  0
LINE
  5
1E39
330
1D1D
100
AcDbEntity
  8
0
  6
HIDDEN
 62
     6
 48
6.0
370
    -1
100
AcDbLine
 10
3320.0
 20
430.0
 30
0.0
 11
3320.0
 21
440.0
 31
0.0
  0
LINE
  5
1E3A
330
1D1D
100
AcDbEntity
  8
0
  6
HIDDEN
 62
     6
 48
6.0
370
    -1
100
AcDbLine
 10
3320.0
 20
440.0
 30
0.0
 11
3460.0
 21
440.0
 31
0.0
  0
ARC
  5
1E3B
330
1D1D
100
AcDbEntity
  8
0
 62
     5
 48
6.0
370
    -1
100
AcDbCircle
 10
3170.0
 20
1160.0
 30
0.0
 40
20.0
100
AcDbArc
 50
0.0
 51
90.0
  0
LINE
  5
1E3C
330
1D1D
100
AcDbEntity
  8
0
 62
     5
 48
6.0
370
    -1
100
AcDbLine
 10
3170.0
 20
1180.0
 30
0.0
 11
3095.0
 21
1180.0
 31
0.0
  0
POINT
  5
1E3D
330
1D1D
100
AcDbEntity
  8
DEFPOINTS
  6
ByBlock
 62
     0
 48
6.0
370
    -1
380
     1
100
AcDbPoint
 10
3065.0
 20
1180.0
 30
0.0
  0
LINE
  5
1E3E
330
1D1D
100
AcDbEntity
  8
0
  6
ByBlock
 62
     6
 48
3.0
370
    -1
100
AcDbLine
 10
4218.7753
 20
430.0
 30
0.0
 11
4477.5505
 21
430.0
 31
0.0
  0
LINE
  5
1E3F
330
1D1D
100
AcDbEntity
  8
0
  6
HIDDEN
 62
     6
 48
6.0
370
    -1
100
AcDbLine
 10
3990.0
 20
260.0
 30
0.0
 11
3990.0
 21
340.0
 31
0.0
  0
LINE
  5
1E40
330
1D1D
100
AcDbEntity
  8
0
  6
HIDDEN
 62
     6
 48
6.0
370
    -1
100
AcDbLine
 10
4000.0
 20
260.0
 30
0.0
 11
4000.0
 21
330.147054797415
 31
0.0
  0
LINE
  5
1E41
330
1D1D
100
AcDbEntity
  8
0
  6
HIDDEN
 62
     6
 48
6.0
370
    -1
100
AcDbLine
 10
4070.0
 20
260.0
 30
0.0
 11
4070.0
 21
330.147054797415
 31
0.0
  0
LINE
  5
1E42
330
1D1D
100
AcDbEntity
  8
0
  6
HIDDEN
 62
     6
 48
6.0
370
    -1
100
AcDbLine
 10
4080.0
 20
340.0
 30
0.0
 11
4080.0
 21
260.0
 31
0.0
  0
LINE
  5
1E43
330
1D1D
100
AcDbEntity
  8
0
 62
     5
 48
6.0
370
    -1
100
AcDbLine
 10
4115.0
 20
340.0
 30
0.0
 11
4115.0
 21
250.0
 31
0.0
  0
TEXT
  5
1E44
330
1D1D
100
AcDbEntity
  8
0
 62
     5
 48
6.0
370
    -1
100
AcDbText
 10
3856.574136687257
 20
-27.22575787708956
 30
0.0
 40
65.0
  1
５
  7
STYLE1
100
AcDbText
  0
TEXT
  5
1E45
330
1D1D
100
AcDbEntity
  8
0
 62
     5
 48
6.0
370
    -1
100
AcDbText
 10
3765.0
 20
-27.67066972180146
 30
0.0
 40
65.0
  1
７
  7
STYLE1
100
AcDbText
  0
TEXT
  5
1E46
330
1D1D
100
AcDbEntity
  8
0
 62
     5
 48
6.0
370
    -1
100
AcDbText
 10
3829.821955139352
 20
-20.95203882443639
 30
0.0
 40
65.0
  1
．
  7
STYLE1
100
AcDbText
  0
INSERT
  5
1E47
330
1D1D
100
AcDbEntity
  8
0
  6
ByBlock
 62
     6
 48
6.0
370
    -1
100
AcDbBlockReference
  2
_OPEN
 10
4110.0
 20
-35.0
 30
0.0
 41
-35.101
 42
35.101
 43
35.101
 50
180.0
  0
LINE
  5
1E48
330
1D1D
100
AcDbEntity
  8
0
 62
     5
 48
8.0
370
    -1
100
AcDbLine
 10
4115.0
 20
250.0
 30
0.0
 11
4055.0
 21
250.0
 31
0.0
  0
LINE
  5
1E49
330
1D1D
100
AcDbEntity
  8
0
 62
     6
 48
8.0
370
    -1
100
AcDbLine
 10
4065.0
 20
250.0
 30
0.0
 11
4115.0
 21
250.0
 31
0.0
  0
POINT
  5
1E4A
330
1D1D
100
AcDbEntity
  8
DEFPOINTS
  6
ByBlock
 62
     0
 48
3.0
370
    -1
380
     1
100
AcDbPoint
 10
4210.0
 20
180.0
 30
0.0
  0
LINE
  5
1E4B
330
1D1D
100
AcDbEntity
  8
0
 62
     5
 48
6.0
370
    -1
100
AcDbLine
 10
3980.0
 20
440.0
 30
0.0
 11
4120.0
 21
440.0
 31
0.0
  0
LINE
  5
1E4C
330
1D1D
100
AcDbEntity
  8
0
 62
     5
 48
6.0
370
    -1
100
AcDbLine
 10
3980.0
 20
430.0
 30
0.0
 11
3980.0
 21
440.0
 31
0.0
  0
LINE
  5
1E4D
330
1D1D
100
AcDbEntity
  8
0
 62
     5
 48
6.0
370
    -1
100
AcDbLine
 10
4120.0
 20
440.0
 30
0.0
 11
4120.0
 21
430.0
 31
0.0
  0
LINE
  5
1E4E
330
1D1D
100
AcDbEntity
  8
0
  6
HIDDEN
 62
     6
 48
6.0
370
    -1
100
AcDbLine
 10
4080.0
 20
330.0
 30
0.0
 11
4115.0
 21
330.0
 31
0.0
  0
LINE
  5
1E4F
330
1D1D
100
AcDbEntity
  8
0
  6
HIDDEN
 62
     6
 48
6.0
370
    -1
100
AcDbLine
 10
4000.0
 20
330.0
 30
0.0
 11
4070.0
 21
330.0
 31
0.0
  0
LINE
  5
1E50
330
1D1D
100
AcDbEntity
  8
0
 62
     5
 48
6.0
370
    -1
100
AcDbLine
 10
4180.0
 20
430.0
 30
0.0
 11
4180.0
 21
340.0
 31
0.0
  0
LINE
  5
1E51
330
1D1D
100
AcDbEntity
  8
0
 62
     5
 48
8.0
370
    -1
100
AcDbLine
 10
4180.0
 20
340.0
 30
0.0
 11
4115.0
 21
340.0
 31
0.0
  0
POINT
  5
1E52
330
1D1D
100
AcDbEntity
  8
DEFPOINTS
  6
ByBlock
 62
     0
 48
3.0
370
    -1
380
     1
100
AcDbPoint
 10
4210.0
 20
430.0
 30
0.0
  0
TEXT
  5
1E53
330
1D1D
100
AcDbEntity
  8
0
 62
     5
 48
3.0
370
    -1
100
AcDbText
 10
4455.0
 20
195.0
 30
0.0
 40
60.0
  1
１５０
 50
90.0
  7
STYLE1
100
AcDbText
  0
LINE
  5
1E54
330
1D1D
100
AcDbEntity
  8
0
  6
ByBlock
 62
     6
 48
3.0
370
    -1
100
AcDbLine
 10
4460.0
 20
215.1010000000001
 30
0.0
 11
4460.0
 21
363.6741949494954
 31
0.0
  0
INSERT
  5
1E55
330
1D1D
100
AcDbEntity
  8
0
  6
ByBlock
 62
     6
 48
3.0
370
    -1
100
AcDbBlockReference
  2
_OPEN
 10
4460.0
 20
180.0
 30
0.0
 41
35.101
 42
35.101
 43
35.101
 50
270.0
  0
POINT
  5
1E56
330
1D1D
100
AcDbEntity
  8
DEFPOINTS
  6
ByBlock
 62
     0
 48
3.0
370
    -1
380
     1
100
AcDbPoint
 10
4460.0
 20
180.0
 30
0.0
  0
INSERT
  5
1E57
330
1D1D
100
AcDbEntity
  8
0
  6
ByBlock
 62
     6
 48
3.0
370
    -1
100
AcDbBlockReference
  2
_OPEN
 10
4460.0
 20
430.0
 30
0.0
 41
35.101
 42
35.101
 43
35.101
 50
90.0
  0
LINE
  5
1E58
330
1D1D
100
AcDbEntity
  8
0
  6
ByBlock
 62
     6
 48
3.0
370
    -1
100
AcDbLine
 10
4460.0
 20
394.8989999999999
 30
0.0
 11
4460.0
 21
331.3258050505056
 31
0.0
  0
LINE
  5
1E59
330
1D1D
100
AcDbEntity
  8
0
 62
     6
 48
8.0
370
    -1
100
AcDbLine
 10
770.0
 20
3040.0
 30
0.0
 11
1000.0
 21
2675.0
 31
0.0
  0
LINE
  5
1E5A
330
1D1D
100
AcDbEntity
  8
0
 62
     5
 48
6.0
370
    -1
100
AcDbLine
 10
1050.0
 20
1795.0
 30
0.0
 11
950.0
 21
1795.0
 31
0.0
  0
LINE
  5
1E5B
330
1D1D
100
AcDbEntity
  8
0
 62
     5
 48
6.0
370
    -1
100
AcDbLine
 10
1070.0
 20
1750.0
 30
0.0
 11
930.0
 21
1750.0
 31
0.0
  0
LINE
  5
1E5C
330
1D1D
100
AcDbEntity
  8
0
 62
     5
 48
6.0
370
    -1
100
AcDbLine
 10
950.0
 20
1955.0
 30
0.0
 11
1050.0
 21
1955.0
 31
0.0
  0
LINE
  5
1E5D
330
1D1D
100
AcDbEntity
  8
0
 62
     5
 48
6.0
370
    -1
100
AcDbLine
 10
1050.0
 20
2590.0
 30
0.0
 11
950.0
 21
2590.0
 31
0.0
  0
LINE
  5
1E5E
330
1D1D
100
AcDbEntity
  8
0
 62
     5
 48
6.0
370
    -1
100
AcDbLine
 10
950.0
 20
2750.0
 30
0.0
 11
1050.0
 21
2750.0
 31
0.0
  0
LINE
  5
1E5F
330
1D1D
100
AcDbEntity
  8
0
 62
     5
 48
6.0
370
    -1
100
AcDbLine
 10
1070.0
 20
2800.0
 30
0.0
 11
930.0
 21
2800.0
 31
0.0
  0
LINE
  5
1E60
330
1D1D
100
AcDbEntity
  8
0
  6
ByBlock
 62
     6
 48
6.0
370
    -1
100
AcDbLine
 10
580.0
 20
1415.0
 30
0.0
 11
1900.0
 21
1415.0
 31
0.0
  0
LINE
  5
1E61
330
1D1D
100
AcDbEntity
  8
0
 62
     6
 48
6.0
370
    -1
100
AcDbLine
 10
835.0
 20
2155.0
 30
0.0
 11
970.0
 21
2070.0
 31
0.0
  0
LINE
  5
1E62
330
1D1D
100
AcDbEntity
  8
0
 62
     5
 48
6.0
370
    -1
100
AcDbLine
 10
580.0
 20
1805.0
 30
0.0
 11
580.0
 21
2865.0
 31
0.0
  0
LINE
  5
1E63
330
1D1D
100
AcDbEntity
  8
0
 62
     5
 48
6.0
370
    -1
100
AcDbLine
 10
590.0
 20
2645.0
 30
0.0
 11
590.0
 21
2085.0
 31
0.0
  0
LINE
  5
1E64
330
1D1D
100
AcDbEntity
  8
0
 62
     5
 48
6.0
370
    -1
100
AcDbLine
 10
670.0
 20
1940.0
 30
0.0
 11
670.0
 21
2610.0
 31
0.0
  0
LINE
  5
1E65
330
1D1D
100
AcDbEntity
  8
0
 62
     5
 48
6.0
370
    -1
100
AcDbLine
 10
930.0
 20
2735.0
 30
0.0
 11
930.0
 21
2065.0
 31
0.0
  0
LINE
  5
1E66
330
1D1D
100
AcDbEntity
  8
0
  6
HIDDEN
 62
     6
 48
6.0
370
    -1
100
AcDbLine
 10
670.0
 20
1820.0
 30
0.0
 11
670.0
 21
1940.0
 31
0.0
  0
LINE
  5
1E67
330
1D1D
100
AcDbEntity
  8
0
 62
     5
 48
6.0
370
    -1
100
AcDbLine
 10
950.0
 20
1795.0
 30
0.0
 11
950.0
 21
1955.0
 31
0.0
  0
LINE
  5
1E68
330
1D1D
100
AcDbEntity
  8
0
 62
     5
 48
6.0
370
    -1
100
AcDbLine
 10
590.0
 20
1885.0
 30
0.0
 11
590.0
 21
1965.0
 31
0.0
  0
LINE
  5
1E69
330
1D1D
100
AcDbEntity
  8
0
 62
     5
 48
6.0
370
    -1
100
AcDbLine
 10
930.0
 20
2485.0
 30
0.0
 11
930.0
 21
1815.0
 31
0.0
  0
LINE
  5
1E6A
330
1D1D
100
AcDbEntity
  8
0
 62
     6
 48
6.0
370
    -1
100
AcDbLine
 10
450.4899265802651
 20
1957.797462079021
 30
0.0
 11
629.5043134215539
 21
1846.374524239334
 31
0.0
  0
LINE
  5
1E6B
330
1D1D
100
AcDbEntity
  8
0
  6
ByBlock
 62
     6
 48
6.0
370
    -1
100
AcDbLine
 10
580.0
 20
1780.0
 30
0.0
 11
580.0
 21
1397.4495
 31
0.0
  0
INSERT
  5
1E6C
330
1D1D
100
AcDbEntity
  8
0
  6
ByBlock
 62
     6
 48
6.0
370
    -1
100
AcDbBlockReference
  2
_OPEN
 10
580.0
 20
1415.0
 30
0.0
 41
35.101
 42
35.101
 43
35.101
 50
180.0
  0
LINE
  5
1E6D
330
1D1D
100
AcDbEntity
  8
0
 62
     5
 48
6.0
370
    -1
100
AcDbLine
 10
590.0
 20
1815.0
 30
0.0
 11
930.0
 21
1815.0
 31
0.0
  0
LINE
  5
1E6E
330
1D1D
100
AcDbEntity
  8
0
 62
     5
 48
6.0
370
    -1
100
AcDbLine
 10
670.0
 20
1805.0
 30
0.0
 11
580.0
 21
1805.0
 31
0.0
  0
LINE
  5
1E6F
330
1D1D
100
AcDbEntity
  8
0
 62
     5
 48
6.0
370
    -1
100
AcDbLine
 10
590.0
 20
1885.0
 30
0.0
 11
590.0
 21
1815.0
 31
0.0
  0
LINE
  5
1E70
330
1D1D
100
AcDbEntity
  8
0
 62
     5
 48
6.0
370
    -1
100
AcDbLine
 10
670.0
 20
1815.0
 30
0.0
 11
670.0
 21
1820.0
 31
0.0
  0
LINE
  5
1E71
330
1D1D
100
AcDbEntity
  8
0
 62
     5
 48
6.0
370
    -1
100
AcDbLine
 10
670.0
 20
1815.0
 30
0.0
 11
670.0
 21
1805.0
 31
0.0
  0
LINE
  5
1E72
330
1D1D
100
AcDbEntity
  8
0
 62
     5
 48
6.0
370
    -1
100
AcDbLine
 10
930.0
 20
1750.0
 30
0.0
 11
930.0
 21
1820.0
 31
0.0
  0
TEXT
  5
1E73
330
1D1D
100
AcDbEntity
  8
0
 62
     5
 48
6.0
370
    -1
100
AcDbText
 10
377.9764489059144
 20
1929.138652240234
 30
0.0
 40
65.0
  1
１
  7
STYLE1
100
AcDbText
  0
CIRCLE
  5
1E74
330
1D1D
100
AcDbEntity
  8
0
 62
     5
 48
6.0
370
    -1
100
AcDbCircle
 10
407.9764489059144
 20
1962.474566550654
 30
0.0
 40
40.0
  0
LINE
  5
1E75
330
1D1D
100
AcDbEntity
  8
0
 62
     5
 48
6.0
370
    -1
100
AcDbLine
 10
590.0
 20
1935.0
 30
0.0
 11
930.0
 21
1935.0
 31
0.0
  0
LINE
  5
1E76
330
1D1D
100
AcDbEntity
  8
0
 62
     5
 48
6.0
370
    -1
100
AcDbLine
 10
590.0
 20
1965.0
 30
0.0
 11
590.0
 21
2090.0
 31
0.0
  0
CIRCLE
  5
1E77
330
1D1D
100
AcDbEntity
  8
0
 62
     5
 48
6.0
370
    -1
100
AcDbCircle
 10
798.3541020865287
 20
2171.131800359244
 30
0.0
 40
40.0
  0
TEXT
  5
1E78
330
1D1D
100
AcDbEntity
  8
0
 62
     5
 48
6.0
370
    -1
100
AcDbText
 10
770.620822389863
 20
2136.691645511755
 30
0.0
 40
65.0
  1
３
  7
STYLE1
100
AcDbText
  0
TEXT
  5
1E79
330
1D1D
100
AcDbEntity
  8
0
 62
     5
 48
8.0
370
    -1
100
AcDbText
 10
185.0
 20
3055.0
 30
0.0
 40
60.0
  1
機器固定穴
 41
0.9
  7
STYLE1
100
AcDbText
  0
LINE
  5
1E7A
330
1D1D
100
AcDbEntity
  8
0
 62
     6
 48
6.0
370
    -1
100
AcDbLine
 10
438.2731664657276
 20
2788.471741542191
 30
0.0
 11
568.2316676122227
 21
2717.048813411544
 31
0.0
  0
LINE
  5
1E7B
330
1D1D
100
AcDbEntity
  8
0
 62
     6
 48
6.0
370
    -1
100
AcDbLine
 10
110.0
 20
3040.0
 30
0.0
 11
770.0
 21
3040.0
 31
0.0
  0
CIRCLE
  5
1E7C
330
1D1D
100
AcDbEntity
  8
0
 62
     5
 48
6.0
370
    -1
100
AcDbCircle
 10
398.3541020865287
 20
2795.649007554332
 30
0.0
 40
40.0
  0
TEXT
  5
1E7D
330
1D1D
100
AcDbEntity
  8
0
 62
     5
 48
6.0
370
    -1
100
AcDbText
 10
361.7141273365251
 20
2758.97717893349
 30
0.0
 40
65.0
  1
４
  7
STYLE1
100
AcDbText
  0
LINE
  5
1E7E
330
1D1D
100
AcDbEntity
  8
0
 62
     6
 48
6.0
370
    -1
100
AcDbLine
 10
25.0
 20
3040.0
 30
0.0
 11
375.0
 21
3040.0
 31
0.0
  0
TEXT
  5
1E7F
330
1D1D
100
AcDbEntity
  8
0
 62
     5
 48
6.0
370
    -1
100
AcDbText
 10
20.0
 20
2965.0
 30
0.0
 40
60.0
  1
４
  7
STYLE1
100
AcDbText
  0
TEXT
  5
1E80
330
1D1D
100
AcDbEntity
  8
0
 62
     5
 48
6.0
370
    -1
100
AcDbText
 10
75.0
 20
2963.356576920292
 30
0.0
 40
60.0
  1
－
  7
STYLE1
100
AcDbText
  0
CIRCLE
  5
1E81
330
1D1D
100
AcDbEntity
  8
0
 62
     5
 48
6.0
370
    -1
100
AcDbCircle
 10
157.5272040350792
 20
2997.661834827355
 30
0.0
 40
16.0431227616429
  0
LINE
  5
1E82
330
1D1D
100
AcDbEntity
  8
0
 62
     5
 48
6.0
370
    -1
100
AcDbLine
 10
175.3405594817195
 20
3021.01319890573
 30
0.0
 11
138.6004987092419
 21
2973.19848728065
 31
0.0
  0
TEXT
  5
1E83
330
1D1D
100
AcDbEntity
  8
0
 62
     5
 48
8.0
370
    -1
100
AcDbText
 10
185.0
 20
2965.0
 30
0.0
 40
60.0
  1
１
 41
0.9
  7
STYLE1
100
AcDbText
  0
TEXT
  5
1E84
330
1D1D
100
AcDbEntity
  8
0
 62
     5
 48
8.0
370
    -1
100
AcDbText
 10
285.0
 20
2965.0
 30
0.0
 40
60.0
  1
．
 41
0.9
  7
STYLE1
100
AcDbText
  0
TEXT
  5
1E85
330
1D1D
100
AcDbEntity
  8
0
 62
     5
 48
8.0
370
    -1
100
AcDbText
 10
240.0
 20
2965.0
 30
0.0
 40
60.0
  1
０
 41
0.9
  7
STYLE1
100
AcDbText
  0
TEXT
  5
1E86
330
1D1D
100
AcDbEntity
  8
0
 62
     5
 48
8.0
370
    -1
100
AcDbText
 10
315.0
 20
2965.0
 30
0.0
 40
60.0
  1
５
 41
0.9
  7
STYLE1
100
AcDbText
  0
TEXT
  5
1E87
330
1D1D
100
AcDbEntity
  8
0
 62
     5
 48
6.0
370
    -1
100
AcDbText
 10
375.0
 20
2965.0
 30
0.0
 40
60.0
  1
×
  7
STYLE1
100
AcDbText
  0
TEXT
  5
1E88
330
1D1D
100
AcDbEntity
  8
0
 62
     5
 48
8.0
370
    -1
100
AcDbText
 10
440.0
 20
2965.0
 30
0.0
 40
60.0
  1
９
 41
0.9
  7
STYLE1
100
AcDbText
  0
LINE
  5
1E89
330
1D1D
100
AcDbEntity
  8
0
  6
CENTER
 62
     6
 48
6.0
370
    -1
100
AcDbLine
 10
630.0
 20
2870.0
 30
0.0
 11
630.0
 21
2935.0
 31
0.0
  0
LINE
  5
1E8A
330
1D1D
100
AcDbEntity
  8
0
 62
     5
 48
6.0
370
    -1
100
AcDbLine
 10
580.0
 20
2860.0
 30
0.0
 11
580.0
 21
2890.0
 31
0.0
  0
LINE
  5
1E8B
330
1D1D
100
AcDbEntity
  8
0
 62
     5
 48
6.0
370
    -1
100
AcDbLine
 10
590.0
 20
2830.0
 30
0.0
 11
590.0
 21
2890.0
 31
0.0
  0
LINE
  5
1E8C
330
1D1D
100
AcDbEntity
  8
0
 62
     5
 48
6.0
370
    -1
100
AcDbLine
 10
670.0
 20
2890.0
 30
0.0
 11
670.0
 21
2730.0
 31
0.0
  0
LINE
  5
1E8D
330
1D1D
100
AcDbEntity
  8
0
 62
     5
 48
6.0
370
    -1
100
AcDbLine
 10
570.0
 20
2900.0
 30
0.0
 11
570.0
 21
2680.0
 31
0.0
  0
LINE
  5
1E8E
330
1D1D
100
AcDbEntity
  8
0
 62
     5
 48
6.0
370
    -1
100
AcDbLine
 10
590.0
 20
2730.0
 30
0.0
 11
930.0
 21
2730.0
 31
0.0
  0
LINE
  5
1E8F
330
1D1D
100
AcDbEntity
  8
0
 62
     5
 48
6.0
370
    -1
100
AcDbLine
 10
590.0
 20
2610.0
 30
0.0
 11
930.0
 21
2610.0
 31
0.0
  0
LINE
  5
1E90
330
1D1D
100
AcDbEntity
  8
0
  6
HIDDEN
 62
     6
 48
6.0
370
    -1
100
AcDbLine
 10
670.0
 20
2610.0
 30
0.0
 11
670.0
 21
2730.0
 31
0.0
  0
LINE
  5
1E91
330
1D1D
100
AcDbEntity
  8
0
 62
     5
 48
6.0
370
    -1
100
AcDbLine
 10
590.0
 20
2710.0
 30
0.0
 11
590.0
 21
2835.0
 31
0.0
  0
LINE
  5
1E92
330
1D1D
100
AcDbEntity
  8
0
 62
     5
 48
6.0
370
    -1
100
AcDbLine
 10
590.0
 20
2630.0
 30
0.0
 11
590.0
 21
2710.0
 31
0.0
  0
LINE
  5
1E93
330
1D1D
100
AcDbEntity
  8
0
 62
     5
 48
6.0
370
    -1
100
AcDbLine
 10
580.0
 20
2680.0
 30
0.0
 11
570.0
 21
2680.0
 31
0.0
  0
LINE
  5
1E94
330
1D1D
100
AcDbEntity
  8
0
 62
     5
 48
6.0
370
    -1
100
AcDbLine
 10
590.0
 20
2790.0
 30
0.0
 11
610.0
 21
2790.0
 31
0.0
  0
LINE
  5
1E95
330
1D1D
100
AcDbEntity
  8
0
 62
     5
 48
6.0
370
    -1
100
AcDbLine
 10
610.0
 20
2800.0
 30
0.0
 11
590.0
 21
2800.0
 31
0.0
  0
LINE
  5
1E96
330
1D1D
100
AcDbEntity
  8
0
 62
     5
 48
6.0
370
    -1
100
AcDbLine
 10
550.0
 20
2790.0
 30
0.0
 11
550.0
 21
2800.0
 31
0.0
  0
LINE
  5
1E97
330
1D1D
100
AcDbEntity
  8
0
 62
     5
 48
6.0
370
    -1
100
AcDbLine
 10
570.0
 20
2790.0
 30
0.0
 11
550.0
 21
2790.0
 31
0.0
  0
LINE
  5
1E98
330
1D1D
100
AcDbEntity
  8
0
 62
     5
 48
6.0
370
    -1
100
AcDbLine
 10
550.0
 20
2800.0
 30
0.0
 11
570.0
 21
2800.0
 31
0.0
  0
LINE
  5
1E99
330
1D1D
100
AcDbEntity
  8
0
 62
     5
 48
6.0
370
    -1
100
AcDbLine
 10
610.0
 20
2790.0
 30
0.0
 11
610.0
 21
2800.0
 31
0.0
  0
LINE
  5
1E9A
330
1D1D
100
AcDbEntity
  8
0
 62
     5
 48
6.0
370
    -1
100
AcDbLine
 10
950.0
 20
2590.0
 30
0.0
 11
950.0
 21
2750.0
 31
0.0
  0
LINE
  5
1E9B
330
1D1D
100
AcDbEntity
  8
0
 62
     5
 48
6.0
370
    -1
100
AcDbLine
 10
930.0
 20
2800.0
 30
0.0
 11
930.0
 21
2730.0
 31
0.0
  0
TEXT
  5
1E9C
330
1D1D
100
AcDbEntity
  8
0
 62
     5
 48
8.0
370
    -1
100
AcDbText
 10
635.0
 20
2970.0
 30
0.0
 40
60.0
  1
長穴
 41
0.9
  7
STYLE1
100
AcDbText
  0
LINE
  5
1E9D
330
1D1D
100
AcDbEntity
  8
0
 62
     5
 48
6.0
370
    -1
100
AcDbLine
 10
670.0
 20
2890.0
 30
0.0
 11
580.0
 21
2890.0
 31
0.0
  0
LINE
  5
1E9E
330
1D1D
100
AcDbEntity
  8
0
 62
     5
 48
6.0
370
    -1
100
AcDbLine
 10
670.0
 20
2900.0
 30
0.0
 11
570.0
 21
2900.0
 31
0.0
  0
TEXT
  5
1E9F
330
1D1D
100
AcDbEntity
  8
0
 62
     5
 48
8.0
370
    -1
100
AcDbText
 10
575.0
 20
2965.0
 30
0.0
 40
60.0
  1
５
 41
0.9
  7
STYLE1
100
AcDbText
  0
TEXT
  5
1EA0
330
1D1D
100
AcDbEntity
  8
0
 62
     5
 48
8.0
370
    -1
100
AcDbText
 10
495.0
 20
2965.0
 30
0.0
 40
60.0
  1
０
 41
0.9
  7
STYLE1
100
AcDbText
  0
TEXT
  5
1EA1
330
1D1D
100
AcDbEntity
  8
0
 62
     5
 48
8.0
370
    -1
100
AcDbText
 10
540.0
 20
2970.0
 30
0.0
 40
60.0
  1
．
 41
0.9
  7
STYLE1
100
AcDbText
  0
LINE
  5
1EA2
330
1D1D
100
AcDbEntity
  8
0
 62
     5
 48
6.0
370
    -1
100
AcDbLine
 10
670.0
 20
2890.0
 30
0.0
 11
670.0
 21
2900.0
 31
0.0
  0
INSERT
  5
1EA3
330
1D1D
100
AcDbEntity
  8
0
  6
ByBlock
 62
     6
 48
6.0
370
    -1
100
AcDbBlockReference
  2
_OPEN
 10
2205.0
 20
2570.0
 30
0.0
 41
-35.101
 42
35.101
 43
35.101
 50
270.0
  0
LINE
  5
1EA4
330
1D1D
100
AcDbEntity
  8
0
  6
ByBlock
 62
     6
 48
6.0
370
    -1
100
AcDbLine
 10
2205.0
 20
2570.0
 30
0.0
 11
2205.0
 21
2373.825805050505
 31
0.0
  0
LINE
  5
1EA5
330
1D1D
100
AcDbEntity
  8
0
  6
ByBlock
 62
     6
 48
6.0
370
    -1
100
AcDbLine
 10
2340.0
 20
2864.898999999999
 30
0.0
 11
2340.0
 21
2373.825805050505
 31
0.0
  0
LINE
  5
1EA6
330
1D1D
100
AcDbEntity
  8
0
 62
     5
 48
6.0
370
    -1
100
AcDbLine
 10
1890.0
 20
2085.0
 30
0.0
 11
1890.0
 21
2645.0
 31
0.0
  0
LINE
  5
1EA7
330
1D1D
100
AcDbEntity
  8
0
 62
     5
 48
6.0
370
    -1
100
AcDbLine
 10
1810.0
 20
2610.0
 30
0.0
 11
1810.0
 21
1940.0
 31
0.0
  0
LINE
  5
1EA8
330
1D1D
100
AcDbEntity
  8
0
 62
     5
 48
6.0
370
    -1
100
AcDbLine
 10
1550.0
 20
2730.0
 30
0.0
 11
1550.0
 21
2060.0
 31
0.0
  0
LINE
  5
1EA9
330
1D1D
100
AcDbEntity
  8
0
 62
     5
 48
6.0
370
    -1
100
AcDbLine
 10
1410.0
 20
2730.0
 30
0.0
 11
1410.0
 21
2060.0
 31
0.0
  0
LINE
  5
1EAA
330
1D1D
100
AcDbEntity
  8
0
 62
     5
 48
6.0
370
    -1
100
AcDbLine
 10
1900.0
 20
2890.0
 30
0.0
 11
1900.0
 21
1805.0
 31
0.0
  0
LINE
  5
1EAB
330
1D1D
100
AcDbEntity
  8
0
 62
     5
 48
6.0
370
    -1
100
AcDbLine
 10
1070.0
 20
2735.0
 30
0.0
 11
1070.0
 21
2065.0
 31
0.0
  0
LINE
  5
1EAC
330
1D1D
100
AcDbEntity
  8
0
 62
     6
 48
8.0
370
    -1
100
AcDbLine
 10
1860.0
 20
3070.0
 30
0.0
 11
1480.0
 21
2400.0
 31
0.0
  0
LINE
  5
1EAD
330
1D1D
100
AcDbEntity
  8
0
  6
ByBlock
 62
     6
 48
6.0
370
    -1
100
AcDbLine
 10
1528.7753
 20
1975.0
 30
0.0
 11
2222.5505
 21
1975.0
 31
0.0
  0
LINE
  5
1EAE
330
1D1D
100
AcDbEntity
  8
0
 62
     5
 48
6.0
370
    -1
100
AcDbLine
 10
1810.0
 20
1805.0
 30
0.0
 11
1900.0
 21
1805.0
 31
0.0
  0
LINE
  5
1EAF
330
1D1D
100
AcDbEntity
  8
0
 62
     5
 48
6.0
370
    -1
100
AcDbLine
 10
1550.0
 20
1815.0
 30
0.0
 11
1890.0
 21
1815.0
 31
0.0
  0
LINE
  5
1EB0
330
1D1D
100
AcDbEntity
  8
0
 62
     5
 48
6.0
370
    -1
100
AcDbLine
 10
1550.0
 20
1935.0
 30
0.0
 11
1890.0
 21
1935.0
 31
0.0
  0
INSERT
  5
1EB1
330
1D1D
100
AcDbEntity
  8
0
  6
ByBlock
 62
     6
 48
6.0
370
    -1
100
AcDbBlockReference
  2
_OPEN
 10
1900.0
 20
1415.0
 30
0.0
 41
35.101
 42
35.101
 43
35.101
  0
LINE
  5
1EB2
330
1D1D
100
AcDbEntity
  8
0
  6
HIDDEN
 62
     6
 48
6.0
370
    -1
100
AcDbLine
 10
1810.0
 20
1820.0
 30
0.0
 11
1810.0
 21
1940.0
 31
0.0
  0
LINE
  5
1EB3
330
1D1D
100
AcDbEntity
  8
0
 62
     6
 48
6.0
370
    -1
100
AcDbLine
 10
1500.0
 20
1900.0
 30
0.0
 11
1500.0
 21
1955.0
 31
0.0
  0
LINE
  5
1EB4
330
1D1D
100
AcDbEntity
  8
0
 62
     6
 48
6.0
370
    -1
100
AcDbLine
 10
1460.0
 20
1900.0
 30
0.0
 11
1460.0
 21
1955.0
 31
0.0
  0
CIRCLE
  5
1EB5
330
1D1D
100
AcDbEntity
  8
0
 62
     5
 48
6.0
370
    -1
100
AcDbCircle
 10
1480.0
 20
1875.0
 30
0.0
 40
30.0
  0
LINE
  5
1EB6
330
1D1D
100
AcDbEntity
  8
0
 62
     5
 48
6.0
370
    -1
100
AcDbLine
 10
1430.0
 20
1795.0
 30
0.0
 11
1430.0
 21
1955.0
 31
0.0
  0
LINE
  5
1EB7
330
1D1D
100
AcDbEntity
  8
0
 62
     6
 48
6.0
370
    -1
100
AcDbLine
 10
1450.0
 20
1795.0
 30
0.0
 11
1450.0
 21
1955.0
 31
0.0
  0
LINE
  5
1EB8
330
1D1D
100
AcDbEntity
  8
0
 62
     6
 48
6.0
370
    -1
100
AcDbLine
 10
1440.0
 20
1795.0
 30
0.0
 11
1440.0
 21
1955.0
 31
0.0
  0
LINE
  5
1EB9
330
1D1D
100
AcDbEntity
  8
0
 62
     6
 48
6.0
370
    -1
100
AcDbLine
 10
1510.0
 20
1795.0
 30
0.0
 11
1510.0
 21
1955.0
 31
0.0
  0
LINE
  5
1EBA
330
1D1D
100
AcDbEntity
  8
0
 62
     6
 48
6.0
370
    -1
100
AcDbLine
 10
1520.0
 20
1795.0
 30
0.0
 11
1520.0
 21
1955.0
 31
0.0
  0
LINE
  5
1EBB
330
1D1D
100
AcDbEntity
  8
0
 62
     5
 48
6.0
370
    -1
100
AcDbLine
 10
1530.0
 20
1955.0
 30
0.0
 11
1530.0
 21
1795.0
 31
0.0
  0
LINE
  5
1EBC
330
1D1D
100
AcDbEntity
  8
0
 62
     5
 48
6.0
370
    -1
100
AcDbLine
 10
1550.0
 20
2485.0
 30
0.0
 11
1550.0
 21
1815.0
 31
0.0
  0
LINE
  5
1EBD
330
1D1D
100
AcDbEntity
  8
0
 62
     5
 48
6.0
370
    -1
100
AcDbLine
 10
1410.0
 20
2485.0
 30
0.0
 11
1410.0
 21
1815.0
 31
0.0
  0
LINE
  5
1EBE
330
1D1D
100
AcDbEntity
  8
0
 62
     6
 48
6.0
370
    -1
100
AcDbLine
 10
1020.0
 20
1900.0
 30
0.0
 11
1020.0
 21
1955.0
 31
0.0
  0
LINE
  5
1EBF
330
1D1D
100
AcDbEntity
  8
0
 62
     6
 48
6.0
370
    -1
100
AcDbLine
 10
980.0
 20
1900.0
 30
0.0
 11
980.0
 21
1955.0
 31
0.0
  0
CIRCLE
  5
1EC0
330
1D1D
100
AcDbEntity
  8
0
 62
     5
 48
6.0
370
    -1
100
AcDbCircle
 10
1000.0
 20
1875.0
 30
0.0
 40
30.0
  0
LINE
  5
1EC1
330
1D1D
100
AcDbEntity
  8
0
 62
     5
 48
6.0
370
    -1
100
AcDbLine
 10
1050.0
 20
1955.0
 30
0.0
 11
1050.0
 21
1795.0
 31
0.0
  0
LINE
  5
1EC2
330
1D1D
100
AcDbEntity
  8
0
 62
     6
 48
6.0
370
    -1
100
AcDbLine
 10
1040.0
 20
1795.0
 30
0.0
 11
1040.0
 21
1955.0
 31
0.0
  0
LINE
  5
1EC3
330
1D1D
100
AcDbEntity
  8
0
 62
     6
 48
6.0
370
    -1
100
AcDbLine
 10
1030.0
 20
1795.0
 30
0.0
 11
1030.0
 21
1955.0
 31
0.0
  0
LINE
  5
1EC4
330
1D1D
100
AcDbEntity
  8
0
 62
     6
 48
6.0
370
    -1
100
AcDbLine
 10
960.0
 20
1795.0
 30
0.0
 11
960.0
 21
1955.0
 31
0.0
  0
LINE
  5
1EC5
330
1D1D
100
AcDbEntity
  8
0
 62
     6
 48
6.0
370
    -1
100
AcDbLine
 10
970.0
 20
1795.0
 30
0.0
 11
970.0
 21
1955.0
 31
0.0
  0
LINE
  5
1EC6
330
1D1D
100
AcDbEntity
  8
0
 62
     5
 48
6.0
370
    -1
100
AcDbLine
 10
1070.0
 20
2485.0
 30
0.0
 11
1070.0
 21
1815.0
 31
0.0
  0
LINE
  5
1EC7
330
1D1D
100
AcDbEntity
  8
0
 62
     5
 48
6.0
370
    -1
100
AcDbLine
 10
1550.0
 20
1750.0
 30
0.0
 11
1410.0
 21
1750.0
 31
0.0
  0
LINE
  5
1EC8
330
1D1D
100
AcDbEntity
  8
0
  6
ByBlock
 62
     6
 48
6.0
370
    -1
100
AcDbLine
 10
1000.0
 20
1550.0
 30
0.0
 11
1480.0
 21
1550.0
 31
0.0
  0
LINE
  5
1EC9
330
1D1D
100
AcDbEntity
  8
0
 62
     6
 48
6.0
370
    -1
100
AcDbLine
 10
1000.0
 20
1765.0
 30
0.0
 11
1000.0
 21
1535.0
 31
0.0
  0
TEXT
  5
1ECA
330
1D1D
100
AcDbEntity
  8
0
 62
     5
 48
6.0
370
    -1
100
AcDbText
 10
1207.44541547984
 20
1552.249947426675
 30
0.0
 40
65.0
  1
Ａ
  7
STYLE1
100
AcDbText
  0
INSERT
  5
1ECB
330
1D1D
100
AcDbEntity
  8
0
  6
ByBlock
 62
     6
 48
6.0
370
    -1
100
AcDbBlockReference
  2
_OPEN
 10
1000.0
 20
1550.0
 30
0.0
 41
35.101
 42
35.101
 43
35.101
 50
180.0
  0
TEXT
  5
1ECC
330
1D1D
100
AcDbEntity
  8
0
 62
     5
 48
6.0
370
    -1
100
AcDbText
 10
1209.242352149315
 20
1417.748661012687
 30
0.0
 40
65.0
  1
Ｗ
  7
STYLE1
100
AcDbText
  0
LINE
  5
1ECD
330
1D1D
100
AcDbEntity
  8
0
 62
     5
 48
6.0
370
    -1
100
AcDbLine
 10
1070.0
 20
1815.0
 30
0.0
 11
1410.0
 21
1815.0
 31
0.0
  0
LINE
  5
1ECE
330
1D1D
100
AcDbEntity
  8
0
 62
     6
 48
6.0
370
    -1
100
AcDbLine
 10
1000.0
 20
1795.0
 30
0.0
 11
1000.0
 21
1845.0
 31
0.0
  0
LINE
  5
1ECF
330
1D1D
100
AcDbEntity
  8
0
 62
     6
 48
6.0
370
    -1
100
AcDbLine
 10
1010.0
 20
1845.0
 30
0.0
 11
1010.0
 21
1795.0
 31
0.0
  0
LINE
  5
1ED0
330
1D1D
100
AcDbEntity
  8
0
 62
     6
 48
6.0
370
    -1
100
AcDbLine
 10
990.0
 20
1795.0
 30
0.0
 11
990.0
 21
1845.0
 31
0.0
  0
LINE
  5
1ED1
330
1D1D
100
AcDbEntity
  8
0
 62
     6
 48
6.0
370
    -1
100
AcDbLine
 10
980.0
 20
1850.0
 30
0.0
 11
980.0
 21
1795.0
 31
0.0
  0
LINE
  5
1ED2
330
1D1D
100
AcDbEntity
  8
0
 62
     6
 48
6.0
370
    -1
100
AcDbLine
 10
1020.0
 20
1795.0
 30
0.0
 11
1020.0
 21
1850.0
 31
0.0
  0
ARC
  5
1ED3
330
1D1D
100
AcDbEntity
  8
0
 62
     5
 48
6.0
370
    -1
100
AcDbCircle
 10
1000.0
 20
1785.0
 30
0.0
 40
10.0
100
AcDbArc
 50
180.0
 51
0.0
  0
LINE
  5
1ED4
330
1D1D
100
AcDbEntity
  8
0
 62
     5
 48
6.0
370
    -1
100
AcDbLine
 10
990.0
 20
1785.0
 30
0.0
 11
990.0
 21
1795.0
 31
0.0
  0
LINE
  5
1ED5
330
1D1D
100
AcDbEntity
  8
0
 62
     5
 48
6.0
370
    -1
100
AcDbLine
 10
1010.0
 20
1785.0
 30
0.0
 11
1010.0
 21
1795.0
 31
0.0
  0
LWPOLYLINE
  5
1ED6
330
1D1D
100
AcDbEntity
  8
0
 62
     5
 48
6.0
370
    -1
100
AcDbPolyline
 90
        6
 70
     1
 43
0.0
 10
987.3412927005811
 20
1882.308508066912
 10
1000.0
 20
1889.617016133825
 10
1012.658707299419
 20
1882.308508066912
 10
1012.658707299419
 20
1867.691491933088
 10
1000.0
 20
1860.382983866175
 10
987.3412927005811
 20
1867.691491933088
  0
LINE
  5
1EDE
330
1D1D
100
AcDbEntity
  8
0
 62
     5
 48
6.0
370
    -1
100
AcDbLine
 10
1010.318109423682
 20
1884.48963615209
 30
0.0
 11
1009.872823820795
 21
1884.48963615209
 31
0.0
  0
LINE
  5
1EDF
330
1D1D
100
AcDbEntity
  8
0
 62
     5
 48
6.0
370
    -1
100
AcDbLine
 10
1070.0
 20
1820.0
 30
0.0
 11
1070.0
 21
1750.0
 31
0.0
  0
LINE
  5
1EE0
330
1D1D
100
AcDbEntity
  8
0
 62
     5
 48
6.0
370
    -1
100
AcDbLine
 10
1410.0
 20
1750.0
 30
0.0
 11
1410.0
 21
1820.0
 31
0.0
  0
LINE
  5
1EE1
330
1D1D
100
AcDbEntity
  8
0
 62
     6
 48
6.0
370
    -1
100
AcDbLine
 10
1480.0
 20
1765.0
 30
0.0
 11
1480.0
 21
1535.0
 31
0.0
  0
INSERT
  5
1EE2
330
1D1D
100
AcDbEntity
  8
0
  6
ByBlock
 62
     6
 48
6.0
370
    -1
100
AcDbBlockReference
  2
_OPEN
 10
1480.0
 20
1550.0
 30
0.0
 41
35.101
 42
35.101
 43
35.101
  0
LINE
  5
1EE3
330
1D1D
100
AcDbEntity
  8
0
 62
     6
 48
6.0
370
    -1
100
AcDbLine
 10
1460.0
 20
1850.0
 30
0.0
 11
1460.0
 21
1795.0
 31
0.0
  0
LINE
  5
1EE4
330
1D1D
100
AcDbEntity
  8
0
 62
     6
 48
6.0
370
    -1
100
AcDbLine
 10
1500.0
 20
1795.0
 30
0.0
 11
1500.0
 21
1850.0
 31
0.0
  0
LINE
  5
1EE5
330
1D1D
100
AcDbEntity
  8
0
 62
     6
 48
6.0
370
    -1
100
AcDbLine
 10
1470.0
 20
1795.0
 30
0.0
 11
1470.0
 21
1845.0
 31
0.0
  0
LINE
  5
1EE6
330
1D1D
100
AcDbEntity
  8
0
 62
     6
 48
6.0
370
    -1
100
AcDbLine
 10
1490.0
 20
1845.0
 30
0.0
 11
1490.0
 21
1795.0
 31
0.0
  0
LINE
  5
1EE7
330
1D1D
100
AcDbEntity
  8
0
 62
     6
 48
6.0
370
    -1
100
AcDbLine
 10
1480.0
 20
1795.0
 30
0.0
 11
1480.0
 21
1845.0
 31
0.0
  0
ARC
  5
1EE8
330
1D1D
100
AcDbEntity
  8
0
 62
     5
 48
6.0
370
    -1
100
AcDbCircle
 10
1480.0
 20
1785.0
 30
0.0
 40
10.0
100
AcDbArc
 50
180.0
 51
0.0
  0
LINE
  5
1EE9
330
1D1D
100
AcDbEntity
  8
0
 62
     5
 48
6.0
370
    -1
100
AcDbLine
 10
1530.0
 20
1795.0
 30
0.0
 11
1430.0
 21
1795.0
 31
0.0
  0
LINE
  5
1EEA
330
1D1D
100
AcDbEntity
  8
0
 62
     5
 48
6.0
370
    -1
100
AcDbLine
 10
1470.0
 20
1785.0
 30
0.0
 11
1470.0
 21
1795.0
 31
0.0
  0
LINE
  5
1EEB
330
1D1D
100
AcDbEntity
  8
0
 62
     5
 48
6.0
370
    -1
100
AcDbLine
 10
1490.0
 20
1785.0
 30
0.0
 11
1490.0
 21
1795.0
 31
0.0
  0
LWPOLYLINE
  5
1EEC
330
1D1D
100
AcDbEntity
  8
0
 62
     5
 48
6.0
370
    -1
100
AcDbPolyline
 90
        6
 70
     1
 43
0.0
 10
1467.341292700581
 20
1882.308508066912
 10
1480.0
 20
1889.617016133825
 10
1492.658707299419
 20
1882.308508066912
 10
1492.658707299419
 20
1867.691491933088
 10
1480.0
 20
1860.382983866175
 10
1467.341292700581
 20
1867.691491933088
  0
LINE
  5
1EF4
330
1D1D
100
AcDbEntity
  8
0
 62
     5
 48
6.0
370
    -1
100
AcDbLine
 10
1490.318109423682
 20
1884.48963615209
 30
0.0
 11
1489.872823820795
 21
1884.48963615209
 31
0.0
  0
LINE
  5
1EF5
330
1D1D
100
AcDbEntity
  8
0
 62
     5
 48
6.0
370
    -1
100
AcDbLine
 10
1550.0
 20
1820.0
 30
0.0
 11
1550.0
 21
1750.0
 31
0.0
  0
LINE
  5
1EF6
330
1D1D
100
AcDbEntity
  8
0
 62
     5
 48
6.0
370
    -1
100
AcDbLine
 10
1810.0
 20
1820.0
 30
0.0
 11
1810.0
 21
1815.0
 31
0.0
  0
LINE
  5
1EF7
330
1D1D
100
AcDbEntity
  8
0
 62
     5
 48
6.0
370
    -1
100
AcDbLine
 10
1810.0
 20
1805.0
 30
0.0
 11
1810.0
 21
1815.0
 31
0.0
  0
LINE
  5
1EF8
330
1D1D
100
AcDbEntity
  8
0
 62
     5
 48
6.0
370
    -1
100
AcDbLine
 10
1070.0
 20
1935.0
 30
0.0
 11
1410.0
 21
1935.0
 31
0.0
  0
ARC
  5
1EF9
330
1D1D
100
AcDbEntity
  8
0
 62
     5
 48
6.0
370
    -1
100
AcDbCircle
 10
1000.0
 20
1965.0
 30
0.0
 40
10.0
100
AcDbArc
 50
0.0
 51
180.0
  0
LINE
  5
1EFA
330
1D1D
100
AcDbEntity
  8
0
 62
     6
 48
6.0
370
    -1
100
AcDbLine
 10
1000.0
 20
1905.0
 30
0.0
 11
1000.0
 21
1955.0
 31
0.0
  0
LINE
  5
1EFB
330
1D1D
100
AcDbEntity
  8
0
 62
     6
 48
6.0
370
    -1
100
AcDbLine
 10
990.0
 20
1905.0
 30
0.0
 11
990.0
 21
1955.0
 31
0.0
  0
LINE
  5
1EFC
330
1D1D
100
AcDbEntity
  8
0
 62
     5
 48
6.0
370
    -1
100
AcDbLine
 10
990.0
 20
1955.0
 30
0.0
 11
990.0
 21
1965.0
 31
0.0
  0
LINE
  5
1EFD
330
1D1D
100
AcDbEntity
  8
0
 62
     6
 48
6.0
370
    -1
100
AcDbLine
 10
1010.0
 20
1905.0
 30
0.0
 11
1010.0
 21
1955.0
 31
0.0
  0
LINE
  5
1EFE
330
1D1D
100
AcDbEntity
  8
0
 62
     5
 48
6.0
370
    -1
100
AcDbLine
 10
1010.0
 20
1955.0
 30
0.0
 11
1010.0
 21
1965.0
 31
0.0
  0
LINE
  5
1EFF
330
1D1D
100
AcDbEntity
  8
0
 62
     5
 48
8.0
370
    -1
100
AcDbLine
 10
990.0
 20
2470.0
 30
0.0
 11
990.0
 21
2270.0
 31
0.0
  0
LINE
  5
1F00
330
1D1D
100
AcDbEntity
  8
0
 62
     5
 48
8.0
370
    -1
100
AcDbLine
 10
1010.0
 20
2270.0
 30
0.0
 11
1010.0
 21
2470.0
 31
0.0
  0
ARC
  5
1F01
330
1D1D
100
AcDbEntity
  8
0
 62
     5
 48
8.0
370
    -1
100
AcDbCircle
 10
1000.0
 20
2270.0
 30
0.0
 40
10.0
100
AcDbArc
 50
180.0
 51
0.0
  0
ARC
  5
1F02
330
1D1D
100
AcDbEntity
  8
0
 62
     5
 48
8.0
370
    -1
100
AcDbCircle
 10
1000.0
 20
2470.0
 30
0.0
 40
10.0
100
AcDbArc
 50
0.0
 51
180.0
  0
LINE
  5
1F03
330
1D1D
100
AcDbEntity
  8
0
 62
     5
 48
6.0
370
    -1
100
AcDbLine
 10
1430.0
 20
1955.0
 30
0.0
 11
1530.0
 21
1955.0
 31
0.0
  0
ARC
  5
1F04
330
1D1D
100
AcDbEntity
  8
0
 62
     5
 48
6.0
370
    -1
100
AcDbCircle
 10
1480.0
 20
1965.0
 30
0.0
 40
10.0
100
AcDbArc
 50
0.0
 51
180.0
  0
LINE
  5
1F05
330
1D1D
100
AcDbEntity
  8
0
 62
     6
 48
6.0
370
    -1
100
AcDbLine
 10
1470.0
 20
1905.0
 30
0.0
 11
1470.0
 21
1955.0
 31
0.0
  0
LINE
  5
1F06
330
1D1D
100
AcDbEntity
  8
0
 62
     5
 48
6.0
370
    -1
100
AcDbLine
 10
1470.0
 20
1955.0
 30
0.0
 11
1470.0
 21
1965.0
 31
0.0
  0
LINE
  5
1F07
330
1D1D
100
AcDbEntity
  8
0
 62
     6
 48
6.0
370
    -1
100
AcDbLine
 10
1490.0
 20
1905.0
 30
0.0
 11
1490.0
 21
1955.0
 31
0.0
  0
LINE
  5
1F08
330
1D1D
100
AcDbEntity
  8
0
 62
     6
 48
6.0
370
    -1
100
AcDbLine
 10
1480.0
 20
1905.0
 30
0.0
 11
1480.0
 21
1955.0
 31
0.0
  0
LINE
  5
1F09
330
1D1D
100
AcDbEntity
  8
0
 62
     5
 48
6.0
370
    -1
100
AcDbLine
 10
1490.0
 20
1955.0
 30
0.0
 11
1490.0
 21
1965.0
 31
0.0
  0
LINE
  5
1F0A
330
1D1D
100
AcDbEntity
  8
0
 62
     5
 48
8.0
370
    -1
100
AcDbLine
 10
1490.0
 20
2270.0
 30
0.0
 11
1490.0
 21
2470.0
 31
0.0
  0
LINE
  5
1F0B
330
1D1D
100
AcDbEntity
  8
0
 62
     5
 48
8.0
370
    -1
100
AcDbLine
 10
1470.0
 20
2470.0
 30
0.0
 11
1470.0
 21
2270.0
 31
0.0
  0
ARC
  5
1F0C
330
1D1D
100
AcDbEntity
  8
0
 62
     5
 48
8.0
370
    -1
100
AcDbCircle
 10
1480.0
 20
2270.0
 30
0.0
 40
10.0
100
AcDbArc
 50
180.0
 51
0.0
  0
ARC
  5
1F0D
330
1D1D
100
AcDbEntity
  8
0
 62
     5
 48
8.0
370
    -1
100
AcDbCircle
 10
1480.0
 20
2470.0
 30
0.0
 40
10.0
100
AcDbArc
 50
0.0
 51
180.0
  0
LINE
  5
1F0E
330
1D1D
100
AcDbEntity
  8
0
  6
ByBlock
 62
     6
 48
6.0
370
    -1
100
AcDbLine
 10
2340.0
 20
1840.101000000001
 30
0.0
 11
2340.0
 21
2321.174194949495
 31
0.0
  0
LINE
  5
1F0F
330
1D1D
100
AcDbEntity
  8
0
 62
     5
 48
6.0
370
    -1
100
AcDbLine
 10
1890.0
 20
1885.0
 30
0.0
 11
1890.0
 21
1965.0
 31
0.0
  0
LINE
  5
1F10
330
1D1D
100
AcDbEntity
  8
0
  6
ByBlock
 62
     6
 48
6.0
370
    -1
100
AcDbLine
 10
1935.0
 20
1805.0
 30
0.0
 11
2357.5505
 21
1805.0
 31
0.0
  0
LINE
  5
1F11
330
1D1D
100
AcDbEntity
  8
0
  6
ByBlock
 62
     6
 48
6.0
370
    -1
100
AcDbLine
 10
1900.0
 20
1780.0
 30
0.0
 11
1900.0
 21
1397.4495
 31
0.0
  0
POINT
  5
1F12
330
1D1D
100
AcDbEntity
  8
DEFPOINTS
  6
ByBlock
 62
     0
 48
6.0
370
    -1
380
     1
100
AcDbPoint
 10
1900.0
 20
1415.0
 30
0.0
  0
LINE
  5
1F13
330
1D1D
100
AcDbEntity
  8
0
 62
     5
 48
6.0
370
    -1
100
AcDbLine
 10
1890.0
 20
1815.0
 30
0.0
 11
1890.0
 21
1885.0
 31
0.0
  0
LINE
  5
1F14
330
1D1D
100
AcDbEntity
  8
0
 62
     5
 48
6.0
370
    -1
100
AcDbLine
 10
1900.0
 20
1805.0
 30
0.0
 11
1900.0
 21
1855.0
 31
0.0
  0
LINE
  5
1F15
330
1D1D
100
AcDbEntity
  8
0
 62
     5
 48
6.0
370
    -1
100
AcDbLine
 10
1900.0
 20
1885.0
 30
0.0
 11
1900.0
 21
1845.0
 31
0.0
  0
INSERT
  5
1F16
330
1D1D
100
AcDbEntity
  8
0
  6
ByBlock
 62
     6
 48
6.0
370
    -1
100
AcDbBlockReference
  2
_OPEN
 10
2340.0
 20
1805.0
 30
0.0
 41
-35.101
 42
35.101
 43
35.101
 50
90.0
  0
LINE
  5
1F17
330
1D1D
100
AcDbEntity
  8
0
  6
ByBlock
 62
     6
 48
6.0
370
    -1
100
AcDbLine
 10
2205.0
 20
2010.101000000001
 30
0.0
 11
2205.0
 21
2321.174194949495
 31
0.0
  0
LINE
  5
1F18
330
1D1D
100
AcDbEntity
  8
0
 62
     5
 48
6.0
370
    -1
100
AcDbLine
 10
1890.0
 20
1965.0
 30
0.0
 11
1890.0
 21
2085.0
 31
0.0
  0
INSERT
  5
1F19
330
1D1D
100
AcDbEntity
  8
0
  6
ByBlock
 62
     6
 48
6.0
370
    -1
100
AcDbBlockReference
  2
_OPEN
 10
2205.0
 20
1975.0
 30
0.0
 41
-35.101
 42
35.101
 43
35.101
 50
90.0
  0
POINT
  5
1F1A
330
1D1D
100
AcDbEntity
  8
DEFPOINTS
  6
ByBlock
 62
     0
 48
6.0
370
    -1
380
     1
100
AcDbPoint
 10
2205.0
 20
2025.0
 30
0.0
  0
LINE
  5
1F1B
330
1D1D
100
AcDbEntity
  8
0
 62
     6
 48
6.0
370
    -1
100
AcDbLine
 10
2340.0
 20
2405.0
 30
0.0
 11
2340.0
 21
2275.0
 31
0.0
  0
LINE
  5
1F1C
330
1D1D
100
AcDbEntity
  8
0
 62
     6
 48
6.0
370
    -1
100
AcDbLine
 10
2205.0
 20
2390.0
 30
0.0
 11
2205.0
 21
2285.0
 31
0.0
  0
TEXT
  5
1F1D
330
1D1D
100
AcDbEntity
  8
0
 62
     5
 48
6.0
370
    -1
100
AcDbText
 10
2197.789191589449
 20
2231.385587281957
 30
0.0
 40
65.0
  1
Ｂ
 50
90.0
  7
STYLE1
100
AcDbText
  0
TEXT
  5
1F1E
330
1D1D
100
AcDbEntity
  8
0
 62
     5
 48
6.0
370
    -1
100
AcDbText
 10
2332.251338987313
 20
2302.44541547984
 30
0.0
 40
65.0
  1
Ｄ
 50
90.0
  7
STYLE1
100
AcDbText
  0
LINE
  5
1F1F
330
1D1D
100
AcDbEntity
  8
0
  6
ByBlock
 62
     6
 48
6.0
370
    -1
100
AcDbLine
 10
1528.7753
 20
2570.0
 30
0.0
 11
2222.5505
 21
2570.0
 31
0.0
  0
LINE
  5
1F20
330
1D1D
100
AcDbEntity
  8
0
 62
     5
 48
6.0
370
    -1
100
AcDbLine
 10
1550.0
 20
2730.0
 30
0.0
 11
1890.0
 21
2730.0
 31
0.0
  0
LINE
  5
1F21
330
1D1D
100
AcDbEntity
  8
0
 62
     5
 48
6.0
370
    -1
100
AcDbLine
 10
1550.0
 20
2610.0
 30
0.0
 11
1890.0
 21
2610.0
 31
0.0
  0
LINE
  5
1F22
330
1D1D
100
AcDbEntity
  8
0
 62
     5
 48
6.0
370
    -1
100
AcDbLine
 10
1870.0
 20
2800.0
 30
0.0
 11
1890.0
 21
2800.0
 31
0.0
  0
LINE
  5
1F23
330
1D1D
100
AcDbEntity
  8
0
 62
     5
 48
6.0
370
    -1
100
AcDbLine
 10
1890.0
 20
2790.0
 30
0.0
 11
1870.0
 21
2790.0
 31
0.0
  0
LINE
  5
1F24
330
1D1D
100
AcDbEntity
  8
0
 62
     5
 48
6.0
370
    -1
100
AcDbLine
 10
1810.0
 20
2900.0
 30
0.0
 11
1900.0
 21
2900.0
 31
0.0
  0
LINE
  5
1F25
330
1D1D
100
AcDbEntity
  8
0
 62
     5
 48
6.0
370
    -1
100
AcDbLine
 10
1900.0
 20
2890.0
 30
0.0
 11
1810.0
 21
2890.0
 31
0.0
  0
TEXT
  5
1F26
330
1D1D
100
AcDbEntity
  8
0
 62
     5
 48
6.0
370
    -1
100
AcDbText
 10
1855.0
 20
2995.0
 30
0.0
 40
60.0
  1
４
  7
STYLE1
100
AcDbText
  0
LINE
  5
1F27
330
1D1D
100
AcDbEntity
  8
0
 62
     6
 48
6.0
370
    -1
100
AcDbLine
 10
1860.0
 20
3070.0
 30
0.0
 11
2210.0
 21
3070.0
 31
0.0
  0
LINE
  5
1F28
330
1D1D
100
AcDbEntity
  8
0
 62
     5
 48
6.0
370
    -1
100
AcDbLine
 10
1550.0
 20
2800.0
 30
0.0
 11
1410.0
 21
2800.0
 31
0.0
  0
LINE
  5
1F29
330
1D1D
100
AcDbEntity
  8
0
 62
     6
 48
6.0
370
    -1
100
AcDbLine
 10
1336.073055328879
 20
2860.272700896276
 30
0.0
 11
1462.611700131207
 21
2713.935921058464
 31
0.0
  0
CIRCLE
  5
1F2A
330
1D1D
100
AcDbEntity
  8
0
 62
     5
 48
6.0
370
    -1
100
AcDbCircle
 10
1304.411649451687
 20
2884.691385689843
 30
0.0
 40
40.0
  0
TEXT
  5
1F2B
330
1D1D
100
AcDbEntity
  8
0
 62
     5
 48
6.0
370
    -1
100
AcDbText
 10
1274.411649451687
 20
2847.366977214195
 30
0.0
 40
65.0
  1
２
  7
STYLE1
100
AcDbText
  0
LINE
  5
1F2C
330
1D1D
100
AcDbEntity
  8
0
 62
     5
 48
6.0
370
    -1
100
AcDbLine
 10
1070.0
 20
2730.0
 30
0.0
 11
1410.0
 21
2730.0
 31
0.0
  0
LINE
  5
1F2D
330
1D1D
100
AcDbEntity
  8
0
 62
     5
 48
6.0
370
    -1
100
AcDbLine
 10
1070.0
 20
2610.0
 30
0.0
 11
1410.0
 21
2610.0
 31
0.0
  0
LINE
  5
1F2E
330
1D1D
100
AcDbEntity
  8
0
 62
     6
 48
6.0
370
    -1
100
AcDbLine
 10
1020.0
 20
2695.0
 30
0.0
 11
1020.0
 21
2750.0
 31
0.0
  0
LINE
  5
1F2F
330
1D1D
100
AcDbEntity
  8
0
 62
     6
 48
6.0
370
    -1
100
AcDbLine
 10
1010.0
 20
2700.0
 30
0.0
 11
1010.0
 21
2750.0
 31
0.0
  0
LINE
  5
1F30
330
1D1D
100
AcDbEntity
  8
0
 62
     6
 48
6.0
370
    -1
100
AcDbLine
 10
1000.0
 20
2700.0
 30
0.0
 11
1000.0
 21
2750.0
 31
0.0
  0
LINE
  5
1F31
330
1D1D
100
AcDbEntity
  8
0
 62
     6
 48
6.0
370
    -1
100
AcDbLine
 10
980.0
 20
2695.0
 30
0.0
 11
980.0
 21
2750.0
 31
0.0
  0
LINE
  5
1F32
330
1D1D
100
AcDbEntity
  8
0
 62
     6
 48
6.0
370
    -1
100
AcDbLine
 10
990.0
 20
2700.0
 30
0.0
 11
990.0
 21
2750.0
 31
0.0
  0
LINE
  5
1F33
330
1D1D
100
AcDbEntity
  8
0
 62
     6
 48
6.0
370
    -1
100
AcDbLine
 10
970.0
 20
2590.0
 30
0.0
 11
970.0
 21
2750.0
 31
0.0
  0
LINE
  5
1F34
330
1D1D
100
AcDbEntity
  8
0
 62
     6
 48
6.0
370
    -1
100
AcDbLine
 10
960.0
 20
2590.0
 30
0.0
 11
960.0
 21
2750.0
 31
0.0
  0
LINE
  5
1F35
330
1D1D
100
AcDbEntity
  8
0
 62
     6
 48
6.0
370
    -1
100
AcDbLine
 10
1030.0
 20
2590.0
 30
0.0
 11
1030.0
 21
2750.0
 31
0.0
  0
LINE
  5
1F36
330
1D1D
100
AcDbEntity
  8
0
 62
     6
 48
6.0
370
    -1
100
AcDbLine
 10
1040.0
 20
2590.0
 30
0.0
 11
1040.0
 21
2750.0
 31
0.0
  0
LINE
  5
1F37
330
1D1D
100
AcDbEntity
  8
0
 62
     5
 48
6.0
370
    -1
100
AcDbLine
 10
1050.0
 20
2750.0
 30
0.0
 11
1050.0
 21
2590.0
 31
0.0
  0
LINE
  5
1F38
330
1D1D
100
AcDbEntity
  8
0
 62
     6
 48
6.0
370
    -1
100
AcDbLine
 10
980.0
 20
2645.0
 30
0.0
 11
980.0
 21
2590.0
 31
0.0
  0
LINE
  5
1F39
330
1D1D
100
AcDbEntity
  8
0
 62
     6
 48
6.0
370
    -1
100
AcDbLine
 10
990.0
 20
2590.0
 30
0.0
 11
990.0
 21
2640.0
 31
0.0
  0
LINE
  5
1F3A
330
1D1D
100
AcDbEntity
  8
0
 62
     6
 48
6.0
370
    -1
100
AcDbLine
 10
1020.0
 20
2590.0
 30
0.0
 11
1020.0
 21
2645.0
 31
0.0
  0
LINE
  5
1F3B
330
1D1D
100
AcDbEntity
  8
0
 62
     6
 48
6.0
370
    -1
100
AcDbLine
 10
1010.0
 20
2640.0
 30
0.0
 11
1010.0
 21
2590.0
 31
0.0
  0
LINE
  5
1F3C
330
1D1D
100
AcDbEntity
  8
0
 62
     6
 48
6.0
370
    -1
100
AcDbLine
 10
1000.0
 20
2590.0
 30
0.0
 11
1000.0
 21
2640.0
 31
0.0
  0
ARC
  5
1F3D
330
1D1D
100
AcDbEntity
  8
0
 62
     5
 48
6.0
370
    -1
100
AcDbCircle
 10
1000.0
 20
2580.0
 30
0.0
 40
10.0
100
AcDbArc
 50
180.0
 51
0.0
  0
LINE
  5
1F3E
330
1D1D
100
AcDbEntity
  8
0
 62
     5
 48
6.0
370
    -1
100
AcDbLine
 10
990.0
 20
2580.0
 30
0.0
 11
990.0
 21
2590.0
 31
0.0
  0
LINE
  5
1F3F
330
1D1D
100
AcDbEntity
  8
0
 62
     5
 48
6.0
370
    -1
100
AcDbLine
 10
1010.0
 20
2580.0
 30
0.0
 11
1010.0
 21
2590.0
 31
0.0
  0
LWPOLYLINE
  5
1F40
330
1D1D
100
AcDbEntity
  8
0
 62
     5
 48
6.0
370
    -1
100
AcDbPolyline
 90
        6
 70
     1
 43
0.0
 10
987.3412927005811
 20
2677.308508066912
 10
1000.0
 20
2684.617016133825
 10
1012.658707299419
 20
2677.308508066912
 10
1012.658707299419
 20
2662.691491933088
 10
1000.0
 20
2655.382983866175
 10
987.3412927005811
 20
2662.691491933088
  0
CIRCLE
  5
1F48
330
1D1D
100
AcDbEntity
  8
0
 62
     5
 48
6.0
370
    -1
100
AcDbCircle
 10
1000.0
 20
2670.0
 30
0.0
 40
30.0
  0
ARC
  5
1F49
330
1D1D
100
AcDbEntity
  8
0
 62
     5
 48
6.0
370
    -1
100
AcDbCircle
 10
1000.0
 20
2760.0
 30
0.0
 40
10.0
100
AcDbArc
 50
0.0
 51
180.0
  0
LINE
  5
1F4A
330
1D1D
100
AcDbEntity
  8
0
 62
     5
 48
6.0
370
    -1
100
AcDbLine
 10
990.0
 20
2750.0
 30
0.0
 11
990.0
 21
2760.0
 31
0.0
  0
LINE
  5
1F4B
330
1D1D
100
AcDbEntity
  8
0
 62
     5
 48
6.0
370
    -1
100
AcDbLine
 10
1010.0
 20
2750.0
 30
0.0
 11
1010.0
 21
2760.0
 31
0.0
  0
LINE
  5
1F4C
330
1D1D
100
AcDbEntity
  8
0
 62
     5
 48
6.0
370
    -1
100
AcDbLine
 10
1070.0
 20
2730.0
 30
0.0
 11
1070.0
 21
2800.0
 31
0.0
  0
LINE
  5
1F4D
330
1D1D
100
AcDbEntity
  8
0
 62
     5
 48
6.0
370
    -1
100
AcDbLine
 10
1410.0
 20
2800.0
 30
0.0
 11
1410.0
 21
2730.0
 31
0.0
  0
LINE
  5
1F4E
330
1D1D
100
AcDbEntity
  8
0
  6
CENTER
 62
     6
 48
6.0
370
    -1
100
AcDbLine
 10
1850.0
 20
2870.0
 30
0.0
 11
1850.0
 21
2935.0
 31
0.0
  0
LINE
  5
1F4F
330
1D1D
100
AcDbEntity
  8
0
 62
     5
 48
6.0
370
    -1
100
AcDbLine
 10
1810.0
 20
2730.0
 30
0.0
 11
1810.0
 21
2890.0
 31
0.0
  0
LINE
  5
1F50
330
1D1D
100
AcDbEntity
  8
0
 62
     6
 48
6.0
370
    -1
100
AcDbLine
 10
1500.0
 20
2695.0
 30
0.0
 11
1500.0
 21
2750.0
 31
0.0
  0
LINE
  5
1F51
330
1D1D
100
AcDbEntity
  8
0
 62
     6
 48
6.0
370
    -1
100
AcDbLine
 10
1470.0
 20
2700.0
 30
0.0
 11
1470.0
 21
2750.0
 31
0.0
  0
LINE
  5
1F52
330
1D1D
100
AcDbEntity
  8
0
 62
     6
 48
6.0
370
    -1
100
AcDbLine
 10
1490.0
 20
2700.0
 30
0.0
 11
1490.0
 21
2750.0
 31
0.0
  0
LINE
  5
1F53
330
1D1D
100
AcDbEntity
  8
0
 62
     6
 48
6.0
370
    -1
100
AcDbLine
 10
1480.0
 20
2700.0
 30
0.0
 11
1480.0
 21
2750.0
 31
0.0
  0
LINE
  5
1F54
330
1D1D
100
AcDbEntity
  8
0
 62
     6
 48
6.0
370
    -1
100
AcDbLine
 10
1460.0
 20
2695.0
 30
0.0
 11
1460.0
 21
2750.0
 31
0.0
  0
LINE
  5
1F55
330
1D1D
100
AcDbEntity
  8
0
 62
     6
 48
6.0
370
    -1
100
AcDbLine
 10
1450.0
 20
2590.0
 30
0.0
 11
1450.0
 21
2750.0
 31
0.0
  0
LINE
  5
1F56
330
1D1D
100
AcDbEntity
  8
0
 62
     6
 48
6.0
370
    -1
100
AcDbLine
 10
1440.0
 20
2590.0
 30
0.0
 11
1440.0
 21
2750.0
 31
0.0
  0
LINE
  5
1F57
330
1D1D
100
AcDbEntity
  8
0
 62
     6
 48
6.0
370
    -1
100
AcDbLine
 10
1510.0
 20
2590.0
 30
0.0
 11
1510.0
 21
2750.0
 31
0.0
  0
LINE
  5
1F58
330
1D1D
100
AcDbEntity
  8
0
 62
     6
 48
6.0
370
    -1
100
AcDbLine
 10
1520.0
 20
2590.0
 30
0.0
 11
1520.0
 21
2750.0
 31
0.0
  0
LINE
  5
1F59
330
1D1D
100
AcDbEntity
  8
0
 62
     5
 48
6.0
370
    -1
100
AcDbLine
 10
1530.0
 20
2750.0
 30
0.0
 11
1530.0
 21
2590.0
 31
0.0
  0
LINE
  5
1F5A
330
1D1D
100
AcDbEntity
  8
0
 62
     5
 48
6.0
370
    -1
100
AcDbLine
 10
1430.0
 20
2590.0
 30
0.0
 11
1430.0
 21
2750.0
 31
0.0
  0
LINE
  5
1F5B
330
1D1D
100
AcDbEntity
  8
0
 62
     6
 48
6.0
370
    -1
100
AcDbLine
 10
1500.0
 20
2590.0
 30
0.0
 11
1500.0
 21
2645.0
 31
0.0
  0
LINE
  5
1F5C
330
1D1D
100
AcDbEntity
  8
0
 62
     6
 48
6.0
370
    -1
100
AcDbLine
 10
1460.0
 20
2645.0
 30
0.0
 11
1460.0
 21
2590.0
 31
0.0
  0
LINE
  5
1F5D
330
1D1D
100
AcDbEntity
  8
0
 62
     6
 48
6.0
370
    -1
100
AcDbLine
 10
1470.0
 20
2590.0
 30
0.0
 11
1470.0
 21
2640.0
 31
0.0
  0
LINE
  5
1F5E
330
1D1D
100
AcDbEntity
  8
0
 62
     6
 48
6.0
370
    -1
100
AcDbLine
 10
1490.0
 20
2640.0
 30
0.0
 11
1490.0
 21
2590.0
 31
0.0
  0
LINE
  5
1F5F
330
1D1D
100
AcDbEntity
  8
0
 62
     6
 48
6.0
370
    -1
100
AcDbLine
 10
1480.0
 20
2590.0
 30
0.0
 11
1480.0
 21
2640.0
 31
0.0
  0
ARC
  5
1F60
330
1D1D
100
AcDbEntity
  8
0
 62
     5
 48
6.0
370
    -1
100
AcDbCircle
 10
1480.0
 20
2580.0
 30
0.0
 40
10.0
100
AcDbArc
 50
180.0
 51
0.0
  0
LINE
  5
1F61
330
1D1D
100
AcDbEntity
  8
0
 62
     5
 48
6.0
370
    -1
100
AcDbLine
 10
1530.0
 20
2590.0
 30
0.0
 11
1430.0
 21
2590.0
 31
0.0
  0
LINE
  5
1F62
330
1D1D
100
AcDbEntity
  8
0
 62
     5
 48
6.0
370
    -1
100
AcDbLine
 10
1470.0
 20
2580.0
 30
0.0
 11
1470.0
 21
2590.0
 31
0.0
  0
LINE
  5
1F63
330
1D1D
100
AcDbEntity
  8
0
 62
     5
 48
6.0
370
    -1
100
AcDbLine
 10
1490.0
 20
2580.0
 30
0.0
 11
1490.0
 21
2590.0
 31
0.0
  0
LWPOLYLINE
  5
1F64
330
1D1D
100
AcDbEntity
  8
0
 62
     5
 48
6.0
370
    -1
100
AcDbPolyline
 90
        6
 70
     1
 43
0.0
 10
1467.341292700581
 20
2677.308508066912
 10
1480.0
 20
2684.617016133825
 10
1492.658707299419
 20
2677.308508066912
 10
1492.658707299419
 20
2662.691491933088
 10
1480.0
 20
2655.382983866175
 10
1467.341292700581
 20
2662.691491933088
  0
CIRCLE
  5
1F6C
330
1D1D
100
AcDbEntity
  8
0
 62
     5
 48
6.0
370
    -1
100
AcDbCircle
 10
1480.0
 20
2670.0
 30
0.0
 40
30.0
  0
LINE
  5
1F6D
330
1D1D
100
AcDbEntity
  8
0
 62
     5
 48
6.0
370
    -1
100
AcDbLine
 10
1490.318109423682
 20
2679.48963615209
 30
0.0
 11
1489.872823820795
 21
2679.48963615209
 31
0.0
  0
ARC
  5
1F6E
330
1D1D
100
AcDbEntity
  8
0
 62
     5
 48
6.0
370
    -1
100
AcDbCircle
 10
1480.0
 20
2760.0
 30
0.0
 40
10.0
100
AcDbArc
 50
0.0
 51
180.0
  0
LINE
  5
1F6F
330
1D1D
100
AcDbEntity
  8
0
 62
     5
 48
6.0
370
    -1
100
AcDbLine
 10
1430.0
 20
2750.0
 30
0.0
 11
1530.0
 21
2750.0
 31
0.0
  0
LINE
  5
1F70
330
1D1D
100
AcDbEntity
  8
0
 62
     5
 48
6.0
370
    -1
100
AcDbLine
 10
1470.0
 20
2750.0
 30
0.0
 11
1470.0
 21
2760.0
 31
0.0
  0
LINE
  5
1F71
330
1D1D
100
AcDbEntity
  8
0
 62
     5
 48
6.0
370
    -1
100
AcDbLine
 10
1490.0
 20
2750.0
 30
0.0
 11
1490.0
 21
2760.0
 31
0.0
  0
LINE
  5
1F72
330
1D1D
100
AcDbEntity
  8
0
 62
     5
 48
6.0
370
    -1
100
AcDbLine
 10
1550.0
 20
2730.0
 30
0.0
 11
1550.0
 21
2800.0
 31
0.0
  0
LINE
  5
1F73
330
1D1D
100
AcDbEntity
  8
0
  6
HIDDEN
 62
     6
 48
6.0
370
    -1
100
AcDbLine
 10
1810.0
 20
2730.0
 30
0.0
 11
1810.0
 21
2610.0
 31
0.0
  0
LINE
  5
1F74
330
1D1D
100
AcDbEntity
  8
0
 62
     5
 48
6.0
370
    -1
100
AcDbLine
 10
1870.0
 20
2790.0
 30
0.0
 11
1870.0
 21
2800.0
 31
0.0
  0
LINE
  5
1F75
330
1D1D
100
AcDbEntity
  8
0
 62
     5
 48
6.0
370
    -1
100
AcDbLine
 10
1810.0
 20
2890.0
 30
0.0
 11
1810.0
 21
2900.0
 31
0.0
  0
LINE
  5
1F76
330
1D1D
100
AcDbEntity
  8
0
  6
ByBlock
 62
     6
 48
6.0
370
    -1
100
AcDbLine
 10
1935.0
 20
2900.0
 30
0.0
 11
2357.5505
 21
2900.0
 31
0.0
  0
TEXT
  5
1F77
330
1D1D
100
AcDbEntity
  8
0
 62
     5
 48
8.0
370
    -1
100
AcDbText
 10
2330.0
 20
2995.0
 30
0.0
 40
60.0
  1
０
 41
0.9
  7
STYLE1
100
AcDbText
  0
LINE
  5
1F78
330
1D1D
100
AcDbEntity
  8
0
 62
     6
 48
6.0
370
    -1
100
AcDbLine
 10
1945.0
 20
3070.0
 30
0.0
 11
2605.0
 21
3070.0
 31
0.0
  0
INSERT
  5
1F79
330
1D1D
100
AcDbEntity
  8
0
  6
ByBlock
 62
     6
 48
6.0
370
    -1
100
AcDbBlockReference
  2
_OPEN
 10
2205.0
 20
2900.0
 30
0.0
 41
35.101
 42
35.101
 43
35.101
 50
90.0
  0
INSERT
  5
1F7A
330
1D1D
100
AcDbEntity
  8
0
  6
ByBlock
 62
     6
 48
6.0
370
    -1
100
AcDbBlockReference
  2
_OPEN
 10
2340.0
 20
2900.0
 30
0.0
 41
-35.101
 42
35.101
 43
35.101
 50
270.0
  0
LINE
  5
1F7B
330
1D1D
100
AcDbEntity
  8
0
 62
     5
 48
6.0
370
    -1
100
AcDbLine
 10
1890.0
 20
2890.0
 30
0.0
 11
1890.0
 21
2830.0
 31
0.0
  0
LINE
  5
1F7C
330
1D1D
100
AcDbEntity
  8
0
 62
     5
 48
6.0
370
    -1
100
AcDbLine
 10
1910.0
 20
2680.0
 30
0.0
 11
1910.0
 21
2900.0
 31
0.0
  0
LINE
  5
1F7D
330
1D1D
100
AcDbEntity
  8
0
  6
ByBlock
 62
     6
 48
6.0
370
    -1
100
AcDbLine
 10
1940.0
 20
2730.0
 30
0.0
 11
2222.5505
 21
2730.0
 31
0.0
  0
LINE
  5
1F7E
330
1D1D
100
AcDbEntity
  8
0
 62
     5
 48
6.0
370
    -1
100
AcDbLine
 10
1890.0
 20
2705.0
 30
0.0
 11
1890.0
 21
2840.0
 31
0.0
  0
LINE
  5
1F7F
330
1D1D
100
AcDbEntity
  8
0
 62
     5
 48
6.0
370
    -1
100
AcDbLine
 10
1890.0
 20
2630.0
 30
0.0
 11
1890.0
 21
2710.0
 31
0.0
  0
LINE
  5
1F80
330
1D1D
100
AcDbEntity
  8
0
 62
     5
 48
6.0
370
    -1
100
AcDbLine
 10
1900.0
 20
2680.0
 30
0.0
 11
1910.0
 21
2680.0
 31
0.0
  0
LINE
  5
1F81
330
1D1D
100
AcDbEntity
  8
0
 62
     5
 48
6.0
370
    -1
100
AcDbLine
 10
1930.0
 20
2790.0
 30
0.0
 11
1930.0
 21
2800.0
 31
0.0
  0
LINE
  5
1F82
330
1D1D
100
AcDbEntity
  8
0
 62
     5
 48
6.0
370
    -1
100
AcDbLine
 10
1910.0
 20
2790.0
 30
0.0
 11
1930.0
 21
2790.0
 31
0.0
  0
LINE
  5
1F83
330
1D1D
100
AcDbEntity
  8
0
 62
     5
 48
6.0
370
    -1
100
AcDbLine
 10
1930.0
 20
2800.0
 30
0.0
 11
1910.0
 21
2800.0
 31
0.0
  0
LINE
  5
1F84
330
1D1D
100
AcDbEntity
  8
0
 62
     6
 48
3.0
370
    -1
100
AcDbLine
 10
2205.0
 20
2760.0
 30
0.0
 11
2205.0
 21
2870.0
 31
0.0
  0
TEXT
  5
1F85
330
1D1D
100
AcDbEntity
  8
0
 62
     5
 48
3.0
370
    -1
100
AcDbText
 10
2190.0
 20
2760.0
 30
0.0
 40
60.0
  1
８
 50
90.0
  7
STYLE1
100
AcDbText
  0
INSERT
  5
1F86
330
1D1D
100
AcDbEntity
  8
0
  6
ByBlock
 62
     6
 48
6.0
370
    -1
100
AcDbBlockReference
  2
_OPEN
 10
2205.0
 20
2730.0
 30
0.0
 41
-35.101
 42
35.101
 43
35.101
 50
90.0
  0
TEXT
  5
1F87
330
1D1D
100
AcDbEntity
  8
0
 62
     5
 48
3.0
370
    -1
100
AcDbText
 10
2190.0
 20
2820.0
 30
0.0
 40
60.0
  1
０
 50
90.0
  7
STYLE1
100
AcDbText
  0
TEXT
  5
1F88
330
1D1D
100
AcDbEntity
  8
0
 62
     5
 48
8.0
370
    -1
100
AcDbText
 10
2020.0
 20
3085.0
 30
0.0
 40
60.0
  1
機器固定穴
 41
0.9
  7
STYLE1
100
AcDbText
  0
TEXT
  5
1F89
330
1D1D
100
AcDbEntity
  8
0
 62
     5
 48
8.0
370
    -1
100
AcDbText
 10
2075.0
 20
2995.0
 30
0.0
 40
60.0
  1
０
 41
0.9
  7
STYLE1
100
AcDbText
  0
TEXT
  5
1F8A
330
1D1D
100
AcDbEntity
  8
0
 62
     5
 48
8.0
370
    -1
100
AcDbText
 10
2020.0
 20
2995.0
 30
0.0
 40
60.0
  1
１
 41
0.9
  7
STYLE1
100
AcDbText
  0
CIRCLE
  5
1F8B
330
1D1D
100
AcDbEntity
  8
0
 62
     5
 48
6.0
370
    -1
100
AcDbCircle
 10
1992.527204035079
 20
3027.661834827355
 30
0.0
 40
16.0431227616429
  0
LINE
  5
1F8C
330
1D1D
100
AcDbEntity
  8
0
 62
     5
 48
6.0
370
    -1
100
AcDbLine
 10
2010.34055948172
 20
3051.01319890573
 30
0.0
 11
1973.600498709242
 21
3003.19848728065
 31
0.0
  0
POINT
  5
1F8D
330
1D1D
100
AcDbEntity
  8
DEFPOINTS
  6
ByBlock
 62
     0
 48
6.0
370
    -1
380
     1
100
AcDbPoint
 10
1920.0
 20
2890.0
 30
0.0
  0
LINE
  5
1F8E
330
1D1D
100
AcDbEntity
  8
0
 62
     5
 48
6.0
370
    -1
100
AcDbLine
 10
1910.0
 20
2900.0
 30
0.0
 11
1895.0
 21
2900.0
 31
0.0
  0
TEXT
  5
1F8F
330
1D1D
100
AcDbEntity
  8
0
 62
     5
 48
6.0
370
    -1
100
AcDbText
 10
1910.0
 20
2993.356576920292
 30
0.0
 40
60.0
  1
－
  7
STYLE1
100
AcDbText
  0
TEXT
  5
1F90
330
1D1D
100
AcDbEntity
  8
0
 62
     5
 48
6.0
370
    -1
100
AcDbText
 10
2210.0
 20
2995.0
 30
0.0
 40
60.0
  1
×
  7
STYLE1
100
AcDbText
  0
TEXT
  5
1F91
330
1D1D
100
AcDbEntity
  8
0
 62
     5
 48
8.0
370
    -1
100
AcDbText
 10
2150.0
 20
2995.0
 30
0.0
 40
60.0
  1
５
 41
0.9
  7
STYLE1
100
AcDbText
  0
TEXT
  5
1F92
330
1D1D
100
AcDbEntity
  8
0
 62
     5
 48
8.0
370
    -1
100
AcDbText
 10
2275.0
 20
2995.0
 30
0.0
 40
60.0
  1
９
 41
0.9
  7
STYLE1
100
AcDbText
  0
TEXT
  5
1F93
330
1D1D
100
AcDbEntity
  8
0
 62
     5
 48
8.0
370
    -1
100
AcDbText
 10
2120.0
 20
2995.0
 30
0.0
 40
60.0
  1
．
 41
0.9
  7
STYLE1
100
AcDbText
  0
POINT
  5
1F94
330
1D1D
100
AcDbEntity
  8
DEFPOINTS
  6
ByBlock
 62
     0
 48
6.0
370
    -1
380
     1
100
AcDbPoint
 10
2340.0
 20
2900.0
 30
0.0
  0
TEXT
  5
1F95
330
1D1D
100
AcDbEntity
  8
0
 62
     5
 48
8.0
370
    -1
100
AcDbText
 10
2470.0
 20
3000.0
 30
0.0
 40
60.0
  1
長穴
 41
0.9
  7
STYLE1
100
AcDbText
  0
TEXT
  5
1F96
330
1D1D
100
AcDbEntity
  8
0
 62
     5
 48
8.0
370
    -1
100
AcDbText
 10
2410.0
 20
2995.0
 30
0.0
 40
60.0
  1
５
 41
0.9
  7
STYLE1
100
AcDbText
  0
TEXT
  5
1F97
330
1D1D
100
AcDbEntity
  8
0
 62
     5
 48
8.0
370
    -1
100
AcDbText
 10
2375.0
 20
3000.0
 30
0.0
 40
60.0
  1
．
 41
0.9
  7
STYLE1
100
AcDbText
  0
ENDBLK
  5
1F99
330
1D1D
100
AcDbEntity
  8
0
 62
     5
 48
8.0
370
    -1
100
AcDbBlockEnd
  0
BLOCK
  5
2CBE
330
2CB4
100
AcDbEntity
  8
0
 48
8.0
370
    -1
100
AcDbBlockBegin
  2
A$C4C192C7D
 70
     0
 10
0.0
 20
0.0
 30
0.0
  3
A$C4C192C7D
  1

  0
TEXT
  5
2CB5
330
2CB4
100
AcDbEntity
  8
0
 62
     7
370
    -1
100
AcDbText
 10
93.99074603229383
 20
-0.153546741919854
 30
0.0
 40
65.0
  1
．
  7
STYLE1
100
AcDbText
  0
TEXT
  5
2CB6
330
2CB4
100
AcDbEntity
  8
0
 62
     7
 48
8.0
370
    -1
100
AcDbText
 10
52.25145755042104
 20
-2.231742216576095
 30
0.0
 40
65.0
  1
１
 41
0.9
  7
STYLE1
100
AcDbText
  0
TEXT
  5
2CB7
330
2CB4
100
AcDbEntity
  8
0
 62
     7
 48
8.0
370
    -1
100
AcDbText
 10
3.937471434575855
 20
-5.449210560453139
 30
0.0
 40
65.0
  1
０
 41
0.9
  7
STYLE1
100
AcDbText
  0
TEXT
  5
2CB8
330
2CB4
100
AcDbEntity
  8
0
 62
     7
370
    -1
100
AcDbText
 10
-0.6190558117414184
 20
23.38580381106476
 30
0.0
 40
65.0
  1
’
  7
STYLE1
100
AcDbText
  0
TEXT
  5
2CB9
330
2CB4
100
AcDbEntity
  8
0
 62
     7
 48
8.0
370
    -1
100
AcDbText
 10
279.5261054262701
 20
-5.654304275984032
 30
0.0
 40
65.0
  1
９
 41
0.9
  7
STYLE1
100
AcDbText
  0
TEXT
  5
2CBA
330
2CB4
100
AcDbEntity
  8
0
 62
     7
 48
8.0
370
    -1
100
AcDbText
 10
158.5422350867411
 20
-8.666669195294162
 30
0.0
 40
65.0
  1
８
 41
0.9
  7
STYLE1
100
AcDbText
  0
TEXT
  5
2CBB
330
2CB4
100
AcDbEntity
  8
0
 62
     7
 48
8.0
370
    -1
100
AcDbText
 10
226.181831811853
 20
-5.449210560453139
 30
0.0
 40
65.0
  1
０
 41
0.9
  7
STYLE1
100
AcDbText
  0
TEXT
  5
2CBC
330
2CB4
100
AcDbEntity
  8
0
 62
     7
 48
8.0
370
    -1
100
AcDbText
 10
113.4491773378868
 20
-5.449210560453139
 30
0.0
 40
65.0
  1
０
 41
0.9
  7
STYLE1
100
AcDbText
  0
TEXT
  5
2CBD
330
2CB4
100
AcDbEntity
  8
0
 62
     7
 48
6.0
370
    -1
100
AcDbText
 10
205.7375440035539
 20
-0.1535564509595133
 30
0.0
 40
65.0
  1
．
  7
STYLE1
100
AcDbText
  0
ENDBLK
  5
2CBF
330
2CB4
100
AcDbEntity
  8
0
 48
8.0
370
    -1
100
AcDbBlockEnd
  0
BLOCK
  5
2CDC
330
2CDA
100
AcDbEntity
  8
0
 48
8.0
370
    -1
100
AcDbBlockBegin
  2
A$C5C5A2866
 70
     0
 10
0.0
 20
0.0
 30
0.0
  3
A$C5C5A2866
  1

  0
TEXT
  5
2CDB
330
2CDA
100
AcDbEntity
  8
0
370
    -1
100
AcDbText
 10
-0.309528964193305
 20
-0.8666671347200463
 30
0.0
 40
65.0
  1
’０２．０２．１５
 41
0.5
  7
STYLE1
100
AcDbText
  0
ENDBLK
  5
2CDD
330
2CDA
100
AcDbEntity
  8
0
 48
8.0
370
    -1
100
AcDbBlockEnd
  0
ENDSEC
  0
SECTION
  2
ENTITIES
  0
LINE
  5
224C
330
1A
100
AcDbEntity
  8
0
 62
     7
 48
8.0
370
    -1
100
AcDbLine
 10
1905.0
 20
1775.0
 30
0.0
 11
2025.0
 21
1775.0
 31
0.0
  0
LINE
  5
224D
330
1A
100
AcDbEntity
  8
0
 62
     7
 48
8.0
370
    -1
100
AcDbLine
 10
2025.0
 20
1775.0
 30
0.0
 11
2025.0
 21
1715.0
 31
0.0
  0
LINE
  5
224E
330
1A
100
AcDbEntity
  8
0
 62
     7
 48
8.0
370
    -1
100
AcDbLine
 10
1905.0
 20
1775.0
 30
0.0
 11
1905.0
 21
1715.0
 31
0.0
  0
LINE
  5
224F
330
1A
100
AcDbEntity
  8
0
 62
     7
 48
8.0
370
    -1
100
AcDbLine
 10
1915.0
 20
1775.0
 30
0.0
 11
1915.0
 21
1795.0
 31
0.0
  0
LINE
  5
2250
330
1A
100
AcDbEntity
  8
0
 62
     7
 48
8.0
370
    -1
100
AcDbLine
 10
1915.0
 20
1795.0
 30
0.0
 11
2015.0
 21
1795.0
 31
0.0
  0
LINE
  5
2251
330
1A
100
AcDbEntity
  8
0
 62
     7
 48
8.0
370
    -1
100
AcDbLine
 10
2015.0
 20
1795.0
 30
0.0
 11
2015.0
 21
1775.0
 31
0.0
  0
LINE
  5
2252
330
1A
100
AcDbEntity
  8
0
 62
     7
 48
8.0
370
    -1
100
AcDbLine
 10
1915.0
 20
1765.0
 30
0.0
 11
2015.0
 21
1765.0
 31
0.0
  0
LINE
  5
2253
330
1A
100
AcDbEntity
  8
0
 62
     7
 48
8.0
370
    -1
100
AcDbLine
 10
2015.0
 20
1765.0
 30
0.0
 11
2015.0
 21
1725.0
 31
0.0
  0
LINE
  5
2254
330
1A
100
AcDbEntity
  8
0
 62
     7
 48
8.0
370
    -1
100
AcDbLine
 10
2015.0
 20
1725.0
 30
0.0
 11
2000.0
 21
1725.0
 31
0.0
  0
LINE
  5
2255
330
1A
100
AcDbEntity
  8
0
 62
     7
 48
8.0
370
    -1
100
AcDbLine
 10
2000.0
 20
1725.0
 30
0.0
 11
2000.0
 21
1715.0
 31
0.0
  0
LINE
  5
2256
330
1A
100
AcDbEntity
  8
0
 62
     7
 48
8.0
370
    -1
100
AcDbLine
 10
1915.0
 20
1765.0
 30
0.0
 11
1915.0
 21
1725.0
 31
0.0
  0
LINE
  5
2257
330
1A
100
AcDbEntity
  8
0
 62
     7
 48
8.0
370
    -1
100
AcDbLine
 10
1915.0
 20
1725.0
 30
0.0
 11
1930.0
 21
1725.0
 31
0.0
  0
LINE
  5
2258
330
1A
100
AcDbEntity
  8
0
 62
     7
 48
8.0
370
    -1
100
AcDbLine
 10
1930.0
 20
1725.0
 30
0.0
 11
1930.0
 21
1715.0
 31
0.0
  0
LINE
  5
2259
330
1A
100
AcDbEntity
  8
0
 62
     7
 48
8.0
370
    -1
100
AcDbLine
 10
1925.0
 20
1795.0
 30
0.0
 11
1925.0
 21
1775.0
 31
0.0
  0
LINE
  5
225A
330
1A
100
AcDbEntity
  8
0
 62
     7
 48
8.0
370
    -1
100
AcDbLine
 10
1935.0
 20
1795.0
 30
0.0
 11
1935.0
 21
1775.0
 31
0.0
  0
LINE
  5
225B
330
1A
100
AcDbEntity
  8
0
 62
     7
 48
8.0
370
    -1
100
AcDbLine
 10
1945.0
 20
1795.0
 30
0.0
 11
1945.0
 21
1775.0
 31
0.0
  0
LINE
  5
225C
330
1A
100
AcDbEntity
  8
0
 62
     7
 48
8.0
370
    -1
100
AcDbLine
 10
1935.0
 20
1795.0
 30
0.0
 11
1935.0
 21
1775.0
 31
0.0
  0
LINE
  5
225D
330
1A
100
AcDbEntity
  8
0
 62
     7
 48
8.0
370
    -1
100
AcDbLine
 10
1955.0
 20
1795.0
 30
0.0
 11
1955.0
 21
1775.0
 31
0.0
  0
LINE
  5
225E
330
1A
100
AcDbEntity
  8
0
 62
     7
 48
8.0
370
    -1
100
AcDbLine
 10
1965.0
 20
1795.0
 30
0.0
 11
1965.0
 21
1775.0
 31
0.0
  0
LINE
  5
225F
330
1A
100
AcDbEntity
  8
0
 62
     7
 48
8.0
370
    -1
100
AcDbLine
 10
1955.0
 20
1795.0
 30
0.0
 11
1955.0
 21
1775.0
 31
0.0
  0
LINE
  5
2260
330
1A
100
AcDbEntity
  8
0
 62
     7
 48
8.0
370
    -1
100
AcDbLine
 10
1945.0
 20
1795.0
 30
0.0
 11
1945.0
 21
1775.0
 31
0.0
  0
LINE
  5
2261
330
1A
100
AcDbEntity
  8
0
 62
     7
 48
8.0
370
    -1
100
AcDbLine
 10
1985.0
 20
1795.0
 30
0.0
 11
1985.0
 21
1775.0
 31
0.0
  0
LINE
  5
2262
330
1A
100
AcDbEntity
  8
0
 62
     7
 48
8.0
370
    -1
100
AcDbLine
 10
1975.0
 20
1795.0
 30
0.0
 11
1975.0
 21
1775.0
 31
0.0
  0
LINE
  5
2263
330
1A
100
AcDbEntity
  8
0
 62
     7
 48
8.0
370
    -1
100
AcDbLine
 10
1985.0
 20
1795.0
 30
0.0
 11
1985.0
 21
1775.0
 31
0.0
  0
LINE
  5
2264
330
1A
100
AcDbEntity
  8
0
 62
     7
 48
8.0
370
    -1
100
AcDbLine
 10
1975.0
 20
1795.0
 30
0.0
 11
1975.0
 21
1775.0
 31
0.0
  0
LINE
  5
2265
330
1A
100
AcDbEntity
  8
0
 62
     7
 48
8.0
370
    -1
100
AcDbLine
 10
1965.0
 20
1795.0
 30
0.0
 11
1965.0
 21
1775.0
 31
0.0
  0
LINE
  5
2266
330
1A
100
AcDbEntity
  8
0
 62
     7
 48
8.0
370
    -1
100
AcDbLine
 10
1995.0
 20
1795.0
 30
0.0
 11
1995.0
 21
1775.0
 31
0.0
  0
LINE
  5
2267
330
1A
100
AcDbEntity
  8
0
 62
     7
 48
8.0
370
    -1
100
AcDbLine
 10
2005.0
 20
1795.0
 30
0.0
 11
2005.0
 21
1775.0
 31
0.0
  0
LINE
  5
2268
330
1A
100
AcDbEntity
  8
0
 62
     7
 48
8.0
370
    -1
100
AcDbLine
 10
1995.0
 20
1795.0
 30
0.0
 11
1995.0
 21
1775.0
 31
0.0
  0
LINE
  5
229F
330
1A
100
AcDbEntity
  8
0
  6
CENTER2
 62
     7
 48
8.0
370
    -1
100
AcDbLine
 10
1965.0
 20
1850.0
 30
0.0
 11
1965.0
 21
1675.0
 31
0.0
  0
LINE
  5
22A1
330
1A
100
AcDbEntity
  8
0
 62
     7
 48
8.0
370
    -1
100
AcDbLine
 10
1025.0
 20
1795.0
 30
0.0
 11
925.0
 21
1795.0
 31
0.0
  0
LINE
  5
22A2
330
1A
100
AcDbEntity
  8
0
 62
     7
 48
8.0
370
    -1
100
AcDbLine
 10
1025.0
 20
1765.0
 30
0.0
 11
925.0
 21
1765.0
 31
0.0
  0
LINE
  5
22A3
330
1A
100
AcDbEntity
  8
0
 62
     7
 48
8.0
370
    -1
100
AcDbLine
 10
1035.0
 20
1775.0
 30
0.0
 11
915.0
 21
1775.0
 31
0.0
  0
LINE
  5
22A4
330
1A
100
AcDbEntity
  8
0
  6
CENTER2
 62
     7
 48
8.0
370
    -1
100
AcDbLine
 10
975.0
 20
1850.0
 30
0.0
 11
975.0
 21
1675.0
 31
0.0
  0
LINE
  5
22A5
330
1A
100
AcDbEntity
  8
0
 62
     7
 48
8.0
370
    -1
100
AcDbLine
 10
985.0
 20
1795.0
 30
0.0
 11
985.0
 21
1775.0
 31
0.0
  0
LINE
  5
22A6
330
1A
100
AcDbEntity
  8
0
 62
     7
 48
8.0
370
    -1
100
AcDbLine
 10
975.0
 20
1795.0
 30
0.0
 11
975.0
 21
1775.0
 31
0.0
  0
LINE
  5
22A7
330
1A
100
AcDbEntity
  8
0
 62
     7
 48
8.0
370
    -1
100
AcDbLine
 10
985.0
 20
1795.0
 30
0.0
 11
985.0
 21
1775.0
 31
0.0
  0
LINE
  5
22A8
330
1A
100
AcDbEntity
  8
0
 62
     7
 48
8.0
370
    -1
100
AcDbLine
 10
955.0
 20
1795.0
 30
0.0
 11
955.0
 21
1775.0
 31
0.0
  0
LINE
  5
22A9
330
1A
100
AcDbEntity
  8
0
 62
     7
 48
8.0
370
    -1
100
AcDbLine
 10
965.0
 20
1795.0
 30
0.0
 11
965.0
 21
1775.0
 31
0.0
  0
LINE
  5
22AA
330
1A
100
AcDbEntity
  8
0
 62
     7
 48
8.0
370
    -1
100
AcDbLine
 10
955.0
 20
1795.0
 30
0.0
 11
955.0
 21
1775.0
 31
0.0
  0
LINE
  5
22AB
330
1A
100
AcDbEntity
  8
0
 62
     7
 48
8.0
370
    -1
100
AcDbLine
 10
965.0
 20
1795.0
 30
0.0
 11
965.0
 21
1775.0
 31
0.0
  0
LINE
  5
22AC
330
1A
100
AcDbEntity
  8
0
 62
     7
 48
8.0
370
    -1
100
AcDbLine
 10
975.0
 20
1795.0
 30
0.0
 11
975.0
 21
1775.0
 31
0.0
  0
LINE
  5
22AD
330
1A
100
AcDbEntity
  8
0
 62
     7
 48
8.0
370
    -1
100
AcDbLine
 10
945.0
 20
1795.0
 30
0.0
 11
945.0
 21
1775.0
 31
0.0
  0
LINE
  5
22AE
330
1A
100
AcDbEntity
  8
0
 62
     7
 48
8.0
370
    -1
100
AcDbLine
 10
945.0
 20
1795.0
 30
0.0
 11
945.0
 21
1775.0
 31
0.0
  0
LINE
  5
22AF
330
1A
100
AcDbEntity
  8
0
 62
     7
 48
8.0
370
    -1
100
AcDbLine
 10
1025.0
 20
1775.0
 30
0.0
 11
1025.0
 21
1795.0
 31
0.0
  0
LINE
  5
22B0
330
1A
100
AcDbEntity
  8
0
 62
     7
 48
8.0
370
    -1
100
AcDbLine
 10
1015.0
 20
1795.0
 30
0.0
 11
1015.0
 21
1775.0
 31
0.0
  0
LINE
  5
22B1
330
1A
100
AcDbEntity
  8
0
 62
     7
 48
8.0
370
    -1
100
AcDbLine
 10
1005.0
 20
1795.0
 30
0.0
 11
1005.0
 21
1775.0
 31
0.0
  0
LINE
  5
22B2
330
1A
100
AcDbEntity
  8
0
 62
     7
 48
8.0
370
    -1
100
AcDbLine
 10
995.0
 20
1795.0
 30
0.0
 11
995.0
 21
1775.0
 31
0.0
  0
LINE
  5
22B3
330
1A
100
AcDbEntity
  8
0
 62
     7
 48
8.0
370
    -1
100
AcDbLine
 10
1005.0
 20
1795.0
 30
0.0
 11
1005.0
 21
1775.0
 31
0.0
  0
LINE
  5
22B4
330
1A
100
AcDbEntity
  8
0
 62
     7
 48
8.0
370
    -1
100
AcDbLine
 10
995.0
 20
1795.0
 30
0.0
 11
995.0
 21
1775.0
 31
0.0
  0
LINE
  5
22B5
330
1A
100
AcDbEntity
  8
0
 62
     7
 48
8.0
370
    -1
100
AcDbLine
 10
1025.0
 20
1725.0
 30
0.0
 11
1010.0
 21
1725.0
 31
0.0
  0
LINE
  5
22B6
330
1A
100
AcDbEntity
  8
0
 62
     7
 48
8.0
370
    -1
100
AcDbLine
 10
1025.0
 20
1765.0
 30
0.0
 11
1025.0
 21
1725.0
 31
0.0
  0
LINE
  5
22B7
330
1A
100
AcDbEntity
  8
0
 62
     7
 48
8.0
370
    -1
100
AcDbLine
 10
1010.0
 20
1725.0
 30
0.0
 11
1010.0
 21
1715.0
 31
0.0
  0
LINE
  5
22B8
330
1A
100
AcDbEntity
  8
0
 62
     7
 48
8.0
370
    -1
100
AcDbLine
 10
1035.0
 20
1775.0
 30
0.0
 11
1035.0
 21
1715.0
 31
0.0
  0
LINE
  5
22B9
330
1A
100
AcDbEntity
  8
0
 62
     7
 48
8.0
370
    -1
100
AcDbLine
 10
925.0
 20
1795.0
 30
0.0
 11
925.0
 21
1775.0
 31
0.0
  0
LINE
  5
22BA
330
1A
100
AcDbEntity
  8
0
 62
     7
 48
8.0
370
    -1
100
AcDbLine
 10
935.0
 20
1795.0
 30
0.0
 11
935.0
 21
1775.0
 31
0.0
  0
LINE
  5
22BB
330
1A
100
AcDbEntity
  8
0
 62
     7
 48
8.0
370
    -1
100
AcDbLine
 10
915.0
 20
1775.0
 30
0.0
 11
915.0
 21
1715.0
 31
0.0
  0
LINE
  5
22BC
330
1A
100
AcDbEntity
  8
0
 62
     7
 48
8.0
370
    -1
100
AcDbLine
 10
925.0
 20
1765.0
 30
0.0
 11
925.0
 21
1725.0
 31
0.0
  0
LINE
  5
22BD
330
1A
100
AcDbEntity
  8
0
 62
     7
 48
8.0
370
    -1
100
AcDbLine
 10
940.0
 20
1725.0
 30
0.0
 11
940.0
 21
1715.0
 31
0.0
  0
LINE
  5
22BE
330
1A
100
AcDbEntity
  8
0
 62
     7
 48
8.0
370
    -1
100
AcDbLine
 10
925.0
 20
1725.0
 30
0.0
 11
940.0
 21
1725.0
 31
0.0
  0
LINE
  5
2397
330
1A
100
AcDbEntity
  8
0
 62
     7
 48
8.0
370
    -1
100
AcDbLine
 10
2255.0
 20
3565.0
 30
0.0
 11
2255.0
 21
2745.0
 31
0.0
  0
LINE
  5
23A1
330
1A
100
AcDbEntity
  8
0
 62
     7
 48
8.0
370
    -1
100
AcDbLine
 10
695.0
 20
3565.0
 30
0.0
 11
695.0
 21
2725.0
 31
0.0
  0
LINE
  5
23BC
330
1A
100
AcDbEntity
  8
0
 62
     7
 48
8.0
370
    -1
100
AcDbLine
 10
2025.0
 20
3665.0
 30
0.0
 11
2025.0
 21
2645.0
 31
0.0
  0
LINE
  5
23BD
330
1A
100
AcDbEntity
  8
0
 62
     7
 48
8.0
370
    -1
100
AcDbLine
 10
2025.0
 20
2645.0
 30
0.0
 11
1905.0
 21
2645.0
 31
0.0
  0
LINE
  5
23BE
330
1A
100
AcDbEntity
  8
0
 62
     7
 48
8.0
370
    -1
100
AcDbLine
 10
1905.0
 20
2645.0
 30
0.0
 11
1905.0
 21
3665.0
 31
0.0
  0
LINE
  5
23BF
330
1A
100
AcDbEntity
  8
0
 62
     7
 48
8.0
370
    -1
100
AcDbLine
 10
1905.0
 20
3665.0
 30
0.0
 11
2025.0
 21
3665.0
 31
0.0
  0
LINE
  5
23C2
330
1A
100
AcDbEntity
  8
0
 62
     7
 48
8.0
370
    -1
100
AcDbLine
 10
915.0
 20
2645.0
 30
0.0
 11
915.0
 21
3665.0
 31
0.0
  0
LINE
  5
23C3
330
1A
100
AcDbEntity
  8
0
 62
     7
 48
8.0
370
    -1
100
AcDbLine
 10
1035.0
 20
3665.0
 30
0.0
 11
1035.0
 21
2645.0
 31
0.0
  0
LINE
  5
23C4
330
1A
100
AcDbEntity
  8
0
 62
     7
 48
8.0
370
    -1
100
AcDbLine
 10
1035.0
 20
2645.0
 30
0.0
 11
915.0
 21
2645.0
 31
0.0
  0
LINE
  5
23C5
330
1A
100
AcDbEntity
  8
0
 62
     7
 48
8.0
370
    -1
100
AcDbLine
 10
915.0
 20
3665.0
 30
0.0
 11
1035.0
 21
3665.0
 31
0.0
  0
LINE
  5
23ED
330
1A
100
AcDbEntity
  8
0
  6
CENTER2
 62
     7
 48
8.0
370
    -1
100
AcDbLine
 10
1925.0
 20
3420.0
 30
0.0
 11
2005.0
 21
3420.0
 31
0.0
  0
LINE
  5
23EE
330
1A
100
AcDbEntity
  8
0
  6
CENTER2
 62
     7
 48
8.0
370
    -1
100
AcDbLine
 10
1965.0
 20
3540.0
 30
0.0
 11
1965.0
 21
3300.0
 31
0.0
  0
LINE
  5
23EF
330
1A
100
AcDbEntity
  8
0
 62
     7
 48
8.0
370
    -1
100
AcDbLine
 10
1955.0
 20
3340.0
 30
0.0
 11
1955.0
 21
3500.0
 31
0.0
  0
LINE
  5
23F0
330
1A
100
AcDbEntity
  8
0
 62
     7
 48
8.0
370
    -1
100
AcDbLine
 10
1975.0
 20
3500.0
 30
0.0
 11
1975.0
 21
3340.0
 31
0.0
  0
ARC
  5
23F1
330
1A
100
AcDbEntity
  8
0
 62
     7
 48
8.0
370
    -1
100
AcDbCircle
 10
1965.0
 20
3340.0
 30
0.0
 40
10.0
100
AcDbArc
 50
180.0
 51
0.0
  0
ARC
  5
23F2
330
1A
100
AcDbEntity
  8
0
 62
     7
 48
8.0
370
    -1
100
AcDbCircle
 10
1965.0
 20
3500.0
 30
0.0
 40
10.0
100
AcDbArc
 50
0.0
 51
180.0
  0
LINE
  5
23F3
330
1A
100
AcDbEntity
  8
0
  6
CENTER2
 62
     7
 48
8.0
370
    -1
100
AcDbLine
 10
1965.0
 20
3005.0
 30
0.0
 11
1965.0
 21
2765.0
 31
0.0
  0
LINE
  5
23F4
330
1A
100
AcDbEntity
  8
0
 62
     7
 48
8.0
370
    -1
100
AcDbLine
 10
1975.0
 20
2965.0
 30
0.0
 11
1975.0
 21
2805.0
 31
0.0
  0
LINE
  5
23F5
330
1A
100
AcDbEntity
  8
0
 62
     7
 48
8.0
370
    -1
100
AcDbLine
 10
1955.0
 20
2805.0
 30
0.0
 11
1955.0
 21
2965.0
 31
0.0
  0
LINE
  5
23F6
330
1A
100
AcDbEntity
  8
0
  6
CENTER2
 62
     7
 48
8.0
370
    -1
100
AcDbLine
 10
1925.0
 20
2885.0
 30
0.0
 11
2005.0
 21
2885.0
 31
0.0
  0
LINE
  5
23F7
330
1A
100
AcDbEntity
  8
0
  6
CENTER2
 62
     7
 48
8.0
370
    -1
100
AcDbLine
 10
1925.0
 20
2885.0
 30
0.0
 11
2005.0
 21
2885.0
 31
0.0
  0
LINE
  5
23F8
330
1A
100
AcDbEntity
  8
0
  6
CENTER2
 62
     7
 48
8.0
370
    -1
100
AcDbLine
 10
1965.0
 20
3005.0
 30
0.0
 11
1965.0
 21
2765.0
 31
0.0
  0
LINE
  5
23F9
330
1A
100
AcDbEntity
  8
0
 62
     7
 48
8.0
370
    -1
100
AcDbLine
 10
1955.0
 20
2805.0
 30
0.0
 11
1955.0
 21
2965.0
 31
0.0
  0
LINE
  5
23FA
330
1A
100
AcDbEntity
  8
0
 62
     7
 48
8.0
370
    -1
100
AcDbLine
 10
1975.0
 20
2965.0
 30
0.0
 11
1975.0
 21
2805.0
 31
0.0
  0
ARC
  5
23FB
330
1A
100
AcDbEntity
  8
0
 62
     7
 48
8.0
370
    -1
100
AcDbCircle
 10
1965.0
 20
2805.0
 30
0.0
 40
10.0
100
AcDbArc
 50
180.0
 51
0.0
  0
ARC
  5
23FC
330
1A
100
AcDbEntity
  8
0
 62
     7
 48
8.0
370
    -1
100
AcDbCircle
 10
1965.0
 20
2965.0
 30
0.0
 40
10.0
100
AcDbArc
 50
0.0
 51
180.0
  0
LINE
  5
2405
330
1A
100
AcDbEntity
  8
0
 62
     7
 48
8.0
370
    -1
100
AcDbLine
 10
1035.0
 20
2745.0
 30
0.0
 11
1905.0
 21
2745.0
 31
0.0
  0
LINE
  5
240A
330
1A
100
AcDbEntity
  8
0
 62
     7
 48
8.0
370
    -1
100
AcDbLine
 10
1905.0
 20
3565.0
 30
0.0
 11
1035.0
 21
3565.0
 31
0.0
  0
LINE
  5
240B
330
1A
100
AcDbEntity
  8
0
  6
CENTER2
 62
     7
 48
8.0
370
    -1
100
AcDbLine
 10
975.0
 20
3540.0
 30
0.0
 11
975.0
 21
3300.0
 31
0.0
  0
LINE
  5
240C
330
1A
100
AcDbEntity
  8
0
 62
     7
 48
8.0
370
    -1
100
AcDbLine
 10
985.0
 20
2965.0
 30
0.0
 11
985.0
 21
2805.0
 31
0.0
  0
LINE
  5
240D
330
1A
100
AcDbEntity
  8
0
 62
     7
 48
8.0
370
    -1
100
AcDbLine
 10
965.0
 20
2805.0
 30
0.0
 11
965.0
 21
2965.0
 31
0.0
  0
LINE
  5
240E
330
1A
100
AcDbEntity
  8
0
  6
CENTER2
 62
     7
 48
8.0
370
    -1
100
AcDbLine
 10
975.0
 20
3005.0
 30
0.0
 11
975.0
 21
2765.0
 31
0.0
  0
LINE
  5
240F
330
1A
100
AcDbEntity
  8
0
 62
     7
 48
8.0
370
    -1
100
AcDbLine
 10
965.0
 20
2805.0
 30
0.0
 11
965.0
 21
2965.0
 31
0.0
  0
LINE
  5
2410
330
1A
100
AcDbEntity
  8
0
 62
     7
 48
8.0
370
    -1
100
AcDbLine
 10
985.0
 20
2965.0
 30
0.0
 11
985.0
 21
2805.0
 31
0.0
  0
LINE
  5
2411
330
1A
100
AcDbEntity
  8
0
  6
CENTER2
 62
     7
 48
8.0
370
    -1
100
AcDbLine
 10
975.0
 20
3005.0
 30
0.0
 11
975.0
 21
2765.0
 31
0.0
  0
LINE
  5
2412
330
1A
100
AcDbEntity
  8
0
  6
CENTER2
 62
     7
 48
8.0
370
    -1
100
AcDbLine
 10
935.0
 20
2885.0
 30
0.0
 11
1015.0
 21
2885.0
 31
0.0
  0
LINE
  5
2413
330
1A
100
AcDbEntity
  8
0
  6
CENTER2
 62
     7
 48
8.0
370
    -1
100
AcDbLine
 10
935.0
 20
2885.0
 30
0.0
 11
1015.0
 21
2885.0
 31
0.0
  0
ARC
  5
2414
330
1A
100
AcDbEntity
  8
0
 62
     7
 48
8.0
370
    -1
100
AcDbCircle
 10
975.0
 20
2805.0
 30
0.0
 40
10.0
100
AcDbArc
 50
180.0
 51
0.0
  0
ARC
  5
2418
330
1A
100
AcDbEntity
  8
0
 62
     7
 48
8.0
370
    -1
100
AcDbCircle
 10
975.0
 20
2965.0
 30
0.0
 40
10.0
100
AcDbArc
 50
0.0
 51
180.0
  0
LINE
  5
241C
330
1A
100
AcDbEntity
  8
0
 62
     7
 48
8.0
370
    -1
100
AcDbLine
 10
985.0
 20
3500.0
 30
0.0
 11
985.0
 21
3340.0
 31
0.0
  0
LINE
  5
241D
330
1A
100
AcDbEntity
  8
0
 62
     7
 48
8.0
370
    -1
100
AcDbLine
 10
965.0
 20
3340.0
 30
0.0
 11
965.0
 21
3500.0
 31
0.0
  0
LINE
  5
241E
330
1A
100
AcDbEntity
  8
0
  6
CENTER2
 62
     7
 48
8.0
370
    -1
100
AcDbLine
 10
935.0
 20
3420.0
 30
0.0
 11
1015.0
 21
3420.0
 31
0.0
  0
ARC
  5
241F
330
1A
100
AcDbEntity
  8
0
 62
     7
 48
8.0
370
    -1
100
AcDbCircle
 10
975.0
 20
3340.0
 30
0.0
 40
10.0
100
AcDbArc
 50
180.0
 51
0.0
  0
ARC
  5
2420
330
1A
100
AcDbEntity
  8
0
 62
     7
 48
8.0
370
    -1
100
AcDbCircle
 10
975.0
 20
3500.0
 30
0.0
 40
10.0
100
AcDbArc
 50
0.0
 51
180.0
  0
LINE
  5
25E4
330
1A
100
AcDbEntity
  8
0
 62
     7
 48
8.0
370
    -1
100
AcDbLine
 10
1960.0
 20
3410.0
 30
0.0
 11
1960.0
 21
3345.0
 31
0.0
  0
LINE
  5
25E5
330
1A
100
AcDbEntity
  8
0
 62
     7
 48
8.0
370
    -1
100
AcDbLine
 10
1930.0
 20
3495.0
 30
0.0
 11
1930.0
 21
3345.0
 31
0.0
  0
LINE
  5
25E6
330
1A
100
AcDbEntity
  8
0
 62
     7
 48
8.0
370
    -1
100
AcDbLine
 10
1945.0
 20
3495.0
 30
0.0
 11
1945.0
 21
3345.0
 31
0.0
  0
LINE
  5
25E7
330
1A
100
AcDbEntity
  8
0
 62
     7
 48
8.0
370
    -1
100
AcDbLine
 10
1975.0
 20
3495.0
 30
0.0
 11
1975.0
 21
3345.0
 31
0.0
  0
LINE
  5
25E8
330
1A
100
AcDbEntity
  8
0
 62
     7
 48
8.0
370
    -1
100
AcDbLine
 10
1990.0
 20
3495.0
 30
0.0
 11
1990.0
 21
3345.0
 31
0.0
  0
LINE
  5
25E9
330
1A
100
AcDbEntity
  8
0
 62
     7
 48
8.0
370
    -1
100
AcDbLine
 10
2005.0
 20
3495.0
 30
0.0
 11
2005.0
 21
3345.0
 31
0.0
  0
LINE
  5
25EA
330
1A
100
AcDbEntity
  8
0
 62
     7
 48
8.0
370
    -1
100
AcDbLine
 10
1915.0
 20
3345.0
 30
0.0
 11
1915.0
 21
3495.0
 31
0.0
  0
LINE
  5
25EB
330
1A
100
AcDbEntity
  8
0
 62
     7
 48
8.0
370
    -1
100
AcDbLine
 10
2015.0
 20
3495.0
 30
0.0
 11
2015.0
 21
3345.0
 31
0.0
  0
LINE
  5
25EC
330
1A
100
AcDbEntity
  8
0
 62
     7
 48
8.0
370
    -1
100
AcDbLine
 10
2015.0
 20
3345.0
 30
0.0
 11
1915.0
 21
3345.0
 31
0.0
  0
LINE
  5
25ED
330
1A
100
AcDbEntity
  8
0
 62
     7
 48
8.0
370
    -1
100
AcDbLine
 10
1915.0
 20
3495.0
 30
0.0
 11
2015.0
 21
3495.0
 31
0.0
  0
LINE
  5
25EE
330
1A
100
AcDbEntity
  8
0
 62
     7
 48
8.0
370
    -1
100
AcDbLine
 10
1960.0
 20
3495.0
 30
0.0
 11
1960.0
 21
3430.0
 31
0.0
  0
CIRCLE
  5
25EF
330
1A
100
AcDbEntity
  8
0
 62
     7
 48
8.0
370
    -1
100
AcDbCircle
 10
1965.0
 20
3420.0
 30
0.0
 40
10.5
  0
LINE
  5
25F0
330
1A
100
AcDbEntity
  8
0
 62
     7
 48
8.0
370
    -1
100
AcDbLine
 10
970.0
 20
3410.0
 30
0.0
 11
970.0
 21
3345.0
 31
0.0
  0
LINE
  5
25F1
330
1A
100
AcDbEntity
  8
0
 62
     7
 48
8.0
370
    -1
100
AcDbLine
 10
940.0
 20
3495.0
 30
0.0
 11
940.0
 21
3345.0
 31
0.0
  0
LINE
  5
25F2
330
1A
100
AcDbEntity
  8
0
 62
     7
 48
8.0
370
    -1
100
AcDbLine
 10
955.0
 20
3495.0
 30
0.0
 11
955.0
 21
3345.0
 31
0.0
  0
LINE
  5
25F3
330
1A
100
AcDbEntity
  8
0
 62
     7
 48
8.0
370
    -1
100
AcDbLine
 10
985.0
 20
3495.0
 30
0.0
 11
985.0
 21
3345.0
 31
0.0
  0
LINE
  5
25F4
330
1A
100
AcDbEntity
  8
0
 62
     7
 48
8.0
370
    -1
100
AcDbLine
 10
1000.0
 20
3495.0
 30
0.0
 11
1000.0
 21
3345.0
 31
0.0
  0
LINE
  5
25F5
330
1A
100
AcDbEntity
  8
0
 62
     7
 48
8.0
370
    -1
100
AcDbLine
 10
1015.0
 20
3495.0
 30
0.0
 11
1015.0
 21
3345.0
 31
0.0
  0
LINE
  5
25F6
330
1A
100
AcDbEntity
  8
0
 62
     7
 48
8.0
370
    -1
100
AcDbLine
 10
925.0
 20
3345.0
 30
0.0
 11
925.0
 21
3495.0
 31
0.0
  0
LINE
  5
25F7
330
1A
100
AcDbEntity
  8
0
 62
     7
 48
8.0
370
    -1
100
AcDbLine
 10
1025.0
 20
3495.0
 30
0.0
 11
1025.0
 21
3345.0
 31
0.0
  0
LINE
  5
25F8
330
1A
100
AcDbEntity
  8
0
 62
     7
 48
8.0
370
    -1
100
AcDbLine
 10
1025.0
 20
3345.0
 30
0.0
 11
925.0
 21
3345.0
 31
0.0
  0
LINE
  5
25F9
330
1A
100
AcDbEntity
  8
0
 62
     7
 48
8.0
370
    -1
100
AcDbLine
 10
925.0
 20
3495.0
 30
0.0
 11
1025.0
 21
3495.0
 31
0.0
  0
LINE
  5
25FA
330
1A
100
AcDbEntity
  8
0
 62
     7
 48
8.0
370
    -1
100
AcDbLine
 10
970.0
 20
3495.0
 30
0.0
 11
970.0
 21
3430.0
 31
0.0
  0
CIRCLE
  5
25FB
330
1A
100
AcDbEntity
  8
0
 62
     7
 48
8.0
370
    -1
100
AcDbCircle
 10
975.0
 20
3420.0
 30
0.0
 40
10.5
  0
LINE
  5
25FC
330
1A
100
AcDbEntity
  8
0
 62
     7
 48
8.0
370
    -1
100
AcDbLine
 10
1960.0
 20
2875.0
 30
0.0
 11
1960.0
 21
2810.0
 31
0.0
  0
LINE
  5
25FD
330
1A
100
AcDbEntity
  8
0
 62
     7
 48
8.0
370
    -1
100
AcDbLine
 10
1930.0
 20
2960.0
 30
0.0
 11
1930.0
 21
2810.0
 31
0.0
  0
LINE
  5
25FE
330
1A
100
AcDbEntity
  8
0
 62
     7
 48
8.0
370
    -1
100
AcDbLine
 10
1945.0
 20
2960.0
 30
0.0
 11
1945.0
 21
2810.0
 31
0.0
  0
LINE
  5
25FF
330
1A
100
AcDbEntity
  8
0
 62
     7
 48
8.0
370
    -1
100
AcDbLine
 10
1975.0
 20
2960.0
 30
0.0
 11
1975.0
 21
2810.0
 31
0.0
  0
LINE
  5
2600
330
1A
100
AcDbEntity
  8
0
 62
     7
 48
8.0
370
    -1
100
AcDbLine
 10
1990.0
 20
2960.0
 30
0.0
 11
1990.0
 21
2810.0
 31
0.0
  0
LINE
  5
2601
330
1A
100
AcDbEntity
  8
0
 62
     7
 48
8.0
370
    -1
100
AcDbLine
 10
2005.0
 20
2960.0
 30
0.0
 11
2005.0
 21
2810.0
 31
0.0
  0
LINE
  5
2602
330
1A
100
AcDbEntity
  8
0
 62
     7
 48
8.0
370
    -1
100
AcDbLine
 10
1915.0
 20
2810.0
 30
0.0
 11
1915.0
 21
2960.0
 31
0.0
  0
LINE
  5
2603
330
1A
100
AcDbEntity
  8
0
 62
     7
 48
8.0
370
    -1
100
AcDbLine
 10
2015.0
 20
2960.0
 30
0.0
 11
2015.0
 21
2810.0
 31
0.0
  0
LINE
  5
2604
330
1A
100
AcDbEntity
  8
0
 62
     7
 48
8.0
370
    -1
100
AcDbLine
 10
2015.0
 20
2810.0
 30
0.0
 11
1915.0
 21
2810.0
 31
0.0
  0
LINE
  5
2605
330
1A
100
AcDbEntity
  8
0
 62
     7
 48
8.0
370
    -1
100
AcDbLine
 10
1915.0
 20
2960.0
 30
0.0
 11
2015.0
 21
2960.0
 31
0.0
  0
LINE
  5
2606
330
1A
100
AcDbEntity
  8
0
 62
     7
 48
8.0
370
    -1
100
AcDbLine
 10
1960.0
 20
2960.0
 30
0.0
 11
1960.0
 21
2895.0
 31
0.0
  0
CIRCLE
  5
2607
330
1A
100
AcDbEntity
  8
0
 62
     7
 48
8.0
370
    -1
100
AcDbCircle
 10
1965.0
 20
2885.0
 30
0.0
 40
10.5
  0
LINE
  5
2608
330
1A
100
AcDbEntity
  8
0
 62
     7
 48
8.0
370
    -1
100
AcDbLine
 10
970.0
 20
2875.0
 30
0.0
 11
970.0
 21
2810.0
 31
0.0
  0
LINE
  5
2609
330
1A
100
AcDbEntity
  8
0
 62
     7
 48
8.0
370
    -1
100
AcDbLine
 10
940.0
 20
2960.0
 30
0.0
 11
940.0
 21
2810.0
 31
0.0
  0
LINE
  5
260A
330
1A
100
AcDbEntity
  8
0
 62
     7
 48
8.0
370
    -1
100
AcDbLine
 10
955.0
 20
2960.0
 30
0.0
 11
955.0
 21
2810.0
 31
0.0
  0
LINE
  5
260B
330
1A
100
AcDbEntity
  8
0
 62
     7
 48
8.0
370
    -1
100
AcDbLine
 10
985.0
 20
2960.0
 30
0.0
 11
985.0
 21
2810.0
 31
0.0
  0
LINE
  5
260C
330
1A
100
AcDbEntity
  8
0
 62
     7
 48
8.0
370
    -1
100
AcDbLine
 10
1000.0
 20
2960.0
 30
0.0
 11
1000.0
 21
2810.0
 31
0.0
  0
LINE
  5
260D
330
1A
100
AcDbEntity
  8
0
 62
     7
 48
8.0
370
    -1
100
AcDbLine
 10
1015.0
 20
2960.0
 30
0.0
 11
1015.0
 21
2810.0
 31
0.0
  0
LINE
  5
260E
330
1A
100
AcDbEntity
  8
0
 62
     7
 48
8.0
370
    -1
100
AcDbLine
 10
925.0
 20
2810.0
 30
0.0
 11
925.0
 21
2960.0
 31
0.0
  0
LINE
  5
260F
330
1A
100
AcDbEntity
  8
0
 62
     7
 48
8.0
370
    -1
100
AcDbLine
 10
1025.0
 20
2960.0
 30
0.0
 11
1025.0
 21
2810.0
 31
0.0
  0
LINE
  5
2610
330
1A
100
AcDbEntity
  8
0
 62
     7
 48
8.0
370
    -1
100
AcDbLine
 10
1025.0
 20
2810.0
 30
0.0
 11
925.0
 21
2810.0
 31
0.0
  0
LINE
  5
2611
330
1A
100
AcDbEntity
  8
0
 62
     7
 48
8.0
370
    -1
100
AcDbLine
 10
925.0
 20
2960.0
 30
0.0
 11
1025.0
 21
2960.0
 31
0.0
  0
LINE
  5
2612
330
1A
100
AcDbEntity
  8
0
 62
     7
 48
8.0
370
    -1
100
AcDbLine
 10
970.0
 20
2960.0
 30
0.0
 11
970.0
 21
2895.0
 31
0.0
  0
CIRCLE
  5
2613
330
1A
100
AcDbEntity
  8
0
 62
     7
 48
8.0
370
    -1
100
AcDbCircle
 10
975.0
 20
2885.0
 30
0.0
 40
10.5
  0
LINE
  5
26AF
330
1A
100
AcDbEntity
  8
0
 62
     7
 48
8.0
370
    -1
100
AcDbLine
 10
925.0
 20
1715.0
 30
0.0
 11
925.0
 21
1625.0
 31
0.0
  0
LINE
  5
26B0
330
1A
100
AcDbEntity
  8
0
 62
     7
 48
8.0
370
    -1
100
AcDbLine
 10
925.0
 20
1625.0
 30
0.0
 11
935.0
 21
1625.0
 31
0.0
  0
LINE
  5
26B1
330
1A
100
AcDbEntity
  8
0
 62
     7
 48
8.0
370
    -1
100
AcDbLine
 10
935.0
 20
1625.0
 30
0.0
 11
935.0
 21
1615.0
 31
0.0
  0
LINE
  5
26B2
330
1A
100
AcDbEntity
  8
0
 62
     7
 48
8.0
370
    -1
100
AcDbLine
 10
1025.0
 20
1715.0
 30
0.0
 11
1025.0
 21
1625.0
 31
0.0
  0
LINE
  5
26B3
330
1A
100
AcDbEntity
  8
0
 62
     7
 48
8.0
370
    -1
100
AcDbLine
 10
1025.0
 20
1625.0
 30
0.0
 11
1015.0
 21
1625.0
 31
0.0
  0
LINE
  5
26B4
330
1A
100
AcDbEntity
  8
0
 62
     7
 48
8.0
370
    -1
100
AcDbLine
 10
1015.0
 20
1625.0
 30
0.0
 11
1015.0
 21
1615.0
 31
0.0
  0
LINE
  5
26B5
330
1A
100
AcDbEntity
  8
0
 62
     7
 48
8.0
370
    -1
100
AcDbLine
 10
925.0
 20
1615.0
 30
0.0
 11
925.0
 21
1605.0
 31
0.0
  0
LINE
  5
26B6
330
1A
100
AcDbEntity
  8
0
 62
     7
 48
8.0
370
    -1
100
AcDbLine
 10
925.0
 20
1605.0
 30
0.0
 11
1025.0
 21
1605.0
 31
0.0
  0
LINE
  5
26B7
330
1A
100
AcDbEntity
  8
0
 62
     7
 48
8.0
370
    -1
100
AcDbLine
 10
1025.0
 20
1605.0
 30
0.0
 11
1025.0
 21
1615.0
 31
0.0
  0
LINE
  5
26B8
330
1A
100
AcDbEntity
  8
0
 62
     7
 48
8.0
370
    -1
100
AcDbLine
 10
1915.0
 20
1715.0
 30
0.0
 11
1915.0
 21
1625.0
 31
0.0
  0
LINE
  5
26B9
330
1A
100
AcDbEntity
  8
0
 62
     7
 48
8.0
370
    -1
100
AcDbLine
 10
1915.0
 20
1625.0
 30
0.0
 11
1925.0
 21
1625.0
 31
0.0
  0
LINE
  5
26BA
330
1A
100
AcDbEntity
  8
0
 62
     7
 48
8.0
370
    -1
100
AcDbLine
 10
1925.0
 20
1625.0
 30
0.0
 11
1925.0
 21
1615.0
 31
0.0
  0
LINE
  5
26BB
330
1A
100
AcDbEntity
  8
0
 62
     7
 48
8.0
370
    -1
100
AcDbLine
 10
2015.0
 20
1715.0
 30
0.0
 11
2015.0
 21
1625.0
 31
0.0
  0
LINE
  5
26BC
330
1A
100
AcDbEntity
  8
0
 62
     7
 48
8.0
370
    -1
100
AcDbLine
 10
2015.0
 20
1625.0
 30
0.0
 11
2005.0
 21
1625.0
 31
0.0
  0
LINE
  5
26BD
330
1A
100
AcDbEntity
  8
0
 62
     7
 48
8.0
370
    -1
100
AcDbLine
 10
2005.0
 20
1625.0
 30
0.0
 11
2005.0
 21
1615.0
 31
0.0
  0
LINE
  5
26BE
330
1A
100
AcDbEntity
  8
0
 62
     7
 48
8.0
370
    -1
100
AcDbLine
 10
1915.0
 20
1615.0
 30
0.0
 11
1915.0
 21
1605.0
 31
0.0
  0
LINE
  5
26BF
330
1A
100
AcDbEntity
  8
0
 62
     7
 48
8.0
370
    -1
100
AcDbLine
 10
1915.0
 20
1605.0
 30
0.0
 11
2015.0
 21
1605.0
 31
0.0
  0
LINE
  5
26C0
330
1A
100
AcDbEntity
  8
0
 62
     7
 48
8.0
370
    -1
100
AcDbLine
 10
2015.0
 20
1605.0
 30
0.0
 11
2015.0
 21
1615.0
 31
0.0
  0
LINE
  5
2871
330
1A
100
AcDbEntity
  8
0
 62
     7
 48
8.0
370
    -1
100
AcDbLine
 10
2155.0
 20
2745.0
 30
0.0
 11
2155.0
 21
2645.0
 31
0.0
  0
LINE
  5
2872
330
1A
100
AcDbEntity
  8
0
 62
     7
 48
8.0
370
    -1
100
AcDbLine
 10
2255.0
 20
2745.0
 30
0.0
 11
2255.0
 21
2645.0
 31
0.0
  0
LINE
  5
2873
330
1A
100
AcDbEntity
  8
0
 62
     7
 48
8.0
370
    -1
100
AcDbLine
 10
2165.0
 20
2735.0
 30
0.0
 11
2165.0
 21
2655.0
 31
0.0
  0
LINE
  5
2874
330
1A
100
AcDbEntity
  8
0
 62
     7
 48
8.0
370
    -1
100
AcDbLine
 10
2165.0
 20
2655.0
 30
0.0
 11
2245.0
 21
2655.0
 31
0.0
  0
LINE
  5
2875
330
1A
100
AcDbEntity
  8
0
 62
     7
 48
8.0
370
    -1
100
AcDbLine
 10
2245.0
 20
2655.0
 30
0.0
 11
2245.0
 21
2735.0
 31
0.0
  0
LINE
  5
2876
330
1A
100
AcDbEntity
  8
0
 62
     7
 48
8.0
370
    -1
100
AcDbLine
 10
2245.0
 20
2735.0
 30
0.0
 11
2165.0
 21
2735.0
 31
0.0
  0
LINE
  5
2877
330
1A
100
AcDbEntity
  8
0
 62
     7
 48
8.0
370
    -1
100
AcDbLine
 10
2155.0
 20
3565.0
 30
0.0
 11
2155.0
 21
3665.0
 31
0.0
  0
LINE
  5
2878
330
1A
100
AcDbEntity
  8
0
 62
     7
 48
8.0
370
    -1
100
AcDbLine
 10
2255.0
 20
3665.0
 30
0.0
 11
2255.0
 21
3565.0
 31
0.0
  0
LINE
  5
2879
330
1A
100
AcDbEntity
  8
0
 62
     7
 48
8.0
370
    -1
100
AcDbLine
 10
2165.0
 20
3575.0
 30
0.0
 11
2165.0
 21
3655.0
 31
0.0
  0
LINE
  5
287A
330
1A
100
AcDbEntity
  8
0
 62
     7
 48
8.0
370
    -1
100
AcDbLine
 10
2165.0
 20
3655.0
 30
0.0
 11
2245.0
 21
3655.0
 31
0.0
  0
LINE
  5
287B
330
1A
100
AcDbEntity
  8
0
 62
     7
 48
8.0
370
    -1
100
AcDbLine
 10
2245.0
 20
3655.0
 30
0.0
 11
2245.0
 21
3575.0
 31
0.0
  0
LINE
  5
287C
330
1A
100
AcDbEntity
  8
0
 62
     7
 48
8.0
370
    -1
100
AcDbLine
 10
2245.0
 20
3575.0
 30
0.0
 11
2170.0
 21
3575.0
 31
0.0
  0
LINE
  5
287F
330
1A
100
AcDbEntity
  8
0
 62
     7
 48
8.0
370
    -1
100
AcDbLine
 10
2165.0
 20
3575.0
 30
0.0
 11
2175.0
 21
3575.0
 31
0.0
  0
LINE
  5
2883
330
1A
100
AcDbEntity
  8
0
 62
     7
 48
8.0
370
    -1
100
AcDbLine
 10
915.0
 20
2745.0
 30
0.0
 11
695.0
 21
2745.0
 31
0.0
  0
LINE
  5
2884
330
1A
100
AcDbEntity
  8
0
 62
     7
 48
8.0
370
    -1
100
AcDbLine
 10
695.0
 20
2745.0
 30
0.0
 11
695.0
 21
2645.0
 31
0.0
  0
LINE
  5
2885
330
1A
100
AcDbEntity
  8
0
 62
     7
 48
8.0
370
    -1
100
AcDbLine
 10
795.0
 20
2745.0
 30
0.0
 11
795.0
 21
2645.0
 31
0.0
  0
LINE
  5
2886
330
1A
100
AcDbEntity
  8
0
 62
     7
 48
8.0
370
    -1
100
AcDbLine
 10
705.0
 20
2735.0
 30
0.0
 11
705.0
 21
2655.0
 31
0.0
  0
LINE
  5
2887
330
1A
100
AcDbEntity
  8
0
 62
     7
 48
8.0
370
    -1
100
AcDbLine
 10
705.0
 20
2655.0
 30
0.0
 11
785.0
 21
2655.0
 31
0.0
  0
LINE
  5
2888
330
1A
100
AcDbEntity
  8
0
 62
     7
 48
8.0
370
    -1
100
AcDbLine
 10
785.0
 20
2655.0
 30
0.0
 11
785.0
 21
2735.0
 31
0.0
  0
LINE
  5
2889
330
1A
100
AcDbEntity
  8
0
 62
     7
 48
8.0
370
    -1
100
AcDbLine
 10
785.0
 20
2735.0
 30
0.0
 11
705.0
 21
2735.0
 31
0.0
  0
LINE
  5
2894
330
1A
100
AcDbEntity
  8
0
 62
     7
 48
8.0
370
    -1
100
AcDbLine
 10
695.0
 20
3565.0
 30
0.0
 11
695.0
 21
3665.0
 31
0.0
  0
LINE
  5
2895
330
1A
100
AcDbEntity
  8
0
 62
     7
 48
8.0
370
    -1
100
AcDbLine
 10
795.0
 20
3565.0
 30
0.0
 11
795.0
 21
3665.0
 31
0.0
  0
LINE
  5
2896
330
1A
100
AcDbEntity
  8
0
 62
     7
 48
8.0
370
    -1
100
AcDbLine
 10
705.0
 20
3655.0
 30
0.0
 11
705.0
 21
3575.0
 31
0.0
  0
LINE
  5
2897
330
1A
100
AcDbEntity
  8
0
 62
     7
 48
8.0
370
    -1
100
AcDbLine
 10
705.0
 20
3575.0
 30
0.0
 11
785.0
 21
3575.0
 31
0.0
  0
LINE
  5
2898
330
1A
100
AcDbEntity
  8
0
 62
     7
 48
8.0
370
    -1
100
AcDbLine
 10
785.0
 20
3575.0
 30
0.0
 11
785.0
 21
3655.0
 31
0.0
  0
LINE
  5
2899
330
1A
100
AcDbEntity
  8
0
 62
     7
 48
8.0
370
    -1
100
AcDbLine
 10
785.0
 20
3655.0
 30
0.0
 11
705.0
 21
3655.0
 31
0.0
  0
CIRCLE
  5
28C5
330
1A
100
AcDbEntity
  8
0
 62
     7
 48
8.0
370
    -1
100
AcDbCircle
 10
745.0
 20
3515.0
 30
0.0
 40
15.0
  0
LINE
  5
28C6
330
1A
100
AcDbEntity
  8
0
 62
     7
 48
8.0
370
    -1
100
AcDbLine
 10
745.0
 20
3545.0
 30
0.0
 11
745.0
 21
3485.0
 31
0.0
  0
LINE
  5
28C7
330
1A
100
AcDbEntity
  8
0
 62
     7
 48
8.0
370
    -1
100
AcDbLine
 10
715.0
 20
3515.0
 30
0.0
 11
775.0
 21
3515.0
 31
0.0
  0
LINE
  5
28C8
330
1A
100
AcDbEntity
  8
0
 62
     7
 48
8.0
370
    -1
100
AcDbLine
 10
975.0
 20
3645.0
 30
0.0
 11
975.0
 21
3585.0
 31
0.0
  0
CIRCLE
  5
28C9
330
1A
100
AcDbEntity
  8
0
 62
     7
 48
8.0
370
    -1
100
AcDbCircle
 10
975.0
 20
3615.0
 30
0.0
 40
15.0
  0
LINE
  5
28CA
330
1A
100
AcDbEntity
  8
0
 62
     7
 48
8.0
370
    -1
100
AcDbLine
 10
945.0
 20
3615.0
 30
0.0
 11
1005.0
 21
3615.0
 31
0.0
  0
LINE
  5
28CB
330
1A
100
AcDbEntity
  8
0
 62
     7
 48
8.0
370
    -1
100
AcDbLine
 10
1965.0
 20
3645.0
 30
0.0
 11
1965.0
 21
3585.0
 31
0.0
  0
CIRCLE
  5
28CC
330
1A
100
AcDbEntity
  8
0
 62
     7
 48
8.0
370
    -1
100
AcDbCircle
 10
1965.0
 20
3615.0
 30
0.0
 40
15.0
  0
LINE
  5
28CD
330
1A
100
AcDbEntity
  8
0
 62
     7
 48
8.0
370
    -1
100
AcDbLine
 10
1935.0
 20
3615.0
 30
0.0
 11
1995.0
 21
3615.0
 31
0.0
  0
LINE
  5
28CE
330
1A
100
AcDbEntity
  8
0
 62
     7
 48
8.0
370
    -1
100
AcDbLine
 10
975.0
 20
2725.0
 30
0.0
 11
975.0
 21
2665.0
 31
0.0
  0
CIRCLE
  5
28CF
330
1A
100
AcDbEntity
  8
0
 62
     7
 48
8.0
370
    -1
100
AcDbCircle
 10
975.0
 20
2695.0
 30
0.0
 40
15.0
  0
LINE
  5
28D0
330
1A
100
AcDbEntity
  8
0
 62
     7
 48
8.0
370
    -1
100
AcDbLine
 10
945.0
 20
2695.0
 30
0.0
 11
1005.0
 21
2695.0
 31
0.0
  0
CIRCLE
  5
28D1
330
1A
100
AcDbEntity
  8
0
 62
     7
 48
8.0
370
    -1
100
AcDbCircle
 10
1965.0
 20
2695.0
 30
0.0
 40
15.0
  0
LINE
  5
28D2
330
1A
100
AcDbEntity
  8
0
 62
     7
 48
8.0
370
    -1
100
AcDbLine
 10
1965.0
 20
2725.0
 30
0.0
 11
1965.0
 21
2665.0
 31
0.0
  0
LINE
  5
28D3
330
1A
100
AcDbEntity
  8
0
 62
     7
 48
8.0
370
    -1
100
AcDbLine
 10
1935.0
 20
2695.0
 30
0.0
 11
1995.0
 21
2695.0
 31
0.0
  0
LINE
  5
292F
330
1A
100
AcDbEntity
  8
0
 62
     7
 48
8.0
370
    -1
100
AcDbLine
 10
2155.0
 20
3465.0
 30
0.0
 11
2025.0
 21
3465.0
 31
0.0
  0
LINE
  5
2930
330
1A
100
AcDbEntity
  8
0
 62
     7
 48
8.0
370
    -1
100
AcDbLine
 10
2025.0
 20
3465.0
 30
0.0
 11
2025.0
 21
3565.0
 31
0.0
  0
LINE
  5
2932
330
1A
100
AcDbEntity
  8
0
 62
     7
 48
8.0
370
    -1
100
AcDbLine
 10
1905.0
 20
3465.0
 30
0.0
 11
1035.0
 21
3465.0
 31
0.0
  0
LINE
  5
2933
330
1A
100
AcDbEntity
  8
0
 62
     7
 48
8.0
370
    -1
100
AcDbLine
 10
915.0
 20
3465.0
 30
0.0
 11
795.0
 21
3465.0
 31
0.0
  0
LINE
  5
2935
330
1A
100
AcDbEntity
  8
0
 62
     7
 48
8.0
370
    -1
100
AcDbLine
 10
795.0
 20
2845.0
 30
0.0
 11
915.0
 21
2845.0
 31
0.0
  0
LINE
  5
2936
330
1A
100
AcDbEntity
  8
0
 62
     7
 48
8.0
370
    -1
100
AcDbLine
 10
1035.0
 20
2845.0
 30
0.0
 11
1905.0
 21
2845.0
 31
0.0
  0
LINE
  5
2937
330
1A
100
AcDbEntity
  8
0
 62
     7
 48
8.0
370
    -1
100
AcDbLine
 10
2025.0
 20
2845.0
 30
0.0
 11
2155.0
 21
2845.0
 31
0.0
  0
LINE
  5
2949
330
1A
100
AcDbEntity
  8
0
 62
     7
 48
8.0
370
    -1
100
AcDbLine
 10
695.0
 20
1715.0
 30
0.0
 11
2255.0
 21
1715.0
 31
0.0
  0
LINE
  5
294A
330
1A
100
AcDbEntity
  8
0
 62
     7
 48
8.0
370
    -1
100
AcDbLine
 10
2255.0
 20
1715.0
 30
0.0
 11
2255.0
 21
1615.0
 31
0.0
  0
LINE
  5
294B
330
1A
100
AcDbEntity
  8
0
 62
     7
 48
8.0
370
    -1
100
AcDbLine
 10
2155.0
 20
1615.0
 30
0.0
 11
795.0
 21
1615.0
 31
0.0
  0
LINE
  5
294D
330
1A
100
AcDbEntity
  8
0
 62
     7
 48
8.0
370
    -1
100
AcDbLine
 10
695.0
 20
1615.0
 30
0.0
 11
695.0
 21
1715.0
 31
0.0
  0
LINE
  5
294E
330
1A
100
AcDbEntity
  8
0
 62
     7
 48
8.0
370
    -1
100
AcDbLine
 10
695.0
 20
1615.0
 30
0.0
 11
695.0
 21
1535.0
 31
0.0
  0
LINE
  5
294F
330
1A
100
AcDbEntity
  8
0
 62
     7
 48
8.0
370
    -1
100
AcDbLine
 10
695.0
 20
1535.0
 30
0.0
 11
795.0
 21
1535.0
 31
0.0
  0
LINE
  5
2950
330
1A
100
AcDbEntity
  8
0
 62
     7
 48
8.0
370
    -1
100
AcDbLine
 10
795.0
 20
1535.0
 30
0.0
 11
795.0
 21
1715.0
 31
0.0
  0
LINE
  5
2951
330
1A
100
AcDbEntity
  8
0
 62
     7
 48
8.0
370
    -1
100
AcDbLine
 10
2255.0
 20
1615.0
 30
0.0
 11
2255.0
 21
1535.0
 31
0.0
  0
LINE
  5
2952
330
1A
100
AcDbEntity
  8
0
 62
     7
 48
8.0
370
    -1
100
AcDbLine
 10
2255.0
 20
1535.0
 30
0.0
 11
2155.0
 21
1535.0
 31
0.0
  0
LINE
  5
2953
330
1A
100
AcDbEntity
  8
0
 62
     7
 48
8.0
370
    -1
100
AcDbLine
 10
2155.0
 20
1535.0
 30
0.0
 11
2155.0
 21
1715.0
 31
0.0
  0
LINE
  5
2958
330
1A
100
AcDbEntity
  8
0
 62
     7
 48
8.0
370
    -1
100
AcDbLine
 10
3325.0
 20
1535.0
 30
0.0
 11
3325.0
 21
1410.0
 31
0.0
  0
LINE
  5
295A
330
1A
100
AcDbEntity
  8
0
 62
     7
 48
8.0
370
    -1
100
AcDbLine
 10
3325.0
 20
1410.0
 30
0.0
 11
3415.0
 21
1410.0
 31
0.0
  0
LINE
  5
295D
330
1A
100
AcDbEntity
  8
0
 62
     7
 48
8.0
370
    -1
100
AcDbLine
 10
3415.0
 20
1535.0
 30
0.0
 11
3415.0
 21
1410.0
 31
0.0
  0
LINE
  5
295E
330
1A
100
AcDbEntity
  8
0
 62
     7
 48
8.0
370
    -1
100
AcDbLine
 10
3325.0
 20
1460.0
 30
0.0
 11
3315.0
 21
1460.0
 31
0.0
  0
LINE
  5
295F
330
1A
100
AcDbEntity
  8
0
 62
     7
 48
8.0
370
    -1
100
AcDbLine
 10
3315.0
 20
1460.0
 30
0.0
 11
3315.0
 21
1400.0
 31
0.0
  0
LINE
  5
2960
330
1A
100
AcDbEntity
  8
0
 62
     7
 48
8.0
370
    -1
100
AcDbLine
 10
3315.0
 20
1400.0
 30
0.0
 11
3425.0
 21
1400.0
 31
0.0
  0
LINE
  5
2961
330
1A
100
AcDbEntity
  8
0
 62
     7
 48
8.0
370
    -1
100
AcDbLine
 10
3425.0
 20
1400.0
 30
0.0
 11
3425.0
 21
1460.0
 31
0.0
  0
LINE
  5
2962
330
1A
100
AcDbEntity
  8
0
 62
     7
 48
8.0
370
    -1
100
AcDbLine
 10
3425.0
 20
1460.0
 30
0.0
 11
3415.0
 21
1460.0
 31
0.0
  0
LINE
  5
29F5
330
1A
100
AcDbEntity
  8
0
 62
     7
 48
8.0
370
    -1
100
AcDbLine
 10
4240.0
 20
1535.0
 30
0.0
 11
4240.0
 21
1715.0
 31
0.0
  0
LINE
  5
29F6
330
1A
100
AcDbEntity
  8
0
 62
     7
 48
8.0
370
    -1
100
AcDbLine
 10
4340.0
 20
1715.0
 30
0.0
 11
4340.0
 21
1615.0
 31
0.0
  0
LINE
  5
2A1B
330
1A
100
AcDbEntity
  8
0
 62
     7
 48
8.0
370
    -1
100
AcDbLine
 10
4340.0
 20
1615.0
 30
0.0
 11
4340.0
 21
1535.0
 31
0.0
  0
LINE
  5
2A1C
330
1A
100
AcDbEntity
  8
0
 62
     7
 48
8.0
370
    -1
100
AcDbLine
 10
4340.0
 20
1535.0
 30
0.0
 11
4240.0
 21
1535.0
 31
0.0
  0
LINE
  5
2A3A
330
1A
100
AcDbEntity
  8
0
 62
     7
 48
8.0
370
    -1
100
AcDbLine
 10
3895.0
 20
1715.0
 30
0.0
 11
4340.0
 21
1715.0
 31
0.0
  0
LINE
  5
2A3B
330
1A
100
AcDbEntity
  8
0
 62
     7
 48
8.0
370
    -1
100
AcDbLine
 10
3900.0
 20
1615.0
 30
0.0
 11
4240.0
 21
1615.0
 31
0.0
  0
LINE
  5
2A3D
330
1A
100
AcDbEntity
  8
0
 62
     7
 48
8.0
370
    -1
100
AcDbLine
 10
4340.0
 20
1775.0
 30
0.0
 11
4155.0
 21
1775.0
 31
0.0
  0
LINE
  5
2A3E
330
1A
100
AcDbEntity
  8
0
 62
     7
 48
8.0
370
    -1
100
AcDbLine
 10
4175.0
 20
1775.0
 30
0.0
 11
4175.0
 21
1795.0
 31
0.0
  0
LINE
  5
2A3F
330
1A
100
AcDbEntity
  8
0
 62
     7
 48
8.0
370
    -1
100
AcDbLine
 10
4175.0
 20
1795.0
 30
0.0
 11
4060.0
 21
1795.0
 31
0.0
  0
LINE
  5
2A40
330
1A
100
AcDbEntity
  8
0
 62
     7
 48
8.0
370
    -1
100
AcDbLine
 10
4165.0
 20
1775.0
 30
0.0
 11
3900.0
 21
1775.0
 31
0.0
  0
LINE
  5
2A54
330
1A
100
AcDbEntity
  8
0
 62
     7
 48
8.0
370
    -1
100
AcDbLine
 10
4170.0
 20
1700.0
 30
0.0
 11
4170.0
 21
1640.0
 31
0.0
  0
LINE
  5
2A55
330
1A
100
AcDbEntity
  8
0
 62
     7
 48
8.0
370
    -1
100
AcDbLine
 10
4140.0
 20
1670.0
 30
0.0
 11
4200.0
 21
1670.0
 31
0.0
  0
CIRCLE
  5
2A56
330
1A
100
AcDbEntity
  8
0
 62
     7
 48
8.0
370
    -1
100
AcDbCircle
 10
4170.0
 20
1670.0
 30
0.0
 40
15.0
  0
LINE
  5
2A58
330
1A
100
AcDbEntity
  8
0
 62
     7
 48
8.0
370
    -1
100
AcDbLine
 10
4070.0
 20
1795.0
 30
0.0
 11
4015.0
 21
1795.0
 31
0.0
  0
LINE
  5
2A59
330
1A
100
AcDbEntity
  8
0
 62
     7
 48
8.0
370
    -1
100
AcDbLine
 10
4015.0
 20
1795.0
 30
0.0
 11
4015.0
 21
1775.0
 31
0.0
  0
LINE
  5
2A67
330
1A
100
AcDbEntity
  8
0
 62
     7
 48
8.0
370
    -1
100
AcDbLine
 10
3490.0
 20
1700.0
 30
0.0
 11
3490.0
 21
1640.0
 31
0.0
  0
LINE
  5
2A68
330
1A
100
AcDbEntity
  8
0
 62
     7
 48
8.0
370
    -1
100
AcDbLine
 10
3420.0
 20
1535.0
 30
0.0
 11
3420.0
 21
1715.0
 31
0.0
  0
LINE
  5
2A69
330
1A
100
AcDbEntity
  8
0
 62
     7
 48
8.0
370
    -1
100
AcDbLine
 10
3320.0
 20
1715.0
 30
0.0
 11
3320.0
 21
1615.0
 31
0.0
  0
LINE
  5
2A7C
330
1A
100
AcDbEntity
  8
0
 62
     7
 48
8.0
370
    -1
100
AcDbLine
 10
3520.0
 20
1670.0
 30
0.0
 11
3460.0
 21
1670.0
 31
0.0
  0
LINE
  5
2A7D
330
1A
100
AcDbEntity
  8
0
 62
     7
 48
8.0
370
    -1
100
AcDbLine
 10
4010.0
 20
1615.0
 30
0.0
 11
3420.0
 21
1615.0
 31
0.0
  0
LINE
  5
2A85
330
1A
100
AcDbEntity
  8
0
 62
     7
 48
8.0
370
    -1
100
AcDbLine
 10
3320.0
 20
1535.0
 30
0.0
 11
3420.0
 21
1535.0
 31
0.0
  0
CIRCLE
  5
2A86
330
1A
100
AcDbEntity
  8
0
 62
     7
 48
8.0
370
    -1
100
AcDbCircle
 10
3490.0
 20
1670.0
 30
0.0
 40
15.0
  0
LINE
  5
2A87
330
1A
100
AcDbEntity
  8
0
 62
     7
 48
8.0
370
    -1
100
AcDbLine
 10
3320.0
 20
1615.0
 30
0.0
 11
3320.0
 21
1535.0
 31
0.0
  0
LINE
  5
2A89
330
1A
100
AcDbEntity
  8
0
 62
     7
 48
8.0
370
    -1
100
AcDbLine
 10
3485.0
 20
1795.0
 30
0.0
 11
3600.0
 21
1795.0
 31
0.0
  0
LINE
  5
2A8A
330
1A
100
AcDbEntity
  8
0
 62
     7
 48
8.0
370
    -1
100
AcDbLine
 10
4015.0
 20
1715.0
 30
0.0
 11
3320.0
 21
1715.0
 31
0.0
  0
LINE
  5
2A8B
330
1A
100
AcDbEntity
  8
0
 62
     7
 48
8.0
370
    -1
100
AcDbLine
 10
3495.0
 20
1775.0
 30
0.0
 11
4010.0
 21
1775.0
 31
0.0
  0
LINE
  5
2A8C
330
1A
100
AcDbEntity
  8
0
 62
     7
 48
8.0
370
    -1
100
AcDbLine
 10
3590.0
 20
1795.0
 30
0.0
 11
3645.0
 21
1795.0
 31
0.0
  0
LINE
  5
2A8D
330
1A
100
AcDbEntity
  8
0
 62
     7
 48
8.0
370
    -1
100
AcDbLine
 10
3645.0
 20
1795.0
 30
0.0
 11
3645.0
 21
1775.0
 31
0.0
  0
LINE
  5
2A8E
330
1A
100
AcDbEntity
  8
0
 62
     7
 48
8.0
370
    -1
100
AcDbLine
 10
3320.0
 20
1775.0
 30
0.0
 11
3505.0
 21
1775.0
 31
0.0
  0
LINE
  5
2A8F
330
1A
100
AcDbEntity
  8
0
 62
     7
 48
8.0
370
    -1
100
AcDbLine
 10
3485.0
 20
1775.0
 30
0.0
 11
3485.0
 21
1795.0
 31
0.0
  0
LINE
  5
2B25
330
1A
100
AcDbEntity
  8
0
 62
     7
 48
8.0
370
    -1
100
AcDbLine
 10
2150.0
 20
1460.0
 30
0.0
 11
2115.0
 21
1420.0
 31
0.0
  0
LINE
  5
2B26
330
1A
100
AcDbEntity
  8
0
 62
     7
 48
8.0
370
    -1
100
AcDbLine
 10
2260.0
 20
1460.0
 30
0.0
 11
2295.0
 21
1420.0
 31
0.0
  0
LINE
  5
2B27
330
1A
100
AcDbEntity
  8
0
 62
     7
 48
8.0
370
    -1
100
AcDbLine
 10
2155.0
 20
1400.0
 30
0.0
 11
2260.0
 21
1400.0
 31
0.0
  0
LINE
  5
2B28
330
1A
100
AcDbEntity
  8
0
 62
     7
 48
8.0
370
    -1
100
AcDbLine
 10
2115.0
 20
1400.0
 30
0.0
 11
2295.0
 21
1400.0
 31
0.0
  0
LINE
  5
2B29
330
1A
100
AcDbEntity
  8
0
 62
     7
 48
8.0
370
    -1
100
AcDbLine
 10
2115.0
 20
1400.0
 30
0.0
 11
2115.0
 21
1420.0
 31
0.0
  0
LINE
  5
2B2A
330
1A
100
AcDbEntity
  8
0
 62
     7
 48
8.0
370
    -1
100
AcDbLine
 10
2150.0
 20
1400.0
 30
0.0
 11
2165.0
 21
1400.0
 31
0.0
  0
LINE
  5
2B2B
330
1A
100
AcDbEntity
  8
0
 62
     7
 48
8.0
370
    -1
100
AcDbLine
 10
2295.0
 20
1400.0
 30
0.0
 11
2295.0
 21
1420.0
 31
0.0
  0
LINE
  5
2B2D
330
1A
100
AcDbEntity
  8
0
 62
     7
 48
8.0
370
    -1
100
AcDbLine
 10
2260.0
 20
1460.0
 30
0.0
 11
2155.0
 21
1460.0
 31
0.0
  0
LINE
  5
2B2E
330
1A
100
AcDbEntity
  8
0
 62
     7
 48
8.0
370
    -1
100
AcDbLine
 10
2160.0
 20
1535.0
 30
0.0
 11
2160.0
 21
1460.0
 31
0.0
  0
LINE
  5
2B2F
330
1A
100
AcDbEntity
  8
0
 62
     7
 48
8.0
370
    -1
100
AcDbLine
 10
2150.0
 20
1460.0
 30
0.0
 11
2160.0
 21
1460.0
 31
0.0
  0
LINE
  5
2B30
330
1A
100
AcDbEntity
  8
0
 62
     7
 48
8.0
370
    -1
100
AcDbLine
 10
2250.0
 20
1535.0
 30
0.0
 11
2250.0
 21
1460.0
 31
0.0
  0
LINE
  5
2B31
330
1A
100
AcDbEntity
  8
0
 62
     7
 48
8.0
370
    -1
100
AcDbLine
 10
2250.0
 20
1460.0
 30
0.0
 11
2260.0
 21
1460.0
 31
0.0
  0
LINE
  5
2B32
330
1A
100
AcDbEntity
  8
0
 62
     7
 48
8.0
370
    -1
100
AcDbLine
 10
745.0
 20
1470.0
 30
0.0
 11
745.0
 21
1410.0
 31
0.0
  0
LINE
  5
2B34
330
1A
100
AcDbEntity
  8
0
 62
     7
 48
8.0
370
    -1
100
AcDbLine
 10
690.0
 20
1460.0
 30
0.0
 11
655.0
 21
1420.0
 31
0.0
  0
LINE
  5
2B35
330
1A
100
AcDbEntity
  8
0
 62
     7
 48
8.0
370
    -1
100
AcDbLine
 10
800.0
 20
1460.0
 30
0.0
 11
835.0
 21
1420.0
 31
0.0
  0
LINE
  5
2B36
330
1A
100
AcDbEntity
  8
0
 62
     7
 48
8.0
370
    -1
100
AcDbLine
 10
655.0
 20
1400.0
 30
0.0
 11
835.0
 21
1400.0
 31
0.0
  0
LINE
  5
2B37
330
1A
100
AcDbEntity
  8
0
 62
     7
 48
8.0
370
    -1
100
AcDbLine
 10
655.0
 20
1400.0
 30
0.0
 11
655.0
 21
1420.0
 31
0.0
  0
LINE
  5
2B38
330
1A
100
AcDbEntity
  8
0
 62
     7
 48
8.0
370
    -1
100
AcDbLine
 10
695.0
 20
1400.0
 30
0.0
 11
800.0
 21
1400.0
 31
0.0
  0
LINE
  5
2B39
330
1A
100
AcDbEntity
  8
0
 62
     7
 48
8.0
370
    -1
100
AcDbLine
 10
690.0
 20
1400.0
 30
0.0
 11
705.0
 21
1400.0
 31
0.0
  0
LINE
  5
2B3A
330
1A
100
AcDbEntity
  8
0
 62
     7
 48
8.0
370
    -1
100
AcDbLine
 10
835.0
 20
1400.0
 30
0.0
 11
835.0
 21
1420.0
 31
0.0
  0
LINE
  5
2B3B
330
1A
100
AcDbEntity
  8
0
 62
     7
 48
8.0
370
    -1
100
AcDbLine
 10
790.0
 20
1535.0
 30
0.0
 11
790.0
 21
1460.0
 31
0.0
  0
LINE
  5
2B3C
330
1A
100
AcDbEntity
  8
0
 62
     7
 48
8.0
370
    -1
100
AcDbLine
 10
700.0
 20
1535.0
 30
0.0
 11
700.0
 21
1460.0
 31
0.0
  0
LINE
  5
2B3D
330
1A
100
AcDbEntity
  8
0
 62
     7
 48
8.0
370
    -1
100
AcDbLine
 10
715.0
 20
1440.0
 30
0.0
 11
775.0
 21
1440.0
 31
0.0
  0
LINE
  5
2B3E
330
1A
100
AcDbEntity
  8
0
 62
     7
 48
8.0
370
    -1
100
AcDbLine
 10
800.0
 20
1460.0
 30
0.0
 11
695.0
 21
1460.0
 31
0.0
  0
LINE
  5
2B3F
330
1A
100
AcDbEntity
  8
0
 62
     7
 48
8.0
370
    -1
100
AcDbLine
 10
690.0
 20
1460.0
 30
0.0
 11
700.0
 21
1460.0
 31
0.0
  0
LINE
  5
2B40
330
1A
100
AcDbEntity
  8
0
 62
     7
 48
8.0
370
    -1
100
AcDbLine
 10
790.0
 20
1460.0
 30
0.0
 11
800.0
 21
1460.0
 31
0.0
  0
LINE
  5
2B41
330
1A
100
AcDbEntity
  8
0
 62
     7
 48
8.0
370
    -1
100
AcDbLine
 10
3325.0
 20
1420.0
 30
0.0
 11
3415.0
 21
1420.0
 31
0.0
  0
CIRCLE
  5
2B42
330
1A
100
AcDbEntity
  8
0
 62
     7
 48
8.0
370
    -1
100
AcDbCircle
 10
745.0
 20
1440.0
 30
0.0
 40
10.0
  0
LINE
  5
2B43
330
1A
100
AcDbEntity
  8
0
 62
     7
 48
8.0
370
    -1
100
AcDbLine
 10
2205.0
 20
1470.0
 30
0.0
 11
2205.0
 21
1410.0
 31
0.0
  0
CIRCLE
  5
2B44
330
1A
100
AcDbEntity
  8
0
 62
     7
 48
8.0
370
    -1
100
AcDbCircle
 10
2205.0
 20
1440.0
 30
0.0
 40
10.0
  0
LINE
  5
2B45
330
1A
100
AcDbEntity
  8
0
 62
     7
 48
8.0
370
    -1
100
AcDbLine
 10
2175.0
 20
1440.0
 30
0.0
 11
2235.0
 21
1440.0
 31
0.0
  0
CIRCLE
  5
2B46
330
1A
100
AcDbEntity
  8
0
 62
     7
 48
8.0
370
    -1
100
AcDbCircle
 10
3370.0
 20
1440.0
 30
0.0
 40
10.0
  0
LINE
  5
2B47
330
1A
100
AcDbEntity
  8
0
 62
     7
 48
8.0
370
    -1
100
AcDbLine
 10
3370.0
 20
1470.0
 30
0.0
 11
3370.0
 21
1410.0
 31
0.0
  0
LINE
  5
2B48
330
1A
100
AcDbEntity
  8
0
 62
     7
 48
8.0
370
    -1
100
AcDbLine
 10
3340.0
 20
1440.0
 30
0.0
 11
3400.0
 21
1440.0
 31
0.0
  0
LINE
  5
2B4C
330
1A
100
AcDbEntity
  8
0
 62
     7
 48
8.0
370
    -1
100
AcDbLine
 10
3315.0
 20
1445.0
 30
0.0
 11
3305.0
 21
1445.0
 31
0.0
  0
LINE
  5
2B4D
330
1A
100
AcDbEntity
  8
0
 62
     7
 48
8.0
370
    -1
100
AcDbLine
 10
3305.0
 20
1445.0
 30
0.0
 11
3305.0
 21
1430.0
 31
0.0
  0
LINE
  5
2B4E
330
1A
100
AcDbEntity
  8
0
 62
     7
 48
8.0
370
    -1
100
AcDbLine
 10
3305.0
 20
1430.0
 30
0.0
 11
3315.0
 21
1430.0
 31
0.0
  0
LINE
  5
2B4F
330
1A
100
AcDbEntity
  8
0
 62
     7
 48
8.0
370
    -1
100
AcDbLine
 10
3425.0
 20
1445.0
 30
0.0
 11
3435.0
 21
1445.0
 31
0.0
  0
LINE
  5
2B50
330
1A
100
AcDbEntity
  8
0
 62
     7
 48
8.0
370
    -1
100
AcDbLine
 10
3435.0
 20
1445.0
 30
0.0
 11
3435.0
 21
1430.0
 31
0.0
  0
LINE
  5
2B51
330
1A
100
AcDbEntity
  8
0
 62
     7
 48
8.0
370
    -1
100
AcDbLine
 10
3435.0
 20
1430.0
 30
0.0
 11
3425.0
 21
1430.0
 31
0.0
  0
LINE
  5
2B52
330
1A
100
AcDbEntity
  8
0
 62
     7
 48
8.0
370
    -1
100
AcDbLine
 10
4355.0
 20
1445.0
 30
0.0
 11
4355.0
 21
1430.0
 31
0.0
  0
LINE
  5
2B53
330
1A
100
AcDbEntity
  8
0
 62
     7
 48
8.0
370
    -1
100
AcDbLine
 10
4225.0
 20
1445.0
 30
0.0
 11
4225.0
 21
1430.0
 31
0.0
  0
LINE
  5
2B54
330
1A
100
AcDbEntity
  8
0
 62
     7
 48
8.0
370
    -1
100
AcDbLine
 10
4290.0
 20
1470.0
 30
0.0
 11
4290.0
 21
1410.0
 31
0.0
  0
CIRCLE
  5
2B55
330
1A
100
AcDbEntity
  8
0
 62
     7
 48
8.0
370
    -1
100
AcDbCircle
 10
4290.0
 20
1440.0
 30
0.0
 40
10.0
  0
LINE
  5
2B56
330
1A
100
AcDbEntity
  8
0
 62
     7
 48
8.0
370
    -1
100
AcDbLine
 10
4345.0
 20
1400.0
 30
0.0
 11
4345.0
 21
1460.0
 31
0.0
  0
LINE
  5
2B57
330
1A
100
AcDbEntity
  8
0
 62
     7
 48
8.0
370
    -1
100
AcDbLine
 10
4235.0
 20
1460.0
 30
0.0
 11
4235.0
 21
1400.0
 31
0.0
  0
LINE
  5
2B58
330
1A
100
AcDbEntity
  8
0
 62
     7
 48
8.0
370
    -1
100
AcDbLine
 10
4335.0
 20
1535.0
 30
0.0
 11
4335.0
 21
1410.0
 31
0.0
  0
LINE
  5
2B59
330
1A
100
AcDbEntity
  8
0
 62
     7
 48
8.0
370
    -1
100
AcDbLine
 10
4245.0
 20
1535.0
 30
0.0
 11
4245.0
 21
1410.0
 31
0.0
  0
LINE
  5
2B5A
330
1A
100
AcDbEntity
  8
0
 62
     7
 48
8.0
370
    -1
100
AcDbLine
 10
4245.0
 20
1420.0
 30
0.0
 11
4335.0
 21
1420.0
 31
0.0
  0
LINE
  5
2B5B
330
1A
100
AcDbEntity
  8
0
 62
     7
 48
8.0
370
    -1
100
AcDbLine
 10
4245.0
 20
1410.0
 30
0.0
 11
4335.0
 21
1410.0
 31
0.0
  0
LINE
  5
2B5C
330
1A
100
AcDbEntity
  8
0
 62
     7
 48
8.0
370
    -1
100
AcDbLine
 10
4235.0
 20
1400.0
 30
0.0
 11
4345.0
 21
1400.0
 31
0.0
  0
LINE
  5
2B5D
330
1A
100
AcDbEntity
  8
0
 62
     7
 48
8.0
370
    -1
100
AcDbLine
 10
4225.0
 20
1430.0
 30
0.0
 11
4235.0
 21
1430.0
 31
0.0
  0
LINE
  5
2B5E
330
1A
100
AcDbEntity
  8
0
 62
     7
 48
8.0
370
    -1
100
AcDbLine
 10
4355.0
 20
1430.0
 30
0.0
 11
4345.0
 21
1430.0
 31
0.0
  0
LINE
  5
2B5F
330
1A
100
AcDbEntity
  8
0
 62
     7
 48
8.0
370
    -1
100
AcDbLine
 10
4260.0
 20
1440.0
 30
0.0
 11
4320.0
 21
1440.0
 31
0.0
  0
LINE
  5
2B60
330
1A
100
AcDbEntity
  8
0
 62
     7
 48
8.0
370
    -1
100
AcDbLine
 10
4235.0
 20
1445.0
 30
0.0
 11
4225.0
 21
1445.0
 31
0.0
  0
LINE
  5
2B61
330
1A
100
AcDbEntity
  8
0
 62
     7
 48
8.0
370
    -1
100
AcDbLine
 10
4245.0
 20
1460.0
 30
0.0
 11
4235.0
 21
1460.0
 31
0.0
  0
LINE
  5
2B62
330
1A
100
AcDbEntity
  8
0
 62
     7
 48
8.0
370
    -1
100
AcDbLine
 10
4345.0
 20
1460.0
 30
0.0
 11
4335.0
 21
1460.0
 31
0.0
  0
LINE
  5
2B63
330
1A
100
AcDbEntity
  8
0
 62
     7
 48
8.0
370
    -1
100
AcDbLine
 10
4345.0
 20
1445.0
 30
0.0
 11
4355.0
 21
1445.0
 31
0.0
  0
LINE
  5
2B64
330
1A
100
AcDbEntity
  8
0
 62
     7
 48
8.0
370
    -1
100
AcDbLine
 10
680.0
 20
1410.0
 30
0.0
 11
680.0
 21
1380.0
 31
0.0
  0
LINE
  5
2B65
330
1A
100
AcDbEntity
  8
0
 62
     7
 48
8.0
370
    -1
100
AcDbLine
 10
810.0
 20
1410.0
 30
0.0
 11
810.0
 21
1380.0
 31
0.0
  0
LINE
  5
2B66
330
1A
100
AcDbEntity
  8
0
 62
     7
 48
8.0
370
    -1
100
AcDbLine
 10
2140.0
 20
1410.0
 30
0.0
 11
2140.0
 21
1380.0
 31
0.0
  0
LINE
  5
2B67
330
1A
100
AcDbEntity
  8
0
 62
     7
 48
8.0
370
    -1
100
AcDbLine
 10
2270.0
 20
1410.0
 30
0.0
 11
2270.0
 21
1380.0
 31
0.0
  0
LINE
  5
2BE2
330
1A
100
AcDbEntity
  8
0
 62
     7
 48
8.0
370
    -1
100
AcDbLine
 10
3320.0
 20
1715.0
 30
0.0
 11
3320.0
 21
1715.0
 31
0.0
  0
LINE
  5
2BE3
330
1A
100
AcDbEntity
  8
0
 62
     7
 48
8.0
370
    -1
100
AcDbLine
 10
3320.0
 20
1715.0
 30
0.0
 11
3320.0
 21
1775.0
 31
0.0
  0
LINE
  5
2BE4
330
1A
100
AcDbEntity
  8
0
 62
     7
 48
8.0
370
    -1
100
AcDbLine
 10
3320.0
 20
1775.0
 30
0.0
 11
3325.0
 21
1775.0
 31
0.0
  0
LINE
  5
2BE5
330
1A
100
AcDbEntity
  8
0
 62
     7
 48
8.0
370
    -1
100
AcDbLine
 10
4340.0
 20
1775.0
 30
0.0
 11
4340.0
 21
1775.0
 31
0.0
  0
LINE
  5
2BE6
330
1A
100
AcDbEntity
  8
0
 62
     7
 48
8.0
370
    -1
100
AcDbLine
 10
4340.0
 20
1775.0
 30
0.0
 11
4340.0
 21
1715.0
 31
0.0
  0
LINE
  5
2BE7
330
1A
100
AcDbEntity
  8
0
 62
     7
 48
8.0
370
    -1
100
AcDbLine
 10
4340.0
 20
1715.0
 30
0.0
 11
4340.0
 21
1715.0
 31
0.0
  0
LINE
  5
2BE8
330
1A
100
AcDbEntity
  8
0
 62
     7
 48
8.0
370
    -1
100
AcDbLine
 10
2025.0
 20
2745.0
 30
0.0
 11
2155.0
 21
2745.0
 31
0.0
  0
LINE
  5
2BE9
330
1A
100
AcDbEntity
  8
0
 62
     7
 48
8.0
370
    -1
100
AcDbLine
 10
2155.0
 20
2645.0
 30
0.0
 11
2255.0
 21
2645.0
 31
0.0
  0
LINE
  5
2BEA
330
1A
100
AcDbEntity
  8
0
 62
     7
 48
8.0
370
    -1
100
AcDbLine
 10
2155.0
 20
2745.0
 30
0.0
 11
2255.0
 21
2745.0
 31
0.0
  0
LINE
  5
2BEB
330
1A
100
AcDbEntity
  8
0
 62
     7
 48
8.0
370
    -1
100
AcDbLine
 10
695.0
 20
2645.0
 30
0.0
 11
795.0
 21
2645.0
 31
0.0
  0
LINE
  5
2BEC
330
1A
100
AcDbEntity
  8
0
 62
     7
 48
8.0
370
    -1
100
AcDbLine
 10
695.0
 20
3665.0
 30
0.0
 11
795.0
 21
3665.0
 31
0.0
  0
LINE
  5
2BED
330
1A
100
AcDbEntity
  8
0
 62
     7
 48
8.0
370
    -1
100
AcDbLine
 10
695.0
 20
3565.0
 30
0.0
 11
915.0
 21
3565.0
 31
0.0
  0
LINE
  5
2BEE
330
1A
100
AcDbEntity
  8
0
 62
     7
 48
8.0
370
    -1
100
AcDbLine
 10
2155.0
 20
3665.0
 30
0.0
 11
2255.0
 21
3665.0
 31
0.0
  0
LINE
  5
2BEF
330
1A
100
AcDbEntity
  8
0
 62
     7
 48
8.0
370
    -1
100
AcDbLine
 10
2025.0
 20
3565.0
 30
0.0
 11
2255.0
 21
3565.0
 31
0.0
  0
LINE
  5
2C11
330
1A
100
AcDbEntity
  8
0
 62
     7
 48
8.0
370
    -1
100
AcDbLine
 10
820.0
 20
3465.0
 30
0.0
 11
795.0
 21
3465.0
 31
0.0
  0
LINE
  5
2C12
330
1A
100
AcDbEntity
  8
0
 62
     7
 48
8.0
370
    -1
100
AcDbLine
 10
2135.0
 20
3465.0
 30
0.0
 11
2155.0
 21
3465.0
 31
0.0
  0
LINE
  5
2C13
330
1A
100
AcDbEntity
  8
0
 62
     7
 48
8.0
370
    -1
100
AcDbLine
 10
795.0
 20
2845.0
 30
0.0
 11
825.0
 21
2845.0
 31
0.0
  0
LINE
  5
2C14
330
1A
100
AcDbEntity
  8
0
 62
     7
 48
8.0
370
    -1
100
AcDbLine
 10
2145.0
 20
2845.0
 30
0.0
 11
2155.0
 21
2845.0
 31
0.0
  0
LINE
  5
2C15
330
1A
100
AcDbEntity
  8
0
 62
     7
 48
8.0
370
    -1
100
AcDbLine
 10
795.0
 20
2745.0
 30
0.0
 11
795.0
 21
2725.0
 31
0.0
  0
LINE
  5
2C16
330
1A
100
AcDbEntity
  8
0
 62
     7
 48
8.0
370
    -1
100
AcDbLine
 10
795.0
 20
3465.0
 30
0.0
 11
795.0
 21
2845.0
 31
0.0
  0
LINE
  5
2C17
330
1A
100
AcDbEntity
  8
0
 62
     7
 48
8.0
370
    -1
100
AcDbLine
 10
2155.0
 20
3465.0
 30
0.0
 11
2155.0
 21
2845.0
 31
0.0
  0
LINE
  5
2C67
330
1A
100
AcDbEntity
  8
0
 62
     7
 48
8.0
370
    -1
100
AcDbLine
 10
2225.0
 20
3515.0
 30
0.0
 11
2165.0
 21
3515.0
 31
0.0
  0
CIRCLE
  5
2C68
330
1A
100
AcDbEntity
  8
0
 62
     7
 48
8.0
370
    -1
100
AcDbCircle
 10
2195.0
 20
3515.0
 30
0.0
 40
15.0
  0
LINE
  5
2C69
330
1A
100
AcDbEntity
  8
0
 62
     7
 48
8.0
370
    -1
100
AcDbLine
 10
2195.0
 20
3545.0
 30
0.0
 11
2195.0
 21
3485.0
 31
0.0
  0
CIRCLE
  5
2C6A
330
1A
100
AcDbEntity
  8
0
 62
     7
 48
8.0
370
    -1
100
AcDbCircle
 10
2195.0
 20
2795.0
 30
0.0
 40
15.0
  0
LINE
  5
2C6B
330
1A
100
AcDbEntity
  8
0
 62
     7
 48
8.0
370
    -1
100
AcDbLine
 10
2225.0
 20
2795.0
 30
0.0
 11
2165.0
 21
2795.0
 31
0.0
  0
LINE
  5
2C6C
330
1A
100
AcDbEntity
  8
0
 62
     7
 48
8.0
370
    -1
100
AcDbLine
 10
2195.0
 20
2765.0
 30
0.0
 11
2195.0
 21
2825.0
 31
0.0
  0
LINE
  5
2C6D
330
1A
100
AcDbEntity
  8
0
 62
     7
 48
8.0
370
    -1
100
AcDbLine
 10
715.0
 20
2795.0
 30
0.0
 11
775.0
 21
2795.0
 31
0.0
  0
CIRCLE
  5
2C6E
330
1A
100
AcDbEntity
  8
0
 62
     7
 48
8.0
370
    -1
100
AcDbCircle
 10
745.0
 20
2795.0
 30
0.0
 40
15.0
  0
LINE
  5
2C6F
330
1A
100
AcDbEntity
  8
0
 62
     7
 48
8.0
370
    -1
100
AcDbLine
 10
745.0
 20
2765.0
 30
0.0
 11
745.0
 21
2825.0
 31
0.0
  0
LINE
  5
2C70
330
1A
100
AcDbEntity
  8
0
 48
8.0
370
    -1
100
AcDbLine
 10
795.0
 20
3565.0
 30
0.0
 11
795.0
 21
3465.0
 31
0.0
  0
LINE
  5
2C71
330
1A
100
AcDbEntity
  8
0
 48
8.0
370
    -1
100
AcDbLine
 10
795.0
 20
2845.0
 30
0.0
 11
795.0
 21
2725.0
 31
0.0
  0
LINE
  5
2C74
330
1A
100
AcDbEntity
  8
0
 48
8.0
370
    -1
100
AcDbLine
 10
2155.0
 20
3565.0
 30
0.0
 11
2155.0
 21
3465.0
 31
0.0
  0
LINE
  5
2C75
330
1A
100
AcDbEntity
  8
0
 48
8.0
370
    -1
100
AcDbLine
 10
2155.0
 20
2845.0
 30
0.0
 11
2155.0
 21
2745.0
 31
0.0
  0
VIEWPORT
  5
22
330
17
100
AcDbEntity
 67
     1
  8
0
370
    -1
100
AcDbViewport
 10
261.5176991150443
 20
154.7242978687079
 30
0.0
 40
523.0353982300885
 41
309.4485957374157
 68
     1
 69
     1
 12
261.5176991150443
 22
154.7242978687079
 13
0.0
 23
0.0
 14
1.0
 24
1.0
 15
10.0
 25
10.0
 16
0.0
 26
0.0
 36
1.0
 17
0.0
 27
0.0
 37
0.0
 42
50.0
 43
0.0
 44
0.0
 45
309.4485957374157
 50
0.0
 51
0.0
 72
   100
 90
    32768
  1

281
     0
 71
     1
 74
     0
110
0.0
120
0.0
130
0.0
111
1.0
121
0.0
131
0.0
112
0.0
122
1.0
132
0.0
 79
     0
146
0.0
  0
ENDSEC
  0
SECTION
  2
OBJECTS
  0
DICTIONARY
  5
C
330
0
100
AcDbDictionary
281
     1
  3
ACAD_GROUP
350
D
  3
ACAD_LAYOUT
350
2CE9
  3
ACAD_MLINESTYLE
350
E
  3
ACAD_PLOTSETTINGS
350
2CEA
  3
ACAD_PLOTSTYLENAME
350
2CE7
  3
ACAD_SCALELIST
350
2EA1
  3
AcDbVariableDictionary
350
2E5E
  3
APPDATA
350
2EC8
  3
DWGPROPS
350
2EC9
  0
DICTIONARY
  5
2E6F
330
2
100
AcDbDictionary
280
     1
281
     1
  3
ACAD_LAYERFILTERS
360
2E73
  3
ACLYDICTIONARY
360
2E72
  0
DICTIONARY
  5
D
102
{ACAD_REACTORS
330
C
102
}
330
C
100
AcDbDictionary
281
     1
  0
DICTIONARY
  5
2CE9
102
{ACAD_REACTORS
330
C
102
}
330
C
100
AcDbDictionary
281
     1
  3
Model
350
2CEB
  3
ﾚｲｱｳﾄ1
350
2CEC
  0
DICTIONARY
  5
E
102
{ACAD_REACTORS
330
C
102
}
330
C
100
AcDbDictionary
281
     1
  3
STANDARD
350
13
  0
DICTIONARY
  5
2CEA
102
{ACAD_REACTORS
330
C
102
}
330
C
100
AcDbDictionary
281
     1
  0
ACDBDICTIONARYWDFLT
  5
2CE7
102
{ACAD_REACTORS
330
C
102
}
330
C
100
AcDbDictionary
281
     1
  3
Normal
350
2CE8
100
AcDbDictionaryWithDefault
340
2CE8
  0
DICTIONARY
  5
2EA1
102
{ACAD_REACTORS
330
C
102
}
330
C
100
AcDbDictionary
281
     1
  3
A0
350
2EA2
  3
A1
350
2EA3
  3
A2
350
2EA4
  3
A3
350
2EA5
  3
A4
350
2EA6
  3
A5
350
2EA7
  3
A6
350
2EA8
  3
A7
350
2EA9
  3
A8
350
2EAA
  3
A9
350
2EAB
  3
B0
350
2EAC
  3
B1
350
2EAD
  3
B2
350
2EAE
  3
B3
350
2EAF
  3
B4
350
2EB0
  3
B5
350
2EB1
  3
B6
350
2EB2
  3
B7
350
2EB3
  3
B8
350
2EB4
  3
B9
350
2EB5
  3
C0
350
2EB6
  3
C1
350
2EB7
  3
C2
350
2EB8
  3
C3
350
2EB9
  3
C4
350
2EBA
  3
C5
350
2EBB
  3
C6
350
2EBC
  3
C7
350
2EBD
  3
C8
350
2EBE
  3
C9
350
2EBF
  3
D0
350
2EC0
  3
D1
350
2EC1
  3
D2
350
2EC2
  0
DICTIONARY
  5
2E5E
102
{ACAD_REACTORS
330
C
102
}
330
C
100
AcDbDictionary
281
     1
  3
DIMASSOC
350
2E5F
  3
PROJECTNAME
350
2E87
  0
DICTIONARY
  5
2EC8
102
{ACAD_REACTORS
330
C
102
}
330
C
100
AcDbDictionary
281
     1
  0
XRECORD
  5
2EC9
102
{ACAD_REACTORS
330
C
102
}
330
C
100
AcDbXrecord
280
     1
  1
DWGPROPS COOKIE
  2

  3

  4

  6

  7

  8
2344
  9

300
=
301
=
302
=
303
=
304
=
305
=
306
=
307
=
308
=
309
=
 40
0.0
 41
2450750.102432176
 42
2458968.21901287
  1

 90
        0
  0
DICTIONARY
  5
2E73
102
{ACAD_REACTORS
330
2E6F
102
}
330
2E6F
100
AcDbDictionary
281
     1
  0
DICTIONARY
  5
2E72
102
{ACAD_REACTORS
330
2E6F
102
}
330
2E6F
100
AcDbDictionary
281
     1
1001
ACAD
1000
<All
  0
LAYOUT
  5
2CEB
102
{ACAD_REACTORS
330
2CE9
102
}
330
2CE9
100
AcDbPlotSettings
  1

  2
\\PRESARIO\CANON_USB
  4
A4
  6

 40
5.873749732971191
 41
5.916075706481934
 42
5.873748779296875
 43
5.873748779296875
 44
209.9733276367188
 45
296.9683227539062
 46
0.01
 47
0.0
 48
0.0
 49
0.0
140
0.0
141
0.0
142
1.0
143
21.0394543643285
 70
 11956
 72
     1
 73
     1
 74
     2
  7

 75
     0
147
0.0475297497113546
148
0.0
149
0.0
100
AcDbLayout
  1
Model
 70
     1
 71
     0
 10
0.0
 20
0.0
 11
12.0
 21
9.0
 12
0.0
 22
0.0
 32
0.0
 14
655.0
 24
1380.0
 34
0.0
 15
4355.0
 25
3665.0
 35
0.0
146
0.0
 13
0.0
 23
0.0
 33
0.0
 16
1.0
 26
0.0
 36
0.0
 17
0.0
 27
1.0
 37
0.0
 76
     0
330
1A
331
2E7E
  0
LAYOUT
  5
2CEC
102
{ACAD_REACTORS
330
2CE9
102
}
330
2CE9
100
AcDbPlotSettings
  1

  2
\\PRESARIO\CANON_USB
  4

  6

 40
0.0
 41
0.0
 42
0.0
 43
0.0
 44
0.0
 45
0.0
 46
0.0
 47
0.0
 48
0.0
 49
0.0
140
0.0
141
0.0
142
1.0
143
1.0
 70
   688
 72
     0
 73
     0
 74
     5
  7

 75
    16
147
1.0
148
0.0
149
0.0
100
AcDbLayout
  1
ﾚｲｱｳﾄ1
 70
     1
 71
     1
 10
0.0
 20
0.0
 11
420.0
 21
297.0
 12
0.0
 22
0.0
 32
0.0
 14
1.000000000000000E+20
 24
1.000000000000000E+20
 34
1.000000000000000E+20
 15
-1.000000000000000E+20
 25
-1.000000000000000E+20
 35
-1.000000000000000E+20
146
0.0
 13
0.0
 23
0.0
 33
0.0
 16
1.0
 26
0.0
 36
0.0
 17
0.0
 27
1.0
 37
0.0
 76
     0
330
17
331
22
  0
MLINESTYLE
  5
13
102
{ACAD_REACTORS
330
E
102
}
330
E
100
AcDbMlineStyle
  2
STANDARD
 70
     0
  3

 62
     0
 51
90.0
 52
90.0
 71
     2
 49
0.5
 62
   256
  6
BYLAYER
 49
-0.5
 62
   256
  6
BYLAYER
  0
ACDBPLACEHOLDER
  5
2CE8
102
{ACAD_REACTORS
330
2CE7
102
}
330
2CE7
  0
SCALE
  5
2EA2
102
{ACAD_REACTORS
330
2EA1
102
}
330
2EA1
100
AcDbScale
 70
     0
300
1:1
140
1.0
141
1.0
290
     1
  0
SCALE
  5
2EA3
102
{ACAD_REACTORS
330
2EA1
102
}
330
2EA1
100
AcDbScale
 70
     0
300
1:2
140
1.0
141
2.0
290
     0
  0
SCALE
  5
2EA4
102
{ACAD_REACTORS
330
2EA1
102
}
330
2EA1
100
AcDbScale
 70
     0
300
1:4
140
1.0
141
4.0
290
     0
  0
SCALE
  5
2EA5
102
{ACAD_REACTORS
330
2EA1
102
}
330
2EA1
100
AcDbScale
 70
     0
300
1:5
140
1.0
141
5.0
290
     0
  0
SCALE
  5
2EA6
102
{ACAD_REACTORS
330
2EA1
102
}
330
2EA1
100
AcDbScale
 70
     0
300
1:8
140
1.0
141
8.0
290
     0
  0
SCALE
  5
2EA7
102
{ACAD_REACTORS
330
2EA1
102
}
330
2EA1
100
AcDbScale
 70
     0
300
1:10
140
1.0
141
10.0
290
     0
  0
SCALE
  5
2EA8
102
{ACAD_REACTORS
330
2EA1
102
}
330
2EA1
100
AcDbScale
 70
     0
300
1:16
140
1.0
141
16.0
290
     0
  0
SCALE
  5
2EA9
102
{ACAD_REACTORS
330
2EA1
102
}
330
2EA1
100
AcDbScale
 70
     0
300
1:20
140
1.0
141
20.0
290
     0
  0
SCALE
  5
2EAA
102
{ACAD_REACTORS
330
2EA1
102
}
330
2EA1
100
AcDbScale
 70
     0
300
1:30
140
1.0
141
30.0
290
     0
  0
SCALE
  5
2EAB
102
{ACAD_REACTORS
330
2EA1
102
}
330
2EA1
100
AcDbScale
 70
     0
300
1:40
140
1.0
141
40.0
290
     0
  0
SCALE
  5
2EAC
102
{ACAD_REACTORS
330
2EA1
102
}
330
2EA1
100
AcDbScale
 70
     0
300
1:50
140
1.0
141
50.0
290
     0
  0
SCALE
  5
2EAD
102
{ACAD_REACTORS
330
2EA1
102
}
330
2EA1
100
AcDbScale
 70
     0
300
1:100
140
1.0
141
100.0
290
     0
  0
SCALE
  5
2EAE
102
{ACAD_REACTORS
330
2EA1
102
}
330
2EA1
100
AcDbScale
 70
     0
300
2:1
140
2.0
141
1.0
290
     0
  0
SCALE
  5
2EAF
102
{ACAD_REACTORS
330
2EA1
102
}
330
2EA1
100
AcDbScale
 70
     0
300
4:1
140
4.0
141
1.0
290
     0
  0
SCALE
  5
2EB0
102
{ACAD_REACTORS
330
2EA1
102
}
330
2EA1
100
AcDbScale
 70
     0
300
8:1
140
8.0
141
1.0
290
     0
  0
SCALE
  5
2EB1
102
{ACAD_REACTORS
330
2EA1
102
}
330
2EA1
100
AcDbScale
 70
     0
300
10:1
140
10.0
141
1.0
290
     0
  0
SCALE
  5
2EB2
102
{ACAD_REACTORS
330
2EA1
102
}
330
2EA1
100
AcDbScale
 70
     0
300
100:1
140
100.0
141
1.0
290
     0
  0
SCALE
  5
2EB3
102
{ACAD_REACTORS
330
2EA1
102
}
330
2EA1
100
AcDbScale
 70
     0
300
1/128" = 1'-0"
140
0.0078125
141
12.0
290
     0
  0
SCALE
  5
2EB4
102
{ACAD_REACTORS
330
2EA1
102
}
330
2EA1
100
AcDbScale
 70
     0
300
1/64" = 1'-0"
140
0.015625
141
12.0
290
     0
  0
SCALE
  5
2EB5
102
{ACAD_REACTORS
330
2EA1
102
}
330
2EA1
100
AcDbScale
 70
     0
300
1/32" = 1'-0"
140
0.03125
141
12.0
290
     0
  0
SCALE
  5
2EB6
102
{ACAD_REACTORS
330
2EA1
102
}
330
2EA1
100
AcDbScale
 70
     0
300
1/16" = 1'-0"
140
0.0625
141
12.0
290
     0
  0
SCALE
  5
2EB7
102
{ACAD_REACTORS
330
2EA1
102
}
330
2EA1
100
AcDbScale
 70
     0
300
3/32" = 1'-0"
140
0.09375
141
12.0
290
     0
  0
SCALE
  5
2EB8
102
{ACAD_REACTORS
330
2EA1
102
}
330
2EA1
100
AcDbScale
 70
     0
300
1/8" = 1'-0"
140
0.125
141
12.0
290
     0
  0
SCALE
  5
2EB9
102
{ACAD_REACTORS
330
2EA1
102
}
330
2EA1
100
AcDbScale
 70
     0
300
3/16" = 1'-0"
140
0.1875
141
12.0
290
     0
  0
SCALE
  5
2EBA
102
{ACAD_REACTORS
330
2EA1
102
}
330
2EA1
100
AcDbScale
 70
     0
300
1/4" = 1'-0"
140
0.25
141
12.0
290
     0
  0
SCALE
  5
2EBB
102
{ACAD_REACTORS
330
2EA1
102
}
330
2EA1
100
AcDbScale
 70
     0
300
3/8" = 1'-0"
140
0.375
141
12.0
290
     0
  0
SCALE
  5
2EBC
102
{ACAD_REACTORS
330
2EA1
102
}
330
2EA1
100
AcDbScale
 70
     0
300
1/2" = 1'-0"
140
0.5
141
12.0
290
     0
  0
SCALE
  5
2EBD
102
{ACAD_REACTORS
330
2EA1
102
}
330
2EA1
100
AcDbScale
 70
     0
300
3/4" = 1'-0"
140
0.75
141
12.0
290
     0
  0
SCALE
  5
2EBE
102
{ACAD_REACTORS
330
2EA1
102
}
330
2EA1
100
AcDbScale
 70
     0
300
1" = 1'-0"
140
1.0
141
12.0
290
     0
  0
SCALE
  5
2EBF
102
{ACAD_REACTORS
330
2EA1
102
}
330
2EA1
100
AcDbScale
 70
     0
300
1-1/2" = 1'-0"
140
1.5
141
12.0
290
     0
  0
SCALE
  5
2EC0
102
{ACAD_REACTORS
330
2EA1
102
}
330
2EA1
100
AcDbScale
 70
     0
300
3" = 1'-0"
140
3.0
141
12.0
290
     0
  0
SCALE
  5
2EC1
102
{ACAD_REACTORS
330
2EA1
102
}
330
2EA1
100
AcDbScale
 70
     0
300
6" = 1'-0"
140
6.0
141
12.0
290
     0
  0
SCALE
  5
2EC2
102
{ACAD_REACTORS
330
2EA1
102
}
330
2EA1
100
AcDbScale
 70
     0
300
1'-0" = 1'-0"
140
12.0
141
12.0
290
     0
  0
DICTIONARYVAR
  5
2E5F
102
{ACAD_REACTORS
330
2E5E
102
}
330
2E5E
100
DictionaryVariables
280
     0
  1
1
  0
DICTIONARYVAR
  5
2E87
102
{ACAD_REACTORS
330
2E5E
102
}
330
2E5E
100
DictionaryVariables
280
     0
  1

  0
ENDSEC
  0
EOF
