  0
SECTION
  2
HEADER
  9
$ACADVER
  1
AC1015
  9
$ACADMAINTVER
 70
     6
  9
$DWGCODEPAGE
  3
ANSI_932
  9
$INSBASE
 10
0.0
 20
0.0
 30
0.0
  9
$EXTMIN
 10
674.9999868285377
 20
964.9999951020941
 30
0.0
  9
$EXTMAX
 10
3910.276620936569
 20
3724.999995102094
 30
0.0
  9
$LIMMIN
 10
0.0
 20
0.0
  9
$LIMMAX
 10
5940.0
 20
4200.0
  9
$ORTHOMODE
 70
     1
  9
$REGENMODE
 70
     1
  9
$FILLMODE
 70
     1
  9
$QTEXTMODE
 70
     0
  9
$MIRRTEXT
 70
     1
  9
$LTSCALE
 40
10.0
  9
$ATTMODE
 70
     1
  9
$TEXTSIZE
 40
2.5
  9
$TRACEWID
 40
1.0
  9
$TEXTSTYLE
  7
STANDARD
  9
$CLAYER
  8
0
  9
$CELTYPE
  6
BYLAYER
  9
$CECOLOR
 62
   256
  9
$CELTSCALE
 40
1.0
  9
$DISPSILH
 70
     0
  9
$DIMSCALE
 40
16.0
  9
$DIMASZ
 40
2.5
  9
$DIMEXO
 40
2.0
  9
$DIMDLI
 40
3.75
  9
$DIMRND
 40
0.0
  9
$DIMDLE
 40
0.0
  9
$DIMEXE
 40
1.25
  9
$DIMTP
 40
0.0
  9
$DIMTM
 40
0.0
  9
$DIMTXT
 40
3.75
  9
$DIMCEN
 40
2.5
  9
$DIMTSZ
 40
0.0
  9
$DIMTOL
 70
     0
  9
$DIMLIM
 70
     0
  9
$DIMTIH
 70
     0
  9
$DIMTOH
 70
     0
  9
$DIMSE1
 70
     0
  9
$DIMSE2
 70
     0
  9
$DIMTAD
 70
     1
  9
$DIMZIN
 70
     8
  9
$DIMBLK
  1

  9
$DIMASO
 70
     1
  9
$DIMSHO
 70
     1
  9
$DIMPOST
  1

  9
$DIMAPOST
  1

  9
$DIMALT
 70
     0
  9
$DIMALTD
 70
     4
  9
$DIMALTF
 40
0.0394
  9
$DIMLFAC
 40
1.0
  9
$DIMTOFL
 70
     1
  9
$DIMTVP
 40
0.0
  9
$DIMTIX
 70
     0
  9
$DIMSOXD
 70
     0
  9
$DIMSAH
 70
     1
  9
$DIMBLK1
  1
OPEN
  9
$DIMBLK2
  1
OPEN
  9
$DIMSTYLE
  2
STANDARD-WS-20
  9
$DIMCLRD
 70
     7
  9
$DIMCLRE
 70
     7
  9
$DIMCLRT
 70
   256
  9
$DIMTFAC
 40
1.0
  9
$DIMGAP
 40
1.5
  9
$DIMJUST
 70
     0
  9
$DIMSD1
 70
     0
  9
$DIMSD2
 70
     0
  9
$DIMTOLJ
 70
     1
  9
$DIMTZIN
 70
     8
  9
$DIMALTZ
 70
     0
  9
$DIMALTTZ
 70
     0
  9
$DIMUPT
 70
     0
  9
$DIMDEC
 70
     2
  9
$DIMTDEC
 70
     2
  9
$DIMALTU
 70
     8
  9
$DIMALTTD
 70
     4
  9
$DIMTXSTY
  7
STYLE1
  9
$DIMAUNIT
 70
     0
  9
$DIMADEC
 70
     0
  9
$DIMALTRND
 40
0.0
  9
$DIMAZIN
 70
     0
  9
$DIMDSEP
 70
    46
  9
$DIMATFIT
 70
     3
  9
$DIMFRAC
 70
     0
  9
$DIMLDRBLK
  1

  9
$DIMLUNIT
 70
     2
  9
$DIMLWD
 70
    -2
  9
$DIMLWE
 70
    -2
  9
$DIMTMOVE
 70
     1
  9
$LUNITS
 70
     2
  9
$LUPREC
 70
     4
  9
$SKETCHINC
 40
1.0
  9
$FILLETRAD
 40
8.0
  9
$AUNITS
 70
     0
  9
$AUPREC
 70
     0
  9
$MENU
  1
acad
  9
$ELEVATION
 40
0.0
  9
$PELEVATION
 40
0.0
  9
$THICKNESS
 40
0.0
  9
$LIMCHECK
 70
     0
  9
$CHAMFERA
 40
10.0
  9
$CHAMFERB
 40
10.0
  9
$CHAMFERC
 40
20.0
  9
$CHAMFERD
 40
0.0
  9
$SKPOLY
 70
     0
  9
$TDCREATE
 40
2452346.979164468
  9
$TDUCREATE
 40
2452346.604164468
  9
$TDUPDATE
 40
2458968.620558507
  9
$TDUUPDATE
 40
2458968.245558507
  9
$TDINDWG
 40
0.0732806019
  9
$TDUSRTIMER
 40
0.0004084606
  9
$USRTIMER
 70
     1
  9
$ANGBASE
 50
0.0
  9
$ANGDIR
 70
     0
  9
$PDMODE
 70
     0
  9
$PDSIZE
 40
0.0
  9
$PLINEWID
 40
0.0
  9
$SPLFRAME
 70
     0
  9
$SPLINETYPE
 70
     6
  9
$SPLINESEGS
 70
     8
  9
$HANDSEED
  5
4145
  9
$SURFTAB1
 70
     6
  9
$SURFTAB2
 70
     6
  9
$SURFTYPE
 70
     6
  9
$SURFU
 70
     6
  9
$SURFV
 70
     6
  9
$UCSBASE
  2

  9
$UCSNAME
  2

  9
$UCSORG
 10
0.0
 20
0.0
 30
0.0
  9
$UCSXDIR
 10
1.0
 20
0.0
 30
0.0
  9
$UCSYDIR
 10
0.0
 20
1.0
 30
0.0
  9
$UCSORTHOREF
  2

  9
$UCSORTHOVIEW
 70
     0
  9
$UCSORGTOP
 10
0.0
 20
0.0
 30
0.0
  9
$UCSORGBOTTOM
 10
0.0
 20
0.0
 30
0.0
  9
$UCSORGLEFT
 10
0.0
 20
0.0
 30
0.0
  9
$UCSORGRIGHT
 10
0.0
 20
0.0
 30
0.0
  9
$UCSORGFRONT
 10
0.0
 20
0.0
 30
0.0
  9
$UCSORGBACK
 10
0.0
 20
0.0
 30
0.0
  9
$PUCSBASE
  2

  9
$PUCSNAME
  2

  9
$PUCSORG
 10
0.0
 20
0.0
 30
0.0
  9
$PUCSXDIR
 10
1.0
 20
0.0
 30
0.0
  9
$PUCSYDIR
 10
0.0
 20
1.0
 30
0.0
  9
$PUCSORTHOREF
  2

  9
$PUCSORTHOVIEW
 70
     0
  9
$PUCSORGTOP
 10
0.0
 20
0.0
 30
0.0
  9
$PUCSORGBOTTOM
 10
0.0
 20
0.0
 30
0.0
  9
$PUCSORGLEFT
 10
0.0
 20
0.0
 30
0.0
  9
$PUCSORGRIGHT
 10
0.0
 20
0.0
 30
0.0
  9
$PUCSORGFRONT
 10
0.0
 20
0.0
 30
0.0
  9
$PUCSORGBACK
 10
0.0
 20
0.0
 30
0.0
  9
$USERI1
 70
     0
  9
$USERI2
 70
     0
  9
$USERI3
 70
     0
  9
$USERI4
 70
     0
  9
$USERI5
 70
     0
  9
$USERR1
 40
0.0
  9
$USERR2
 40
0.0
  9
$USERR3
 40
0.0
  9
$USERR4
 40
0.0
  9
$USERR5
 40
0.0
  9
$WORLDVIEW
 70
     1
  9
$SHADEDGE
 70
     3
  9
$SHADEDIF
 70
    70
  9
$TILEMODE
 70
     1
  9
$MAXACTVP
 70
    48
  9
$PINSBASE
 10
0.0
 20
0.0
 30
0.0
  9
$PLIMCHECK
 70
     0
  9
$PEXTMIN
 10
1.000000000000000E+20
 20
1.000000000000000E+20
 30
1.000000000000000E+20
  9
$PEXTMAX
 10
-1.000000000000000E+20
 20
-1.000000000000000E+20
 30
-1.000000000000000E+20
  9
$PLIMMIN
 10
0.0
 20
0.0
  9
$PLIMMAX
 10
0.0
 20
0.0
  9
$UNITMODE
 70
     0
  9
$VISRETAIN
 70
     1
  9
$PLINEGEN
 70
     0
  9
$PSLTSCALE
 70
     1
  9
$TREEDEPTH
 70
  3020
  9
$CMLSTYLE
  2
STANDARD
  9
$CMLJUST
 70
     0
  9
$CMLSCALE
 40
20.0
  9
$PROXYGRAPHICS
 70
     1
  9
$MEASUREMENT
 70
     1
  9
$CELWEIGHT
370
    -1
  9
$ENDCAPS
280
     0
  9
$JOINSTYLE
280
     0
  9
$LWDISPLAY
290
     0
  9
$INSUNITS
 70
     0
  9
$HYPERLINKBASE
  1

  9
$STYLESHEET
  1

  9
$XEDIT
290
     1
  9
$CEPSNTYPE
380
     0
  9
$PSTYLEMODE
290
     1
  9
$FINGERPRINTGUID
  2
{e1c80767-f898-4a7a-949f-b691042a4f85}
  9
$VERSIONGUID
  2
{FAEB1C32-E019-11D5-929B-00C0DF256EC4}
  9
$EXTNAMES
290
     1
  9
$PSVPSCALE
 40
0.0
  9
$OLESTARTUP
290
     0
  0
ENDSEC
  0
SECTION
  2
CLASSES
  0
CLASS
  1
LWPOLYLINE
  2
AcDbPolyline
  3
ObjectDBX Classes
 90
        0
280
     0
281
     1
  0
CLASS
  1
DICTIONARYVAR
  2
AcDbDictionaryVar
  3
ObjectDBX Classes
 90
        0
280
     0
281
     0
  0
CLASS
  1
VISUALSTYLE
  2
AcDbVisualStyle
  3
ObjectDBX Classes
 90
     4095
280
     0
281
     0
  0
CLASS
  1
ACDBDICTIONARYWDFLT
  2
AcDbDictionaryWithDefault
  3
ObjectDBX Classes
 90
        0
280
     0
281
     0
  0
CLASS
  1
SCALE
  2
AcDbScale
  3
ObjectDBX Classes
 90
     1153
280
     0
281
     0
  0
CLASS
  1
MATERIAL
  2
AcDbMaterial
  3
ObjectDBX Classes
 90
     1153
280
     0
281
     0
  0
CLASS
  1
TABLESTYLE
  2
AcDbTableStyle
  3
ObjectDBX Classes
 90
     4095
280
     0
281
     0
  0
CLASS
  1
MLEADERSTYLE
  2
AcDbMLeaderStyle
  3
ACDB_MLEADERSTYLE_CLASS
 90
     4095
280
     0
281
     0
  0
CLASS
  1
ACDBPLACEHOLDER
  2
AcDbPlaceHolder
  3
ObjectDBX Classes
 90
        0
280
     0
281
     0
  0
CLASS
  1
LAYOUT
  2
AcDbLayout
  3
ObjectDBX Classes
 90
        0
280
     0
281
     0
  0
ENDSEC
  0
SECTION
  2
TABLES
  0
TABLE
  2
VPORT
  5
8
330
0
100
AcDbSymbolTable
 70
     1
  0
VPORT
  5
40F8
330
8
100
AcDbSymbolTableRecord
100
AcDbViewportTableRecord
  2
*ACTIVE
 70
     0
 10
0.0
 20
0.0
 11
1.0
 21
1.0
 12
2294.607618556368
 22
2359.196319479568
 13
0.0
 23
0.0
 14
10.0
 24
10.0
 15
10.0
 25
10.0
 16
0.0
 26
0.0
 36
1.0
 17
0.0
 27
0.0
 37
0.0
 40
3275.327165924046
 41
2.29737609329446
 42
50.0
 43
0.0
 44
0.0
 50
0.0
 51
0.0
 71
    16
 72
   100
 73
     1
 74
     0
 75
     0
 76
     0
 77
     0
 78
     0
281
     0
 65
     1
110
0.0
120
0.0
130
0.0
111
1.0
121
0.0
131
0.0
112
0.0
122
1.0
132
0.0
 79
     0
146
0.0
  0
ENDTAB
  0
TABLE
  2
LTYPE
  5
5
330
0
100
AcDbSymbolTable
 70
     2
  0
LTYPE
  5
12
330
5
100
AcDbSymbolTableRecord
100
AcDbLinetypeTableRecord
  2
BYBLOCK
 70
     0
  3

 72
    65
 73
     0
 40
0.0
  0
LTYPE
  5
13
330
5
100
AcDbSymbolTableRecord
100
AcDbLinetypeTableRecord
  2
BYLAYER
 70
     0
  3

 72
    65
 73
     0
 40
0.0
  0
LTYPE
  5
14
330
5
100
AcDbSymbolTableRecord
100
AcDbLinetypeTableRecord
  2
CONTINUOUS
 70
     0
  3
Solid line
 72
    65
 73
     0
 40
0.0
  0
LTYPE
  5
3457
330
5
100
AcDbSymbolTableRecord
100
AcDbLinetypeTableRecord
  2
CENTER
 70
     0
  3
____ _ ____ _ ____ _ ____ _ ____ _ ____ _ ____ 
 72
    65
 73
     4
 40
2.0
 49
1.25
 74
     0
 49
-0.25
 74
     0
 49
0.25
 74
     0
 49
-0.25
 74
     0
  0
ENDTAB
  0
TABLE
  2
LAYER
  5
2
330
0
100
AcDbSymbolTable
 70
     2
  0
LAYER
  5
E
330
2
100
AcDbSymbolTableRecord
100
AcDbLayerTableRecord
  2
0
 70
     0
 62
     7
  6
CONTINUOUS
370
    -3
390
4114
  0
LAYER
  5
16E
330
2
100
AcDbSymbolTableRecord
100
AcDbLayerTableRecord
  2
DEFPOINTS
 70
     0
 62
     7
  6
CONTINUOUS
290
     0
370
    -3
390
4114
  0
ENDTAB
  0
TABLE
  2
STYLE
  5
3
330
0
100
AcDbSymbolTable
 70
     2
  0
STYLE
  5
F
330
3
100
AcDbSymbolTableRecord
100
AcDbTextStyleTableRecord
  2
STANDARD
 70
     0
 40
0.0
 41
0.9
 50
0.0
 71
     0
 42
2.5
  3
txt.shx
  4

  0
STYLE
  5
26
330
3
100
AcDbSymbolTableRecord
100
AcDbTextStyleTableRecord
  2
STYLE1
 70
     0
 40
0.0
 41
0.9
 50
0.0
 71
     0
 42
100.0
  3
TXT.shx
  4
extfont.shx
  0
ENDTAB
  0
TABLE
  2
VIEW
  5
6
330
0
100
AcDbSymbolTable
 70
     0
  0
ENDTAB
  0
TABLE
  2
UCS
  5
7
330
0
100
AcDbSymbolTable
 70
     0
  0
ENDTAB
  0
TABLE
  2
APPID
  5
9
330
0
100
AcDbSymbolTable
 70
     2
  0
APPID
  5
10
330
9
100
AcDbSymbolTableRecord
100
AcDbRegAppTableRecord
  2
ACAD
 70
     0
  0
APPID
  5
2624
330
9
100
AcDbSymbolTableRecord
100
AcDbRegAppTableRecord
  2
DRAWINGVARIABLESXDATA
 70
     0
  0
ENDTAB
  0
TABLE
  2
DIMSTYLE
  5
A
330
0
100
AcDbSymbolTable
 70
     2
100
AcDbDimStyleTable
  0
DIMSTYLE
105
1D
330
A
100
AcDbSymbolTableRecord
100
AcDbDimStyleTableRecord
  2
STANDARD
 70
     0
178
     0
340
F
  0
DIMSTYLE
105
27
330
A
100
AcDbSymbolTableRecord
100
AcDbDimStyleTableRecord
  2
STANDARD-WS-20
 70
     0
 40
16.0
 41
2.5
 42
2.0
 43
3.75
 44
1.25
 73
     0
 74
     0
 77
     1
 78
     8
140
3.75
141
2.5
143
0.0394
147
1.5
171
     4
172
     1
173
     1
176
     7
177
     7
271
     2
178
   256
271
     2
272
     2
273
     8
274
     4
279
     1
284
     8
340
26
341
20
343
20
344
20
  0
ENDTAB
  0
TABLE
  2
BLOCK_RECORD
  5
1
330
0
100
AcDbSymbolTable
 70
    14
  0
BLOCK_RECORD
  5
18
330
1
100
AcDbSymbolTableRecord
100
AcDbBlockTableRecord
  2
*MODEL_SPACE
340
4138
  0
BLOCK_RECORD
  5
15
330
1
100
AcDbSymbolTableRecord
100
AcDbBlockTableRecord
  2
*PAPER_SPACE
340
4139
  0
BLOCK_RECORD
  5
20
330
1
100
AcDbSymbolTableRecord
100
AcDbBlockTableRecord
  2
_OPEN
340
0
102
{BLKREFS
331
4005
331
4010
331
4026
331
4031
331
403C
331
4047
331
4052
331
405D
331
4068
331
4073
331
407E
331
4089
331
4094
331
4006
331
4011
331
4027
331
4032
331
403D
331
4048
331
4053
331
405E
331
4069
331
4074
331
407F
331
408A
331
4095
331
0
331
0
102
}
  0
BLOCK_RECORD
  5
3E9D
330
1
100
AcDbSymbolTableRecord
100
AcDbBlockTableRecord
  2
*D1
340
0
  0
BLOCK_RECORD
  5
3EC0
330
1
100
AcDbSymbolTableRecord
100
AcDbBlockTableRecord
  2
*D2
340
0
  0
BLOCK_RECORD
  5
3EF0
330
1
100
AcDbSymbolTableRecord
100
AcDbBlockTableRecord
  2
*D4
340
0
  0
BLOCK_RECORD
  5
3F08
330
1
100
AcDbSymbolTableRecord
100
AcDbBlockTableRecord
  2
*D5
340
0
  0
BLOCK_RECORD
  5
3F20
330
1
100
AcDbSymbolTableRecord
100
AcDbBlockTableRecord
  2
*D6
340
0
  0
BLOCK_RECORD
  5
3F38
330
1
100
AcDbSymbolTableRecord
100
AcDbBlockTableRecord
  2
*D7
340
0
  0
BLOCK_RECORD
  5
3F50
330
1
100
AcDbSymbolTableRecord
100
AcDbBlockTableRecord
  2
*D8
340
0
  0
BLOCK_RECORD
  5
3F68
330
1
100
AcDbSymbolTableRecord
100
AcDbBlockTableRecord
  2
*D9
340
0
  0
BLOCK_RECORD
  5
3F82
330
1
100
AcDbSymbolTableRecord
100
AcDbBlockTableRecord
  2
*D10
340
0
  0
BLOCK_RECORD
  5
3F9A
330
1
100
AcDbSymbolTableRecord
100
AcDbBlockTableRecord
  2
*D11
340
0
  0
BLOCK_RECORD
  5
3FB2
330
1
100
AcDbSymbolTableRecord
100
AcDbBlockTableRecord
  2
*D12
340
0
  0
BLOCK_RECORD
  5
3FCA
330
1
100
AcDbSymbolTableRecord
100
AcDbBlockTableRecord
  2
*D13
340
0
  0
BLOCK_RECORD
  5
3FE2
330
1
100
AcDbSymbolTableRecord
100
AcDbBlockTableRecord
  2
*D14
340
0
  0
ENDTAB
  0
ENDSEC
  0
SECTION
  2
BLOCKS
  0
BLOCK
  5
19
330
18
100
AcDbEntity
  8
0
100
AcDbBlockBegin
  2
*MODEL_SPACE
 70
     0
 10
0.0
 20
0.0
 30
0.0
  3
*MODEL_SPACE
  1

  0
ENDBLK
  5
1A
330
18
100
AcDbEntity
  8
0
100
AcDbBlockEnd
  0
BLOCK
  5
16
330
15
100
AcDbEntity
 67
     1
  8
0
100
AcDbBlockBegin
  2
*PAPER_SPACE
 70
     0
 10
0.0
 20
0.0
 30
0.0
  3
*PAPER_SPACE
  1

  0
ENDBLK
  5
17
330
15
100
AcDbEntity
 67
     1
  8
0
100
AcDbBlockEnd
  0
BLOCK
  5
24
330
20
100
AcDbEntity
  8
0
100
AcDbBlockBegin
  2
_OPEN
 70
     0
 10
0.0
 20
0.0
 30
0.0
  3
_OPEN
  1

  0
LINE
  5
21
330
20
100
AcDbEntity
  8
0
  6
ByBlock
 62
     0
100
AcDbLine
 10
-1.0
 20
0.1666666666666667
 30
0.0
 11
0.0
 21
0.0
 31
0.0
  0
LINE
  5
22
330
20
100
AcDbEntity
  8
0
  6
ByBlock
 62
     0
100
AcDbLine
 10
0.0
 20
0.0
 30
0.0
 11
-1.0
 21
-0.1666666666666667
 31
0.0
  0
LINE
  5
23
330
20
100
AcDbEntity
  8
0
  6
ByBlock
 62
     0
100
AcDbLine
 10
0.0
 20
0.0
 30
0.0
 11
-1.0
 21
0.0
 31
0.0
  0
ENDBLK
  5
25
330
20
100
AcDbEntity
  8
0
100
AcDbBlockEnd
  0
BLOCK
  5
4001
330
3E9D
100
AcDbEntity
  8
0
100
AcDbBlockBegin
  2
*D1
 70
     1
 10
0.0
 20
0.0
 30
0.0
  3
*D1
  1

  0
LINE
  5
4002
330
3E9D
100
AcDbEntity
  8
0
  6
ByBlock
 62
     7
100
AcDbLine
 10
714.9999868285377
 20
3676.999995102094
 30
0.0
 11
714.9999868285377
 21
3994.999995102094
 31
0.0
  0
LINE
  5
4003
330
3E9D
100
AcDbEntity
  8
0
  6
ByBlock
 62
     7
100
AcDbLine
 10
2054.999986828538
 20
3676.999995102094
 30
0.0
 11
2054.999986828538
 21
3994.999995102094
 31
0.0
  0
LINE
  5
4004
330
3E9D
100
AcDbEntity
  8
0
  6
ByBlock
 62
     7
100
AcDbLine
 10
754.9999868285377
 20
3974.999995102094
 30
0.0
 11
2014.999986828538
 21
3974.999995102094
 31
0.0
  0
INSERT
  5
4005
330
3E9D
100
AcDbEntity
  8
0
  6
ByBlock
 62
     7
100
AcDbBlockReference
  2
_OPEN
 10
714.9999868285377
 20
3974.999995102094
 30
0.0
 41
40.0
 42
40.0
 43
40.0
 50
180.0
  0
INSERT
  5
4006
330
3E9D
100
AcDbEntity
  8
0
  6
ByBlock
 62
     7
100
AcDbBlockReference
  2
_OPEN
 10
2054.999986828538
 20
3974.999995102094
 30
0.0
 41
40.0
 42
40.0
 43
40.0
  0
MTEXT
  5
4007
330
3E9D
100
AcDbEntity
  8
0
  6
ByBlock
100
AcDbMText
 10
1384.999986828538
 20
4028.999995102094
 30
0.0
 40
60.0
 41
0.0
 71
     5
 72
     1
  1
\A1;Ｗ
  7
STYLE1
 73
     1
 44
1.0
  0
POINT
  5
4008
330
3E9D
100
AcDbEntity
  8
DEFPOINTS
  6
ByBlock
 62
     0
100
AcDbPoint
 10
714.9999868285377
 20
3644.999995102094
 30
0.0
  0
POINT
  5
4009
330
3E9D
100
AcDbEntity
  8
DEFPOINTS
  6
ByBlock
 62
     0
100
AcDbPoint
 10
2054.999986828538
 20
3644.999995102094
 30
0.0
  0
POINT
  5
400A
330
3E9D
100
AcDbEntity
  8
DEFPOINTS
  6
ByBlock
 62
     0
100
AcDbPoint
 10
2054.999986828538
 20
3974.999995102094
 30
0.0
  0
ENDBLK
  5
400B
330
3E9D
100
AcDbEntity
  8
0
100
AcDbBlockEnd
  0
BLOCK
  5
400C
330
3EC0
100
AcDbEntity
  8
0
100
AcDbBlockBegin
  2
*D2
 70
     1
 10
0.0
 20
0.0
 30
0.0
  3
*D2
  1

  0
LINE
  5
400D
330
3EC0
100
AcDbEntity
  8
0
  6
ByBlock
 62
     7
100
AcDbLine
 10
974.9999868285377
 20
3756.999995102094
 30
0.0
 11
974.9999868285377
 21
3844.999995102094
 31
0.0
  0
LINE
  5
400E
330
3EC0
100
AcDbEntity
  8
0
  6
ByBlock
 62
     7
100
AcDbLine
 10
1794.999986828538
 20
3756.999995102094
 30
0.0
 11
1794.999986828538
 21
3844.999995102094
 31
0.0
  0
LINE
  5
400F
330
3EC0
100
AcDbEntity
  8
0
  6
ByBlock
 62
     7
100
AcDbLine
 10
1014.999986828538
 20
3824.999995102094
 30
0.0
 11
1754.999986828538
 21
3824.999995102094
 31
0.0
  0
INSERT
  5
4010
330
3EC0
100
AcDbEntity
  8
0
  6
ByBlock
 62
     7
100
AcDbBlockReference
  2
_OPEN
 10
974.9999868285377
 20
3824.999995102094
 30
0.0
 41
40.0
 42
40.0
 43
40.0
 50
180.0
  0
INSERT
  5
4011
330
3EC0
100
AcDbEntity
  8
0
  6
ByBlock
 62
     7
100
AcDbBlockReference
  2
_OPEN
 10
1794.999986828538
 20
3824.999995102094
 30
0.0
 41
40.0
 42
40.0
 43
40.0
  0
MTEXT
  5
4012
330
3EC0
100
AcDbEntity
  8
0
  6
ByBlock
100
AcDbMText
 10
1384.999986828538
 20
3878.999995102094
 30
0.0
 40
60.0
 41
0.0
 71
     5
 72
     1
  1
\A1;Ａ
  7
STYLE1
 73
     1
 44
1.0
  0
POINT
  5
4013
330
3EC0
100
AcDbEntity
  8
DEFPOINTS
  6
ByBlock
 62
     0
100
AcDbPoint
 10
974.9999868285377
 20
3724.999995102094
 30
0.0
  0
POINT
  5
4014
330
3EC0
100
AcDbEntity
  8
DEFPOINTS
  6
ByBlock
 62
     0
100
AcDbPoint
 10
1794.999986828538
 20
3724.999995102094
 30
0.0
  0
POINT
  5
4015
330
3EC0
100
AcDbEntity
  8
DEFPOINTS
  6
ByBlock
 62
     0
100
AcDbPoint
 10
1794.999986828538
 20
3824.999995102094
 30
0.0
  0
ENDBLK
  5
4016
330
3EC0
100
AcDbEntity
  8
0
100
AcDbBlockEnd
  0
BLOCK
  5
4022
330
3EF0
100
AcDbEntity
  8
0
100
AcDbBlockBegin
  2
*D4
 70
     1
 10
0.0
 20
0.0
 30
0.0
  3
*D4
  1

  0
LINE
  5
4023
330
3EF0
100
AcDbEntity
  8
0
  6
ByBlock
 62
     7
100
AcDbLine
 10
2092.301631775672
 20
2747.404307393113
 30
0.0
 11
2256.853276722806
 21
2747.404307393113
 31
0.0
  0
LINE
  5
4024
330
3EF0
100
AcDbEntity
  8
0
  6
ByBlock
 62
     7
100
AcDbLine
 10
2126.999986828538
 20
2374.999995102094
 30
0.0
 11
2256.853276722806
 21
2374.999995102094
 31
0.0
  0
LINE
  5
4025
330
3EF0
100
AcDbEntity
  8
0
  6
ByBlock
 62
     7
100
AcDbLine
 10
2236.853276722806
 20
2707.404307393113
 30
0.0
 11
2236.853276722806
 21
2414.999995102094
 31
0.0
  0
INSERT
  5
4026
330
3EF0
100
AcDbEntity
  8
0
  6
ByBlock
 62
     7
100
AcDbBlockReference
  2
_OPEN
 10
2236.853276722806
 20
2747.404307393113
 30
0.0
 41
40.0
 42
40.0
 43
40.0
 50
90.0
  0
INSERT
  5
4027
330
3EF0
100
AcDbEntity
  8
0
  6
ByBlock
 62
     7
100
AcDbBlockReference
  2
_OPEN
 10
2236.853276722806
 20
2374.999995102094
 30
0.0
 41
40.0
 42
40.0
 43
40.0
 50
270.0
  0
MTEXT
  5
4028
330
3EF0
100
AcDbEntity
  8
0
  6
ByBlock
100
AcDbMText
 10
2182.853276722806
 20
2561.202151247604
 30
0.0
 40
60.0
 41
0.0
 71
     5
 72
     1
  1
\A1;240
  7
STYLE1
 11
6.123031769111886E-17
 21
1.0
 31
0.0
 73
     1
 44
1.0
  0
POINT
  5
4029
330
3EF0
100
AcDbEntity
  8
DEFPOINTS
  6
ByBlock
 62
     0
100
AcDbPoint
 10
2060.301631775672
 20
2747.404307393113
 30
0.0
  0
POINT
  5
402A
330
3EF0
100
AcDbEntity
  8
DEFPOINTS
  6
ByBlock
 62
     0
100
AcDbPoint
 10
2094.999986828538
 20
2374.999995102094
 30
0.0
  0
POINT
  5
402B
330
3EF0
100
AcDbEntity
  8
DEFPOINTS
  6
ByBlock
 62
     0
100
AcDbPoint
 10
2236.853276722806
 20
2374.999995102094
 30
0.0
  0
ENDBLK
  5
402C
330
3EF0
100
AcDbEntity
  8
0
100
AcDbBlockEnd
  0
BLOCK
  5
402D
330
3F08
100
AcDbEntity
  8
0
100
AcDbBlockBegin
  2
*D5
 70
     1
 10
0.0
 20
0.0
 30
0.0
  3
*D5
  1

  0
LINE
  5
402E
330
3F08
100
AcDbEntity
  8
0
  6
ByBlock
 62
     7
100
AcDbLine
 10
1866.999986828538
 20
3706.82814833707
 30
0.0
 11
2447.726032737155
 21
3706.82814833707
 31
0.0
  0
LINE
  5
402F
330
3F08
100
AcDbEntity
  8
0
  6
ByBlock
 62
     7
100
AcDbLine
 10
2222.301631775672
 20
2374.999995102094
 30
0.0
 11
2447.726032737155
 21
2374.999995102094
 31
0.0
  0
LINE
  5
4030
330
3F08
100
AcDbEntity
  8
0
  6
ByBlock
 62
     7
100
AcDbLine
 10
2427.726032737155
 20
3666.82814833707
 30
0.0
 11
2427.726032737155
 21
2414.999995102094
 31
0.0
  0
INSERT
  5
4031
330
3F08
100
AcDbEntity
  8
0
  6
ByBlock
 62
     7
100
AcDbBlockReference
  2
_OPEN
 10
2427.726032737155
 20
3706.82814833707
 30
0.0
 41
40.0
 42
40.0
 43
40.0
 50
90.0
  0
INSERT
  5
4032
330
3F08
100
AcDbEntity
  8
0
  6
ByBlock
 62
     7
100
AcDbBlockReference
  2
_OPEN
 10
2427.726032737155
 20
2374.999995102094
 30
0.0
 41
40.0
 42
40.0
 43
40.0
 50
270.0
  0
MTEXT
  5
4033
330
3F08
100
AcDbEntity
  8
0
  6
ByBlock
100
AcDbMText
 10
2373.726032737155
 20
3040.914071719582
 30
0.0
 40
60.0
 41
0.0
 71
     5
 72
     1
  1
\A1;Ｈ
  7
STYLE1
 11
6.123031769111886E-17
 21
1.0
 31
0.0
 73
     1
 44
1.0
  0
POINT
  5
4034
330
3F08
100
AcDbEntity
  8
DEFPOINTS
  6
ByBlock
 62
     0
100
AcDbPoint
 10
1834.999986828538
 20
3706.82814833707
 30
0.0
  0
POINT
  5
4035
330
3F08
100
AcDbEntity
  8
DEFPOINTS
  6
ByBlock
 62
     0
100
AcDbPoint
 10
2190.301631775672
 20
2374.999995102094
 30
0.0
  0
POINT
  5
4036
330
3F08
100
AcDbEntity
  8
DEFPOINTS
  6
ByBlock
 62
     0
100
AcDbPoint
 10
2427.726032737155
 20
2374.999995102094
 30
0.0
  0
ENDBLK
  5
4037
330
3F08
100
AcDbEntity
  8
0
100
AcDbBlockEnd
  0
BLOCK
  5
4038
330
3F20
100
AcDbEntity
  8
0
100
AcDbBlockBegin
  2
*D6
 70
     1
 10
0.0
 20
0.0
 30
0.0
  3
*D6
  1

  0
LINE
  5
4039
330
3F20
100
AcDbEntity
  8
0
  6
ByBlock
 62
     7
100
AcDbLine
 10
674.9999868285377
 20
2342.999995102094
 30
0.0
 11
674.9999868285377
 21
2244.999995102094
 31
0.0
  0
LINE
  5
403A
330
3F20
100
AcDbEntity
  8
0
  6
ByBlock
 62
     7
100
AcDbLine
 10
2094.999986828538
 20
2342.999995102094
 30
0.0
 11
2094.999986828538
 21
2244.999995102094
 31
0.0
  0
LINE
  5
403B
330
3F20
100
AcDbEntity
  8
0
  6
ByBlock
 62
     7
100
AcDbLine
 10
714.9999868285377
 20
2264.999995102094
 30
0.0
 11
2054.999986828538
 21
2264.999995102094
 31
0.0
  0
INSERT
  5
403C
330
3F20
100
AcDbEntity
  8
0
  6
ByBlock
 62
     7
100
AcDbBlockReference
  2
_OPEN
 10
674.9999868285377
 20
2264.999995102094
 30
0.0
 41
40.0
 42
40.0
 43
40.0
 50
180.0
  0
INSERT
  5
403D
330
3F20
100
AcDbEntity
  8
0
  6
ByBlock
 62
     7
100
AcDbBlockReference
  2
_OPEN
 10
2094.999986828538
 20
2264.999995102094
 30
0.0
 41
40.0
 42
40.0
 43
40.0
  0
MTEXT
  5
403E
330
3F20
100
AcDbEntity
  8
0
  6
ByBlock
100
AcDbMText
 10
1384.999986828538
 20
2318.999995102094
 30
0.0
 40
60.0
 41
0.0
 71
     5
 72
     1
  1
\A1;1060（外付時）
  7
STYLE1
 73
     1
 44
1.0
  0
POINT
  5
403F
330
3F20
100
AcDbEntity
  8
DEFPOINTS
  6
ByBlock
 62
     0
100
AcDbPoint
 10
674.9999868285377
 20
2374.999995102094
 30
0.0
  0
POINT
  5
4040
330
3F20
100
AcDbEntity
  8
DEFPOINTS
  6
ByBlock
 62
     0
100
AcDbPoint
 10
2094.999986828538
 20
2374.999995102094
 30
0.0
  0
POINT
  5
4041
330
3F20
100
AcDbEntity
  8
DEFPOINTS
  6
ByBlock
 62
     0
100
AcDbPoint
 10
2094.999986828538
 20
2264.999995102094
 30
0.0
  0
ENDBLK
  5
4042
330
3F20
100
AcDbEntity
  8
0
100
AcDbBlockEnd
  0
BLOCK
  5
4043
330
3F38
100
AcDbEntity
  8
0
100
AcDbBlockBegin
  2
*D7
 70
     1
 10
0.0
 20
0.0
 30
0.0
  3
*D7
  1

  0
LINE
  5
4044
330
3F38
100
AcDbEntity
  8
0
  6
ByBlock
 62
     7
100
AcDbLine
 10
694.9999868285377
 20
1936.999995102094
 30
0.0
 11
694.9999868285377
 21
2104.999995102094
 31
0.0
  0
LINE
  5
4045
330
3F38
100
AcDbEntity
  8
0
  6
ByBlock
 62
     7
100
AcDbLine
 10
2073.90664722184
 20
1936.999995102094
 30
0.0
 11
2073.90664722184
 21
2104.999995102094
 31
0.0
  0
LINE
  5
4046
330
3F38
100
AcDbEntity
  8
0
  6
ByBlock
 62
     7
100
AcDbLine
 10
734.9999868285377
 20
2084.999995102094
 30
0.0
 11
2033.90664722184
 21
2084.999995102094
 31
0.0
  0
INSERT
  5
4047
330
3F38
100
AcDbEntity
  8
0
  6
ByBlock
 62
     7
100
AcDbBlockReference
  2
_OPEN
 10
694.9999868285377
 20
2084.999995102094
 30
0.0
 41
40.0
 42
40.0
 43
40.0
 50
180.0
  0
INSERT
  5
4048
330
3F38
100
AcDbEntity
  8
0
  6
ByBlock
 62
     7
100
AcDbBlockReference
  2
_OPEN
 10
2073.90664722184
 20
2084.999995102094
 30
0.0
 41
40.0
 42
40.0
 43
40.0
  0
MTEXT
  5
4049
330
3F38
100
AcDbEntity
  8
0
  6
ByBlock
100
AcDbMText
 10
1384.453317025189
 20
2138.999995102094
 30
0.0
 40
60.0
 41
0.0
 71
     5
 72
     1
  1
\A1;Ｃ
  7
STYLE1
 73
     1
 44
1.0
  0
POINT
  5
404A
330
3F38
100
AcDbEntity
  8
DEFPOINTS
  6
ByBlock
 62
     0
100
AcDbPoint
 10
694.9999868285377
 20
1904.999995102094
 30
0.0
  0
POINT
  5
404B
330
3F38
100
AcDbEntity
  8
DEFPOINTS
  6
ByBlock
 62
     0
100
AcDbPoint
 10
2073.90664722184
 20
1904.999995102094
 30
0.0
  0
POINT
  5
404C
330
3F38
100
AcDbEntity
  8
DEFPOINTS
  6
ByBlock
 62
     0
100
AcDbPoint
 10
2073.90664722184
 20
2084.999995102094
 30
0.0
  0
ENDBLK
  5
404D
330
3F38
100
AcDbEntity
  8
0
100
AcDbBlockEnd
  0
BLOCK
  5
404E
330
3F50
100
AcDbEntity
  8
0
100
AcDbBlockBegin
  2
*D8
 70
     1
 10
0.0
 20
0.0
 30
0.0
  3
*D8
  1

  0
LINE
  5
404F
330
3F50
100
AcDbEntity
  8
0
  6
ByBlock
 62
     7
100
AcDbLine
 10
2126.999986828538
 20
1884.999995102094
 30
0.0
 11
2444.999986828538
 21
1884.999995102094
 31
0.0
  0
LINE
  5
4050
330
3F50
100
AcDbEntity
  8
0
  6
ByBlock
 62
     7
100
AcDbLine
 10
2126.999986828538
 20
1074.999995102094
 30
0.0
 11
2444.999986828538
 21
1074.999995102094
 31
0.0
  0
LINE
  5
4051
330
3F50
100
AcDbEntity
  8
0
  6
ByBlock
 62
     7
100
AcDbLine
 10
2424.999986828538
 20
1844.999995102094
 30
0.0
 11
2424.999986828538
 21
1114.999995102094
 31
0.0
  0
INSERT
  5
4052
330
3F50
100
AcDbEntity
  8
0
  6
ByBlock
 62
     7
100
AcDbBlockReference
  2
_OPEN
 10
2424.999986828538
 20
1884.999995102094
 30
0.0
 41
40.0
 42
40.0
 43
40.0
 50
90.0
  0
INSERT
  5
4053
330
3F50
100
AcDbEntity
  8
0
  6
ByBlock
 62
     7
100
AcDbBlockReference
  2
_OPEN
 10
2424.999986828538
 20
1074.999995102094
 30
0.0
 41
40.0
 42
40.0
 43
40.0
 50
270.0
  0
MTEXT
  5
4054
330
3F50
100
AcDbEntity
  8
0
  6
ByBlock
100
AcDbMText
 10
2370.999986828538
 20
1479.999995102094
 30
0.0
 40
60.0
 41
0.0
 71
     5
 72
     1
  1
\A1;Ｅ
  7
STYLE1
 11
6.123031769111886E-17
 21
1.0
 31
0.0
 73
     1
 44
1.0
  0
POINT
  5
4055
330
3F50
100
AcDbEntity
  8
DEFPOINTS
  6
ByBlock
 62
     0
100
AcDbPoint
 10
2094.999986828538
 20
1884.999995102094
 30
0.0
  0
POINT
  5
4056
330
3F50
100
AcDbEntity
  8
DEFPOINTS
  6
ByBlock
 62
     0
100
AcDbPoint
 10
2094.999986828538
 20
1074.999995102094
 30
0.0
  0
POINT
  5
4057
330
3F50
100
AcDbEntity
  8
DEFPOINTS
  6
ByBlock
 62
     0
100
AcDbPoint
 10
2424.999986828538
 20
1074.999995102094
 30
0.0
  0
ENDBLK
  5
4058
330
3F50
100
AcDbEntity
  8
0
100
AcDbBlockEnd
  0
BLOCK
  5
4059
330
3F68
100
AcDbEntity
  8
0
100
AcDbBlockBegin
  2
*D9
 70
     1
 10
0.0
 20
0.0
 30
0.0
  3
*D9
  1

  0
LINE
  5
405A
330
3F68
100
AcDbEntity
  8
0
  6
ByBlock
 62
     7
100
AcDbLine
 10
3004.999986828538
 20
2342.999995102094
 30
0.0
 11
3004.999986828538
 21
2191.867632017127
 31
0.0
  0
LINE
  5
405B
330
3F68
100
AcDbEntity
  8
0
  6
ByBlock
 62
     7
100
AcDbLine
 10
3874.999986828538
 20
2342.999995102094
 30
0.0
 11
3874.999986828538
 21
2191.867632017127
 31
0.0
  0
LINE
  5
405C
330
3F68
100
AcDbEntity
  8
0
  6
ByBlock
 62
     7
100
AcDbLine
 10
3044.999986828538
 20
2211.867632017127
 30
0.0
 11
3834.999986828538
 21
2211.867632017127
 31
0.0
  0
INSERT
  5
405D
330
3F68
100
AcDbEntity
  8
0
  6
ByBlock
 62
     7
100
AcDbBlockReference
  2
_OPEN
 10
3004.999986828538
 20
2211.867632017127
 30
0.0
 41
40.0
 42
40.0
 43
40.0
 50
180.0
  0
INSERT
  5
405E
330
3F68
100
AcDbEntity
  8
0
  6
ByBlock
 62
     7
100
AcDbBlockReference
  2
_OPEN
 10
3874.999986828538
 20
2211.867632017127
 30
0.0
 41
40.0
 42
40.0
 43
40.0
  0
MTEXT
  5
405F
330
3F68
100
AcDbEntity
  8
0
  6
ByBlock
100
AcDbMText
 10
3439.999986828538
 20
2265.867632017127
 30
0.0
 40
60.0
 41
0.0
 71
     5
 72
     1
  1
\A1;630（外付時）
  7
STYLE1
 73
     1
 44
1.0
  0
POINT
  5
4060
330
3F68
100
AcDbEntity
  8
DEFPOINTS
  6
ByBlock
 62
     0
100
AcDbPoint
 10
3004.999986828538
 20
2374.999995102094
 30
0.0
  0
POINT
  5
4061
330
3F68
100
AcDbEntity
  8
DEFPOINTS
  6
ByBlock
 62
     0
100
AcDbPoint
 10
3874.999986828538
 20
2374.999995102094
 30
0.0
  0
POINT
  5
4062
330
3F68
100
AcDbEntity
  8
DEFPOINTS
  6
ByBlock
 62
     0
100
AcDbPoint
 10
3874.999986828538
 20
2211.867632017127
 30
0.0
  0
ENDBLK
  5
4063
330
3F68
100
AcDbEntity
  8
0
100
AcDbBlockEnd
  0
BLOCK
  5
4064
330
3F82
100
AcDbEntity
  8
0
100
AcDbBlockBegin
  2
*D10
 70
     1
 10
0.0
 20
0.0
 30
0.0
  3
*D10
  1

  0
LINE
  5
4065
330
3F82
100
AcDbEntity
  8
0
  6
ByBlock
 62
     7
100
AcDbLine
 10
3199.999986828538
 20
3736.999995102094
 30
0.0
 11
3199.999986828538
 21
3809.857403478694
 31
0.0
  0
LINE
  5
4066
330
3F82
100
AcDbEntity
  8
0
  6
ByBlock
 62
     7
100
AcDbLine
 10
3679.999986828538
 20
3736.999995102094
 30
0.0
 11
3679.999986828538
 21
3809.857403478694
 31
0.0
  0
LINE
  5
4067
330
3F82
100
AcDbEntity
  8
0
  6
ByBlock
 62
     7
100
AcDbLine
 10
3239.999986828538
 20
3789.857403478694
 30
0.0
 11
3639.999986828538
 21
3789.857403478694
 31
0.0
  0
INSERT
  5
4068
330
3F82
100
AcDbEntity
  8
0
  6
ByBlock
 62
     7
100
AcDbBlockReference
  2
_OPEN
 10
3199.999986828538
 20
3789.857403478694
 30
0.0
 41
40.0
 42
40.0
 43
40.0
 50
180.0
  0
INSERT
  5
4069
330
3F82
100
AcDbEntity
  8
0
  6
ByBlock
 62
     7
100
AcDbBlockReference
  2
_OPEN
 10
3679.999986828538
 20
3789.857403478694
 30
0.0
 41
40.0
 42
40.0
 43
40.0
  0
MTEXT
  5
406A
330
3F82
100
AcDbEntity
  8
0
  6
ByBlock
100
AcDbMText
 10
3439.999986828538
 20
3843.857403478694
 30
0.0
 40
60.0
 41
0.0
 71
     5
 72
     1
  1
\A1;Ｂ
  7
STYLE1
 73
     1
 44
1.0
  0
POINT
  5
406B
330
3F82
100
AcDbEntity
  8
DEFPOINTS
  6
ByBlock
 62
     0
100
AcDbPoint
 10
3199.999986828538
 20
3704.999995102094
 30
0.0
  0
POINT
  5
406C
330
3F82
100
AcDbEntity
  8
DEFPOINTS
  6
ByBlock
 62
     0
100
AcDbPoint
 10
3679.999986828538
 20
3704.999995102094
 30
0.0
  0
POINT
  5
406D
330
3F82
100
AcDbEntity
  8
DEFPOINTS
  6
ByBlock
 62
     0
100
AcDbPoint
 10
3679.999986828538
 20
3789.857403478694
 30
0.0
  0
ENDBLK
  5
406E
330
3F82
100
AcDbEntity
  8
0
100
AcDbBlockEnd
  0
BLOCK
  5
406F
330
3F9A
100
AcDbEntity
  8
0
100
AcDbBlockBegin
  2
*D11
 70
     1
 10
0.0
 20
0.0
 30
0.0
  3
*D11
  1

  0
LINE
  5
4070
330
3F9A
100
AcDbEntity
  8
0
  6
ByBlock
 62
     7
100
AcDbLine
 10
3044.999986828538
 20
3676.999995102094
 30
0.0
 11
3044.999986828538
 21
3901.483634320231
 31
0.0
  0
LINE
  5
4071
330
3F9A
100
AcDbEntity
  8
0
  6
ByBlock
 62
     7
100
AcDbLine
 10
3834.999986828538
 20
3676.999995102094
 30
0.0
 11
3834.999986828538
 21
3901.483634320231
 31
0.0
  0
LINE
  5
4072
330
3F9A
100
AcDbEntity
  8
0
  6
ByBlock
 62
     7
100
AcDbLine
 10
3084.999986828538
 20
3881.483634320231
 30
0.0
 11
3794.999986828538
 21
3881.483634320231
 31
0.0
  0
INSERT
  5
4073
330
3F9A
100
AcDbEntity
  8
0
  6
ByBlock
 62
     7
100
AcDbBlockReference
  2
_OPEN
 10
3044.999986828538
 20
3881.483634320231
 30
0.0
 41
40.0
 42
40.0
 43
40.0
 50
180.0
  0
INSERT
  5
4074
330
3F9A
100
AcDbEntity
  8
0
  6
ByBlock
 62
     7
100
AcDbBlockReference
  2
_OPEN
 10
3834.999986828538
 20
3881.483634320231
 30
0.0
 41
40.0
 42
40.0
 43
40.0
  0
MTEXT
  5
4075
330
3F9A
100
AcDbEntity
  8
0
  6
ByBlock
100
AcDbMText
 10
3439.999986828538
 20
3935.483634320231
 30
0.0
 40
60.0
 41
0.0
 71
     5
 72
     1
  1
\A1;570
  7
STYLE1
 73
     1
 44
1.0
  0
POINT
  5
4076
330
3F9A
100
AcDbEntity
  8
DEFPOINTS
  6
ByBlock
 62
     0
100
AcDbPoint
 10
3044.999986828538
 20
3644.999995102094
 30
0.0
  0
POINT
  5
4077
330
3F9A
100
AcDbEntity
  8
DEFPOINTS
  6
ByBlock
 62
     0
100
AcDbPoint
 10
3834.999986828538
 20
3644.999995102094
 30
0.0
  0
POINT
  5
4078
330
3F9A
100
AcDbEntity
  8
DEFPOINTS
  6
ByBlock
 62
     0
100
AcDbPoint
 10
3834.999986828538
 20
3881.483634320231
 30
0.0
  0
ENDBLK
  5
4079
330
3F9A
100
AcDbEntity
  8
0
100
AcDbBlockEnd
  0
BLOCK
  5
407A
330
3FB2
100
AcDbEntity
  8
0
100
AcDbBlockBegin
  2
*D12
 70
     1
 10
0.0
 20
0.0
 30
0.0
  3
*D12
  1

  0
LINE
  5
407B
330
3FB2
100
AcDbEntity
  8
0
  6
ByBlock
 62
     7
100
AcDbLine
 10
2969.999986828538
 20
3716.999995102094
 30
0.0
 11
2969.999986828538
 21
4001.560917035349
 31
0.0
  0
LINE
  5
407C
330
3FB2
100
AcDbEntity
  8
0
  6
ByBlock
 62
     7
100
AcDbLine
 10
3909.999986828538
 20
3716.999995102094
 30
0.0
 11
3909.999986828538
 21
4001.560917035349
 31
0.0
  0
LINE
  5
407D
330
3FB2
100
AcDbEntity
  8
0
  6
ByBlock
 62
     7
100
AcDbLine
 10
3009.999986828538
 20
3981.560917035349
 30
0.0
 11
3869.999986828538
 21
3981.560917035349
 31
0.0
  0
INSERT
  5
407E
330
3FB2
100
AcDbEntity
  8
0
  6
ByBlock
 62
     7
100
AcDbBlockReference
  2
_OPEN
 10
2969.999986828538
 20
3981.560917035349
 30
0.0
 41
40.0
 42
40.0
 43
40.0
 50
180.0
  0
INSERT
  5
407F
330
3FB2
100
AcDbEntity
  8
0
  6
ByBlock
 62
     7
100
AcDbBlockReference
  2
_OPEN
 10
3909.999986828538
 20
3981.560917035349
 30
0.0
 41
40.0
 42
40.0
 43
40.0
  0
MTEXT
  5
4080
330
3FB2
100
AcDbEntity
  8
0
  6
ByBlock
100
AcDbMText
 10
3439.999986828538
 20
4035.560917035349
 30
0.0
 40
60.0
 41
0.0
 71
     5
 72
     1
  1
\A1;Ｄ
  7
STYLE1
 73
     1
 44
1.0
  0
POINT
  5
4081
330
3FB2
100
AcDbEntity
  8
DEFPOINTS
  6
ByBlock
 62
     0
100
AcDbPoint
 10
2969.999986828538
 20
3684.999995102094
 30
0.0
  0
POINT
  5
4082
330
3FB2
100
AcDbEntity
  8
DEFPOINTS
  6
ByBlock
 62
     0
100
AcDbPoint
 10
3909.999986828538
 20
3684.999995102094
 30
0.0
  0
POINT
  5
4083
330
3FB2
100
AcDbEntity
  8
DEFPOINTS
  6
ByBlock
 62
     0
100
AcDbPoint
 10
3909.999986828538
 20
3981.560917035349
 30
0.0
  0
ENDBLK
  5
4084
330
3FB2
100
AcDbEntity
  8
0
100
AcDbBlockEnd
  0
BLOCK
  5
4085
330
3FCA
100
AcDbEntity
  8
0
100
AcDbBlockBegin
  2
*D13
 70
     1
 10
0.0
 20
0.0
 30
0.0
  3
*D13
  1

  0
LINE
  5
4086
330
3FCA
100
AcDbEntity
  8
0
  6
ByBlock
 62
     7
100
AcDbLine
 10
5276.701384382726
 20
3564.999995102094
 30
0.0
 11
5159.780498547047
 21
3564.999995102094
 31
0.0
  0
LINE
  5
4087
330
3FCA
100
AcDbEntity
  8
0
  6
ByBlock
 62
     7
100
AcDbLine
 10
5276.701384382726
 20
3284.999995102094
 30
0.0
 11
5159.780498547047
 21
3284.999995102094
 31
0.0
  0
LINE
  5
4088
330
3FCA
100
AcDbEntity
  8
0
  6
ByBlock
 62
     7
100
AcDbLine
 10
5179.780498547047
 20
3524.999995102094
 30
0.0
 11
5179.780498547047
 21
3324.999995102094
 31
0.0
  0
INSERT
  5
4089
330
3FCA
100
AcDbEntity
  8
0
  6
ByBlock
 62
     7
100
AcDbBlockReference
  2
_OPEN
 10
5179.780498547047
 20
3564.999995102094
 30
0.0
 41
40.0
 42
40.0
 43
40.0
 50
90.0
  0
INSERT
  5
408A
330
3FCA
100
AcDbEntity
  8
0
  6
ByBlock
 62
     7
100
AcDbBlockReference
  2
_OPEN
 10
5179.780498547047
 20
3284.999995102094
 30
0.0
 41
40.0
 42
40.0
 43
40.0
 50
270.0
  0
MTEXT
  5
408B
330
3FCA
100
AcDbEntity
  8
0
  6
ByBlock
100
AcDbMText
 10
5125.780498547047
 20
3424.999995102094
 30
0.0
 40
60.0
 41
0.0
 71
     5
 72
     1
  1
\A1;Ｅ
  7
STYLE1
 11
6.123031769111886E-17
 21
1.0
 31
0.0
 73
     1
 44
1.0
  0
POINT
  5
408C
330
3FCA
100
AcDbEntity
  8
DEFPOINTS
  6
ByBlock
 62
     0
100
AcDbPoint
 10
5308.701384382726
 20
3564.999995102094
 30
0.0
  0
POINT
  5
408D
330
3FCA
100
AcDbEntity
  8
DEFPOINTS
  6
ByBlock
 62
     0
100
AcDbPoint
 10
5308.701384382726
 20
3284.999995102094
 30
0.0
  0
POINT
  5
408E
330
3FCA
100
AcDbEntity
  8
DEFPOINTS
  6
ByBlock
 62
     0
100
AcDbPoint
 10
5179.780498547047
 20
3284.999995102094
 30
0.0
  0
ENDBLK
  5
408F
330
3FCA
100
AcDbEntity
  8
0
100
AcDbBlockEnd
  0
BLOCK
  5
4090
330
3FE2
100
AcDbEntity
  8
0
100
AcDbBlockBegin
  2
*D14
 70
     1
 10
0.0
 20
0.0
 30
0.0
  3
*D14
  1

  0
LINE
  5
4091
330
3FE2
100
AcDbEntity
  8
0
  6
ByBlock
 62
     7
100
AcDbLine
 10
4766.396081124563
 20
3252.999995102094
 30
0.0
 11
4766.396081124563
 21
3011.032885974014
 31
0.0
  0
LINE
  5
4092
330
3FE2
100
AcDbEntity
  8
0
  6
ByBlock
 62
     7
100
AcDbLine
 10
5308.701384382726
 20
3252.999995102094
 30
0.0
 11
5308.701384382726
 21
3011.032885974014
 31
0.0
  0
LINE
  5
4093
330
3FE2
100
AcDbEntity
  8
0
  6
ByBlock
 62
     7
100
AcDbLine
 10
4806.396081124563
 20
3031.032885974014
 30
0.0
 11
5268.701384382726
 21
3031.032885974014
 31
0.0
  0
INSERT
  5
4094
330
3FE2
100
AcDbEntity
  8
0
  6
ByBlock
 62
     7
100
AcDbBlockReference
  2
_OPEN
 10
4766.396081124563
 20
3031.032885974014
 30
0.0
 41
40.0
 42
40.0
 43
40.0
 50
180.0
  0
INSERT
  5
4095
330
3FE2
100
AcDbEntity
  8
0
  6
ByBlock
 62
     7
100
AcDbBlockReference
  2
_OPEN
 10
5308.701384382726
 20
3031.032885974014
 30
0.0
 41
40.0
 42
40.0
 43
40.0
  0
MTEXT
  5
4096
330
3FE2
100
AcDbEntity
  8
0
  6
ByBlock
100
AcDbMText
 10
5037.548732753645
 20
3085.032885974014
 30
0.0
 40
60.0
 41
0.0
 71
     5
 72
     1
  1
\A1;Ｃ
  7
STYLE1
 73
     1
 44
1.0
  0
POINT
  5
4097
330
3FE2
100
AcDbEntity
  8
DEFPOINTS
  6
ByBlock
 62
     0
100
AcDbPoint
 10
4766.396081124563
 20
3284.999995102094
 30
0.0
  0
POINT
  5
4098
330
3FE2
100
AcDbEntity
  8
DEFPOINTS
  6
ByBlock
 62
     0
100
AcDbPoint
 10
5308.701384382726
 20
3284.999995102094
 30
0.0
  0
POINT
  5
4099
330
3FE2
100
AcDbEntity
  8
DEFPOINTS
  6
ByBlock
 62
     0
100
AcDbPoint
 10
5308.701384382726
 20
3031.032885974014
 30
0.0
  0
ENDBLK
  5
409A
330
3FE2
100
AcDbEntity
  8
0
100
AcDbBlockEnd
  0
ENDSEC
  0
SECTION
  2
ENTITIES
  0
MTEXT
  5
CF
330
18
100
AcDbEntity
  8
0
 62
     0
100
AcDbMText
 10
858.0351123368276
 20
732.0082556994854
 30
0.0
 40
13.125
 41
0.0
 71
     6
 72
     5
  1
\A1;
  7
STYLE1
 73
     1
 44
1.0
  0
LINE
  5
3996
330
18
100
AcDbEntity
  8
0
 62
     0
 48
6.0
100
AcDbLine
 10
1744.999986828538
 20
1064.999995102094
 30
0.0
 11
1024.999986828538
 21
1064.999995102094
 31
0.0
  0
LINE
  5
3997
330
18
100
AcDbEntity
  8
0
 62
     0
 48
6.0
100
AcDbLine
 10
1024.999986828538
 20
1894.999995102094
 30
0.0
 11
1744.999986828538
 21
1894.999995102094
 31
0.0
  0
LINE
  5
3998
330
18
100
AcDbEntity
  8
0
 62
     0
 48
6.0
100
AcDbLine
 10
1744.999986828538
 20
1864.999995102094
 30
0.0
 11
1024.999986828538
 21
1864.999995102094
 31
0.0
  0
LINE
  5
3999
330
18
100
AcDbEntity
  8
0
 62
     0
 48
6.0
100
AcDbLine
 10
1024.999986828538
 20
1094.999995102094
 30
0.0
 11
1744.999986828538
 21
1094.999995102094
 31
0.0
  0
LINE
  5
399A
330
18
100
AcDbEntity
  8
0
 62
     0
 48
6.0
100
AcDbLine
 10
1744.999986828538
 20
1784.999995102094
 30
0.0
 11
1024.999986828538
 21
1784.999995102094
 31
0.0
  0
LINE
  5
399B
330
18
100
AcDbEntity
  8
0
 62
     0
 48
6.0
100
AcDbLine
 10
1744.999986828538
 20
1174.999995102094
 30
0.0
 11
1024.999986828538
 21
1174.999995102094
 31
0.0
  0
LINE
  5
39AB
330
18
100
AcDbEntity
  8
0
  6
CENTER
 62
     0
 48
6.0
100
AcDbLine
 10
974.9999868285377
 20
964.9999951020941
 30
0.0
 11
974.9999868285377
 21
1994.999995102094
 31
0.0
  0
LINE
  5
39AC
330
18
100
AcDbEntity
  8
0
 62
     0
 48
6.0
100
AcDbLine
 10
794.9999868285377
 20
1174.999995102094
 30
0.0
 11
794.9999868285377
 21
1774.999995102094
 31
0.0
  0
LINE
  5
39AD
330
18
100
AcDbEntity
  8
0
 62
     0
 48
6.0
100
AcDbLine
 10
1024.999986828538
 20
1884.999995102094
 30
0.0
 11
1024.999986828538
 21
1074.999995102094
 31
0.0
  0
LINE
  5
39AE
330
18
100
AcDbEntity
  8
0
 62
     0
 48
6.0
100
AcDbLine
 10
924.9999868285377
 20
1884.999995102094
 30
0.0
 11
924.9999868285377
 21
1074.999995102094
 31
0.0
  0
LINE
  5
39AF
330
18
100
AcDbEntity
  8
0
 62
     0
 48
6.0
100
AcDbLine
 10
714.9999868285377
 20
1184.999995102094
 30
0.0
 11
714.9999868285377
 21
1864.999995102094
 31
0.0
  0
LINE
  5
39B0
330
18
100
AcDbEntity
  8
0
 62
     0
 48
6.0
100
AcDbLine
 10
794.9999868285377
 20
1174.999995102094
 30
0.0
 11
794.9999868285377
 21
1094.999995102094
 31
0.0
  0
LINE
  5
39B1
330
18
100
AcDbEntity
  8
0
 62
     0
 48
6.0
100
AcDbLine
 10
674.9999868285377
 20
1164.999995102094
 30
0.0
 11
674.9999868285377
 21
1074.999995102094
 31
0.0
  0
LINE
  5
39B2
330
18
100
AcDbEntity
  8
0
 62
     0
 48
6.0
100
AcDbLine
 10
714.9999868285377
 20
1204.999995102094
 30
0.0
 11
714.9999868285377
 21
1094.999995102094
 31
0.0
  0
LINE
  5
39B3
330
18
100
AcDbEntity
  8
0
 62
     0
 48
6.0
100
AcDbLine
 10
924.9999868285377
 20
1064.999995102094
 30
0.0
 11
794.9999868285377
 21
1064.999995102094
 31
0.0
  0
LINE
  5
39B4
330
18
100
AcDbEntity
  8
0
 62
     0
 48
6.0
100
AcDbLine
 10
714.9999868285377
 20
1094.999995102094
 30
0.0
 11
924.9999868285377
 21
1094.999995102094
 31
0.0
  0
LINE
  5
39B5
330
18
100
AcDbEntity
  8
0
 62
     0
 48
6.0
100
AcDbLine
 10
694.9999868285377
 20
1054.999995102094
 30
0.0
 11
784.9999868285377
 21
1054.999995102094
 31
0.0
  0
LINE
  5
39B6
330
18
100
AcDbEntity
  8
0
  6
CENTER
 62
     0
 48
6.0
100
AcDbLine
 10
694.9999868285377
 20
1094.999995102094
 30
0.0
 11
694.9999868285377
 21
1054.999995102094
 31
0.0
  0
LINE
  5
39B7
330
18
100
AcDbEntity
  8
0
  6
CENTER
 62
     0
 48
6.0
100
AcDbLine
 10
674.9999868285377
 20
1074.999995102094
 30
0.0
 11
714.9999868285377
 21
1074.999995102094
 31
0.0
  0
CIRCLE
  5
39B8
330
18
100
AcDbEntity
  8
0
  6
ByBlock
 62
     0
 48
6.0
100
AcDbCircle
 10
694.9999868285377
 20
1074.999995102094
 30
0.0
 40
10.0
  0
LINE
  5
39B9
330
18
100
AcDbEntity
  8
0
 62
     0
 48
6.0
100
AcDbLine
 10
674.9999868285377
 20
1074.999995102094
 30
0.0
 11
694.9999868285377
 21
1054.999995102094
 31
0.0
  0
LINE
  5
39BA
330
18
100
AcDbEntity
  8
0
 62
     0
 48
6.0
100
AcDbLine
 10
804.9999868285377
 20
1074.999995102094
 30
0.0
 11
804.9999868285377
 21
1094.999995102094
 31
0.0
  0
LINE
  5
39BB
330
18
100
AcDbEntity
  8
0
 62
     0
 48
6.0
100
AcDbLine
 10
784.9999868285377
 20
1054.999995102094
 30
0.0
 11
804.9999868285377
 21
1074.999995102094
 31
0.0
  0
LINE
  5
39BC
330
18
100
AcDbEntity
  8
0
 62
     0
 48
6.0
100
AcDbLine
 10
924.9999868285377
 20
1009.999995102094
 30
0.0
 11
1024.999986828538
 21
1009.999995102094
 31
0.0
  0
LINE
  5
39BD
330
18
100
AcDbEntity
  8
0
 62
     0
 48
6.0
100
AcDbLine
 10
924.9999868285377
 20
1074.999995102094
 30
0.0
 11
924.9999868285377
 21
1024.999995102094
 31
0.0
  0
LINE
  5
39BE
330
18
100
AcDbEntity
  8
0
 62
     0
 48
6.0
100
AcDbLine
 10
924.9999868285377
 20
1009.999995102094
 30
0.0
 11
924.9999868285377
 21
1024.999995102094
 31
0.0
  0
CIRCLE
  5
39BF
330
18
100
AcDbEntity
  8
0
 62
     0
 48
6.0
100
AcDbCircle
 10
974.9999868285377
 20
1049.999995102094
 30
0.0
 40
5.0
  0
LINE
  5
39C0
330
18
100
AcDbEntity
  8
0
 62
     0
 48
6.0
100
AcDbLine
 10
1024.999986828538
 20
1024.999995102094
 30
0.0
 11
1024.999986828538
 21
1084.999995102094
 31
0.0
  0
LINE
  5
39C1
330
18
100
AcDbEntity
  8
0
  6
CENTER
 62
     0
 48
6.0
100
AcDbLine
 10
964.9999868285377
 20
1049.999995102094
 30
0.0
 11
984.9999868285377
 21
1049.999995102094
 31
0.0
  0
LINE
  5
39C2
330
18
100
AcDbEntity
  8
0
 62
     0
 48
6.0
100
AcDbLine
 10
1024.999986828538
 20
1009.999995102094
 30
0.0
 11
1024.999986828538
 21
1024.999995102094
 31
0.0
  0
LINE
  5
39C3
330
18
100
AcDbEntity
  8
0
  6
CENTER
 62
     0
 48
6.0
100
AcDbLine
 10
964.9999868285377
 20
1104.999995102094
 30
0.0
 11
984.9999868285377
 21
1104.999995102094
 31
0.0
  0
CIRCLE
  5
39C4
330
18
100
AcDbEntity
  8
0
 62
     0
 48
6.0
100
AcDbCircle
 10
974.9999868285377
 20
1104.999995102094
 30
0.0
 40
5.0
  0
LINE
  5
39C5
330
18
100
AcDbEntity
  8
0
 62
     0
 48
6.0
100
AcDbLine
 10
924.9999868285377
 20
1174.999995102094
 30
0.0
 11
794.9999868285377
 21
1174.999995102094
 31
0.0
  0
LINE
  5
39C6
330
18
100
AcDbEntity
  8
0
 62
     0
 48
6.0
100
AcDbLine
 10
714.9999868285377
 20
1174.999995102094
 30
0.0
 11
794.9999868285377
 21
1174.999995102094
 31
0.0
  0
LINE
  5
39C7
330
18
100
AcDbEntity
  8
0
 62
     0
 48
6.0
100
AcDbLine
 10
694.9999868285377
 20
1184.999995102094
 30
0.0
 11
674.9999868285377
 21
1164.999995102094
 31
0.0
  0
LINE
  5
39C8
330
18
100
AcDbEntity
  8
0
 62
     0
 48
6.0
100
AcDbLine
 10
714.9999868285377
 20
1184.999995102094
 30
0.0
 11
694.9999868285377
 21
1184.999995102094
 31
0.0
  0
LINE
  5
39C9
330
18
100
AcDbEntity
  8
0
 62
     0
 48
6.0
100
AcDbLine
 10
969.9999868285377
 20
1284.999995102094
 30
0.0
 11
969.9999868285377
 21
1304.999995102094
 31
0.0
  0
LINE
  5
39CA
330
18
100
AcDbEntity
  8
0
 62
     0
 48
6.0
100
AcDbLine
 10
979.9999868285377
 20
1284.999995102094
 30
0.0
 11
979.9999868285377
 21
1304.999995102094
 31
0.0
  0
LINE
  5
39CB
330
18
100
AcDbEntity
  8
0
 62
     0
 48
6.0
100
AcDbLine
 10
934.9999868285377
 20
1284.999995102094
 30
0.0
 11
1014.999986828538
 21
1284.999995102094
 31
0.0
  0
LINE
  5
39CC
330
18
100
AcDbEntity
  8
0
 62
     0
 48
6.0
100
AcDbLine
 10
1014.999986828538
 20
1184.999995102094
 30
0.0
 11
934.9999868285377
 21
1184.999995102094
 31
0.0
  0
LINE
  5
39CD
330
18
100
AcDbEntity
  8
0
 62
     0
 48
6.0
100
AcDbLine
 10
934.9999868285377
 20
1184.999995102094
 30
0.0
 11
934.9999868285377
 21
1284.999995102094
 31
0.0
  0
LINE
  5
39CE
330
18
100
AcDbEntity
  8
0
 62
     0
 48
6.0
100
AcDbLine
 10
944.9999868285377
 20
1184.999995102094
 30
0.0
 11
944.9999868285377
 21
1284.999995102094
 31
0.0
  0
LINE
  5
39CF
330
18
100
AcDbEntity
  8
0
 62
     0
 48
6.0
100
AcDbLine
 10
969.9999868285377
 20
1214.999995102094
 30
0.0
 11
969.9999868285377
 21
1209.999995102094
 31
0.0
  0
LINE
  5
39D0
330
18
100
AcDbEntity
  8
0
 62
     0
 48
6.0
100
AcDbLine
 10
979.9999868285377
 20
1214.999995102094
 30
0.0
 11
979.9999868285377
 21
1209.999995102094
 31
0.0
  0
LINE
  5
39D1
330
18
100
AcDbEntity
  8
0
 62
     0
 48
6.0
100
AcDbLine
 10
954.9999868285377
 20
1184.999995102094
 30
0.0
 11
954.9999868285377
 21
1284.999995102094
 31
0.0
  0
LINE
  5
39D2
330
18
100
AcDbEntity
  8
0
 62
     0
 48
6.0
100
AcDbLine
 10
964.9999868285377
 20
1184.999995102094
 30
0.0
 11
964.9999868285377
 21
1284.999995102094
 31
0.0
  0
LINE
  5
39D3
330
18
100
AcDbEntity
  8
0
 62
     0
 48
6.0
100
AcDbLine
 10
1004.999986828538
 20
1184.999995102094
 30
0.0
 11
1004.999986828538
 21
1284.999995102094
 31
0.0
  0
LINE
  5
39D4
330
18
100
AcDbEntity
  8
0
 62
     0
 48
6.0
100
AcDbLine
 10
984.9999868285377
 20
1184.999995102094
 30
0.0
 11
984.9999868285377
 21
1284.999995102094
 31
0.0
  0
LINE
  5
39D5
330
18
100
AcDbEntity
  8
0
 62
     0
 48
6.0
100
AcDbLine
 10
984.9999868285377
 20
1284.999995102094
 30
0.0
 11
984.9999868285377
 21
1184.999995102094
 31
0.0
  0
LINE
  5
39D6
330
18
100
AcDbEntity
  8
0
 62
     0
 48
6.0
100
AcDbLine
 10
994.9999868285377
 20
1184.999995102094
 30
0.0
 11
994.9999868285377
 21
1284.999995102094
 31
0.0
  0
LINE
  5
39D7
330
18
100
AcDbEntity
  8
0
 62
     0
 48
6.0
100
AcDbLine
 10
1014.999986828538
 20
1284.999995102094
 30
0.0
 11
1014.999986828538
 21
1184.999995102094
 31
0.0
  0
ARC
  5
39D8
330
18
100
AcDbEntity
  8
0
 62
     0
 48
6.0
100
AcDbCircle
 10
974.9999868285377
 20
1209.999995102094
 30
0.0
 40
5.0
100
AcDbArc
 50
180.0
 51
0.0
  0
LINE
  5
39D9
330
18
100
AcDbEntity
  8
0
 62
     0
 48
6.0
100
AcDbLine
 10
974.9999868285377
 20
1184.999995102094
 30
0.0
 11
974.9999868285377
 21
1204.999995102094
 31
0.0
  0
LINE
  5
39DA
330
18
100
AcDbEntity
  8
0
 62
     0
 48
6.0
100
AcDbLine
 10
984.9999868285377
 20
1184.999995102094
 30
0.0
 11
984.9999868285377
 21
1199.999995102094
 31
0.0
  0
LINE
  5
39DB
330
18
100
AcDbEntity
  8
0
 62
     0
 48
6.0
100
AcDbLine
 10
974.9999868285377
 20
1264.999995102094
 30
0.0
 11
974.9999868285377
 21
1284.999995102094
 31
0.0
  0
LINE
  5
39DC
330
18
100
AcDbEntity
  8
0
 62
     0
 48
6.0
100
AcDbLine
 10
979.9999868285377
 20
1254.999995102094
 30
0.0
 11
979.9999868285377
 21
1259.999995102094
 31
0.0
  0
ARC
  5
39DD
330
18
100
AcDbEntity
  8
0
 62
     0
 48
6.0
100
AcDbCircle
 10
974.9999868285377
 20
1259.999995102094
 30
0.0
 40
5.0
100
AcDbArc
 50
0.0
 51
180.0
  0
LINE
  5
39DE
330
18
100
AcDbEntity
  8
0
 62
     0
 48
6.0
100
AcDbLine
 10
969.9999868285377
 20
1254.999995102094
 30
0.0
 11
969.9999868285377
 21
1259.999995102094
 31
0.0
  0
LINE
  5
39DF
330
18
100
AcDbEntity
  8
0
 62
     0
 48
6.0
100
AcDbLine
 10
969.9999868285377
 20
1214.999995102094
 30
0.0
 11
969.9999868285377
 21
1254.999995102094
 31
0.0
  0
LINE
  5
39E0
330
18
100
AcDbEntity
  8
0
 62
     0
 48
6.0
100
AcDbLine
 10
979.9999868285377
 20
1254.999995102094
 30
0.0
 11
979.9999868285377
 21
1214.999995102094
 31
0.0
  0
LINE
  5
39E1
330
18
100
AcDbEntity
  8
0
 62
     0
 48
6.0
100
AcDbLine
 10
969.9999868285377
 20
1304.999995102094
 30
0.0
 11
969.9999868285377
 21
1309.999995102094
 31
0.0
  0
ARC
  5
39E2
330
18
100
AcDbEntity
  8
0
 62
     0
 48
6.0
100
AcDbCircle
 10
974.9999868285377
 20
1309.999995102094
 30
0.0
 40
5.0
100
AcDbArc
 50
0.0
 51
180.0
  0
LINE
  5
39E3
330
18
100
AcDbEntity
  8
0
 62
     0
 48
6.0
100
AcDbLine
 10
979.9999868285377
 20
1304.999995102094
 30
0.0
 11
979.9999868285377
 21
1309.999995102094
 31
0.0
  0
LINE
  5
39E4
330
18
100
AcDbEntity
  8
0
 62
     0
 48
6.0
100
AcDbLine
 10
674.9999868285377
 20
1794.999995102094
 30
0.0
 11
694.9999868285377
 21
1774.999995102094
 31
0.0
  0
LINE
  5
39E5
330
18
100
AcDbEntity
  8
0
 62
     0
 48
6.0
100
AcDbLine
 10
794.9999868285377
 20
1784.999995102094
 30
0.0
 11
794.9999868285377
 21
1774.999995102094
 31
0.0
  0
LINE
  5
39E6
330
18
100
AcDbEntity
  8
0
 62
     0
 48
6.0
100
AcDbLine
 10
694.9999868285377
 20
1774.999995102094
 30
0.0
 11
714.9999868285377
 21
1774.999995102094
 31
0.0
  0
LINE
  5
39E7
330
18
100
AcDbEntity
  8
0
 62
     0
 48
6.0
100
AcDbLine
 10
934.9999868285377
 20
1774.999995102094
 30
0.0
 11
1014.999986828538
 21
1774.999995102094
 31
0.0
  0
LINE
  5
39E8
330
18
100
AcDbEntity
  8
0
 62
     0
 48
6.0
100
AcDbLine
 10
1014.999986828538
 20
1674.999995102094
 30
0.0
 11
934.9999868285377
 21
1674.999995102094
 31
0.0
  0
LINE
  5
39E9
330
18
100
AcDbEntity
  8
0
 62
     0
 48
6.0
100
AcDbLine
 10
934.9999868285377
 20
1674.999995102094
 30
0.0
 11
934.9999868285377
 21
1774.999995102094
 31
0.0
  0
LINE
  5
39EA
330
18
100
AcDbEntity
  8
0
 62
     0
 48
6.0
100
AcDbLine
 10
944.9999868285377
 20
1774.999995102094
 30
0.0
 11
944.9999868285377
 21
1674.999995102094
 31
0.0
  0
LINE
  5
39EB
330
18
100
AcDbEntity
  8
0
 62
     0
 48
6.0
100
AcDbLine
 10
979.9999868285377
 20
1704.999995102094
 30
0.0
 11
979.9999868285377
 21
1699.999995102094
 31
0.0
  0
LINE
  5
39EC
330
18
100
AcDbEntity
  8
0
 62
     0
 48
6.0
100
AcDbLine
 10
969.9999868285377
 20
1704.999995102094
 30
0.0
 11
969.9999868285377
 21
1699.999995102094
 31
0.0
  0
LINE
  5
39ED
330
18
100
AcDbEntity
  8
0
 62
     0
 48
6.0
100
AcDbLine
 10
954.9999868285377
 20
1774.999995102094
 30
0.0
 11
954.9999868285377
 21
1674.999995102094
 31
0.0
  0
LINE
  5
39EE
330
18
100
AcDbEntity
  8
0
 62
     0
 48
6.0
100
AcDbLine
 10
964.9999868285377
 20
1674.999995102094
 30
0.0
 11
964.9999868285377
 21
1774.999995102094
 31
0.0
  0
LINE
  5
39EF
330
18
100
AcDbEntity
  8
0
 62
     0
 48
6.0
100
AcDbLine
 10
964.9999868285377
 20
1774.999995102094
 30
0.0
 11
964.9999868285377
 21
1674.999995102094
 31
0.0
  0
LINE
  5
39F0
330
18
100
AcDbEntity
  8
0
 62
     0
 48
6.0
100
AcDbLine
 10
984.9999868285377
 20
1774.999995102094
 30
0.0
 11
984.9999868285377
 21
1674.999995102094
 31
0.0
  0
LINE
  5
39F1
330
18
100
AcDbEntity
  8
0
 62
     0
 48
6.0
100
AcDbLine
 10
994.9999868285377
 20
1774.999995102094
 30
0.0
 11
994.9999868285377
 21
1674.999995102094
 31
0.0
  0
LINE
  5
39F2
330
18
100
AcDbEntity
  8
0
 62
     0
 48
6.0
100
AcDbLine
 10
1004.999986828538
 20
1774.999995102094
 30
0.0
 11
1004.999986828538
 21
1674.999995102094
 31
0.0
  0
LINE
  5
39F3
330
18
100
AcDbEntity
  8
0
 62
     0
 48
6.0
100
AcDbLine
 10
1014.999986828538
 20
1774.999995102094
 30
0.0
 11
1014.999986828538
 21
1674.999995102094
 31
0.0
  0
ARC
  5
39F4
330
18
100
AcDbEntity
  8
0
 62
     0
 48
6.0
100
AcDbCircle
 10
974.9999868285377
 20
1699.999995102094
 30
0.0
 40
5.0
100
AcDbArc
 50
180.0
 51
0.0
  0
LINE
  5
39F5
330
18
100
AcDbEntity
  8
0
 62
     0
 48
6.0
100
AcDbLine
 10
969.9999868285377
 20
1654.999995102094
 30
0.0
 11
969.9999868285377
 21
1649.999995102094
 31
0.0
  0
LINE
  5
39F6
330
18
100
AcDbEntity
  8
0
 62
     0
 48
6.0
100
AcDbLine
 10
969.9999868285377
 20
1674.999995102094
 30
0.0
 11
969.9999868285377
 21
1654.999995102094
 31
0.0
  0
LINE
  5
39F7
330
18
100
AcDbEntity
  8
0
 62
     0
 48
6.0
100
AcDbLine
 10
979.9999868285377
 20
1674.999995102094
 30
0.0
 11
979.9999868285377
 21
1654.999995102094
 31
0.0
  0
ARC
  5
39F8
330
18
100
AcDbEntity
  8
0
 62
     0
 48
6.0
100
AcDbCircle
 10
974.9999868285377
 20
1649.999995102094
 30
0.0
 40
5.0
100
AcDbArc
 50
180.0
 51
0.0
  0
LINE
  5
39F9
330
18
100
AcDbEntity
  8
0
 62
     0
 48
6.0
100
AcDbLine
 10
979.9999868285377
 20
1654.999995102094
 30
0.0
 11
979.9999868285377
 21
1649.999995102094
 31
0.0
  0
LINE
  5
39FA
330
18
100
AcDbEntity
  8
0
 62
     0
 48
6.0
100
AcDbLine
 10
974.9999868285377
 20
1694.999995102094
 30
0.0
 11
974.9999868285377
 21
1674.999995102094
 31
0.0
  0
LINE
  5
39FB
330
18
100
AcDbEntity
  8
0
 62
     0
 48
6.0
100
AcDbLine
 10
969.9999868285377
 20
1704.999995102094
 30
0.0
 11
969.9999868285377
 21
1744.999995102094
 31
0.0
  0
LINE
  5
39FC
330
18
100
AcDbEntity
  8
0
 62
     0
 48
6.0
100
AcDbLine
 10
979.9999868285377
 20
1744.999995102094
 30
0.0
 11
979.9999868285377
 21
1704.999995102094
 31
0.0
  0
ARC
  5
39FD
330
18
100
AcDbEntity
  8
0
 62
     0
 48
6.0
100
AcDbCircle
 10
974.9999868285377
 20
1749.999995102094
 30
0.0
 40
5.0
100
AcDbArc
 50
0.0
 51
180.0
  0
LINE
  5
39FE
330
18
100
AcDbEntity
  8
0
 62
     0
 48
6.0
100
AcDbLine
 10
969.9999868285377
 20
1744.999995102094
 30
0.0
 11
969.9999868285377
 21
1749.999995102094
 31
0.0
  0
LINE
  5
39FF
330
18
100
AcDbEntity
  8
0
 62
     0
 48
6.0
100
AcDbLine
 10
979.9999868285377
 20
1744.999995102094
 30
0.0
 11
979.9999868285377
 21
1749.999995102094
 31
0.0
  0
LINE
  5
3A00
330
18
100
AcDbEntity
  8
0
 62
     0
 48
6.0
100
AcDbLine
 10
964.9999868285377
 20
1774.999995102094
 30
0.0
 11
964.9999868285377
 21
1759.999995102094
 31
0.0
  0
LINE
  5
3A01
330
18
100
AcDbEntity
  8
0
 62
     0
 48
6.0
100
AcDbLine
 10
974.9999868285377
 20
1774.999995102094
 30
0.0
 11
974.9999868285377
 21
1754.999995102094
 31
0.0
  0
LINE
  5
3A02
330
18
100
AcDbEntity
  8
0
 62
     0
 48
6.0
100
AcDbLine
 10
794.9999868285377
 20
1894.999995102094
 30
0.0
 11
924.9999868285377
 21
1894.999995102094
 31
0.0
  0
LINE
  5
3A03
330
18
100
AcDbEntity
  8
0
 62
     0
 48
6.0
100
AcDbLine
 10
924.9999868285377
 20
1864.999995102094
 30
0.0
 11
714.9999868285377
 21
1864.999995102094
 31
0.0
  0
LINE
  5
3A04
330
18
100
AcDbEntity
  8
0
 62
     0
 48
6.0
100
AcDbLine
 10
924.9999868285377
 20
1784.999995102094
 30
0.0
 11
794.9999868285377
 21
1784.999995102094
 31
0.0
  0
LINE
  5
3A05
330
18
100
AcDbEntity
  8
0
 62
     0
 48
6.0
100
AcDbLine
 10
714.9999868285377
 20
1784.999995102094
 30
0.0
 11
794.9999868285377
 21
1784.999995102094
 31
0.0
  0
LINE
  5
3A06
330
18
100
AcDbEntity
  8
0
 62
     0
 48
6.0
100
AcDbLine
 10
784.9999868285377
 20
1904.999995102094
 30
0.0
 11
694.9999868285377
 21
1904.999995102094
 31
0.0
  0
LINE
  5
3A07
330
18
100
AcDbEntity
  8
0
  6
CENTER
 62
     0
 48
6.0
100
AcDbLine
 10
694.9999868285377
 20
1904.999995102094
 30
0.0
 11
694.9999868285377
 21
1864.999995102094
 31
0.0
  0
LINE
  5
3A08
330
18
100
AcDbEntity
  8
0
 62
     0
 48
6.0
100
AcDbLine
 10
674.9999868285377
 20
1884.999995102094
 30
0.0
 11
674.9999868285377
 21
1794.999995102094
 31
0.0
  0
LINE
  5
3A0B
330
18
100
AcDbEntity
  8
0
  6
CENTER
 62
     0
 48
6.0
100
AcDbLine
 10
674.9999868285377
 20
1884.999995102094
 30
0.0
 11
714.9999868285377
 21
1884.999995102094
 31
0.0
  0
CIRCLE
  5
3A0C
330
18
100
AcDbEntity
  8
0
  6
ByBlock
 62
     0
 48
6.0
100
AcDbCircle
 10
694.9999868285377
 20
1884.999995102094
 30
0.0
 40
10.0
  0
LINE
  5
3A0D
330
18
100
AcDbEntity
  8
0
 62
     0
 48
6.0
100
AcDbLine
 10
694.9999868285377
 20
1904.999995102094
 30
0.0
 11
674.9999868285377
 21
1884.999995102094
 31
0.0
  0
LINE
  5
3A0E
330
18
100
AcDbEntity
  8
0
 62
     0
 48
6.0
100
AcDbLine
 10
804.9999868285377
 20
1864.999995102094
 30
0.0
 11
804.9999868285377
 21
1884.999995102094
 31
0.0
  0
LINE
  5
3A0F
330
18
100
AcDbEntity
  8
0
 62
     0
 48
6.0
100
AcDbLine
 10
794.9999868285377
 20
1864.999995102094
 30
0.0
 11
794.9999868285377
 21
1784.999995102094
 31
0.0
  0
LINE
  5
3A10
330
18
100
AcDbEntity
  8
0
 62
     0
 48
6.0
100
AcDbLine
 10
804.9999868285377
 20
1884.999995102094
 30
0.0
 11
784.9999868285377
 21
1904.999995102094
 31
0.0
  0
LINE
  5
3A13
330
18
100
AcDbEntity
  8
0
 62
     0
 48
6.0
100
AcDbLine
 10
1024.999986828538
 20
1949.999995102094
 30
0.0
 11
1024.999986828538
 21
1929.999995102094
 31
0.0
  0
LINE
  5
3A14
330
18
100
AcDbEntity
  8
0
 62
     0
 48
6.0
100
AcDbLine
 10
924.9999868285377
 20
1949.999995102094
 30
0.0
 11
924.9999868285377
 21
1929.999995102094
 31
0.0
  0
LINE
  5
3A15
330
18
100
AcDbEntity
  8
0
 62
     0
 48
6.0
100
AcDbLine
 10
924.9999868285377
 20
1884.999995102094
 30
0.0
 11
924.9999868285377
 21
1934.999995102094
 31
0.0
  0
LINE
  5
3A16
330
18
100
AcDbEntity
  8
0
  6
CENTER
 62
     0
 48
6.0
100
AcDbLine
 10
964.9999868285377
 20
1854.999995102094
 30
0.0
 11
984.9999868285377
 21
1854.999995102094
 31
0.0
  0
CIRCLE
  5
3A17
330
18
100
AcDbEntity
  8
0
 62
     0
 48
6.0
100
AcDbCircle
 10
974.9999868285377
 20
1854.999995102094
 30
0.0
 40
5.0
  0
LINE
  5
3A18
330
18
100
AcDbEntity
  8
0
  6
CENTER
 62
     0
 48
6.0
100
AcDbLine
 10
964.9999868285377
 20
1909.999995102094
 30
0.0
 11
984.9999868285377
 21
1909.999995102094
 31
0.0
  0
CIRCLE
  5
3A19
330
18
100
AcDbEntity
  8
0
 62
     0
 48
6.0
100
AcDbCircle
 10
974.9999868285377
 20
1909.999995102094
 30
0.0
 40
5.0
  0
LINE
  5
3A1A
330
18
100
AcDbEntity
  8
0
 62
     0
 48
6.0
100
AcDbLine
 10
1024.999986828538
 20
1934.999995102094
 30
0.0
 11
1024.999986828538
 21
1874.999995102094
 31
0.0
  0
LINE
  5
3A1B
330
18
100
AcDbEntity
  8
0
 62
     0
 48
6.0
100
AcDbLine
 10
924.9999868285377
 20
1949.999995102094
 30
0.0
 11
1024.999986828538
 21
1949.999995102094
 31
0.0
  0
LINE
  5
3A72
330
18
100
AcDbEntity
  8
0
 62
     0
 48
6.0
100
AcDbLine
 10
1974.999986828538
 20
1174.999995102094
 30
0.0
 11
2054.999986828538
 21
1174.999995102094
 31
0.0
  0
LINE
  5
3A73
330
18
100
AcDbEntity
  8
0
 62
     0
 48
6.0
100
AcDbLine
 10
1974.999986828538
 20
1784.999995102094
 30
0.0
 11
2054.999986828538
 21
1784.999995102094
 31
0.0
  0
LINE
  5
3A74
330
18
100
AcDbEntity
  8
0
 62
     0
 48
6.0
100
AcDbLine
 10
2054.999986828538
 20
1864.999995102094
 30
0.0
 11
1844.999986828538
 21
1864.999995102094
 31
0.0
  0
LINE
  5
3A75
330
18
100
AcDbEntity
  8
0
 62
     0
 48
6.0
100
AcDbLine
 10
1844.999986828538
 20
1094.999995102094
 30
0.0
 11
2054.999986828538
 21
1094.999995102094
 31
0.0
  0
LINE
  5
3A76
330
18
100
AcDbEntity
  8
0
 62
     0
 48
6.0
100
AcDbLine
 10
1984.999986828538
 20
1054.999995102094
 30
0.0
 11
2074.999986828538
 21
1054.999995102094
 31
0.0
  0
LINE
  5
3A77
330
18
100
AcDbEntity
  8
0
 62
     0
 48
6.0
100
AcDbLine
 10
2074.999986828538
 20
1904.999995102094
 30
0.0
 11
1984.999986828538
 21
1904.999995102094
 31
0.0
  0
LINE
  5
3A78
330
18
100
AcDbEntity
  8
0
  6
CENTER
 62
     0
 48
6.0
100
AcDbLine
 10
1794.999986828538
 20
1994.999995102094
 30
0.0
 11
1794.999986828538
 21
964.9999951020941
 31
0.0
  0
LINE
  5
3A7A
330
18
100
AcDbEntity
  8
0
 62
     0
 48
6.0
100
AcDbLine
 10
1744.999986828538
 20
1934.999995102094
 30
0.0
 11
1744.999986828538
 21
1024.999995102094
 31
0.0
  0
LINE
  5
3A7B
330
18
100
AcDbEntity
  8
0
 62
     0
 48
6.0
100
AcDbLine
 10
1844.999986828538
 20
1934.999995102094
 30
0.0
 11
1844.999986828538
 21
1024.999995102094
 31
0.0
  0
LINE
  5
3A7C
330
18
100
AcDbEntity
  8
0
 62
     0
 48
6.0
100
AcDbLine
 10
1974.999986828538
 20
1764.999995102094
 30
0.0
 11
1974.999986828538
 21
1174.999995102094
 31
0.0
  0
LINE
  5
3A7D
330
18
100
AcDbEntity
  8
0
 62
     0
 48
6.0
100
AcDbLine
 10
1974.999986828538
 20
1174.999995102094
 30
0.0
 11
1974.999986828538
 21
1094.999995102094
 31
0.0
  0
LINE
  5
3A7E
330
18
100
AcDbEntity
  8
0
 62
     0
 48
6.0
100
AcDbLine
 10
1744.999986828538
 20
1009.999995102094
 30
0.0
 11
1844.999986828538
 21
1009.999995102094
 31
0.0
  0
LINE
  5
3A7F
330
18
100
AcDbEntity
  8
0
 62
     0
 48
6.0
100
AcDbLine
 10
1744.999986828538
 20
1029.999995102094
 30
0.0
 11
1744.999986828538
 21
1009.999995102094
 31
0.0
  0
LINE
  5
3A80
330
18
100
AcDbEntity
  8
0
 62
     0
 48
6.0
100
AcDbLine
 10
1974.999986828538
 20
1064.999995102094
 30
0.0
 11
1844.999986828538
 21
1064.999995102094
 31
0.0
  0
CIRCLE
  5
3A81
330
18
100
AcDbEntity
  8
0
 62
     0
 48
6.0
100
AcDbCircle
 10
1794.999986828538
 20
1049.999995102094
 30
0.0
 40
5.0
  0
LINE
  5
3A82
330
18
100
AcDbEntity
  8
0
  6
CENTER
 62
     0
 48
6.0
100
AcDbLine
 10
1784.999986828538
 20
1049.999995102094
 30
0.0
 11
1804.999986828538
 21
1049.999995102094
 31
0.0
  0
LINE
  5
3A83
330
18
100
AcDbEntity
  8
0
 62
     0
 48
6.0
100
AcDbLine
 10
1844.999986828538
 20
1009.999995102094
 30
0.0
 11
1844.999986828538
 21
1029.999995102094
 31
0.0
  0
LINE
  5
3A84
330
18
100
AcDbEntity
  8
0
  6
CENTER
 62
     0
 48
6.0
100
AcDbLine
 10
1784.999986828538
 20
1104.999995102094
 30
0.0
 11
1804.999986828538
 21
1104.999995102094
 31
0.0
  0
CIRCLE
  5
3A85
330
18
100
AcDbEntity
  8
0
 62
     0
 48
6.0
100
AcDbCircle
 10
1794.999986828538
 20
1104.999995102094
 30
0.0
 40
5.0
  0
LINE
  5
3A86
330
18
100
AcDbEntity
  8
0
 62
     0
 48
6.0
100
AcDbLine
 10
1964.999986828538
 20
1074.999995102094
 30
0.0
 11
1984.999986828538
 21
1054.999995102094
 31
0.0
  0
LINE
  5
3A87
330
18
100
AcDbEntity
  8
0
 62
     0
 48
6.0
100
AcDbLine
 10
1964.999986828538
 20
1094.999995102094
 30
0.0
 11
1964.999986828538
 21
1074.999995102094
 31
0.0
  0
LINE
  5
3A88
330
18
100
AcDbEntity
  8
0
 62
     0
 48
6.0
100
AcDbLine
 10
1834.999986828538
 20
1184.999995102094
 30
0.0
 11
1754.999986828538
 21
1184.999995102094
 31
0.0
  0
LINE
  5
3A89
330
18
100
AcDbEntity
  8
0
 62
     0
 48
6.0
100
AcDbLine
 10
1754.999986828538
 20
1284.999995102094
 30
0.0
 11
1834.999986828538
 21
1284.999995102094
 31
0.0
  0
LINE
  5
3A8A
330
18
100
AcDbEntity
  8
0
 62
     0
 48
6.0
100
AcDbLine
 10
1764.999986828538
 20
1184.999995102094
 30
0.0
 11
1764.999986828538
 21
1284.999995102094
 31
0.0
  0
LINE
  5
3A8B
330
18
100
AcDbEntity
  8
0
 62
     0
 48
6.0
100
AcDbLine
 10
1754.999986828538
 20
1184.999995102094
 30
0.0
 11
1754.999986828538
 21
1284.999995102094
 31
0.0
  0
LINE
  5
3A8D
330
18
100
AcDbEntity
  8
0
 62
     0
 48
6.0
100
AcDbLine
 10
1799.999986828538
 20
1284.999995102094
 30
0.0
 11
1799.999986828538
 21
1304.999995102094
 31
0.0
  0
LINE
  5
3A8E
330
18
100
AcDbEntity
  8
0
 62
     0
 48
6.0
100
AcDbLine
 10
1789.999986828538
 20
1284.999995102094
 30
0.0
 11
1789.999986828538
 21
1304.999995102094
 31
0.0
  0
LINE
  5
3A8F
330
18
100
AcDbEntity
  8
0
 62
     0
 48
6.0
100
AcDbLine
 10
1844.999986828538
 20
1174.999995102094
 30
0.0
 11
1974.999986828538
 21
1174.999995102094
 31
0.0
  0
LINE
  5
3A90
330
18
100
AcDbEntity
  8
0
 62
     0
 48
6.0
100
AcDbLine
 10
1834.999986828538
 20
1284.999995102094
 30
0.0
 11
1834.999986828538
 21
1184.999995102094
 31
0.0
  0
LINE
  5
3A91
330
18
100
AcDbEntity
  8
0
 62
     0
 48
6.0
100
AcDbLine
 10
1799.999986828538
 20
1214.999995102094
 30
0.0
 11
1799.999986828538
 21
1209.999995102094
 31
0.0
  0
LINE
  5
3A92
330
18
100
AcDbEntity
  8
0
 62
     0
 48
6.0
100
AcDbLine
 10
1789.999986828538
 20
1214.999995102094
 30
0.0
 11
1789.999986828538
 21
1209.999995102094
 31
0.0
  0
LINE
  5
3A93
330
18
100
AcDbEntity
  8
0
 62
     0
 48
6.0
100
AcDbLine
 10
1814.999986828538
 20
1184.999995102094
 30
0.0
 11
1814.999986828538
 21
1284.999995102094
 31
0.0
  0
LINE
  5
3A94
330
18
100
AcDbEntity
  8
0
 62
     0
 48
6.0
100
AcDbLine
 10
1804.999986828538
 20
1284.999995102094
 30
0.0
 11
1804.999986828538
 21
1184.999995102094
 31
0.0
  0
LINE
  5
3A95
330
18
100
AcDbEntity
  8
0
 62
     0
 48
6.0
100
AcDbLine
 10
1804.999986828538
 20
1184.999995102094
 30
0.0
 11
1804.999986828538
 21
1284.999995102094
 31
0.0
  0
LINE
  5
3A96
330
18
100
AcDbEntity
  8
0
 62
     0
 48
6.0
100
AcDbLine
 10
1784.999986828538
 20
1184.999995102094
 30
0.0
 11
1784.999986828538
 21
1284.999995102094
 31
0.0
  0
LINE
  5
3A97
330
18
100
AcDbEntity
  8
0
 62
     0
 48
6.0
100
AcDbLine
 10
1774.999986828538
 20
1184.999995102094
 30
0.0
 11
1774.999986828538
 21
1284.999995102094
 31
0.0
  0
LINE
  5
3A98
330
18
100
AcDbEntity
  8
0
 62
     0
 48
6.0
100
AcDbLine
 10
1824.999986828538
 20
1184.999995102094
 30
0.0
 11
1824.999986828538
 21
1284.999995102094
 31
0.0
  0
ARC
  5
3A99
330
18
100
AcDbEntity
  8
0
 62
     0
 48
6.0
100
AcDbCircle
 10
1794.999986828538
 20
1209.999995102094
 30
0.0
 40
5.0
100
AcDbArc
 50
180.0
 51
0.0
  0
LINE
  5
3A9A
330
18
100
AcDbEntity
  8
0
 62
     0
 48
6.0
100
AcDbLine
 10
1804.999986828538
 20
1184.999995102094
 30
0.0
 11
1804.999986828538
 21
1199.999995102094
 31
0.0
  0
LINE
  5
3A9B
330
18
100
AcDbEntity
  8
0
 62
     0
 48
6.0
100
AcDbLine
 10
1794.999986828538
 20
1184.999995102094
 30
0.0
 11
1794.999986828538
 21
1204.999995102094
 31
0.0
  0
LINE
  5
3A9C
330
18
100
AcDbEntity
  8
0
 62
     0
 48
6.0
100
AcDbLine
 10
1789.999986828538
 20
1254.999995102094
 30
0.0
 11
1789.999986828538
 21
1259.999995102094
 31
0.0
  0
LINE
  5
3A9D
330
18
100
AcDbEntity
  8
0
 62
     0
 48
6.0
100
AcDbLine
 10
1799.999986828538
 20
1254.999995102094
 30
0.0
 11
1799.999986828538
 21
1214.999995102094
 31
0.0
  0
LINE
  5
3A9E
330
18
100
AcDbEntity
  8
0
 62
     0
 48
6.0
100
AcDbLine
 10
1789.999986828538
 20
1214.999995102094
 30
0.0
 11
1789.999986828538
 21
1254.999995102094
 31
0.0
  0
ARC
  5
3A9F
330
18
100
AcDbEntity
  8
0
 62
     0
 48
6.0
100
AcDbCircle
 10
1794.999986828538
 20
1259.999995102094
 30
0.0
 40
5.0
100
AcDbArc
 50
0.0
 51
180.0
  0
LINE
  5
3AA0
330
18
100
AcDbEntity
  8
0
 62
     0
 48
6.0
100
AcDbLine
 10
1799.999986828538
 20
1254.999995102094
 30
0.0
 11
1799.999986828538
 21
1259.999995102094
 31
0.0
  0
LINE
  5
3AA1
330
18
100
AcDbEntity
  8
0
 62
     0
 48
6.0
100
AcDbLine
 10
1794.999986828538
 20
1264.999995102094
 30
0.0
 11
1794.999986828538
 21
1284.999995102094
 31
0.0
  0
LINE
  5
3AA4
330
18
100
AcDbEntity
  8
0
 62
     0
 48
6.0
100
AcDbLine
 10
1799.999986828538
 20
1304.999995102094
 30
0.0
 11
1799.999986828538
 21
1309.999995102094
 31
0.0
  0
ARC
  5
3AA5
330
18
100
AcDbEntity
  8
0
 62
     0
 48
6.0
100
AcDbCircle
 10
1794.999986828538
 20
1309.999995102094
 30
0.0
 40
5.0
100
AcDbArc
 50
0.0
 51
180.0
  0
LINE
  5
3AA6
330
18
100
AcDbEntity
  8
0
 62
     0
 48
6.0
100
AcDbLine
 10
1789.999986828538
 20
1304.999995102094
 30
0.0
 11
1789.999986828538
 21
1309.999995102094
 31
0.0
  0
LINE
  5
3AA9
330
18
100
AcDbEntity
  8
0
 62
     0
 48
6.0
100
AcDbLine
 10
1974.999986828538
 20
1774.999995102094
 30
0.0
 11
1974.999986828538
 21
1784.999995102094
 31
0.0
  0
LINE
  5
3AAA
330
18
100
AcDbEntity
  8
0
 62
     0
 48
6.0
100
AcDbLine
 10
1834.999986828538
 20
1674.999995102094
 30
0.0
 11
1754.999986828538
 21
1674.999995102094
 31
0.0
  0
LINE
  5
3AAB
330
18
100
AcDbEntity
  8
0
 62
     0
 48
6.0
100
AcDbLine
 10
1754.999986828538
 20
1774.999995102094
 30
0.0
 11
1834.999986828538
 21
1774.999995102094
 31
0.0
  0
LINE
  5
3AAC
330
18
100
AcDbEntity
  8
0
 62
     0
 48
6.0
100
AcDbLine
 10
1744.999986828538
 20
1614.999995102094
 30
0.0
 11
1744.999986828538
 21
1514.999995102094
 31
0.0
  0
LINE
  5
3AAD
330
18
100
AcDbEntity
  8
0
 62
     0
 48
6.0
100
AcDbLine
 10
1764.999986828538
 20
1774.999995102094
 30
0.0
 11
1764.999986828538
 21
1674.999995102094
 31
0.0
  0
LINE
  5
3AAE
330
18
100
AcDbEntity
  8
0
 62
     0
 48
6.0
100
AcDbLine
 10
1754.999986828538
 20
1674.999995102094
 30
0.0
 11
1754.999986828538
 21
1774.999995102094
 31
0.0
  0
LINE
  5
3AAF
330
18
100
AcDbEntity
  8
0
 62
     0
 48
6.0
100
AcDbLine
 10
1824.999986828538
 20
1774.999995102094
 30
0.0
 11
1824.999986828538
 21
1674.999995102094
 31
0.0
  0
LINE
  5
3AB0
330
18
100
AcDbEntity
  8
0
 62
     0
 48
6.0
100
AcDbLine
 10
1814.999986828538
 20
1774.999995102094
 30
0.0
 11
1814.999986828538
 21
1674.999995102094
 31
0.0
  0
LINE
  5
3AB1
330
18
100
AcDbEntity
  8
0
 62
     0
 48
6.0
100
AcDbLine
 10
1804.999986828538
 20
1774.999995102094
 30
0.0
 11
1804.999986828538
 21
1674.999995102094
 31
0.0
  0
LINE
  5
3AB2
330
18
100
AcDbEntity
  8
0
 62
     0
 48
6.0
100
AcDbLine
 10
1784.999986828538
 20
1674.999995102094
 30
0.0
 11
1784.999986828538
 21
1774.999995102094
 31
0.0
  0
LINE
  5
3AB3
330
18
100
AcDbEntity
  8
0
 62
     0
 48
6.0
100
AcDbLine
 10
1784.999986828538
 20
1774.999995102094
 30
0.0
 11
1784.999986828538
 21
1674.999995102094
 31
0.0
  0
LINE
  5
3AB4
330
18
100
AcDbEntity
  8
0
 62
     0
 48
6.0
100
AcDbLine
 10
1774.999986828538
 20
1774.999995102094
 30
0.0
 11
1774.999986828538
 21
1674.999995102094
 31
0.0
  0
LINE
  5
3AB5
330
18
100
AcDbEntity
  8
0
 62
     0
 48
6.0
100
AcDbLine
 10
1799.999986828538
 20
1704.999995102094
 30
0.0
 11
1799.999986828538
 21
1699.999995102094
 31
0.0
  0
LINE
  5
3AB6
330
18
100
AcDbEntity
  8
0
 62
     0
 48
6.0
100
AcDbLine
 10
1789.999986828538
 20
1704.999995102094
 30
0.0
 11
1789.999986828538
 21
1699.999995102094
 31
0.0
  0
LINE
  5
3AB7
330
18
100
AcDbEntity
  8
0
 62
     0
 48
6.0
100
AcDbLine
 10
1834.999986828538
 20
1774.999995102094
 30
0.0
 11
1834.999986828538
 21
1674.999995102094
 31
0.0
  0
LINE
  5
3AB8
330
18
100
AcDbEntity
  8
0
 62
     0
 48
6.0
100
AcDbLine
 10
1794.999986828538
 20
1694.999995102094
 30
0.0
 11
1794.999986828538
 21
1674.999995102094
 31
0.0
  0
ARC
  5
3AB9
330
18
100
AcDbEntity
  8
0
 62
     0
 48
6.0
100
AcDbCircle
 10
1794.999986828538
 20
1649.999995102094
 30
0.0
 40
5.0
100
AcDbArc
 50
180.0
 51
0.0
  0
LINE
  5
3ABA
330
18
100
AcDbEntity
  8
0
 62
     0
 48
6.0
100
AcDbLine
 10
1799.999986828538
 20
1654.999995102094
 30
0.0
 11
1799.999986828538
 21
1649.999995102094
 31
0.0
  0
LINE
  5
3ABB
330
18
100
AcDbEntity
  8
0
 62
     0
 48
6.0
100
AcDbLine
 10
1789.999986828538
 20
1654.999995102094
 30
0.0
 11
1789.999986828538
 21
1649.999995102094
 31
0.0
  0
LINE
  5
3ABC
330
18
100
AcDbEntity
  8
0
 62
     0
 48
6.0
100
AcDbLine
 10
1799.999986828538
 20
1674.999995102094
 30
0.0
 11
1799.999986828538
 21
1654.999995102094
 31
0.0
  0
LINE
  5
3ABD
330
18
100
AcDbEntity
  8
0
 62
     0
 48
6.0
100
AcDbLine
 10
1789.999986828538
 20
1674.999995102094
 30
0.0
 11
1789.999986828538
 21
1654.999995102094
 31
0.0
  0
ARC
  5
3ABE
330
18
100
AcDbEntity
  8
0
 62
     0
 48
6.0
100
AcDbCircle
 10
1794.999986828538
 20
1699.999995102094
 30
0.0
 40
5.0
100
AcDbArc
 50
180.0
 51
0.0
  0
LINE
  5
3ABF
330
18
100
AcDbEntity
  8
0
 62
     0
 48
6.0
100
AcDbLine
 10
1794.999986828538
 20
1774.999995102094
 30
0.0
 11
1794.999986828538
 21
1754.999995102094
 31
0.0
  0
LINE
  5
3AC0
330
18
100
AcDbEntity
  8
0
 62
     0
 48
6.0
100
AcDbLine
 10
1784.999986828538
 20
1774.999995102094
 30
0.0
 11
1784.999986828538
 21
1759.999995102094
 31
0.0
  0
ARC
  5
3AC1
330
18
100
AcDbEntity
  8
0
 62
     0
 48
6.0
100
AcDbCircle
 10
1794.999986828538
 20
1749.999995102094
 30
0.0
 40
5.0
100
AcDbArc
 50
0.0
 51
180.0
  0
LINE
  5
3AC2
330
18
100
AcDbEntity
  8
0
 62
     0
 48
6.0
100
AcDbLine
 10
1799.999986828538
 20
1744.999995102094
 30
0.0
 11
1799.999986828538
 21
1749.999995102094
 31
0.0
  0
LINE
  5
3AC3
330
18
100
AcDbEntity
  8
0
 62
     0
 48
6.0
100
AcDbLine
 10
1789.999986828538
 20
1744.999995102094
 30
0.0
 11
1789.999986828538
 21
1749.999995102094
 31
0.0
  0
LINE
  5
3AC4
330
18
100
AcDbEntity
  8
0
 62
     0
 48
6.0
100
AcDbLine
 10
1789.999986828538
 20
1704.999995102094
 30
0.0
 11
1789.999986828538
 21
1744.999995102094
 31
0.0
  0
LINE
  5
3AC5
330
18
100
AcDbEntity
  8
0
 62
     0
 48
6.0
100
AcDbLine
 10
1799.999986828538
 20
1744.999995102094
 30
0.0
 11
1799.999986828538
 21
1704.999995102094
 31
0.0
  0
LINE
  5
3AC6
330
18
100
AcDbEntity
  8
0
 62
     0
 48
6.0
100
AcDbLine
 10
1974.999986828538
 20
1774.999995102094
 30
0.0
 11
1974.999986828538
 21
1764.999995102094
 31
0.0
  0
LINE
  5
3AC7
330
18
100
AcDbEntity
  8
0
 62
     0
 48
6.0
100
AcDbLine
 10
1744.999986828538
 20
1949.999995102094
 30
0.0
 11
1844.999986828538
 21
1949.999995102094
 31
0.0
  0
LINE
  5
3AC8
330
18
100
AcDbEntity
  8
0
 62
     0
 48
6.0
100
AcDbLine
 10
1744.999986828538
 20
1949.999995102094
 30
0.0
 11
1744.999986828538
 21
1929.999995102094
 31
0.0
  0
LINE
  5
3AC9
330
18
100
AcDbEntity
  8
0
 62
     0
 48
6.0
100
AcDbLine
 10
1844.999986828538
 20
1949.999995102094
 30
0.0
 11
1844.999986828538
 21
1924.999995102094
 31
0.0
  0
LINE
  5
3ACA
330
18
100
AcDbEntity
  8
0
 62
     0
 48
6.0
100
AcDbLine
 10
1844.999986828538
 20
1894.999995102094
 30
0.0
 11
1974.999986828538
 21
1894.999995102094
 31
0.0
  0
LINE
  5
3ACB
330
18
100
AcDbEntity
  8
0
 62
     0
 48
6.0
100
AcDbLine
 10
1974.999986828538
 20
1784.999995102094
 30
0.0
 11
1844.999986828538
 21
1784.999995102094
 31
0.0
  0
LINE
  5
3ACC
330
18
100
AcDbEntity
  8
0
  6
CENTER
 62
     0
 48
6.0
100
AcDbLine
 10
1784.999986828538
 20
1854.999995102094
 30
0.0
 11
1804.999986828538
 21
1854.999995102094
 31
0.0
  0
CIRCLE
  5
3ACD
330
18
100
AcDbEntity
  8
0
 62
     0
 48
6.0
100
AcDbCircle
 10
1794.999986828538
 20
1854.999995102094
 30
0.0
 40
5.0
  0
LINE
  5
3ACE
330
18
100
AcDbEntity
  8
0
  6
CENTER
 62
     0
 48
6.0
100
AcDbLine
 10
1784.999986828538
 20
1909.999995102094
 30
0.0
 11
1804.999986828538
 21
1909.999995102094
 31
0.0
  0
CIRCLE
  5
3ACF
330
18
100
AcDbEntity
  8
0
 62
     0
 48
6.0
100
AcDbCircle
 10
1794.999986828538
 20
1909.999995102094
 30
0.0
 40
5.0
  0
LINE
  5
3AD0
330
18
100
AcDbEntity
  8
0
 62
     0
 48
6.0
100
AcDbLine
 10
1964.999986828538
 20
1864.999995102094
 30
0.0
 11
1964.999986828538
 21
1884.999995102094
 31
0.0
  0
LINE
  5
3AD1
330
18
100
AcDbEntity
  8
0
 62
     0
 48
6.0
100
AcDbLine
 10
1974.999986828538
 20
1864.999995102094
 30
0.0
 11
1974.999986828538
 21
1784.999995102094
 31
0.0
  0
LINE
  5
3AD2
330
18
100
AcDbEntity
  8
0
 62
     0
 48
6.0
100
AcDbLine
 10
1984.999986828538
 20
1904.999995102094
 30
0.0
 11
1964.999986828538
 21
1884.999995102094
 31
0.0
  0
LINE
  5
3AD6
330
18
100
AcDbEntity
  8
0
 62
     0
 48
6.0
100
AcDbLine
 10
2054.999986828538
 20
1864.999995102094
 30
0.0
 11
2054.999986828538
 21
1184.999995102094
 31
0.0
  0
LINE
  5
3AD8
330
18
100
AcDbEntity
  8
0
 62
     0
 48
6.0
100
AcDbLine
 10
2094.999986828538
 20
1074.999995102094
 30
0.0
 11
2094.999986828538
 21
1164.999995102094
 31
0.0
  0
LINE
  5
3AD9
330
18
100
AcDbEntity
  8
0
 62
     0
 48
6.0
100
AcDbLine
 10
2054.999986828538
 20
1094.999995102094
 30
0.0
 11
2054.999986828538
 21
1194.999995102094
 31
0.0
  0
LINE
  5
3ADB
330
18
100
AcDbEntity
  8
0
  6
CENTER
 62
     0
 48
6.0
100
AcDbLine
 10
2054.999986828538
 20
1074.999995102094
 30
0.0
 11
2094.999986828538
 21
1074.999995102094
 31
0.0
  0
CIRCLE
  5
3ADC
330
18
100
AcDbEntity
  8
0
  6
ByBlock
 62
     0
 48
6.0
100
AcDbCircle
 10
2074.999986828538
 20
1074.999995102094
 30
0.0
 40
10.0
  0
LINE
  5
3ADD
330
18
100
AcDbEntity
  8
0
 62
     0
 48
6.0
100
AcDbLine
 10
2074.999986828538
 20
1094.999995102094
 30
0.0
 11
2074.999986828538
 21
1084.999995102094
 31
0.0
  0
LINE
  5
3ADE
330
18
100
AcDbEntity
  8
0
  6
CENTER
 62
     0
 48
6.0
100
AcDbLine
 10
2074.999986828538
 20
1089.999995102094
 30
0.0
 11
2074.999986828538
 21
1054.999995102094
 31
0.0
  0
LINE
  5
3ADF
330
18
100
AcDbEntity
  8
0
 62
     0
 48
6.0
100
AcDbLine
 10
2074.999986828538
 20
1054.999995102094
 30
0.0
 11
2094.999986828538
 21
1074.999995102094
 31
0.0
  0
LINE
  5
3AE3
330
18
100
AcDbEntity
  8
0
 62
     0
 48
6.0
100
AcDbLine
 10
2074.999986828538
 20
1184.999995102094
 30
0.0
 11
2054.999986828538
 21
1184.999995102094
 31
0.0
  0
LINE
  5
3AE4
330
18
100
AcDbEntity
  8
0
 62
     0
 48
6.0
100
AcDbLine
 10
2094.999986828538
 20
1164.999995102094
 30
0.0
 11
2074.999986828538
 21
1184.999995102094
 31
0.0
  0
LINE
  5
3AE6
330
18
100
AcDbEntity
  8
0
 62
     0
 48
6.0
100
AcDbLine
 10
2074.999986828538
 20
1774.999995102094
 30
0.0
 11
2094.999986828538
 21
1794.999995102094
 31
0.0
  0
LINE
  5
3AE7
330
18
100
AcDbEntity
  8
0
 62
     0
 48
6.0
100
AcDbLine
 10
2054.999986828538
 20
1774.999995102094
 30
0.0
 11
2074.999986828538
 21
1774.999995102094
 31
0.0
  0
LINE
  5
3AE9
330
18
100
AcDbEntity
  8
0
  6
CENTER
 62
     0
 48
6.0
100
AcDbLine
 10
2073.90664722184
 20
1904.999995102094
 30
0.0
 11
2073.90664722184
 21
1864.999995102094
 31
0.0
  0
LINE
  5
3AEA
330
18
100
AcDbEntity
  8
0
 62
     0
 48
6.0
100
AcDbLine
 10
2094.999986828538
 20
1794.999995102094
 30
0.0
 11
2094.999986828538
 21
1884.999995102094
 31
0.0
  0
LINE
  5
3AEB
330
18
100
AcDbEntity
  8
0
  6
CENTER
 62
     0
 48
6.0
100
AcDbLine
 10
2053.90664722184
 20
1884.999995102094
 30
0.0
 11
2093.90664722184
 21
1884.999995102094
 31
0.0
  0
CIRCLE
  5
3AEC
330
18
100
AcDbEntity
  8
0
  6
ByBlock
 62
     0
 48
6.0
100
AcDbCircle
 10
2073.90664722184
 20
1884.999995102094
 30
0.0
 40
10.0
  0
LINE
  5
3AEF
330
18
100
AcDbEntity
  8
0
 62
     0
 48
6.0
100
AcDbLine
 10
2094.999986828538
 20
1884.999995102094
 30
0.0
 11
2074.999986828538
 21
1904.999995102094
 31
0.0
  0
LINE
  5
3AF5
330
18
100
AcDbEntity
  8
0
 62
     0
 48
6.0
100
AcDbLine
 10
1756.403135525637
 20
2604.935266576068
 30
0.0
 11
1014.680044655346
 21
2604.935266576068
 31
0.0
  0
LINE
  5
3AF9
330
18
100
AcDbEntity
  8
0
 62
     0
 48
6.0
100
AcDbLine
 10
1756.34558897798
 20
3564.552389826902
 30
0.0
 11
1032.804936035376
 21
3564.552389826902
 31
0.0
  0
LINE
  5
3AFA
330
18
100
AcDbEntity
  8
0
 62
     0
 48
6.0
100
AcDbLine
 10
1384.999986828538
 20
3154.999995102094
 30
0.0
 11
795.1615641853023
 21
2705.850211607055
 31
0.0
  0
LINE
  5
3AFB
330
18
100
AcDbEntity
  8
0
 62
     0
 48
6.0
100
AcDbLine
 10
1334.999986828538
 20
3194.999995102094
 30
0.0
 11
794.9999868285377
 21
2784.999995102094
 31
0.0
  0
LINE
  5
3AFC
330
18
100
AcDbEntity
  8
0
 62
     0
 48
6.0
100
AcDbLine
 10
839.9999868285377
 20
3639.999995102094
 30
0.0
 11
2055.509848347631
 21
2714.611828925006
 31
0.0
  0
LINE
  5
3AFD
330
18
100
AcDbEntity
  8
0
 62
     0
 48
6.0
100
AcDbLine
 10
814.9999868285377
 20
3594.999995102094
 30
0.0
 11
1999.999986828538
 21
2689.999995102094
 31
0.0
  0
LINE
  5
3AFE
330
18
100
AcDbEntity
  8
0
 62
     0
 48
6.0
100
AcDbLine
 10
844.9999868285377
 20
3644.999995102094
 30
0.0
 11
2059.096279510625
 21
2718.915546320598
 31
0.0
  0
LINE
  5
3AFF
330
18
100
AcDbEntity
  8
0
 62
     0
 48
6.0
100
AcDbLine
 10
794.9999868285377
 20
2684.999995102094
 30
0.0
 11
1974.999986828538
 21
2684.999995102094
 31
0.0
  0
LINE
  5
3B00
330
18
100
AcDbEntity
  8
0
 62
     0
 48
6.0
100
AcDbLine
 10
794.9999868285377
 20
3644.999995102094
 30
0.0
 11
1974.999986828538
 21
3644.999995102094
 31
0.0
  0
LINE
  5
3B01
330
18
100
AcDbEntity
  8
0
 62
     0
 48
6.0
100
AcDbLine
 10
794.9999868285377
 20
3644.999995102094
 30
0.0
 11
794.9999868285377
 21
2524.999995102094
 31
0.0
  0
LINE
  5
3B02
330
18
100
AcDbEntity
  8
0
 62
     0
 48
6.0
100
AcDbLine
 10
714.9999868285377
 20
3644.999995102094
 30
0.0
 11
714.9999868285377
 21
2524.999995102094
 31
0.0
  0
LINE
  5
3B03
330
18
100
AcDbEntity
  8
0
  6
CENTER
 62
     0
 48
6.0
100
AcDbLine
 10
974.2429640905684
 20
2765.576154158137
 30
0.0
 11
974.2429640905684
 21
2585.576154158137
 31
0.0
  0
ARC
  5
3B04
330
18
100
AcDbEntity
  8
0
 62
     0
 48
6.0
100
AcDbCircle
 10
754.9999868285377
 20
2429.999995102094
 30
0.0
 40
10.0
100
AcDbArc
 50
0.0
 51
180.0
  0
LINE
  5
3B05
330
18
100
AcDbEntity
  8
0
 62
     0
 48
6.0
100
AcDbLine
 10
704.9999868285377
 20
2454.999995102094
 30
0.0
 11
704.9999868285377
 21
2384.999995102094
 31
0.0
  0
LINE
  5
3B06
330
18
100
AcDbEntity
  8
0
 62
     0
 48
6.0
100
AcDbLine
 10
804.9999868285377
 20
2374.999995102094
 30
0.0
 11
804.9999868285377
 21
2454.999995102094
 31
0.0
  0
LINE
  5
3B09
330
18
100
AcDbEntity
  8
0
 62
     0
 48
6.0
100
AcDbLine
 10
674.9999868285377
 20
2384.999995102094
 30
0.0
 11
804.9999868285377
 21
2384.999995102094
 31
0.0
  0
LINE
  5
3B0A
330
18
100
AcDbEntity
  8
0
 62
     0
 48
6.0
100
AcDbLine
 10
674.9999868285377
 20
2374.999995102094
 30
0.0
 11
804.9999868285377
 21
2374.999995102094
 31
0.0
  0
LINE
  5
3B0B
330
18
100
AcDbEntity
  8
0
 62
     0
 48
6.0
100
AcDbLine
 10
694.9999868285377
 20
2394.999995102094
 30
0.0
 11
694.9999868285377
 21
2344.999995102094
 31
0.0
  0
LINE
  5
3B0D
330
18
100
AcDbEntity
  8
0
 62
     0
 48
6.0
100
AcDbLine
 10
674.9999868285377
 20
2374.999995102094
 30
0.0
 11
674.9999868285377
 21
2384.999995102094
 31
0.0
  0
LINE
  5
3B0E
330
18
100
AcDbEntity
  8
0
 62
     0
 48
6.0
100
AcDbLine
 10
764.9999868285377
 20
2429.999995102094
 30
0.0
 11
764.9999868285377
 21
2399.999995102094
 31
0.0
  0
LINE
  5
3B0F
330
18
100
AcDbEntity
  8
0
 62
     0
 48
6.0
100
AcDbLine
 10
744.9999868285377
 20
2429.999995102094
 30
0.0
 11
744.9999868285377
 21
2399.999995102094
 31
0.0
  0
ARC
  5
3B10
330
18
100
AcDbEntity
  8
0
 62
     0
 48
6.0
100
AcDbCircle
 10
754.9999868285377
 20
2399.999995102094
 30
0.0
 40
10.0
100
AcDbArc
 50
180.0
 51
0.0
  0
CIRCLE
  5
3B11
330
18
100
AcDbEntity
  8
0
 62
     0
 48
6.0
100
AcDbCircle
 10
834.9129661657716
 20
2639.425096004693
 30
0.0
 40
9.013611994698294
  0
LINE
  5
3B12
330
18
100
AcDbEntity
  8
0
 62
     0
 48
6.0
100
AcDbLine
 10
794.9999868285377
 20
2599.999995102094
 30
0.0
 11
874.9999868285377
 21
2599.999995102094
 31
0.0
  0
LINE
  5
3B13
330
18
100
AcDbEntity
  8
0
 62
     0
 48
6.0
100
AcDbLine
 10
794.9999868285377
 20
2679.999995102094
 30
0.0
 11
864.9999868285377
 21
2679.999995102094
 31
0.0
  0
LINE
  5
3B14
330
18
100
AcDbEntity
  8
0
 62
     0
 48
6.0
100
AcDbLine
 10
804.9999868285377
 20
2454.999995102094
 30
0.0
 11
704.9999868285377
 21
2454.999995102094
 31
0.0
  0
LINE
  5
3B15
330
18
100
AcDbEntity
  8
0
 62
     0
 48
6.0
100
AcDbLine
 10
714.9999868285377
 20
2524.999995102094
 30
0.0
 11
714.9999868285377
 21
2494.999995102094
 31
0.0
  0
LINE
  5
3B16
330
18
100
AcDbEntity
  8
0
 62
     0
 48
6.0
100
AcDbLine
 10
714.9999868285377
 20
2494.999995102094
 30
0.0
 11
714.9999868285377
 21
2454.999995102094
 31
0.0
  0
LINE
  5
3B17
330
18
100
AcDbEntity
  8
0
 62
     0
 48
6.0
100
AcDbLine
 10
794.9999868285377
 20
2524.999995102094
 30
0.0
 11
794.9999868285377
 21
2494.999995102094
 31
0.0
  0
LINE
  5
3B18
330
18
100
AcDbEntity
  8
0
 62
     0
 48
6.0
100
AcDbLine
 10
794.9999868285377
 20
2494.999995102094
 30
0.0
 11
794.9999868285377
 21
2454.999995102094
 31
0.0
  0
CIRCLE
  5
3B19
330
18
100
AcDbEntity
  8
0
 62
     0
 48
6.0
100
AcDbCircle
 10
752.9691471278711
 20
2716.51908822595
 30
0.0
 40
9.013611994698294
  0
LINE
  5
3B1A
330
18
100
AcDbEntity
  8
0
 62
     0
 48
6.0
100
AcDbLine
 10
934.2334404632675
 20
2726.620987853224
 30
0.0
 11
1014.10309699336
 21
2726.620987853224
 31
0.0
  0
LINE
  5
3B1B
330
18
100
AcDbEntity
  8
0
 62
     0
 48
6.0
100
AcDbLine
 10
1014.680044655346
 20
2599.680651039594
 30
0.0
 11
935.5885662400104
 21
2599.680651039594
 31
0.0
  0
LINE
  5
3B1C
330
18
100
AcDbEntity
  8
0
 62
     0
 48
6.0
100
AcDbLine
 10
935.5885662400107
 20
2680.491123684408
 30
0.0
 11
1014.680044655346
 21
2680.491123684409
 31
0.0
  0
LINE
  5
3B1D
330
18
100
AcDbEntity
  8
0
 62
     0
 48
6.0
100
AcDbLine
 10
934.2429640905684
 20
2747.404307393113
 30
0.0
 11
1014.242964090568
 21
2747.404307393113
 31
0.0
  0
LINE
  5
3B1E
330
18
100
AcDbEntity
  8
0
 62
     0
 48
6.0
100
AcDbLine
 10
935.5885662400106
 20
2680.491123684409
 30
0.0
 11
935.5885662400106
 21
2599.680651039594
 31
0.0
  0
LINE
  5
3B1F
330
18
100
AcDbEntity
  8
0
 62
     0
 48
6.0
100
AcDbLine
 10
935.5885662400104
 20
2604.93527642306
 30
0.0
 11
874.9371153518259
 21
2604.93527642306
 31
0.0
  0
LINE
  5
3B20
330
18
100
AcDbEntity
  8
0
 62
     0
 48
6.0
100
AcDbLine
 10
874.9999868285377
 20
2599.999995102094
 30
0.0
 11
874.9999868285377
 21
2619.999995102094
 31
0.0
  0
LINE
  5
3B21
330
18
100
AcDbEntity
  8
0
 62
     0
 48
6.0
100
AcDbLine
 10
874.9999868285377
 20
2669.999995102094
 30
0.0
 11
874.9999868285377
 21
2649.999995102094
 31
0.0
  0
LINE
  5
3B22
330
18
100
AcDbEntity
  8
0
 62
     0
 48
6.0
100
AcDbLine
 10
864.9999868285377
 20
2679.999995102094
 30
0.0
 11
874.9999868285377
 21
2669.999995102094
 31
0.0
  0
LINE
  5
3B23
330
18
100
AcDbEntity
  8
0
 62
     0
 48
6.0
100
AcDbLine
 10
874.9999868285377
 20
2609.999995102094
 30
0.0
 11
874.9999868285377
 21
2659.999995102094
 31
0.0
  0
LINE
  5
3B24
330
18
100
AcDbEntity
  8
0
 62
     0
 48
6.0
100
AcDbLine
 10
924.6793872420238
 20
2717.840730544568
 30
0.0
 11
934.2429640905684
 21
2727.404307393113
 31
0.0
  0
LINE
  5
3B25
330
18
100
AcDbEntity
  8
0
 62
     0
 48
6.0
100
AcDbLine
 10
924.679387242024
 20
2717.840730544568
 30
0.0
 11
924.6793872420238
 21
2684.999995102094
 31
0.0
  0
LINE
  5
3B26
330
18
100
AcDbEntity
  8
0
 62
     0
 48
6.0
100
AcDbLine
 10
944.2429640905684
 20
2747.404307393113
 30
0.0
 11
944.2429640905684
 21
2727.404307393113
 31
0.0
  0
LINE
  5
3B27
330
18
100
AcDbEntity
  8
0
 62
     0
 48
6.0
100
AcDbLine
 10
934.2429640905684
 20
2727.404307393113
 30
0.0
 11
934.2429640905684
 21
2747.404307393113
 31
0.0
  0
LINE
  5
3B28
330
18
100
AcDbEntity
  8
0
 62
     0
 48
6.0
100
AcDbLine
 10
1014.680044655346
 20
2680.491123684409
 30
0.0
 11
1014.680044655346
 21
2599.680651039594
 31
0.0
  0
LINE
  5
3B29
330
18
100
AcDbEntity
  8
0
 62
     0
 48
6.0
100
AcDbLine
 10
1004.242964090568
 20
2747.404307393113
 30
0.0
 11
1004.242964090568
 21
2727.404307393113
 31
0.0
  0
LINE
  5
3B2A
330
18
100
AcDbEntity
  8
0
 62
     0
 48
6.0
100
AcDbLine
 10
994.2429640905684
 20
2747.404307393113
 30
0.0
 11
994.2429640905684
 21
2727.404307393113
 31
0.0
  0
LINE
  5
3B2B
330
18
100
AcDbEntity
  8
0
 62
     0
 48
6.0
100
AcDbLine
 10
984.2429640905684
 20
2747.404307393113
 30
0.0
 11
984.2429640905684
 21
2727.404307393113
 31
0.0
  0
LINE
  5
3B2C
330
18
100
AcDbEntity
  8
0
 62
     0
 48
6.0
100
AcDbLine
 10
964.2429640905684
 20
2747.404307393113
 30
0.0
 11
964.2429640905684
 21
2727.404307393113
 31
0.0
  0
LINE
  5
3B2D
330
18
100
AcDbEntity
  8
0
 62
     0
 48
6.0
100
AcDbLine
 10
954.2429640905684
 20
2747.404307393113
 30
0.0
 11
954.2429640905684
 21
2727.404307393113
 31
0.0
  0
LINE
  5
3B2E
330
18
100
AcDbEntity
  8
0
 62
     0
 48
6.0
100
AcDbLine
 10
1024.680090743459
 20
2716.967180740222
 30
0.0
 11
1024.680090743459
 21
2684.999995102094
 31
0.0
  0
LINE
  5
3B2F
330
18
100
AcDbEntity
  8
0
 62
     0
 48
6.0
100
AcDbLine
 10
1014.242964090568
 20
2727.404307393113
 30
0.0
 11
1024.680090743459
 21
2716.967180740222
 31
0.0
  0
LINE
  5
3B30
330
18
100
AcDbEntity
  8
0
 62
     0
 48
6.0
100
AcDbLine
 10
1014.242964090568
 20
2747.404307393113
 30
0.0
 11
1014.242964090568
 21
2727.404307393113
 31
0.0
  0
CIRCLE
  5
3B35
330
18
100
AcDbEntity
  8
0
 62
     0
 48
6.0
100
AcDbCircle
 10
844.2710694637717
 20
3604.335023820714
 30
0.0
 40
9.013611994698294
  0
LINE
  5
3B36
330
18
100
AcDbEntity
  8
0
 62
     0
 48
6.0
100
AcDbLine
 10
794.9999868285377
 20
3564.999995102094
 30
0.0
 11
844.9999868285377
 21
3564.999995102094
 31
0.0
  0
LINE
  5
3B37
330
18
100
AcDbEntity
  8
0
 62
     0
 48
6.0
100
AcDbLine
 10
844.9999868285377
 20
3644.999995102094
 30
0.0
 11
814.9999868285377
 21
3614.999995102094
 31
0.0
  0
LINE
  5
3B38
330
18
100
AcDbEntity
  8
0
 62
     0
 48
6.0
100
AcDbLine
 10
714.9999868285377
 20
3644.999995102094
 30
0.0
 11
794.9999868285377
 21
3644.999995102094
 31
0.0
  0
LINE
  5
3B3A
330
18
100
AcDbEntity
  8
0
 62
     0
 48
6.0
100
AcDbLine
 10
814.9999868285377
 20
3614.999995102094
 30
0.0
 11
814.9999868285377
 21
3594.999995102094
 31
0.0
  0
LINE
  5
3B3B
330
18
100
AcDbEntity
  8
0
  6
CENTER
 62
     0
 48
6.0
100
AcDbLine
 10
974.9999868285377
 20
3724.999995102094
 30
0.0
 11
974.9999868285377
 21
3544.999995102094
 31
0.0
  0
LINE
  5
3B3C
330
18
100
AcDbEntity
  8
0
 62
     0
 48
6.0
100
AcDbLine
 10
1019.999986828538
 20
3639.999995102094
 30
0.0
 11
1019.999986828538
 21
3559.999995102094
 31
0.0
  0
LINE
  5
3B3D
330
18
100
AcDbEntity
  8
0
 62
     0
 48
6.0
100
AcDbLine
 10
844.9999868285377
 20
3564.999995102094
 30
0.0
 11
854.9999868285377
 21
3564.999995102094
 31
0.0
  0
LINE
  5
3B3E
330
18
100
AcDbEntity
  8
0
 62
     0
 48
6.0
100
AcDbLine
 10
1019.999986828538
 20
3559.999995102094
 30
0.0
 11
956.434948309386
 21
3559.999995102094
 31
0.0
  0
LINE
  5
3B3F
330
18
100
AcDbEntity
  8
0
 62
     0
 48
6.0
100
AcDbLine
 10
934.9999868285377
 20
3639.999995102094
 30
0.0
 11
1019.999986828538
 21
3639.999995102094
 31
0.0
  0
LINE
  5
3B40
330
18
100
AcDbEntity
  8
0
 62
     0
 48
6.0
100
AcDbLine
 10
934.0908885786994
 20
3685.920153331655
 30
0.0
 11
1014.090888578699
 21
3685.920153331655
 31
0.0
  0
LINE
  5
3B41
330
18
100
AcDbEntity
  8
0
 62
     0
 48
6.0
100
AcDbLine
 10
934.0908885786994
 20
3705.920153331655
 30
0.0
 11
1014.090888578699
 21
3705.920153331655
 31
0.0
  0
LINE
  5
3B42
330
18
100
AcDbEntity
  8
0
 62
     0
 48
6.0
100
AcDbLine
 10
924.3531090767575
 20
3676.182373829713
 30
0.0
 11
924.3531090767574
 21
3644.999995102094
 31
0.0
  0
LINE
  5
3B43
330
18
100
AcDbEntity
  8
0
 62
     0
 48
6.0
100
AcDbLine
 10
844.9999868285377
 20
3644.999995102094
 30
0.0
 11
844.9999868285377
 21
3644.999995102094
 31
0.0
  0
LINE
  5
3B44
330
18
100
AcDbEntity
  8
0
 62
     0
 48
6.0
100
AcDbLine
 10
934.9999868285377
 20
3639.999995102094
 30
0.0
 11
934.9999868285378
 21
3576.350085788716
 31
0.0
  0
LINE
  5
3B45
330
18
100
AcDbEntity
  8
0
 62
     0
 48
6.0
100
AcDbLine
 10
924.3531090767574
 20
3676.182373829713
 30
0.0
 11
934.0908885786994
 21
3685.920153331655
 31
0.0
  0
LINE
  5
3B46
330
18
100
AcDbEntity
  8
0
 62
     0
 48
6.0
100
AcDbLine
 10
934.0908885786994
 20
3685.920153331655
 30
0.0
 11
934.0908885786994
 21
3705.920153331655
 31
0.0
  0
LINE
  5
3B47
330
18
100
AcDbEntity
  8
0
 62
     0
 48
6.0
100
AcDbLine
 10
944.0908885786994
 20
3705.920153331655
 30
0.0
 11
944.0908885786994
 21
3685.920153331655
 31
0.0
  0
LINE
  5
3B48
330
18
100
AcDbEntity
  8
0
 62
     0
 48
6.0
100
AcDbLine
 10
1024.353812578192
 20
3675.657229332161
 30
0.0
 11
1024.353812578192
 21
3644.999995102094
 31
0.0
  0
LINE
  5
3B49
330
18
100
AcDbEntity
  8
0
 62
     0
 48
6.0
100
AcDbLine
 10
994.0908885786994
 20
3705.920153331655
 30
0.0
 11
994.0908885786994
 21
3685.920153331655
 31
0.0
  0
LINE
  5
3B4A
330
18
100
AcDbEntity
  8
0
 62
     0
 48
6.0
100
AcDbLine
 10
1004.090888578699
 20
3705.920153331655
 30
0.0
 11
1004.090888578699
 21
3685.920153331655
 31
0.0
  0
LINE
  5
3B4B
330
18
100
AcDbEntity
  8
0
 62
     0
 48
6.0
100
AcDbLine
 10
954.0908885786994
 20
3705.920153331655
 30
0.0
 11
954.0908885786994
 21
3685.920153331655
 31
0.0
  0
LINE
  5
3B4C
330
18
100
AcDbEntity
  8
0
 62
     0
 48
6.0
100
AcDbLine
 10
964.0908885786994
 20
3705.920153331655
 30
0.0
 11
964.0908885786994
 21
3685.920153331655
 31
0.0
  0
LINE
  5
3B4D
330
18
100
AcDbEntity
  8
0
 62
     0
 48
6.0
100
AcDbLine
 10
974.0908885786994
 20
3705.920153331655
 30
0.0
 11
974.0908885786994
 21
3685.920153331655
 31
0.0
  0
LINE
  5
3B4E
330
18
100
AcDbEntity
  8
0
 62
     0
 48
6.0
100
AcDbLine
 10
984.0908885786994
 20
3705.920153331655
 30
0.0
 11
984.0908885786994
 21
3685.920153331655
 31
0.0
  0
LINE
  5
3B4F
330
18
100
AcDbEntity
  8
0
 62
     0
 48
6.0
100
AcDbLine
 10
1014.090888578699
 20
3685.920153331655
 30
0.0
 11
1024.353812578192
 21
3675.657229332162
 31
0.0
  0
LINE
  5
3B50
330
18
100
AcDbEntity
  8
0
 62
     0
 48
6.0
100
AcDbLine
 10
1014.090888578699
 20
3705.920153331655
 30
0.0
 11
1014.090888578699
 21
3685.920153331655
 31
0.0
  0
LINE
  5
3B58
330
18
100
AcDbEntity
  8
0
 62
     0
 48
6.0
100
AcDbLine
 10
1916.178435980586
 20
3558.391929459114
 30
0.0
 11
1434.999986828538
 21
3194.999995102094
 31
0.0
  0
LINE
  5
3B59
330
18
100
AcDbEntity
  8
0
 62
     0
 48
6.0
100
AcDbLine
 10
1817.727200829882
 20
3558.644120300614
 30
0.0
 11
1384.999986828538
 21
3234.999995102094
 31
0.0
  0
LINE
  5
3B5A
330
18
100
AcDbEntity
  8
0
 62
     0
 48
6.0
100
AcDbLine
 10
2054.999986828538
 20
3644.999995102094
 30
0.0
 11
2054.999986828538
 21
2722.040103222224
 31
0.0
  0
LINE
  5
3B5B
330
18
100
AcDbEntity
  8
0
 62
     0
 48
6.0
100
AcDbLine
 10
1974.999986828538
 20
2784.999995102094
 30
0.0
 11
1974.999986828538
 21
3644.999995102094
 31
0.0
  0
CIRCLE
  5
3B5D
330
18
100
AcDbEntity
  8
0
 62
     0
 48
6.0
100
AcDbCircle
 10
2014.796062173453
 20
2716.51908822595
 30
0.0
 40
9.013611994698294
  0
LINE
  5
3B5E
330
18
100
AcDbEntity
  8
0
 62
     0
 48
6.0
100
AcDbLine
 10
1999.999986828538
 20
2689.999995102094
 30
0.0
 11
2029.999986828538
 21
2689.999995102094
 31
0.0
  0
ARC
  5
3B5F
330
18
100
AcDbEntity
  8
0
 62
     0
 48
6.0
100
AcDbCircle
 10
2014.999986828538
 20
2399.999995102094
 30
0.0
 40
10.0
100
AcDbArc
 50
180.0
 51
0.0
  0
ARC
  5
3B60
330
18
100
AcDbEntity
  8
0
 62
     0
 48
6.0
100
AcDbCircle
 10
2014.999986828538
 20
2429.999995102094
 30
0.0
 40
10.0
100
AcDbArc
 50
0.0
 51
180.0
  0
LINE
  5
3B61
330
18
100
AcDbEntity
  8
0
 62
     0
 48
6.0
100
AcDbLine
 10
2094.999986828538
 20
2384.999995102094
 30
0.0
 11
1964.999986828538
 21
2384.999995102094
 31
0.0
  0
LINE
  5
3B62
330
18
100
AcDbEntity
  8
0
 62
     0
 48
6.0
100
AcDbLine
 10
1964.999986828538
 20
2374.999995102094
 30
0.0
 11
2094.999986828538
 21
2374.999995102094
 31
0.0
  0
LINE
  5
3B63
330
18
100
AcDbEntity
  8
0
 62
     0
 48
6.0
100
AcDbLine
 10
2064.999986828538
 20
2454.999995102094
 30
0.0
 11
1964.999986828538
 21
2454.999995102094
 31
0.0
  0
LINE
  5
3B64
330
18
100
AcDbEntity
  8
0
  6
CENTER
 62
     0
 48
6.0
100
AcDbLine
 10
1794.999986828538
 20
2765.576154158137
 30
0.0
 11
1794.999986828538
 21
2585.576154158137
 31
0.0
  0
LINE
  5
3B6D
330
18
100
AcDbEntity
  8
0
 62
     0
 48
6.0
100
AcDbLine
 10
1964.999986828538
 20
2454.999995102094
 30
0.0
 11
1964.999986828538
 21
2384.999995102094
 31
0.0
  0
LINE
  5
3B70
330
18
100
AcDbEntity
  8
0
 62
     0
 48
6.0
100
AcDbLine
 10
2004.999986828538
 20
2429.999995102094
 30
0.0
 11
2004.999986828538
 21
2399.999995102094
 31
0.0
  0
LINE
  5
3B71
330
18
100
AcDbEntity
  8
0
 62
     0
 48
6.0
100
AcDbLine
 10
1964.999986828538
 20
2384.999995102094
 30
0.0
 11
1964.999986828538
 21
2374.999995102094
 31
0.0
  0
LINE
  5
3B72
330
18
100
AcDbEntity
  8
0
 62
     0
 48
6.0
100
AcDbLine
 10
1756.34558897798
 20
2680.491123684408
 30
0.0
 11
1835.437067393315
 21
2680.491123684409
 31
0.0
  0
LINE
  5
3B73
330
18
100
AcDbEntity
  8
0
 62
     0
 48
6.0
100
AcDbLine
 10
1835.437067393315
 20
2599.680651039594
 30
0.0
 11
1756.34558897798
 21
2599.680651039594
 31
0.0
  0
LINE
  5
3B74
330
18
100
AcDbEntity
  8
0
 62
     0
 48
6.0
100
AcDbLine
 10
1754.999986828538
 20
2727.404307393113
 30
0.0
 11
1834.999986828538
 21
2727.404307393113
 31
0.0
  0
LINE
  5
3B75
330
18
100
AcDbEntity
  8
0
 62
     0
 48
6.0
100
AcDbLine
 10
1754.999986828538
 20
2747.404307393113
 30
0.0
 11
1834.999986828538
 21
2747.404307393113
 31
0.0
  0
LINE
  5
3B76
330
18
100
AcDbEntity
  8
0
 62
     0
 48
6.0
100
AcDbLine
 10
1756.34558897798
 20
2680.491123684409
 30
0.0
 11
1756.34558897798
 21
2599.680651039594
 31
0.0
  0
LINE
  5
3B77
330
18
100
AcDbEntity
  8
0
 62
     0
 48
6.0
100
AcDbLine
 10
1745.436409979993
 20
2717.840730544569
 30
0.0
 11
1745.436409979993
 21
2684.999995102094
 31
0.0
  0
LINE
  5
3B79
330
18
100
AcDbEntity
  8
0
 62
     0
 48
6.0
100
AcDbLine
 10
1764.999986828538
 20
2747.404307393113
 30
0.0
 11
1764.999986828538
 21
2727.404307393113
 31
0.0
  0
LINE
  5
3B7A
330
18
100
AcDbEntity
  8
0
 62
     0
 48
6.0
100
AcDbLine
 10
1754.999986828538
 20
2727.404307393113
 30
0.0
 11
1754.999986828538
 21
2747.404307393113
 31
0.0
  0
LINE
  5
3B7B
330
18
100
AcDbEntity
  8
0
 62
     0
 48
6.0
100
AcDbLine
 10
1974.999986828538
 20
2534.999995102094
 30
0.0
 11
1974.999986828538
 21
2704.999995102094
 31
0.0
  0
LINE
  5
3B7C
330
18
100
AcDbEntity
  8
0
 62
     0
 48
6.0
100
AcDbLine
 10
1974.999986828538
 20
2534.999995102094
 30
0.0
 11
1974.999986828538
 21
2464.999995102094
 31
0.0
  0
LINE
  5
3B7D
330
18
100
AcDbEntity
  8
0
 62
     0
 48
6.0
100
AcDbLine
 10
1974.999986828538
 20
2494.999995102094
 30
0.0
 11
1974.999986828538
 21
2454.999995102094
 31
0.0
  0
LINE
  5
3B7E
330
18
100
AcDbEntity
  8
0
 62
     0
 48
6.0
100
AcDbLine
 10
1884.999986828538
 20
2604.999995102094
 30
0.0
 11
1894.999986828538
 21
2604.999995102094
 31
0.0
  0
LINE
  5
3B7F
330
18
100
AcDbEntity
  8
0
 62
     0
 48
6.0
100
AcDbLine
 10
1835.437067393315
 20
2680.491123684409
 30
0.0
 11
1835.437067393315
 21
2599.680651039594
 31
0.0
  0
LINE
  5
3B80
330
18
100
AcDbEntity
  8
0
 62
     0
 48
6.0
100
AcDbLine
 10
1857.255495868041
 20
2604.935266576068
 30
0.0
 11
1835.59591966169
 21
2604.935266576068
 31
0.0
  0
LINE
  5
3B81
330
18
100
AcDbEntity
  8
0
 62
     0
 48
6.0
100
AcDbLine
 10
1854.999986828538
 20
2604.999995102094
 30
0.0
 11
1884.999986828538
 21
2604.999995102094
 31
0.0
  0
LINE
  5
3B82
330
18
100
AcDbEntity
  8
0
 62
     0
 48
6.0
100
AcDbLine
 10
1814.999986828538
 20
2747.404307393113
 30
0.0
 11
1814.999986828538
 21
2727.404307393113
 31
0.0
  0
LINE
  5
3B83
330
18
100
AcDbEntity
  8
0
 62
     0
 48
6.0
100
AcDbLine
 10
1804.999986828538
 20
2747.404307393113
 30
0.0
 11
1804.999986828538
 21
2727.404307393113
 31
0.0
  0
LINE
  5
3B84
330
18
100
AcDbEntity
  8
0
 62
     0
 48
6.0
100
AcDbLine
 10
1824.999986828538
 20
2747.404307393113
 30
0.0
 11
1824.999986828538
 21
2727.404307393113
 31
0.0
  0
LINE
  5
3B85
330
18
100
AcDbEntity
  8
0
 62
     0
 48
6.0
100
AcDbLine
 10
1784.999986828538
 20
2747.404307393113
 30
0.0
 11
1784.999986828538
 21
2727.404307393113
 31
0.0
  0
LINE
  5
3B86
330
18
100
AcDbEntity
  8
0
 62
     0
 48
6.0
100
AcDbLine
 10
1774.999986828538
 20
2747.404307393113
 30
0.0
 11
1774.999986828538
 21
2727.404307393113
 31
0.0
  0
LINE
  5
3B87
330
18
100
AcDbEntity
  8
0
 62
     0
 48
6.0
100
AcDbLine
 10
1845.437113481428
 20
2716.967180740222
 30
0.0
 11
1845.437113481428
 21
2684.999995102094
 31
0.0
  0
LINE
  5
3B88
330
18
100
AcDbEntity
  8
0
 62
     0
 48
6.0
100
AcDbLine
 10
1834.999986828538
 20
2727.404307393113
 30
0.0
 11
1845.437113481428
 21
2716.967180740222
 31
0.0
  0
LINE
  5
3B89
330
18
100
AcDbEntity
  8
0
 62
     0
 48
6.0
100
AcDbLine
 10
1834.999986828538
 20
2747.404307393113
 30
0.0
 11
1834.999986828538
 21
2727.404307393113
 31
0.0
  0
LINE
  5
3B8A
330
18
100
AcDbEntity
  8
0
 62
     0
 48
6.0
100
AcDbLine
 10
1974.999986828538
 20
2599.999995102094
 30
0.0
 11
1894.999986828538
 21
2599.999995102094
 31
0.0
  0
LINE
  5
3B8B
330
18
100
AcDbEntity
  8
0
 62
     0
 48
6.0
100
AcDbLine
 10
1974.999986828538
 20
2679.999995102094
 30
0.0
 11
1904.999986828538
 21
2679.999995102094
 31
0.0
  0
LINE
  5
3B8C
330
18
100
AcDbEntity
  8
0
 62
     0
 48
6.0
100
AcDbLine
 10
1894.999986828538
 20
2669.999995102094
 30
0.0
 11
1904.999986828538
 21
2679.999995102094
 31
0.0
  0
LINE
  5
3B8D
330
18
100
AcDbEntity
  8
0
 62
     0
 48
6.0
100
AcDbLine
 10
1894.999986828538
 20
2599.999995102094
 30
0.0
 11
1894.999986828538
 21
2669.999995102094
 31
0.0
  0
CIRCLE
  5
3B8E
330
18
100
AcDbEntity
  8
0
 62
     0
 48
6.0
100
AcDbCircle
 10
1934.604153197302
 20
2639.425096004693
 30
0.0
 40
9.013611994698294
  0
LINE
  5
3B97
330
18
100
AcDbEntity
  8
0
 62
     0
 48
6.0
100
AcDbLine
 10
2064.999986828538
 20
2454.999995102094
 30
0.0
 11
2064.999986828538
 21
2384.999995102094
 31
0.0
  0
LINE
  5
3B9E
330
18
100
AcDbEntity
  8
0
 62
     0
 48
6.0
100
AcDbLine
 10
2074.999986828538
 20
2394.999995102094
 30
0.0
 11
2074.999986828538
 21
2344.999995102094
 31
0.0
  0
LINE
  5
3BA0
330
18
100
AcDbEntity
  8
0
 62
     0
 48
6.0
100
AcDbLine
 10
2024.999986828538
 20
2429.999995102094
 30
0.0
 11
2024.999986828538
 21
2399.999995102094
 31
0.0
  0
LINE
  5
3BA1
330
18
100
AcDbEntity
  8
0
 62
     0
 48
6.0
100
AcDbLine
 10
2094.999986828538
 20
2374.999995102094
 30
0.0
 11
2094.999986828538
 21
2384.999995102094
 31
0.0
  0
LINE
  5
3BAF
330
18
100
AcDbEntity
  8
0
 62
     0
 48
6.0
100
AcDbLine
 10
2054.999986828538
 20
2524.999995102094
 30
0.0
 11
2054.999986828538
 21
2713.999995102094
 31
0.0
  0
LINE
  5
3BB0
330
18
100
AcDbEntity
  8
0
 62
     0
 48
6.0
100
AcDbLine
 10
2054.999986828538
 20
2524.999995102094
 30
0.0
 11
2054.999986828538
 21
2474.999995102094
 31
0.0
  0
LINE
  5
3BB1
330
18
100
AcDbEntity
  8
0
 62
     0
 48
6.0
100
AcDbLine
 10
2054.999986828538
 20
2494.999995102094
 30
0.0
 11
2054.999986828538
 21
2454.999995102094
 31
0.0
  0
LINE
  5
3BB4
330
18
100
AcDbEntity
  8
0
 62
     0
 48
6.0
100
AcDbLine
 10
2034.999986828538
 20
2689.999995102094
 30
0.0
 11
2059.096279510625
 21
2718.915546320598
 31
0.0
  0
LINE
  5
3BB5
330
18
100
AcDbEntity
  8
0
 62
     0
 48
6.0
100
AcDbLine
 10
2029.999986828538
 20
2689.999995102094
 30
0.0
 11
2034.999986828538
 21
2689.999995102094
 31
0.0
  0
LINE
  5
3BCD
330
18
100
AcDbEntity
  8
0
 62
     0
 48
6.0
100
AcDbLine
 10
1974.999986828538
 20
3644.999995102094
 30
0.0
 11
2054.999986828538
 21
3644.999995102094
 31
0.0
  0
LINE
  5
3BD3
330
18
100
AcDbEntity
  8
0
 62
     0
 48
6.0
100
AcDbLine
 10
1835.437067393315
 20
3559.104491983551
 30
0.0
 11
1756.34558897798
 21
3559.104491983551
 31
0.0
  0
LINE
  5
3BD4
330
18
100
AcDbEntity
  8
0
 62
     0
 48
6.0
100
AcDbLine
 10
1756.34558897798
 20
3639.914964628365
 30
0.0
 11
1835.437067393315
 21
3639.914964628365
 31
0.0
  0
LINE
  5
3BD5
330
18
100
AcDbEntity
  8
0
 62
     0
 48
6.0
100
AcDbLine
 10
1754.999986828538
 20
3706.82814833707
 30
0.0
 11
1834.999986828538
 21
3706.82814833707
 31
0.0
  0
LINE
  5
3BD6
330
18
100
AcDbEntity
  8
0
 62
     0
 48
6.0
100
AcDbLine
 10
1754.999986828538
 20
3686.82814833707
 30
0.0
 11
1834.999986828538
 21
3686.82814833707
 31
0.0
  0
LINE
  5
3BD7
330
18
100
AcDbEntity
  8
0
 62
     0
 48
6.0
100
AcDbLine
 10
1756.34558897798
 20
3639.914964628365
 30
0.0
 11
1756.34558897798
 21
3559.104491983551
 31
0.0
  0
LINE
  5
3BD8
330
18
100
AcDbEntity
  8
0
 62
     0
 48
6.0
100
AcDbLine
 10
1745.436409979993
 20
3677.264571488525
 30
0.0
 11
1745.436409979993
 21
3644.999995102094
 31
0.0
  0
LINE
  5
3BD9
330
18
100
AcDbEntity
  8
0
 62
     0
 48
6.0
100
AcDbLine
 10
1764.999986828538
 20
3706.82814833707
 30
0.0
 11
1764.999986828538
 21
3686.82814833707
 31
0.0
  0
LINE
  5
3BDA
330
18
100
AcDbEntity
  8
0
 62
     0
 48
6.0
100
AcDbLine
 10
1754.999986828538
 20
3686.82814833707
 30
0.0
 11
1754.999986828538
 21
3706.82814833707
 31
0.0
  0
LINE
  5
3BDB
330
18
100
AcDbEntity
  8
0
 62
     0
 48
6.0
100
AcDbLine
 10
1745.436409979994
 20
3677.264571488525
 30
0.0
 11
1754.999986828538
 21
3686.82814833707
 31
0.0
  0
LINE
  5
3BDC
330
18
100
AcDbEntity
  8
0
  6
CENTER
 62
     0
 48
6.0
100
AcDbLine
 10
1794.999986828538
 20
3724.999995102094
 30
0.0
 11
1794.999986828538
 21
3544.999995102094
 31
0.0
  0
LINE
  5
3BDD
330
18
100
AcDbEntity
  8
0
 62
     0
 48
6.0
100
AcDbLine
 10
1835.437067393315
 20
3639.914964628365
 30
0.0
 11
1835.437067393315
 21
3559.104491983551
 31
0.0
  0
LINE
  5
3BDE
330
18
100
AcDbEntity
  8
0
 62
     0
 48
6.0
100
AcDbLine
 10
1894.999986828538
 20
3559.999995102094
 30
0.0
 11
1894.999986828538
 21
3629.999995102094
 31
0.0
  0
LINE
  5
3BDF
330
18
100
AcDbEntity
  8
0
 62
     0
 48
6.0
100
AcDbLine
 10
1895.437482562171
 20
3564.552389826902
 30
0.0
 11
1835.437067393315
 21
3564.552389826902
 31
0.0
  0
LINE
  5
3BE0
330
18
100
AcDbEntity
  8
0
 62
     0
 48
6.0
100
AcDbLine
 10
1974.999986828538
 20
3559.999995102094
 30
0.0
 11
1894.999986828538
 21
3559.999995102094
 31
0.0
  0
LINE
  5
3BE1
330
18
100
AcDbEntity
  8
0
 62
     0
 48
6.0
100
AcDbLine
 10
1894.999986828538
 20
3559.999995102094
 30
0.0
 11
1894.999986828538
 21
3559.999995102094
 31
0.0
  0
LINE
  5
3BE2
330
18
100
AcDbEntity
  8
0
 62
     0
 48
6.0
100
AcDbLine
 10
1845.437113481428
 20
3676.391021684178
 30
0.0
 11
1845.437113481428
 21
3644.999995102094
 31
0.0
  0
LINE
  5
3BE3
330
18
100
AcDbEntity
  8
0
 62
     0
 48
6.0
100
AcDbLine
 10
1824.999986828538
 20
3706.82814833707
 30
0.0
 11
1824.999986828538
 21
3686.82814833707
 31
0.0
  0
LINE
  5
3BE4
330
18
100
AcDbEntity
  8
0
 62
     0
 48
6.0
100
AcDbLine
 10
1814.999986828538
 20
3706.82814833707
 30
0.0
 11
1814.999986828538
 21
3686.82814833707
 31
0.0
  0
LINE
  5
3BE5
330
18
100
AcDbEntity
  8
0
 62
     0
 48
6.0
100
AcDbLine
 10
1804.999986828538
 20
3706.82814833707
 30
0.0
 11
1804.999986828538
 21
3686.82814833707
 31
0.0
  0
LINE
  5
3BE6
330
18
100
AcDbEntity
  8
0
 62
     0
 48
6.0
100
AcDbLine
 10
1794.999986828538
 20
3706.82814833707
 30
0.0
 11
1794.999986828538
 21
3686.82814833707
 31
0.0
  0
LINE
  5
3BE7
330
18
100
AcDbEntity
  8
0
 62
     0
 48
6.0
100
AcDbLine
 10
1784.999986828538
 20
3706.82814833707
 30
0.0
 11
1784.999986828538
 21
3686.82814833707
 31
0.0
  0
LINE
  5
3BE8
330
18
100
AcDbEntity
  8
0
 62
     0
 48
6.0
100
AcDbLine
 10
1774.999986828538
 20
3706.82814833707
 30
0.0
 11
1774.999986828538
 21
3686.82814833707
 31
0.0
  0
LINE
  5
3BE9
330
18
100
AcDbEntity
  8
0
 62
     0
 48
6.0
100
AcDbLine
 10
1834.999986828538
 20
3706.82814833707
 30
0.0
 11
1834.999986828538
 21
3686.82814833707
 31
0.0
  0
LINE
  5
3BEA
330
18
100
AcDbEntity
  8
0
 62
     0
 48
6.0
100
AcDbLine
 10
1834.999986828538
 20
3686.82814833707
 30
0.0
 11
1845.437113481428
 21
3676.391021684179
 31
0.0
  0
LINE
  5
3BEB
330
18
100
AcDbEntity
  8
0
 62
     0
 48
6.0
100
AcDbLine
 10
1904.999986828538
 20
3639.999995102094
 30
0.0
 11
1974.999986828538
 21
3639.999995102094
 31
0.0
  0
CIRCLE
  5
3BEC
330
18
100
AcDbEntity
  8
0
 62
     0
 48
6.0
100
AcDbCircle
 10
1934.796062173453
 20
3599.792740415623
 30
0.0
 40
9.013611994698294
  0
LINE
  5
3BED
330
18
100
AcDbEntity
  8
0
 62
     0
 48
6.0
100
AcDbLine
 10
1894.999986828538
 20
3629.999995102094
 30
0.0
 11
1904.999986828538
 21
3639.999995102094
 31
0.0
  0
LINE
  5
3D63
330
18
100
AcDbEntity
  8
0
 62
     0
 48
6.0
100
AcDbLine
 10
3844.999986828538
 20
2724.999995102094
 30
0.0
 11
3844.999986828538
 21
3644.999995102094
 31
0.0
  0
LINE
  5
3D64
330
18
100
AcDbEntity
  8
0
 62
     0
 48
6.0
100
AcDbLine
 10
3034.999986828538
 20
3644.999995102094
 30
0.0
 11
3034.999986828538
 21
2724.999995102094
 31
0.0
  0
LINE
  5
3D65
330
18
100
AcDbEntity
  8
0
 62
     0
 48
6.0
100
AcDbLine
 10
3754.999986828538
 20
3544.999995102094
 30
0.0
 11
3754.999986828538
 21
2454.999995102094
 31
0.0
  0
LINE
  5
3D66
330
18
100
AcDbEntity
  8
0
 62
     0
 48
6.0
100
AcDbLine
 10
3834.999986828538
 20
3504.999995102094
 30
0.0
 11
3834.999986828538
 21
2454.999995102094
 31
0.0
  0
LINE
  5
3D67
330
18
100
AcDbEntity
  8
0
 62
     0
 48
6.0
100
AcDbLine
 10
3834.999986828538
 20
3474.999995102094
 30
0.0
 11
3834.999986828538
 21
2454.999995102094
 31
0.0
  0
LINE
  5
3D68
330
18
100
AcDbEntity
  8
0
 62
     0
 48
6.0
100
AcDbLine
 10
3754.999986828538
 20
3484.999995102094
 30
0.0
 11
3754.999986828538
 21
2454.999995102094
 31
0.0
  0
LINE
  5
3D69
330
18
100
AcDbEntity
  8
0
 62
     0
 48
6.0
100
AcDbLine
 10
3124.999986828538
 20
3504.999995102094
 30
0.0
 11
3124.999986828538
 21
2454.999995102094
 31
0.0
  0
LINE
  5
3D6A
330
18
100
AcDbEntity
  8
0
 62
     0
 48
6.0
100
AcDbLine
 10
3044.999986828538
 20
3544.999995102094
 30
0.0
 11
3044.999986828538
 21
2454.999995102094
 31
0.0
  0
LINE
  5
3D6B
330
18
100
AcDbEntity
  8
0
 62
     0
 48
6.0
100
AcDbLine
 10
3835.145014430938
 20
2724.795542463547
 30
0.0
 11
3910.276620936569
 21
2724.795542463547
 31
0.0
  0
LINE
  5
3D6C
330
18
100
AcDbEntity
  8
0
 62
     0
 48
6.0
100
AcDbLine
 10
3834.999986828538
 20
2684.999995102094
 30
0.0
 11
3904.999986828538
 21
2684.999995102094
 31
0.0
  0
LINE
  5
3D6D
330
18
100
AcDbEntity
  8
0
 62
     0
 48
6.0
100
AcDbLine
 10
3124.999986828538
 20
2724.999995102094
 30
0.0
 11
3754.999986828538
 21
2724.999995102094
 31
0.0
  0
LINE
  5
3D70
330
18
100
AcDbEntity
  8
0
 62
     0
 48
6.0
100
AcDbLine
 10
3124.999986828538
 20
2684.999995102094
 30
0.0
 11
3754.999986828538
 21
2684.999995102094
 31
0.0
  0
LINE
  5
3D71
330
18
100
AcDbEntity
  8
0
 62
     0
 48
6.0
100
AcDbLine
 10
3124.999986828538
 20
2604.999995102094
 30
0.0
 11
3754.999986828538
 21
2604.999995102094
 31
0.0
  0
LINE
  5
3D72
330
18
100
AcDbEntity
  8
0
 62
     0
 48
6.0
100
AcDbLine
 10
3034.999986828538
 20
2454.999995102094
 30
0.0
 11
3034.999986828538
 21
2384.999995102094
 31
0.0
  0
LINE
  5
3D73
330
18
100
AcDbEntity
  8
0
 62
     0
 48
6.0
100
AcDbLine
 10
3134.999986828538
 20
2454.999995102094
 30
0.0
 11
3134.999986828538
 21
2384.999995102094
 31
0.0
  0
ARC
  5
3D74
330
18
100
AcDbEntity
  8
0
 62
     0
 48
6.0
100
AcDbCircle
 10
3084.999986828538
 20
2429.999995102094
 30
0.0
 40
10.0
100
AcDbArc
 50
0.0
 51
180.0
  0
LINE
  5
3D77
330
18
100
AcDbEntity
  8
0
 62
     0
 48
6.0
100
AcDbLine
 10
3004.999986828538
 20
2374.999995102094
 30
0.0
 11
3134.999986828538
 21
2374.999995102094
 31
0.0
  0
LINE
  5
3D78
330
18
100
AcDbEntity
  8
0
 62
     0
 48
6.0
100
AcDbLine
 10
3134.999986828538
 20
2384.999995102094
 30
0.0
 11
3004.999986828538
 21
2384.999995102094
 31
0.0
  0
LINE
  5
3D79
330
18
100
AcDbEntity
  8
0
 62
     0
 48
6.0
100
AcDbLine
 10
3024.999986828538
 20
2394.999995102094
 30
0.0
 11
3024.999986828538
 21
2344.999995102094
 31
0.0
  0
LINE
  5
3D7C
330
18
100
AcDbEntity
  8
0
 62
     0
 48
6.0
100
AcDbLine
 10
3004.999986828538
 20
2384.999995102094
 30
0.0
 11
3004.999986828538
 21
2374.999995102094
 31
0.0
  0
LINE
  5
3D7D
330
18
100
AcDbEntity
  8
0
 62
     0
 48
6.0
100
AcDbLine
 10
3094.999986828538
 20
2429.999995102094
 30
0.0
 11
3094.999986828538
 21
2399.999995102094
 31
0.0
  0
LINE
  5
3D7E
330
18
100
AcDbEntity
  8
0
 62
     0
 48
6.0
100
AcDbLine
 10
3074.999986828538
 20
2429.999995102094
 30
0.0
 11
3074.999986828538
 21
2399.999995102094
 31
0.0
  0
ARC
  5
3D7F
330
18
100
AcDbEntity
  8
0
 62
     0
 48
6.0
100
AcDbCircle
 10
3084.999986828538
 20
2399.999995102094
 30
0.0
 40
10.0
100
AcDbArc
 50
180.0
 51
0.0
  0
LINE
  5
3D80
330
18
100
AcDbEntity
  8
0
 62
     0
 48
6.0
100
AcDbLine
 10
3134.999986828538
 20
2384.999995102094
 30
0.0
 11
3134.999986828538
 21
2374.999995102094
 31
0.0
  0
LINE
  5
3D83
330
18
100
AcDbEntity
  8
0
 62
     0
 48
6.0
100
AcDbLine
 10
3149.999986828538
 20
2744.999995102094
 30
0.0
 11
3199.999986828538
 21
2744.999995102094
 31
0.0
  0
LINE
  5
3D84
330
18
100
AcDbEntity
  8
0
 62
     0
 48
6.0
100
AcDbLine
 10
3149.999986828538
 20
2744.999995102094
 30
0.0
 11
3249.999986828538
 21
2744.999995102094
 31
0.0
  0
LINE
  5
3D85
330
18
100
AcDbEntity
  8
0
 62
     0
 48
6.0
100
AcDbLine
 10
3134.999986828538
 20
2454.999995102094
 30
0.0
 11
3034.999986828538
 21
2454.999995102094
 31
0.0
  0
LINE
  5
3D86
330
18
100
AcDbEntity
  8
0
 62
     0
 48
6.0
100
AcDbLine
 10
3044.999986828538
 20
2494.999995102094
 30
0.0
 11
3044.999986828538
 21
2454.999995102094
 31
0.0
  0
LINE
  5
3D87
330
18
100
AcDbEntity
  8
0
 62
     0
 48
6.0
100
AcDbLine
 10
3124.999986828538
 20
2494.999995102094
 30
0.0
 11
3124.999986828538
 21
2454.999995102094
 31
0.0
  0
LINE
  5
3D88
330
18
100
AcDbEntity
  8
0
 62
     0
 48
6.0
100
AcDbLine
 10
2969.892538995795
 20
2725.13357003561
 30
0.0
 11
3045.024145501429
 21
2725.13357003561
 31
0.0
  0
LINE
  5
3D89
330
18
100
AcDbEntity
  8
0
 62
     0
 48
6.0
100
AcDbLine
 10
3044.999986828538
 20
2684.999995102094
 30
0.0
 11
2974.999986828538
 21
2684.999995102094
 31
0.0
  0
LINE
  5
3D8A
330
18
100
AcDbEntity
  8
0
 62
     0
 48
6.0
100
AcDbLine
 10
2969.892538995795
 20
2684.909687232959
 30
0.0
 11
2977.676458059614
 21
2684.909687232959
 31
0.0
  0
LINE
  5
3D8B
330
18
100
AcDbEntity
  8
0
 62
     0
 48
6.0
100
AcDbLine
 10
2969.999986828538
 20
2684.999995102094
 30
0.0
 11
2969.999986828538
 21
2724.999995102094
 31
0.0
  0
LINE
  5
3D8C
330
18
100
AcDbEntity
  8
0
 62
     0
 48
6.0
100
AcDbLine
 10
3149.999986828538
 20
2724.999995102094
 30
0.0
 11
3149.999986828538
 21
2744.999995102094
 31
0.0
  0
LINE
  5
3D8D
330
18
100
AcDbEntity
  8
0
 62
     0
 48
6.0
100
AcDbLine
 10
3159.999986828538
 20
2744.999995102094
 30
0.0
 11
3159.999986828538
 21
2724.999995102094
 31
0.0
  0
LINE
  5
3D8E
330
18
100
AcDbEntity
  8
0
 62
     0
 48
6.0
100
AcDbLine
 10
3169.999986828538
 20
2744.999995102094
 30
0.0
 11
3169.999986828538
 21
2724.999995102094
 31
0.0
  0
LINE
  5
3D8F
330
18
100
AcDbEntity
  8
0
 62
     0
 48
6.0
100
AcDbLine
 10
3179.999986828538
 20
2744.999995102094
 30
0.0
 11
3179.999986828538
 21
2724.999995102094
 31
0.0
  0
LINE
  5
3D90
330
18
100
AcDbEntity
  8
0
 62
     0
 48
6.0
100
AcDbLine
 10
3189.999986828538
 20
2744.999995102094
 30
0.0
 11
3189.999986828538
 21
2724.999995102094
 31
0.0
  0
LINE
  5
3D91
330
18
100
AcDbEntity
  8
0
 62
     0
 48
6.0
100
AcDbLine
 10
3199.999986828538
 20
2744.999995102094
 30
0.0
 11
3199.999986828538
 21
2724.999995102094
 31
0.0
  0
LINE
  5
3D92
330
18
100
AcDbEntity
  8
0
 62
     0
 48
6.0
100
AcDbLine
 10
3209.999986828538
 20
2744.999995102094
 30
0.0
 11
3209.999986828538
 21
2724.999995102094
 31
0.0
  0
LINE
  5
3D93
330
18
100
AcDbEntity
  8
0
 62
     0
 48
6.0
100
AcDbLine
 10
3219.999986828538
 20
2744.999995102094
 30
0.0
 11
3219.999986828538
 21
2724.999995102094
 31
0.0
  0
LINE
  5
3D94
330
18
100
AcDbEntity
  8
0
 62
     0
 48
6.0
100
AcDbLine
 10
3229.999986828538
 20
2744.999995102094
 30
0.0
 11
3229.999986828538
 21
2724.999995102094
 31
0.0
  0
POINT
  5
3D95
330
18
100
AcDbEntity
  8
DEFPOINTS
  6
ByBlock
 62
     0
 48
6.0
100
AcDbPoint
 10
3193.90879666344
 20
2754.243466091058
 30
0.0
  0
LINE
  5
3D96
330
18
100
AcDbEntity
  8
0
 62
     0
 48
6.0
100
AcDbLine
 10
3249.999986828538
 20
2744.999995102094
 30
0.0
 11
3249.999986828538
 21
2724.999995102094
 31
0.0
  0
LINE
  5
3D97
330
18
100
AcDbEntity
  8
0
 62
     0
 48
6.0
100
AcDbLine
 10
3239.999986828538
 20
2744.999995102094
 30
0.0
 11
3239.999986828538
 21
2724.999995102094
 31
0.0
  0
ARC
  5
3D98
330
18
100
AcDbEntity
  8
0
 62
     0
 48
6.0
100
AcDbCircle
 10
3794.999986828538
 20
2429.999995102094
 30
0.0
 40
10.0
100
AcDbArc
 50
0.0
 51
180.0
  0
LINE
  5
3D99
330
18
100
AcDbEntity
  8
0
 62
     0
 48
6.0
100
AcDbLine
 10
3844.999986828538
 20
2454.999995102094
 30
0.0
 11
3844.999986828538
 21
2384.999995102094
 31
0.0
  0
LINE
  5
3D9A
330
18
100
AcDbEntity
  8
0
 62
     0
 48
6.0
100
AcDbLine
 10
3744.999986828538
 20
2454.999995102094
 30
0.0
 11
3744.999986828538
 21
2384.999995102094
 31
0.0
  0
LINE
  5
3DA4
330
18
100
AcDbEntity
  8
0
 62
     0
 48
6.0
100
AcDbLine
 10
3874.999986828538
 20
2384.999995102094
 30
0.0
 11
3744.999986828538
 21
2384.999995102094
 31
0.0
  0
LINE
  5
3DA5
330
18
100
AcDbEntity
  8
0
 62
     0
 48
6.0
100
AcDbLine
 10
3744.999986828538
 20
2374.999995102094
 30
0.0
 11
3874.999986828538
 21
2374.999995102094
 31
0.0
  0
LINE
  5
3DA6
330
18
100
AcDbEntity
  8
0
 62
     0
 48
6.0
100
AcDbLine
 10
3744.999986828538
 20
2384.999995102094
 30
0.0
 11
3744.999986828538
 21
2374.999995102094
 31
0.0
  0
LINE
  5
3DA7
330
18
100
AcDbEntity
  8
0
 62
     0
 48
6.0
100
AcDbLine
 10
3854.999986828538
 20
2394.999995102094
 30
0.0
 11
3854.999986828538
 21
2344.999995102094
 31
0.0
  0
ARC
  5
3DAA
330
18
100
AcDbEntity
  8
0
 62
     0
 48
6.0
100
AcDbCircle
 10
3794.999986828538
 20
2399.999995102094
 30
0.0
 40
10.0
100
AcDbArc
 50
180.0
 51
0.0
  0
LINE
  5
3DAB
330
18
100
AcDbEntity
  8
0
 62
     0
 48
6.0
100
AcDbLine
 10
3784.999986828538
 20
2429.999995102094
 30
0.0
 11
3784.999986828538
 21
2399.999995102094
 31
0.0
  0
LINE
  5
3DAC
330
18
100
AcDbEntity
  8
0
 62
     0
 48
6.0
100
AcDbLine
 10
3804.999986828538
 20
2429.999995102094
 30
0.0
 11
3804.999986828538
 21
2399.999995102094
 31
0.0
  0
LINE
  5
3DAD
330
18
100
AcDbEntity
  8
0
 62
     0
 48
6.0
100
AcDbLine
 10
3874.999986828538
 20
2374.999995102094
 30
0.0
 11
3874.999986828538
 21
2384.999995102094
 31
0.0
  0
LINE
  5
3DAE
330
18
100
AcDbEntity
  8
0
 62
     0
 48
6.0
100
AcDbLine
 10
3629.999986828538
 20
2744.999995102094
 30
0.0
 11
3679.999986828538
 21
2744.999995102094
 31
0.0
  0
LINE
  5
3DAF
330
18
100
AcDbEntity
  8
0
 62
     0
 48
6.0
100
AcDbLine
 10
3629.999986828538
 20
2744.999995102094
 30
0.0
 11
3729.999986828538
 21
2744.999995102094
 31
0.0
  0
LINE
  5
3DB0
330
18
100
AcDbEntity
  8
0
 62
     0
 48
6.0
100
AcDbLine
 10
3629.999986828538
 20
2724.999995102094
 30
0.0
 11
3629.999986828538
 21
2744.999995102094
 31
0.0
  0
LINE
  5
3DB1
330
18
100
AcDbEntity
  8
0
 62
     0
 48
6.0
100
AcDbLine
 10
3639.999986828538
 20
2744.999995102094
 30
0.0
 11
3639.999986828538
 21
2724.999995102094
 31
0.0
  0
LINE
  5
3DB2
330
18
100
AcDbEntity
  8
0
 62
     0
 48
6.0
100
AcDbLine
 10
3844.999986828538
 20
2454.999995102094
 30
0.0
 11
3744.999986828538
 21
2454.999995102094
 31
0.0
  0
LINE
  5
3DB3
330
18
100
AcDbEntity
  8
0
 62
     0
 48
6.0
100
AcDbLine
 10
3754.999986828538
 20
2494.999995102094
 30
0.0
 11
3754.999986828538
 21
2454.999995102094
 31
0.0
  0
LINE
  5
3DB4
330
18
100
AcDbEntity
  8
0
 62
     0
 48
6.0
100
AcDbLine
 10
3834.999986828538
 20
2494.999995102094
 30
0.0
 11
3834.999986828538
 21
2454.999995102094
 31
0.0
  0
LINE
  5
3DB5
330
18
100
AcDbEntity
  8
0
 62
     0
 48
6.0
100
AcDbLine
 10
3649.999986828538
 20
2744.999995102094
 30
0.0
 11
3649.999986828538
 21
2724.999995102094
 31
0.0
  0
LINE
  5
3DB6
330
18
100
AcDbEntity
  8
0
 62
     0
 48
6.0
100
AcDbLine
 10
3699.999986828538
 20
2744.999995102094
 30
0.0
 11
3699.999986828538
 21
2724.999995102094
 31
0.0
  0
LINE
  5
3DB7
330
18
100
AcDbEntity
  8
0
 62
     0
 48
6.0
100
AcDbLine
 10
3679.999986828538
 20
2744.999995102094
 30
0.0
 11
3679.999986828538
 21
2724.999995102094
 31
0.0
  0
LINE
  5
3DB8
330
18
100
AcDbEntity
  8
0
 62
     0
 48
6.0
100
AcDbLine
 10
3689.999986828538
 20
2744.999995102094
 30
0.0
 11
3689.999986828538
 21
2724.999995102094
 31
0.0
  0
POINT
  5
3DB9
330
18
100
AcDbEntity
  8
DEFPOINTS
  6
ByBlock
 62
     0
 48
6.0
100
AcDbPoint
 10
3686.002545914329
 20
2754.243466091058
 30
0.0
  0
LINE
  5
3DBA
330
18
100
AcDbEntity
  8
0
 62
     0
 48
6.0
100
AcDbLine
 10
3669.999986828538
 20
2744.999995102094
 30
0.0
 11
3669.999986828538
 21
2724.999995102094
 31
0.0
  0
LINE
  5
3DBB
330
18
100
AcDbEntity
  8
0
 62
     0
 48
6.0
100
AcDbLine
 10
3659.999986828538
 20
2744.999995102094
 30
0.0
 11
3659.999986828538
 21
2724.999995102094
 31
0.0
  0
LINE
  5
3DBC
330
18
100
AcDbEntity
  8
0
 62
     0
 48
6.0
100
AcDbLine
 10
3709.999986828538
 20
2744.999995102094
 30
0.0
 11
3709.999986828538
 21
2724.999995102094
 31
0.0
  0
LINE
  5
3DBD
330
18
100
AcDbEntity
  8
0
 62
     0
 48
6.0
100
AcDbLine
 10
3729.999986828538
 20
2744.999995102094
 30
0.0
 11
3729.999986828538
 21
2724.999995102094
 31
0.0
  0
LINE
  5
3DBE
330
18
100
AcDbEntity
  8
0
 62
     0
 48
6.0
100
AcDbLine
 10
3719.999986828538
 20
2744.999995102094
 30
0.0
 11
3719.999986828538
 21
2724.999995102094
 31
0.0
  0
LINE
  5
3DBF
330
18
100
AcDbEntity
  8
0
 62
     0
 48
6.0
100
AcDbLine
 10
3893.355094754679
 20
2684.909687232959
 30
0.0
 11
3910.276620936569
 21
2684.909687232959
 31
0.0
  0
LINE
  5
3DC0
330
18
100
AcDbEntity
  8
0
 62
     0
 48
6.0
100
AcDbLine
 10
3909.999986828538
 20
2724.999995102094
 30
0.0
 11
3909.999986828538
 21
2684.999995102094
 31
0.0
  0
LINE
  5
3DDE
330
18
100
AcDbEntity
  8
0
 62
     0
 48
6.0
100
AcDbLine
 10
2969.999986828538
 20
3684.999995102094
 30
0.0
 11
3909.999986828538
 21
3684.999995102094
 31
0.0
  0
LINE
  5
3DDF
330
18
100
AcDbEntity
  8
0
 62
     0
 48
6.0
100
AcDbLine
 10
2969.999986828538
 20
3644.999995102094
 30
0.0
 11
3909.999986828538
 21
3644.999995102094
 31
0.0
  0
LINE
  5
3DE3
330
18
100
AcDbEntity
  8
0
 62
     0
 48
6.0
100
AcDbLine
 10
3124.999986828538
 20
3564.999995102094
 30
0.0
 11
3754.999986828538
 21
3564.999995102094
 31
0.0
  0
LINE
  5
3DE8
330
18
100
AcDbEntity
  8
0
 62
     0
 48
6.0
100
AcDbLine
 10
3124.999986828538
 20
3644.999995102094
 30
0.0
 11
3124.999986828538
 21
3469.999995102094
 31
0.0
  0
LINE
  5
3DE9
330
18
100
AcDbEntity
  8
0
 62
     0
 48
6.0
100
AcDbLine
 10
3044.999986828538
 20
3644.999995102094
 30
0.0
 11
3044.999986828538
 21
3524.999995102094
 31
0.0
  0
LINE
  5
3DEA
330
18
100
AcDbEntity
  8
0
 62
     0
 48
6.0
100
AcDbLine
 10
3034.999986828538
 20
3574.999995102094
 30
0.0
 11
3044.999986828538
 21
3574.999995102094
 31
0.0
  0
LINE
  5
3DEB
330
18
100
AcDbEntity
  8
0
 62
     0
 48
6.0
100
AcDbLine
 10
2969.999986828538
 20
3644.999995102094
 30
0.0
 11
2969.999986828538
 21
3684.999995102094
 31
0.0
  0
LINE
  5
3DED
330
18
100
AcDbEntity
  8
0
 62
     0
 48
6.0
100
AcDbLine
 10
3169.999986828538
 20
3704.999995102094
 30
0.0
 11
3169.999986828538
 21
3684.999995102094
 31
0.0
  0
LINE
  5
3DEE
330
18
100
AcDbEntity
  8
0
 62
     0
 48
6.0
100
AcDbLine
 10
3159.999986828538
 20
3704.999995102094
 30
0.0
 11
3159.999986828538
 21
3684.999995102094
 31
0.0
  0
LINE
  5
3DEF
330
18
100
AcDbEntity
  8
0
 62
     0
 48
6.0
100
AcDbLine
 10
3149.999986828538
 20
3684.999995102094
 30
0.0
 11
3149.999986828538
 21
3704.999995102094
 31
0.0
  0
LINE
  5
3DF1
330
18
100
AcDbEntity
  8
0
 62
     0
 48
6.0
100
AcDbLine
 10
3229.999986828538
 20
3704.999995102094
 30
0.0
 11
3229.999986828538
 21
3684.999995102094
 31
0.0
  0
LINE
  5
3DF2
330
18
100
AcDbEntity
  8
0
 62
     0
 48
6.0
100
AcDbLine
 10
3219.999986828538
 20
3704.999995102094
 30
0.0
 11
3219.999986828538
 21
3684.999995102094
 31
0.0
  0
LINE
  5
3DF3
330
18
100
AcDbEntity
  8
0
 62
     0
 48
6.0
100
AcDbLine
 10
3209.999986828538
 20
3704.999995102094
 30
0.0
 11
3209.999986828538
 21
3684.999995102094
 31
0.0
  0
LINE
  5
3DF4
330
18
100
AcDbEntity
  8
0
 62
     0
 48
6.0
100
AcDbLine
 10
3199.999986828538
 20
3704.999995102094
 30
0.0
 11
3199.999986828538
 21
3684.999995102094
 31
0.0
  0
LINE
  5
3DF5
330
18
100
AcDbEntity
  8
0
 62
     0
 48
6.0
100
AcDbLine
 10
3189.999986828538
 20
3704.999995102094
 30
0.0
 11
3189.999986828538
 21
3684.999995102094
 31
0.0
  0
LINE
  5
3DF6
330
18
100
AcDbEntity
  8
0
 62
     0
 48
6.0
100
AcDbLine
 10
3179.999986828538
 20
3704.999995102094
 30
0.0
 11
3179.999986828538
 21
3684.999995102094
 31
0.0
  0
LINE
  5
3DF7
330
18
100
AcDbEntity
  8
0
 62
     0
 48
6.0
100
AcDbLine
 10
3239.999986828538
 20
3704.999995102094
 30
0.0
 11
3239.999986828538
 21
3684.999995102094
 31
0.0
  0
LINE
  5
3DF8
330
18
100
AcDbEntity
  8
0
 62
     0
 48
6.0
100
AcDbLine
 10
3249.999986828538
 20
3704.999995102094
 30
0.0
 11
3249.999986828538
 21
3684.999995102094
 31
0.0
  0
LINE
  5
3E03
330
18
100
AcDbEntity
  8
0
 62
     0
 48
6.0
100
AcDbLine
 10
3639.999986828538
 20
3704.999995102094
 30
0.0
 11
3639.999986828538
 21
3684.999995102094
 31
0.0
  0
LINE
  5
3E04
330
18
100
AcDbEntity
  8
0
 62
     0
 48
6.0
100
AcDbLine
 10
3629.999986828538
 20
3684.999995102094
 30
0.0
 11
3629.999986828538
 21
3704.999995102094
 31
0.0
  0
LINE
  5
3E05
330
18
100
AcDbEntity
  8
0
 62
     0
 48
6.0
100
AcDbLine
 10
3754.999986828538
 20
3644.999995102094
 30
0.0
 11
3754.999986828538
 21
3464.999995102094
 31
0.0
  0
LINE
  5
3E06
330
18
100
AcDbEntity
  8
0
 62
     0
 48
6.0
100
AcDbLine
 10
3834.999986828538
 20
3644.999995102094
 30
0.0
 11
3834.999986828538
 21
3464.999995102094
 31
0.0
  0
LINE
  5
3E07
330
18
100
AcDbEntity
  8
0
 62
     0
 48
6.0
100
AcDbLine
 10
3834.999986828538
 20
3574.999995102094
 30
0.0
 11
3844.999986828538
 21
3574.999995102094
 31
0.0
  0
LINE
  5
3E09
330
18
100
AcDbEntity
  8
0
 62
     0
 48
6.0
100
AcDbLine
 10
3689.999986828538
 20
3704.999995102094
 30
0.0
 11
3689.999986828538
 21
3684.999995102094
 31
0.0
  0
LINE
  5
3E0A
330
18
100
AcDbEntity
  8
0
 62
     0
 48
6.0
100
AcDbLine
 10
3679.999986828538
 20
3704.999995102094
 30
0.0
 11
3679.999986828538
 21
3684.999995102094
 31
0.0
  0
LINE
  5
3E0B
330
18
100
AcDbEntity
  8
0
 62
     0
 48
6.0
100
AcDbLine
 10
3669.999986828538
 20
3704.999995102094
 30
0.0
 11
3669.999986828538
 21
3684.999995102094
 31
0.0
  0
LINE
  5
3E0C
330
18
100
AcDbEntity
  8
0
 62
     0
 48
6.0
100
AcDbLine
 10
3659.999986828538
 20
3704.999995102094
 30
0.0
 11
3659.999986828538
 21
3684.999995102094
 31
0.0
  0
LINE
  5
3E0D
330
18
100
AcDbEntity
  8
0
 62
     0
 48
6.0
100
AcDbLine
 10
3699.999986828538
 20
3704.999995102094
 30
0.0
 11
3699.999986828538
 21
3684.999995102094
 31
0.0
  0
LINE
  5
3E0E
330
18
100
AcDbEntity
  8
0
 62
     0
 48
6.0
100
AcDbLine
 10
3649.999986828538
 20
3704.999995102094
 30
0.0
 11
3649.999986828538
 21
3684.999995102094
 31
0.0
  0
LINE
  5
3E0F
330
18
100
AcDbEntity
  8
0
 62
     0
 48
6.0
100
AcDbLine
 10
3719.999986828538
 20
3704.999995102094
 30
0.0
 11
3719.999986828538
 21
3684.999995102094
 31
0.0
  0
LINE
  5
3E10
330
18
100
AcDbEntity
  8
0
 62
     0
 48
6.0
100
AcDbLine
 10
3729.999986828538
 20
3704.999995102094
 30
0.0
 11
3729.999986828538
 21
3684.999995102094
 31
0.0
  0
LINE
  5
3E11
330
18
100
AcDbEntity
  8
0
 62
     0
 48
6.0
100
AcDbLine
 10
3709.999986828538
 20
3704.999995102094
 30
0.0
 11
3709.999986828538
 21
3684.999995102094
 31
0.0
  0
LINE
  5
3E1B
330
18
100
AcDbEntity
  8
0
 62
     0
 48
6.0
100
AcDbLine
 10
3909.999986828538
 20
3684.999995102094
 30
0.0
 11
3909.999986828538
 21
3644.999995102094
 31
0.0
  0
LINE
  5
3F80
330
18
100
AcDbEntity
  8
0
100
AcDbLine
 10
3629.999986828538
 20
3704.999995102094
 30
0.0
 11
3729.999986828538
 21
3704.999995102094
 31
0.0
  0
LINE
  5
3F81
330
18
100
AcDbEntity
  8
0
100
AcDbLine
 10
3149.999986828538
 20
3704.999995102094
 30
0.0
 11
3249.999986828538
 21
3704.999995102094
 31
0.0
  0
LINE
  5
40B7
330
18
100
AcDbEntity
  8
0
100
AcDbLine
 10
1745.436409979993
 20
2717.840730544568
 30
0.0
 11
1754.999986828538
 21
2727.404307393113
 31
0.0
  0
POINT
  5
40C3
330
18
100
AcDbEntity
  8
DEFPOINTS
  6
ByBlock
 62
     0
100
AcDbPoint
 10
1974.999986828538
 20
3559.999995102094
 30
0.0
  0
POINT
  5
40C4
330
18
100
AcDbEntity
  8
DEFPOINTS
  6
ByBlock
 62
     0
100
AcDbPoint
 10
1834.999986828538
 20
2747.404307393113
 30
0.0
  0
ENDSEC
  0
SECTION
  2
OBJECTS
  0
DICTIONARY
  5
C
330
0
100
AcDbDictionary
281
     1
  3
ACAD_GROUP
350
D
  3
ACAD_LAYOUT
350
4137
  3
ACAD_MLINESTYLE
350
1B
  3
ACAD_PLOTSETTINGS
350
4112
  3
ACAD_PLOTSTYLENAME
350
4113
  3
ACAD_SCALELIST
350
4115
  3
ACDBVARIABLEDICTIONARY
350
1827
  3
APPDATA
350
4142
  3
DRAWINGVARIABLESDICT
350
2623
  3
DWGPROPS
350
4144
  0
DICTIONARY
  5
D
102
{ACAD_REACTORS
330
C
102
}
330
C
100
AcDbDictionary
281
     1
  0
DICTIONARY
  5
4137
102
{ACAD_REACTORS
330
C
102
}
330
C
100
AcDbDictionary
281
     1
  3
Model
350
4138
  3
シート 1
350
4139
  0
DICTIONARY
  5
1B
102
{ACAD_REACTORS
330
C
102
}
330
C
100
AcDbDictionary
281
     1
  3
STANDARD
350
1C
  0
DICTIONARY
  5
4112
102
{ACAD_REACTORS
330
C
102
}
330
C
100
AcDbDictionary
281
     1
  0
ACDBDICTIONARYWDFLT
  5
4113
102
{ACAD_REACTORS
330
C
102
}
330
C
100
AcDbDictionary
281
     1
  3
Normal
350
4114
100
AcDbDictionaryWithDefault
340
4114
  0
DICTIONARY
  5
4115
102
{ACAD_REACTORS
330
C
102
}
330
C
100
AcDbDictionary
281
     1
  3
A0
350
4116
  3
A1
350
4117
  3
A2
350
4118
  3
A3
350
4119
  3
A4
350
411A
  3
A5
350
411B
  3
A6
350
411C
  3
A7
350
411D
  3
A8
350
411E
  3
A9
350
411F
  3
B0
350
4120
  3
B1
350
4121
  3
B2
350
4122
  3
B3
350
4123
  3
B4
350
4124
  3
B5
350
4125
  3
B6
350
4126
  3
B7
350
4127
  3
B8
350
4128
  3
B9
350
4129
  3
C0
350
412A
  3
C1
350
412B
  3
C2
350
412C
  3
C3
350
412D
  3
C4
350
412E
  3
C5
350
412F
  3
C6
350
4130
  3
C7
350
4131
  3
C8
350
4132
  3
C9
350
4133
  3
D0
350
4134
  3
D1
350
4135
  3
D2
350
4136
  0
DICTIONARY
  5
1827
102
{ACAD_REACTORS
330
C
102
}
330
C
100
AcDbDictionary
281
     1
  3
SORTENTS
350
1828
  0
DICTIONARY
  5
4142
102
{ACAD_REACTORS
330
C
102
}
330
C
100
AcDbDictionary
281
     1
  0
DICTIONARY
  5
2623
102
{ACAD_REACTORS
330
C
102
}
330
C
100
AcDbDictionary
281
     1
1001
DRAWINGVARIABLESXDATA
1000
POLARANG
1000
0.785398163397448280000000
1000
POLARMODE
1000
1
  0
XRECORD
  5
4144
102
{ACAD_REACTORS
330
C
102
}
330
C
100
AcDbXrecord
280
     1
  1
DWGPROPS COOKIE
  2

  3

  4

  6

  7

  8
2344
  9

300
=
301
=
302
=
303
=
304
=
305
=
306
=
307
=
308
=
309
=
 40
0.0
 41
2452346.604164468
 42
2458968.245558507
  1

 90
        0
  0
LAYOUT
  5
4138
102
{ACAD_REACTORS
330
4137
102
}
330
4137
100
AcDbPlotSettings
  1

  2
none_device
  4
Letter_(8.50_x_11.00_Inches)
  6

 40
6.35
 41
6.35
 42
6.35
 43
6.35
 44
215.9
 45
279.4
 46
0.0
 47
0.0
 48
0.0
 49
0.0
140
0.0
141
0.0
142
1.0
143
870.8416769706507
 70
  1712
 72
     0
 73
     0
 74
     0
  7

 75
     0
147
0.0011483143566103
148
13039.51402893257
149
-1344.181489339481
100
AcDbLayout
  1
Model
 70
     1
 71
     0
 10
0.0
 20
0.0
 11
5940.0
 21
4200.0
 12
0.0
 22
0.0
 32
0.0
 14
674.9999868285377
 24
964.9999951020941
 34
0.0
 15
3910.276620936569
 25
3724.999995102094
 35
0.0
146
0.0
 13
0.0
 23
0.0
 33
0.0
 16
1.0
 26
0.0
 36
0.0
 17
0.0
 27
1.0
 37
0.0
 76
     0
330
18
331
40F8
  0
LAYOUT
  5
4139
102
{ACAD_REACTORS
330
4137
102
}
330
4137
100
AcDbPlotSettings
  1

  2
none_device
  4

  6

 40
0.0
 41
0.0
 42
0.0
 43
0.0
 44
0.0
 45
0.0
 46
0.0
 47
0.0
 48
0.0
 49
0.0
140
0.0
141
0.0
142
1.0
143
1.0
 70
   688
 72
     1
 73
     0
 74
     5
  7

 75
    16
147
1.0
148
0.0
149
0.0
100
AcDbLayout
  1
シート 1
 70
     1
 71
     1
 10
0.0
 20
0.0
 11
0.0
 21
0.0
 12
0.0
 22
0.0
 32
0.0
 14
1.000000000000000E+20
 24
1.000000000000000E+20
 34
1.000000000000000E+20
 15
-1.000000000000000E+20
 25
-1.000000000000000E+20
 35
-1.000000000000000E+20
146
0.0
 13
0.0
 23
0.0
 33
0.0
 16
1.0
 26
0.0
 36
0.0
 17
0.0
 27
1.0
 37
0.0
 76
     0
330
15
  0
MLINESTYLE
  5
1C
102
{ACAD_REACTORS
330
1B
102
}
330
1B
100
AcDbMlineStyle
  2
STANDARD
 70
     0
  3

 62
   256
 51
90.0
 52
90.0
 71
     2
 49
0.5
 62
   256
  6
BYLAYER
 49
-0.5
 62
   256
  6
BYLAYER
  0
ACDBPLACEHOLDER
  5
4114
102
{ACAD_REACTORS
330
4113
102
}
330
4113
  0
SCALE
  5
4116
102
{ACAD_REACTORS
330
4115
102
}
330
4115
100
AcDbScale
 70
     0
300
1:1
140
1.0
141
1.0
290
     1
  0
SCALE
  5
4117
102
{ACAD_REACTORS
330
4115
102
}
330
4115
100
AcDbScale
 70
     0
300
1:2
140
1.0
141
2.0
290
     0
  0
SCALE
  5
4118
102
{ACAD_REACTORS
330
4115
102
}
330
4115
100
AcDbScale
 70
     0
300
1:4
140
1.0
141
4.0
290
     0
  0
SCALE
  5
4119
102
{ACAD_REACTORS
330
4115
102
}
330
4115
100
AcDbScale
 70
     0
300
1:5
140
1.0
141
5.0
290
     0
  0
SCALE
  5
411A
102
{ACAD_REACTORS
330
4115
102
}
330
4115
100
AcDbScale
 70
     0
300
1:8
140
1.0
141
8.0
290
     0
  0
SCALE
  5
411B
102
{ACAD_REACTORS
330
4115
102
}
330
4115
100
AcDbScale
 70
     0
300
1:10
140
1.0
141
10.0
290
     0
  0
SCALE
  5
411C
102
{ACAD_REACTORS
330
4115
102
}
330
4115
100
AcDbScale
 70
     0
300
1:16
140
1.0
141
16.0
290
     0
  0
SCALE
  5
411D
102
{ACAD_REACTORS
330
4115
102
}
330
4115
100
AcDbScale
 70
     0
300
1:20
140
1.0
141
20.0
290
     0
  0
SCALE
  5
411E
102
{ACAD_REACTORS
330
4115
102
}
330
4115
100
AcDbScale
 70
     0
300
1:30
140
1.0
141
30.0
290
     0
  0
SCALE
  5
411F
102
{ACAD_REACTORS
330
4115
102
}
330
4115
100
AcDbScale
 70
     0
300
1:40
140
1.0
141
40.0
290
     0
  0
SCALE
  5
4120
102
{ACAD_REACTORS
330
4115
102
}
330
4115
100
AcDbScale
 70
     0
300
1:50
140
1.0
141
50.0
290
     0
  0
SCALE
  5
4121
102
{ACAD_REACTORS
330
4115
102
}
330
4115
100
AcDbScale
 70
     0
300
1:100
140
1.0
141
100.0
290
     0
  0
SCALE
  5
4122
102
{ACAD_REACTORS
330
4115
102
}
330
4115
100
AcDbScale
 70
     0
300
2:1
140
2.0
141
1.0
290
     0
  0
SCALE
  5
4123
102
{ACAD_REACTORS
330
4115
102
}
330
4115
100
AcDbScale
 70
     0
300
4:1
140
4.0
141
1.0
290
     0
  0
SCALE
  5
4124
102
{ACAD_REACTORS
330
4115
102
}
330
4115
100
AcDbScale
 70
     0
300
8:1
140
8.0
141
1.0
290
     0
  0
SCALE
  5
4125
102
{ACAD_REACTORS
330
4115
102
}
330
4115
100
AcDbScale
 70
     0
300
10:1
140
10.0
141
1.0
290
     0
  0
SCALE
  5
4126
102
{ACAD_REACTORS
330
4115
102
}
330
4115
100
AcDbScale
 70
     0
300
100:1
140
100.0
141
1.0
290
     0
  0
SCALE
  5
4127
102
{ACAD_REACTORS
330
4115
102
}
330
4115
100
AcDbScale
 70
     0
300
1/128" = 1'-0"
140
0.0078125
141
12.0
290
     0
  0
SCALE
  5
4128
102
{ACAD_REACTORS
330
4115
102
}
330
4115
100
AcDbScale
 70
     0
300
1/64" = 1'-0"
140
0.015625
141
12.0
290
     0
  0
SCALE
  5
4129
102
{ACAD_REACTORS
330
4115
102
}
330
4115
100
AcDbScale
 70
     0
300
1/32" = 1'-0"
140
0.03125
141
12.0
290
     0
  0
SCALE
  5
412A
102
{ACAD_REACTORS
330
4115
102
}
330
4115
100
AcDbScale
 70
     0
300
1/16" = 1'-0"
140
0.0625
141
12.0
290
     0
  0
SCALE
  5
412B
102
{ACAD_REACTORS
330
4115
102
}
330
4115
100
AcDbScale
 70
     0
300
3/32" = 1'-0"
140
0.09375
141
12.0
290
     0
  0
SCALE
  5
412C
102
{ACAD_REACTORS
330
4115
102
}
330
4115
100
AcDbScale
 70
     0
300
1/8" = 1'-0"
140
0.125
141
12.0
290
     0
  0
SCALE
  5
412D
102
{ACAD_REACTORS
330
4115
102
}
330
4115
100
AcDbScale
 70
     0
300
3/16" = 1'-0"
140
0.1875
141
12.0
290
     0
  0
SCALE
  5
412E
102
{ACAD_REACTORS
330
4115
102
}
330
4115
100
AcDbScale
 70
     0
300
1/4" = 1'-0"
140
0.25
141
12.0
290
     0
  0
SCALE
  5
412F
102
{ACAD_REACTORS
330
4115
102
}
330
4115
100
AcDbScale
 70
     0
300
3/8" = 1'-0"
140
0.375
141
12.0
290
     0
  0
SCALE
  5
4130
102
{ACAD_REACTORS
330
4115
102
}
330
4115
100
AcDbScale
 70
     0
300
1/2" = 1'-0"
140
0.5
141
12.0
290
     0
  0
SCALE
  5
4131
102
{ACAD_REACTORS
330
4115
102
}
330
4115
100
AcDbScale
 70
     0
300
3/4" = 1'-0"
140
0.75
141
12.0
290
     0
  0
SCALE
  5
4132
102
{ACAD_REACTORS
330
4115
102
}
330
4115
100
AcDbScale
 70
     0
300
1" = 1'-0"
140
1.0
141
12.0
290
     0
  0
SCALE
  5
4133
102
{ACAD_REACTORS
330
4115
102
}
330
4115
100
AcDbScale
 70
     0
300
1-1/2" = 1'-0"
140
1.5
141
12.0
290
     0
  0
SCALE
  5
4134
102
{ACAD_REACTORS
330
4115
102
}
330
4115
100
AcDbScale
 70
     0
300
3" = 1'-0"
140
3.0
141
12.0
290
     0
  0
SCALE
  5
4135
102
{ACAD_REACTORS
330
4115
102
}
330
4115
100
AcDbScale
 70
     0
300
6" = 1'-0"
140
6.0
141
12.0
290
     0
  0
SCALE
  5
4136
102
{ACAD_REACTORS
330
4115
102
}
330
4115
100
AcDbScale
 70
     0
300
1'-0" = 1'-0"
140
12.0
141
12.0
290
     0
  0
DICTIONARYVAR
  5
1828
102
{ACAD_REACTORS
330
1827
102
}
330
1827
100
DictionaryVariables
280
     0
  1
96
  0
ENDSEC
  0
EOF
