  0
SECTION
  2
HEADER
  9
$ACADVER
  1
AC1015
  9
$ACADMAINTVER
 70
     6
  9
$DWGCODEPAGE
  3
ANSI_932
  9
$INSBASE
 10
0.0
 20
0.0
 30
0.0
  9
$EXTMIN
 10
614.3064742616771
 20
801.230583048045
 30
0.0
  9
$EXTMAX
 10
4031.66364607029
 20
3757.634291744548
 30
0.0
  9
$LIMMIN
 10
0.0
 20
0.0
  9
$LIMMAX
 10
5940.0
 20
4200.0
  9
$ORTHOMODE
 70
     1
  9
$REGENMODE
 70
     1
  9
$FILLMODE
 70
     1
  9
$QTEXTMODE
 70
     0
  9
$MIRRTEXT
 70
     1
  9
$LTSCALE
 40
10.0
  9
$ATTMODE
 70
     1
  9
$TEXTSIZE
 40
2.5
  9
$TRACEWID
 40
1.0
  9
$TEXTSTYLE
  7
STYLE1
  9
$CLAYER
  8
0
  9
$CELTYPE
  6
BYLAYER
  9
$CECOLOR
 62
   256
  9
$CELTSCALE
 40
1.0
  9
$DISPSILH
 70
     0
  9
$DIMSCALE
 40
16.0
  9
$DIMASZ
 40
2.5
  9
$DIMEXO
 40
2.0
  9
$DIMDLI
 40
3.75
  9
$DIMRND
 40
0.0
  9
$DIMDLE
 40
0.0
  9
$DIMEXE
 40
1.25
  9
$DIMTP
 40
0.0
  9
$DIMTM
 40
0.0
  9
$DIMTXT
 40
3.75
  9
$DIMCEN
 40
2.5
  9
$DIMTSZ
 40
0.0
  9
$DIMTOL
 70
     0
  9
$DIMLIM
 70
     0
  9
$DIMTIH
 70
     0
  9
$DIMTOH
 70
     0
  9
$DIMSE1
 70
     0
  9
$DIMSE2
 70
     0
  9
$DIMTAD
 70
     1
  9
$DIMZIN
 70
     8
  9
$DIMBLK
  1

  9
$DIMASO
 70
     1
  9
$DIMSHO
 70
     1
  9
$DIMPOST
  1

  9
$DIMAPOST
  1

  9
$DIMALT
 70
     0
  9
$DIMALTD
 70
     4
  9
$DIMALTF
 40
0.0394
  9
$DIMLFAC
 40
1.0
  9
$DIMTOFL
 70
     1
  9
$DIMTVP
 40
0.0
  9
$DIMTIX
 70
     0
  9
$DIMSOXD
 70
     0
  9
$DIMSAH
 70
     1
  9
$DIMBLK1
  1
OPEN
  9
$DIMBLK2
  1
OPEN
  9
$DIMSTYLE
  2
STANDARD-WS-20
  9
$DIMCLRD
 70
     7
  9
$DIMCLRE
 70
     7
  9
$DIMCLRT
 70
   256
  9
$DIMTFAC
 40
1.0
  9
$DIMGAP
 40
1.5
  9
$DIMJUST
 70
     0
  9
$DIMSD1
 70
     0
  9
$DIMSD2
 70
     0
  9
$DIMTOLJ
 70
     1
  9
$DIMTZIN
 70
     8
  9
$DIMALTZ
 70
     0
  9
$DIMALTTZ
 70
     0
  9
$DIMUPT
 70
     0
  9
$DIMDEC
 70
     2
  9
$DIMTDEC
 70
     2
  9
$DIMALTU
 70
     8
  9
$DIMALTTD
 70
     4
  9
$DIMTXSTY
  7
STYLE1
  9
$DIMAUNIT
 70
     0
  9
$DIMADEC
 70
     0
  9
$DIMALTRND
 40
0.0
  9
$DIMAZIN
 70
     0
  9
$DIMDSEP
 70
    46
  9
$DIMATFIT
 70
     3
  9
$DIMFRAC
 70
     0
  9
$DIMLDRBLK
  1

  9
$DIMLUNIT
 70
     2
  9
$DIMLWD
 70
    -2
  9
$DIMLWE
 70
    -2
  9
$DIMTMOVE
 70
     1
  9
$LUNITS
 70
     2
  9
$LUPREC
 70
     4
  9
$SKETCHINC
 40
1.0
  9
$FILLETRAD
 40
8.0
  9
$AUNITS
 70
     0
  9
$AUPREC
 70
     0
  9
$MENU
  1
acad
  9
$ELEVATION
 40
0.0
  9
$PELEVATION
 40
0.0
  9
$THICKNESS
 40
0.0
  9
$LIMCHECK
 70
     0
  9
$CHAMFERA
 40
10.0
  9
$CHAMFERB
 40
10.0
  9
$CHAMFERC
 40
20.0
  9
$CHAMFERD
 40
0.0
  9
$SKPOLY
 70
     0
  9
$TDCREATE
 40
2452346.604164468
  9
$TDUCREATE
 40
2452346.229164468
  9
$TDUPDATE
 40
2458968.620878171
  9
$TDUUPDATE
 40
2458968.245878171
  9
$TDINDWG
 40
0.0664591898
  9
$TDUSRTIMER
 40
0.000265787
  9
$USRTIMER
 70
     1
  9
$ANGBASE
 50
0.0
  9
$ANGDIR
 70
     0
  9
$PDMODE
 70
     0
  9
$PDSIZE
 40
0.0
  9
$PLINEWID
 40
0.0
  9
$SPLFRAME
 70
     0
  9
$SPLINETYPE
 70
     6
  9
$SPLINESEGS
 70
     8
  9
$HANDSEED
  5
428F
  9
$SURFTAB1
 70
     6
  9
$SURFTAB2
 70
     6
  9
$SURFTYPE
 70
     6
  9
$SURFU
 70
     6
  9
$SURFV
 70
     6
  9
$UCSBASE
  2

  9
$UCSNAME
  2

  9
$UCSORG
 10
0.0
 20
0.0
 30
0.0
  9
$UCSXDIR
 10
1.0
 20
0.0
 30
0.0
  9
$UCSYDIR
 10
0.0
 20
1.0
 30
0.0
  9
$UCSORTHOREF
  2

  9
$UCSORTHOVIEW
 70
     0
  9
$UCSORGTOP
 10
0.0
 20
0.0
 30
0.0
  9
$UCSORGBOTTOM
 10
0.0
 20
0.0
 30
0.0
  9
$UCSORGLEFT
 10
0.0
 20
0.0
 30
0.0
  9
$UCSORGRIGHT
 10
0.0
 20
0.0
 30
0.0
  9
$UCSORGFRONT
 10
0.0
 20
0.0
 30
0.0
  9
$UCSORGBACK
 10
0.0
 20
0.0
 30
0.0
  9
$PUCSBASE
  2

  9
$PUCSNAME
  2

  9
$PUCSORG
 10
0.0
 20
0.0
 30
0.0
  9
$PUCSXDIR
 10
1.0
 20
0.0
 30
0.0
  9
$PUCSYDIR
 10
0.0
 20
1.0
 30
0.0
  9
$PUCSORTHOREF
  2

  9
$PUCSORTHOVIEW
 70
     0
  9
$PUCSORGTOP
 10
0.0
 20
0.0
 30
0.0
  9
$PUCSORGBOTTOM
 10
0.0
 20
0.0
 30
0.0
  9
$PUCSORGLEFT
 10
0.0
 20
0.0
 30
0.0
  9
$PUCSORGRIGHT
 10
0.0
 20
0.0
 30
0.0
  9
$PUCSORGFRONT
 10
0.0
 20
0.0
 30
0.0
  9
$PUCSORGBACK
 10
0.0
 20
0.0
 30
0.0
  9
$USERI1
 70
     0
  9
$USERI2
 70
     0
  9
$USERI3
 70
     0
  9
$USERI4
 70
     0
  9
$USERI5
 70
     0
  9
$USERR1
 40
0.0
  9
$USERR2
 40
0.0
  9
$USERR3
 40
0.0
  9
$USERR4
 40
0.0
  9
$USERR5
 40
0.0
  9
$WORLDVIEW
 70
     1
  9
$SHADEDGE
 70
     3
  9
$SHADEDIF
 70
    70
  9
$TILEMODE
 70
     1
  9
$MAXACTVP
 70
    48
  9
$PINSBASE
 10
0.0
 20
0.0
 30
0.0
  9
$PLIMCHECK
 70
     0
  9
$PEXTMIN
 10
1.000000000000000E+20
 20
1.000000000000000E+20
 30
1.000000000000000E+20
  9
$PEXTMAX
 10
-1.000000000000000E+20
 20
-1.000000000000000E+20
 30
-1.000000000000000E+20
  9
$PLIMMIN
 10
0.0
 20
0.0
  9
$PLIMMAX
 10
0.0
 20
0.0
  9
$UNITMODE
 70
     0
  9
$VISRETAIN
 70
     1
  9
$PLINEGEN
 70
     0
  9
$PSLTSCALE
 70
     1
  9
$TREEDEPTH
 70
  3020
  9
$CMLSTYLE
  2
STANDARD
  9
$CMLJUST
 70
     0
  9
$CMLSCALE
 40
20.0
  9
$PROXYGRAPHICS
 70
     1
  9
$MEASUREMENT
 70
     1
  9
$CELWEIGHT
370
    -1
  9
$ENDCAPS
280
     0
  9
$JOINSTYLE
280
     0
  9
$LWDISPLAY
290
     0
  9
$INSUNITS
 70
     0
  9
$HYPERLINKBASE
  1

  9
$STYLESHEET
  1

  9
$XEDIT
290
     1
  9
$CEPSNTYPE
380
     0
  9
$PSTYLEMODE
290
     1
  9
$FINGERPRINTGUID
  2
{42F94998-96C6-4B60-9568-4CB6AE0F5C76}
  9
$VERSIONGUID
  2
{5396D1DD-C668-4843-B534-C27600E51559}
  9
$EXTNAMES
290
     1
  9
$PSVPSCALE
 40
0.0
  9
$OLESTARTUP
290
     0
  0
ENDSEC
  0
SECTION
  2
CLASSES
  0
CLASS
  1
LWPOLYLINE
  2
AcDbPolyline
  3
ObjectDBX Classes
 90
        0
280
     0
281
     1
  0
CLASS
  1
DICTIONARYVAR
  2
AcDbDictionaryVar
  3
ObjectDBX Classes
 90
        0
280
     0
281
     0
  0
CLASS
  1
ACDBDICTIONARYWDFLT
  2
AcDbDictionaryWithDefault
  3
ObjectDBX Classes
 90
        0
280
     0
281
     0
  0
CLASS
  1
TABLESTYLE
  2
AcDbTableStyle
  3
ObjectDBX Classes
 90
     4095
280
     0
281
     0
  0
CLASS
  1
ACDBPLACEHOLDER
  2
AcDbPlaceHolder
  3
ObjectDBX Classes
 90
        0
280
     0
281
     0
  0
CLASS
  1
LAYOUT
  2
AcDbLayout
  3
ObjectDBX Classes
 90
        0
280
     0
281
     0
  0
CLASS
  1
VISUALSTYLE
  2
AcDbVisualStyle
  3
ObjectDBX Classes
 90
     4095
280
     0
281
     0
  0
CLASS
  1
SCALE
  2
AcDbScale
  3
ObjectDBX Classes
 90
     1153
280
     0
281
     0
  0
CLASS
  1
MATERIAL
  2
AcDbMaterial
  3
ObjectDBX Classes
 90
     1153
280
     0
281
     0
  0
CLASS
  1
MLEADERSTYLE
  2
AcDbMLeaderStyle
  3
ACDB_MLEADERSTYLE_CLASS
 90
     4095
280
     0
281
     0
  0
ENDSEC
  0
SECTION
  2
TABLES
  0
TABLE
  2
VPORT
  5
8
330
0
100
AcDbSymbolTable
 70
     1
  0
VPORT
  5
4247
330
8
100
AcDbSymbolTableRecord
100
AcDbViewportTableRecord
  2
*Active
 70
     0
 10
0.0
 20
0.0
 11
1.0
 21
1.0
 12
2271.303500478322
 22
2277.034950160412
 13
0.0
 23
0.0
 14
10.0
 24
10.0
 15
10.0
 25
10.0
 16
0.0
 26
0.0
 36
1.0
 17
0.0
 27
0.0
 37
0.0
 40
3399.550826903403
 41
2.29737609329446
 42
50.0
 43
0.0
 44
0.0
 50
0.0
 51
0.0
 71
    16
 72
   100
 73
     1
 74
     0
 75
     0
 76
     0
 77
     0
 78
     0
281
     0
 65
     1
110
0.0
120
0.0
130
0.0
111
1.0
121
0.0
131
0.0
112
0.0
122
1.0
132
0.0
 79
     0
146
0.0
  0
ENDTAB
  0
TABLE
  2
LTYPE
  5
5
330
0
100
AcDbSymbolTable
 70
     2
  0
LTYPE
  5
12
330
5
100
AcDbSymbolTableRecord
100
AcDbLinetypeTableRecord
  2
BYBLOCK
 70
     0
  3

 72
    65
 73
     0
 40
0.0
  0
LTYPE
  5
13
330
5
100
AcDbSymbolTableRecord
100
AcDbLinetypeTableRecord
  2
BYLAYER
 70
     0
  3

 72
    65
 73
     0
 40
0.0
  0
LTYPE
  5
14
330
5
100
AcDbSymbolTableRecord
100
AcDbLinetypeTableRecord
  2
CONTINUOUS
 70
     0
  3
Solid line
 72
    65
 73
     0
 40
0.0
  0
LTYPE
  5
3457
330
5
100
AcDbSymbolTableRecord
100
AcDbLinetypeTableRecord
  2
CENTER
 70
     0
  3
____ _ ____ _ ____ _ ____ _ ____ _ ____ _ ____ 
 72
    65
 73
     4
 40
2.0
 49
1.25
 74
     0
 49
-0.25
 74
     0
 49
0.25
 74
     0
 49
-0.25
 74
     0
  0
ENDTAB
  0
TABLE
  2
LAYER
  5
2
102
{ACAD_XDICTIONARY
360
4215
102
}
330
0
100
AcDbSymbolTable
 70
     3
  0
LAYER
  5
E
330
2
100
AcDbSymbolTableRecord
100
AcDbLayerTableRecord
  2
0
 70
     0
 62
     7
  6
CONTINUOUS
370
    -3
390
40E0
  0
LAYER
  5
16E
330
2
100
AcDbSymbolTableRecord
100
AcDbLayerTableRecord
  2
DEFPOINTS
 70
     0
 62
     7
  6
CONTINUOUS
290
     0
370
    -3
390
40E0
  0
LAYER
  5
4213
330
2
100
AcDbSymbolTableRecord
100
AcDbLayerTableRecord
  2
注記
 70
     0
 62
     7
  6
CONTINUOUS
370
    -3
390
40E0
1001
AcAecLayerStandard
1000

1000

  0
ENDTAB
  0
TABLE
  2
STYLE
  5
3
330
0
100
AcDbSymbolTable
 70
     2
  0
STYLE
  5
F
330
3
100
AcDbSymbolTableRecord
100
AcDbTextStyleTableRecord
  2
STANDARD
 70
     0
 40
0.0
 41
0.9
 50
0.0
 71
     0
 42
2.5
  3
txt.shx
  4

  0
STYLE
  5
26
330
3
100
AcDbSymbolTableRecord
100
AcDbTextStyleTableRecord
  2
STYLE1
 70
     0
 40
0.0
 41
0.9
 50
0.0
 71
     0
 42
100.0
  3
TXT.shx
  4
extfont.shx
  0
ENDTAB
  0
TABLE
  2
VIEW
  5
6
330
0
100
AcDbSymbolTable
 70
     0
  0
ENDTAB
  0
TABLE
  2
UCS
  5
7
330
0
100
AcDbSymbolTable
 70
     0
  0
ENDTAB
  0
TABLE
  2
APPID
  5
9
330
0
100
AcDbSymbolTable
 70
     4
  0
APPID
  5
10
330
9
100
AcDbSymbolTableRecord
100
AcDbRegAppTableRecord
  2
ACAD
 70
     0
  0
APPID
  5
2624
330
9
100
AcDbSymbolTableRecord
100
AcDbRegAppTableRecord
  2
DRAWINGVARIABLESXDATA
 70
     0
  0
APPID
  5
4214
330
9
100
AcDbSymbolTableRecord
100
AcDbRegAppTableRecord
  2
AcAecLayerStandard
 70
     0
  0
APPID
  5
4245
330
9
100
AcDbSymbolTableRecord
100
AcDbRegAppTableRecord
  2
DCO15
 70
     0
  0
ENDTAB
  0
TABLE
  2
DIMSTYLE
  5
A
330
0
100
AcDbSymbolTable
 70
     3
100
AcDbDimStyleTable
  0
DIMSTYLE
105
1D
330
A
100
AcDbSymbolTableRecord
100
AcDbDimStyleTableRecord
  2
STANDARD
 70
     0
178
     0
340
F
  0
DIMSTYLE
105
27
330
A
100
AcDbSymbolTableRecord
100
AcDbDimStyleTableRecord
  2
STANDARD-WS-20
 70
     0
 40
16.0
 41
2.5
 42
2.0
 43
3.75
 44
1.25
 73
     0
 74
     0
 77
     1
 78
     8
140
3.75
141
2.5
143
0.0394
147
1.5
171
     4
172
     1
173
     1
176
     7
177
     7
271
     2
178
   256
271
     2
272
     2
273
     8
274
     4
279
     1
284
     8
340
26
341
20
343
20
344
20
  0
DIMSTYLE
105
4207
330
A
100
AcDbSymbolTableRecord
100
AcDbDimStyleTableRecord
  2
ISO-25
 70
     0
 41
35.101
 42
8.7753
 43
52.6515
 44
17.5505
 74
     0
 77
     1
 78
     8
140
35.1010101010101
141
35.101
143
0.0394
145
1.0
147
8.7753
172
     1
173
     1
176
     6
177
     6
271
     0
178
     5
271
     0
272
     0
340
F
341
20
343
20
344
20
  0
ENDTAB
  0
TABLE
  2
BLOCK_RECORD
  5
1
330
0
100
AcDbSymbolTable
 70
    14
  0
BLOCK_RECORD
  5
18
330
1
100
AcDbSymbolTableRecord
100
AcDbBlockTableRecord
  2
*MODEL_SPACE
340
40E7
  0
BLOCK_RECORD
  5
15
330
1
100
AcDbSymbolTableRecord
100
AcDbBlockTableRecord
  2
*PAPER_SPACE
340
40E8
  0
BLOCK_RECORD
  5
20
330
1
100
AcDbSymbolTableRecord
100
AcDbBlockTableRecord
  2
_OPEN
340
0
102
{BLKREFS
331
41CB
331
41D4
331
41DD
331
41E6
331
41EF
331
41F8
331
4201
331
41A7
331
41B0
331
41B9
331
41C2
331
4089
331
4094
331
41CC
331
41D5
331
41DE
331
41E7
331
41F0
331
41F9
331
4202
331
41A8
331
41B1
331
41BA
331
41C3
331
408A
331
4095
331
0
331
0
102
}
  0
BLOCK_RECORD
  5
3E9D
330
1
100
AcDbSymbolTableRecord
100
AcDbBlockTableRecord
  2
*D1
340
0
  0
BLOCK_RECORD
  5
3EC0
330
1
100
AcDbSymbolTableRecord
100
AcDbBlockTableRecord
  2
*D2
340
0
  0
BLOCK_RECORD
  5
3EF0
330
1
100
AcDbSymbolTableRecord
100
AcDbBlockTableRecord
  2
*D3
340
0
  0
BLOCK_RECORD
  5
3F08
330
1
100
AcDbSymbolTableRecord
100
AcDbBlockTableRecord
  2
*D4
340
0
  0
BLOCK_RECORD
  5
3F20
330
1
100
AcDbSymbolTableRecord
100
AcDbBlockTableRecord
  2
*D5
340
0
  0
BLOCK_RECORD
  5
3F38
330
1
100
AcDbSymbolTableRecord
100
AcDbBlockTableRecord
  2
*D6
340
0
  0
BLOCK_RECORD
  5
3F50
330
1
100
AcDbSymbolTableRecord
100
AcDbBlockTableRecord
  2
*D7
340
0
  0
BLOCK_RECORD
  5
3F68
330
1
100
AcDbSymbolTableRecord
100
AcDbBlockTableRecord
  2
*D8
340
0
  0
BLOCK_RECORD
  5
3F82
330
1
100
AcDbSymbolTableRecord
100
AcDbBlockTableRecord
  2
*D9
340
0
  0
BLOCK_RECORD
  5
3F9A
330
1
100
AcDbSymbolTableRecord
100
AcDbBlockTableRecord
  2
*D10
340
0
  0
BLOCK_RECORD
  5
3FB2
330
1
100
AcDbSymbolTableRecord
100
AcDbBlockTableRecord
  2
*D11
340
0
  0
BLOCK_RECORD
  5
3FCA
330
1
100
AcDbSymbolTableRecord
100
AcDbBlockTableRecord
  2
*D12
340
0
  0
BLOCK_RECORD
  5
3FE2
330
1
100
AcDbSymbolTableRecord
100
AcDbBlockTableRecord
  2
*D13
340
0
  0
ENDTAB
  0
ENDSEC
  0
SECTION
  2
BLOCKS
  0
BLOCK
  5
19
330
18
100
AcDbEntity
  8
0
370
    -1
100
AcDbBlockBegin
  2
*MODEL_SPACE
 70
     0
 10
0.0
 20
0.0
 30
0.0
  3
*MODEL_SPACE
  1

  0
ENDBLK
  5
1A
330
18
100
AcDbEntity
  8
0
370
    -1
100
AcDbBlockEnd
  0
BLOCK
  5
16
330
15
100
AcDbEntity
 67
     1
  8
0
370
    -1
100
AcDbBlockBegin
  2
*PAPER_SPACE
 70
     0
 10
0.0
 20
0.0
 30
0.0
  3
*PAPER_SPACE
  1

  0
ENDBLK
  5
17
330
15
100
AcDbEntity
 67
     1
  8
0
370
    -1
100
AcDbBlockEnd
  0
BLOCK
  5
24
330
20
100
AcDbEntity
  8
0
370
    -1
100
AcDbBlockBegin
  2
_OPEN
 70
     0
 10
0.0
 20
0.0
 30
0.0
  3
_OPEN
  1

  0
LINE
  5
21
330
20
100
AcDbEntity
  8
0
  6
ByBlock
 62
     0
370
    -1
100
AcDbLine
 10
-1.0
 20
0.1666666666666667
 30
0.0
 11
0.0
 21
0.0
 31
0.0
  0
LINE
  5
22
330
20
100
AcDbEntity
  8
0
  6
ByBlock
 62
     0
370
    -1
100
AcDbLine
 10
0.0
 20
0.0
 30
0.0
 11
-1.0
 21
-0.1666666666666667
 31
0.0
  0
LINE
  5
23
330
20
100
AcDbEntity
  8
0
  6
ByBlock
 62
     0
370
    -1
100
AcDbLine
 10
0.0
 20
0.0
 30
0.0
 11
-1.0
 21
0.0
 31
0.0
  0
ENDBLK
  5
25
330
20
100
AcDbEntity
  8
0
370
    -1
100
AcDbBlockEnd
  0
BLOCK
  5
4001
330
3E9D
100
AcDbEntity
  8
0
370
    -1
100
AcDbBlockBegin
  2
*D1
 70
     1
 10
0.0
 20
0.0
 30
0.0
  3
*D1
  1

  0
LINE
  5
41C8
330
3E9D
100
AcDbEntity
  8
0
 62
     7
370
    -2
100
AcDbLine
 10
654.3064742616771
 20
2133.230583048045
 30
0.0
 11
654.3064742616771
 21
2451.230583048045
 31
0.0
  0
LINE
  5
41C9
330
3E9D
100
AcDbEntity
  8
0
 62
     7
370
    -2
100
AcDbLine
 10
1994.306474261677
 20
2133.230583048045
 30
0.0
 11
1994.306474261677
 21
2451.230583048045
 31
0.0
  0
LINE
  5
41CA
330
3E9D
100
AcDbEntity
  8
0
 62
     7
370
    -2
100
AcDbLine
 10
694.3064742616771
 20
2431.230583048045
 30
0.0
 11
1954.306474261677
 21
2431.230583048045
 31
0.0
  0
INSERT
  5
41CB
330
3E9D
100
AcDbEntity
  8
0
 62
     7
370
    -2
100
AcDbBlockReference
  2
_OPEN
 10
654.3064742616771
 20
2431.230583048045
 30
0.0
 41
40.0
 42
40.0
 43
40.0
 50
180.0
  0
INSERT
  5
41CC
330
3E9D
100
AcDbEntity
  8
0
 62
     7
370
    -2
100
AcDbBlockReference
  2
_OPEN
 10
1994.306474261677
 20
2431.230583048045
 30
0.0
 41
40.0
 42
40.0
 43
40.0
  0
MTEXT
  5
41CD
330
3E9D
100
AcDbEntity
  8
0
100
AcDbMText
 10
1324.306474261677
 20
2485.230583048045
 30
0.0
 40
60.0
 41
0.0
 71
     5
 72
     1
  1
\A1;Ｗ
  7
STYLE1
 73
     1
 44
1.0
  0
POINT
  5
41CE
330
3E9D
100
AcDbEntity
  8
DEFPOINTS
 62
     0
100
AcDbPoint
 10
654.3064742616771
 20
2101.230583048045
 30
0.0
  0
POINT
  5
41CF
330
3E9D
100
AcDbEntity
  8
DEFPOINTS
 62
     0
100
AcDbPoint
 10
1994.306474261677
 20
2101.230583048045
 30
0.0
  0
POINT
  5
41D0
330
3E9D
100
AcDbEntity
  8
DEFPOINTS
 62
     0
100
AcDbPoint
 10
1994.306474261677
 20
2431.230583048045
 30
0.0
  0
ENDBLK
  5
400B
330
3E9D
100
AcDbEntity
  8
0
370
    -1
100
AcDbBlockEnd
  0
BLOCK
  5
400C
330
3EC0
100
AcDbEntity
  8
0
370
    -1
100
AcDbBlockBegin
  2
*D2
 70
     1
 10
0.0
 20
0.0
 30
0.0
  3
*D2
  1

  0
LINE
  5
41D1
330
3EC0
100
AcDbEntity
  8
0
 62
     7
370
    -2
100
AcDbLine
 10
914.3064742616771
 20
2213.230583048045
 30
0.0
 11
914.3064742616771
 21
2301.230583048045
 31
0.0
  0
LINE
  5
41D2
330
3EC0
100
AcDbEntity
  8
0
 62
     7
370
    -2
100
AcDbLine
 10
1734.306474261677
 20
2213.230583048045
 30
0.0
 11
1734.306474261677
 21
2301.230583048045
 31
0.0
  0
LINE
  5
41D3
330
3EC0
100
AcDbEntity
  8
0
 62
     7
370
    -2
100
AcDbLine
 10
954.3064742616771
 20
2281.230583048045
 30
0.0
 11
1694.306474261677
 21
2281.230583048045
 31
0.0
  0
INSERT
  5
41D4
330
3EC0
100
AcDbEntity
  8
0
 62
     7
370
    -2
100
AcDbBlockReference
  2
_OPEN
 10
914.3064742616771
 20
2281.230583048045
 30
0.0
 41
40.0
 42
40.0
 43
40.0
 50
180.0
  0
INSERT
  5
41D5
330
3EC0
100
AcDbEntity
  8
0
 62
     7
370
    -2
100
AcDbBlockReference
  2
_OPEN
 10
1734.306474261677
 20
2281.230583048045
 30
0.0
 41
40.0
 42
40.0
 43
40.0
  0
MTEXT
  5
41D6
330
3EC0
100
AcDbEntity
  8
0
100
AcDbMText
 10
1324.306474261677
 20
2335.230583048045
 30
0.0
 40
60.0
 41
0.0
 71
     5
 72
     1
  1
\A1;Ａ
  7
STYLE1
 73
     1
 44
1.0
  0
POINT
  5
41D7
330
3EC0
100
AcDbEntity
  8
DEFPOINTS
 62
     0
100
AcDbPoint
 10
914.3064742616771
 20
2181.230583048045
 30
0.0
  0
POINT
  5
41D8
330
3EC0
100
AcDbEntity
  8
DEFPOINTS
 62
     0
100
AcDbPoint
 10
1734.306474261677
 20
2181.230583048045
 30
0.0
  0
POINT
  5
41D9
330
3EC0
100
AcDbEntity
  8
DEFPOINTS
 62
     0
100
AcDbPoint
 10
1734.306474261677
 20
2281.230583048045
 30
0.0
  0
ENDBLK
  5
4016
330
3EC0
100
AcDbEntity
  8
0
370
    -1
100
AcDbBlockEnd
  0
BLOCK
  5
4022
330
3EF0
100
AcDbEntity
  8
0
370
    -1
100
AcDbBlockBegin
  2
*D3
 70
     1
 10
0.0
 20
0.0
 30
0.0
  3
*D3
  1

  0
LINE
  5
41DA
330
3EF0
100
AcDbEntity
  8
0
 62
     7
370
    -2
100
AcDbLine
 10
2031.608119208811
 20
1203.634895339064
 30
0.0
 11
2196.159764155946
 21
1203.634895339064
 31
0.0
  0
LINE
  5
41DB
330
3EF0
100
AcDbEntity
  8
0
 62
     7
370
    -2
100
AcDbLine
 10
2066.306474261677
 20
831.230583048045
 30
0.0
 11
2196.159764155946
 21
831.230583048045
 31
0.0
  0
LINE
  5
41DC
330
3EF0
100
AcDbEntity
  8
0
 62
     7
370
    -2
100
AcDbLine
 10
2176.159764155946
 20
1163.634895339064
 30
0.0
 11
2176.159764155946
 21
871.230583048045
 31
0.0
  0
INSERT
  5
41DD
330
3EF0
100
AcDbEntity
  8
0
 62
     7
370
    -2
100
AcDbBlockReference
  2
_OPEN
 10
2176.159764155946
 20
1203.634895339064
 30
0.0
 41
40.0
 42
40.0
 43
40.0
 50
90.0
  0
INSERT
  5
41DE
330
3EF0
100
AcDbEntity
  8
0
 62
     7
370
    -2
100
AcDbBlockReference
  2
_OPEN
 10
2176.159764155946
 20
831.230583048045
 30
0.0
 41
40.0
 42
40.0
 43
40.0
 50
270.0
  0
MTEXT
  5
41DF
330
3EF0
100
AcDbEntity
  8
0
100
AcDbMText
 10
2122.159764155946
 20
1017.432739193555
 30
0.0
 40
60.0
 41
0.0
 71
     5
 72
     1
  1
\A1;240
  7
STYLE1
 11
6.123031769111886E-17
 21
1.0
 31
0.0
 73
     1
 44
1.0
  0
POINT
  5
41E0
330
3EF0
100
AcDbEntity
  8
DEFPOINTS
 62
     0
100
AcDbPoint
 10
1999.608119208811
 20
1203.634895339064
 30
0.0
  0
POINT
  5
41E1
330
3EF0
100
AcDbEntity
  8
DEFPOINTS
 62
     0
100
AcDbPoint
 10
2034.306474261677
 20
831.230583048045
 30
0.0
  0
POINT
  5
41E2
330
3EF0
100
AcDbEntity
  8
DEFPOINTS
 62
     0
100
AcDbPoint
 10
2176.159764155946
 20
831.230583048045
 30
0.0
  0
ENDBLK
  5
402C
330
3EF0
100
AcDbEntity
  8
0
370
    -1
100
AcDbBlockEnd
  0
BLOCK
  5
402D
330
3F08
100
AcDbEntity
  8
0
370
    -1
100
AcDbBlockBegin
  2
*D4
 70
     1
 10
0.0
 20
0.0
 30
0.0
  3
*D4
  1

  0
LINE
  5
41E3
330
3F08
100
AcDbEntity
  8
0
 62
     7
370
    -2
100
AcDbLine
 10
1806.306474261677
 20
2163.058736283021
 30
0.0
 11
2387.032520170295
 21
2163.058736283021
 31
0.0
  0
LINE
  5
41E4
330
3F08
100
AcDbEntity
  8
0
 62
     7
370
    -2
100
AcDbLine
 10
2161.608119208811
 20
831.230583048045
 30
0.0
 11
2387.032520170294
 21
831.2305830480449
 31
0.0
  0
LINE
  5
41E5
330
3F08
100
AcDbEntity
  8
0
 62
     7
370
    -2
100
AcDbLine
 10
2367.032520170295
 20
2123.058736283021
 30
0.0
 11
2367.032520170294
 21
871.2305830480449
 31
0.0
  0
INSERT
  5
41E6
330
3F08
100
AcDbEntity
  8
0
 62
     7
370
    -2
100
AcDbBlockReference
  2
_OPEN
 10
2367.032520170295
 20
2163.058736283021
 30
0.0
 41
40.0
 42
40.0
 43
40.0
 50
90.0
  0
INSERT
  5
41E7
330
3F08
100
AcDbEntity
  8
0
 62
     7
370
    -2
100
AcDbBlockReference
  2
_OPEN
 10
2367.032520170294
 20
831.2305830480449
 30
0.0
 41
40.0
 42
40.0
 43
40.0
 50
270.0
  0
MTEXT
  5
41E8
330
3F08
100
AcDbEntity
  8
0
100
AcDbMText
 10
2313.032520170294
 20
1497.144659665533
 30
0.0
 40
60.0
 41
0.0
 71
     5
 72
     1
  1
\A1;Ｈ
  7
STYLE1
 11
6.123031769111886E-17
 21
1.0
 31
0.0
 73
     1
 44
1.0
  0
POINT
  5
41E9
330
3F08
100
AcDbEntity
  8
DEFPOINTS
 62
     0
100
AcDbPoint
 10
1774.306474261677
 20
2163.058736283021
 30
0.0
  0
POINT
  5
41EA
330
3F08
100
AcDbEntity
  8
DEFPOINTS
 62
     0
100
AcDbPoint
 10
2129.608119208811
 20
831.230583048045
 30
0.0
  0
POINT
  5
41EB
330
3F08
100
AcDbEntity
  8
DEFPOINTS
 62
     0
100
AcDbPoint
 10
2367.032520170294
 20
831.2305830480449
 30
0.0
  0
ENDBLK
  5
4037
330
3F08
100
AcDbEntity
  8
0
370
    -1
100
AcDbBlockEnd
  0
BLOCK
  5
4038
330
3F20
100
AcDbEntity
  8
0
370
    -1
100
AcDbBlockBegin
  2
*D5
 70
     1
 10
0.0
 20
0.0
 30
0.0
  3
*D5
  1

  0
LINE
  5
41EC
330
3F20
100
AcDbEntity
  8
0
 62
     7
370
    -2
100
AcDbLine
 10
614.3064742616771
 20
799.230583048045
 30
0.0
 11
614.3064742616771
 21
701.230583048045
 31
0.0
  0
LINE
  5
41ED
330
3F20
100
AcDbEntity
  8
0
 62
     7
370
    -2
100
AcDbLine
 10
2034.306474261677
 20
799.230583048045
 30
0.0
 11
2034.306474261677
 21
701.230583048045
 31
0.0
  0
LINE
  5
41EE
330
3F20
100
AcDbEntity
  8
0
 62
     7
370
    -2
100
AcDbLine
 10
654.3064742616771
 20
721.230583048045
 30
0.0
 11
1994.306474261677
 21
721.230583048045
 31
0.0
  0
INSERT
  5
41EF
330
3F20
100
AcDbEntity
  8
0
 62
     7
370
    -2
100
AcDbBlockReference
  2
_OPEN
 10
614.3064742616771
 20
721.230583048045
 30
0.0
 41
40.0
 42
40.0
 43
40.0
 50
180.0
  0
INSERT
  5
41F0
330
3F20
100
AcDbEntity
  8
0
 62
     7
370
    -2
100
AcDbBlockReference
  2
_OPEN
 10
2034.306474261677
 20
721.230583048045
 30
0.0
 41
40.0
 42
40.0
 43
40.0
  0
MTEXT
  5
41F1
330
3F20
100
AcDbEntity
  8
0
100
AcDbMText
 10
1324.306474261677
 20
775.230583048045
 30
0.0
 40
60.0
 41
0.0
 71
     5
 72
     1
  1
\A1;1060（外付時）
  7
STYLE1
 73
     1
 44
1.0
  0
POINT
  5
41F2
330
3F20
100
AcDbEntity
  8
DEFPOINTS
 62
     0
100
AcDbPoint
 10
614.3064742616771
 20
831.230583048045
 30
0.0
  0
POINT
  5
41F3
330
3F20
100
AcDbEntity
  8
DEFPOINTS
 62
     0
100
AcDbPoint
 10
2034.306474261677
 20
831.230583048045
 30
0.0
  0
POINT
  5
41F4
330
3F20
100
AcDbEntity
  8
DEFPOINTS
 62
     0
100
AcDbPoint
 10
2034.306474261677
 20
721.230583048045
 30
0.0
  0
ENDBLK
  5
4042
330
3F20
100
AcDbEntity
  8
0
370
    -1
100
AcDbBlockEnd
  0
BLOCK
  5
4043
330
3F38
100
AcDbEntity
  8
0
370
    -1
100
AcDbBlockBegin
  2
*D6
 70
     1
 10
0.0
 20
0.0
 30
0.0
  3
*D6
  1

  0
LINE
  5
41F5
330
3F38
100
AcDbEntity
  8
0
 62
     7
370
    -2
100
AcDbLine
 10
634.3064742616771
 20
3699.634291744548
 30
0.0
 11
634.3064742616771
 21
3867.634291744548
 31
0.0
  0
LINE
  5
41F6
330
3F38
100
AcDbEntity
  8
0
 62
     7
370
    -2
100
AcDbLine
 10
2013.21313465498
 20
3699.634291744548
 30
0.0
 11
2013.21313465498
 21
3867.634291744548
 31
0.0
  0
LINE
  5
41F7
330
3F38
100
AcDbEntity
  8
0
 62
     7
370
    -2
100
AcDbLine
 10
674.3064742616771
 20
3847.634291744548
 30
0.0
 11
1973.21313465498
 21
3847.634291744548
 31
0.0
  0
INSERT
  5
41F8
330
3F38
100
AcDbEntity
  8
0
 62
     7
370
    -2
100
AcDbBlockReference
  2
_OPEN
 10
634.3064742616771
 20
3847.634291744548
 30
0.0
 41
40.0
 42
40.0
 43
40.0
 50
180.0
  0
INSERT
  5
41F9
330
3F38
100
AcDbEntity
  8
0
 62
     7
370
    -2
100
AcDbBlockReference
  2
_OPEN
 10
2013.21313465498
 20
3847.634291744548
 30
0.0
 41
40.0
 42
40.0
 43
40.0
  0
MTEXT
  5
41FA
330
3F38
100
AcDbEntity
  8
0
100
AcDbMText
 10
1323.759804458328
 20
3901.634291744548
 30
0.0
 40
60.0
 41
0.0
 71
     5
 72
     1
  1
\A1;Ｃ
  7
STYLE1
 73
     1
 44
1.0
  0
POINT
  5
41FB
330
3F38
100
AcDbEntity
  8
DEFPOINTS
 62
     0
100
AcDbPoint
 10
634.3064742616771
 20
3667.634291744548
 30
0.0
  0
POINT
  5
41FC
330
3F38
100
AcDbEntity
  8
DEFPOINTS
 62
     0
100
AcDbPoint
 10
2013.21313465498
 20
3667.634291744548
 30
0.0
  0
POINT
  5
41FD
330
3F38
100
AcDbEntity
  8
DEFPOINTS
 62
     0
100
AcDbPoint
 10
2013.21313465498
 20
3847.634291744548
 30
0.0
  0
ENDBLK
  5
404D
330
3F38
100
AcDbEntity
  8
0
370
    -1
100
AcDbBlockEnd
  0
BLOCK
  5
404E
330
3F50
100
AcDbEntity
  8
0
370
    -1
100
AcDbBlockBegin
  2
*D7
 70
     1
 10
0.0
 20
0.0
 30
0.0
  3
*D7
  1

  0
LINE
  5
41FE
330
3F50
100
AcDbEntity
  8
0
 62
     7
370
    -2
100
AcDbLine
 10
2066.306474261677
 20
3647.634291744548
 30
0.0
 11
2384.306474261678
 21
3647.634291744548
 31
0.0
  0
LINE
  5
41FF
330
3F50
100
AcDbEntity
  8
0
 62
     7
370
    -2
100
AcDbLine
 10
2066.306474261677
 20
2837.634291744548
 30
0.0
 11
2384.306474261677
 21
2837.634291744548
 31
0.0
  0
LINE
  5
4200
330
3F50
100
AcDbEntity
  8
0
 62
     7
370
    -2
100
AcDbLine
 10
2364.306474261678
 20
3607.634291744548
 30
0.0
 11
2364.306474261677
 21
2877.634291744548
 31
0.0
  0
INSERT
  5
4201
330
3F50
100
AcDbEntity
  8
0
 62
     7
370
    -2
100
AcDbBlockReference
  2
_OPEN
 10
2364.306474261678
 20
3647.634291744548
 30
0.0
 41
40.0
 42
40.0
 43
40.0
 50
90.0
  0
INSERT
  5
4202
330
3F50
100
AcDbEntity
  8
0
 62
     7
370
    -2
100
AcDbBlockReference
  2
_OPEN
 10
2364.306474261677
 20
2837.634291744548
 30
0.0
 41
40.0
 42
40.0
 43
40.0
 50
270.0
  0
MTEXT
  5
4203
330
3F50
100
AcDbEntity
  8
0
100
AcDbMText
 10
2310.306474261677
 20
3242.634291744549
 30
0.0
 40
60.0
 41
0.0
 71
     5
 72
     1
  1
\A1;Ｅ
  7
STYLE1
 11
6.123031769111886E-17
 21
1.0
 31
0.0
 73
     1
 44
1.0
  0
POINT
  5
4204
330
3F50
100
AcDbEntity
  8
DEFPOINTS
 62
     0
100
AcDbPoint
 10
2034.306474261677
 20
3647.634291744548
 30
0.0
  0
POINT
  5
4205
330
3F50
100
AcDbEntity
  8
DEFPOINTS
 62
     0
100
AcDbPoint
 10
2034.306474261677
 20
2837.634291744548
 30
0.0
  0
POINT
  5
4206
330
3F50
100
AcDbEntity
  8
DEFPOINTS
 62
     0
100
AcDbPoint
 10
2364.306474261677
 20
2837.634291744548
 30
0.0
  0
ENDBLK
  5
4058
330
3F50
100
AcDbEntity
  8
0
370
    -1
100
AcDbBlockEnd
  0
BLOCK
  5
4059
330
3F68
100
AcDbEntity
  8
0
370
    -1
100
AcDbBlockBegin
  2
*D8
 70
     1
 10
0.0
 20
0.0
 30
0.0
  3
*D8
  1

  0
LINE
  5
41A4
330
3F68
100
AcDbEntity
  8
0
 62
     7
370
    -2
100
AcDbLine
 10
3126.387011962259
 20
799.230583048045
 30
0.0
 11
3126.387011962259
 21
648.0982199630776
 31
0.0
  0
LINE
  5
41A5
330
3F68
100
AcDbEntity
  8
0
 62
     7
370
    -2
100
AcDbLine
 10
3996.387011962259
 20
799.230583048045
 30
0.0
 11
3996.387011962259
 21
648.0982199630776
 31
0.0
  0
LINE
  5
41A6
330
3F68
100
AcDbEntity
  8
0
 62
     7
370
    -2
100
AcDbLine
 10
3166.387011962259
 20
668.0982199630776
 30
0.0
 11
3956.387011962259
 21
668.0982199630776
 31
0.0
  0
INSERT
  5
41A7
330
3F68
100
AcDbEntity
  8
0
 62
     7
370
    -2
100
AcDbBlockReference
  2
_OPEN
 10
3126.387011962259
 20
668.0982199630776
 30
0.0
 41
40.0
 42
40.0
 43
40.0
 50
180.0
  0
INSERT
  5
41A8
330
3F68
100
AcDbEntity
  8
0
 62
     7
370
    -2
100
AcDbBlockReference
  2
_OPEN
 10
3996.387011962259
 20
668.0982199630776
 30
0.0
 41
40.0
 42
40.0
 43
40.0
  0
MTEXT
  5
41A9
330
3F68
100
AcDbEntity
  8
0
100
AcDbMText
 10
3561.387011962259
 20
722.0982199630776
 30
0.0
 40
60.0
 41
0.0
 71
     5
 72
     1
  1
\A1;630（外付時）
  7
STYLE1
 73
     1
 44
1.0
  0
POINT
  5
41AA
330
3F68
100
AcDbEntity
  8
DEFPOINTS
 62
     0
100
AcDbPoint
 10
3126.387011962259
 20
831.230583048045
 30
0.0
  0
POINT
  5
41AB
330
3F68
100
AcDbEntity
  8
DEFPOINTS
 62
     0
100
AcDbPoint
 10
3996.387011962259
 20
831.230583048045
 30
0.0
  0
POINT
  5
41AC
330
3F68
100
AcDbEntity
  8
DEFPOINTS
 62
     0
100
AcDbPoint
 10
3996.387011962259
 20
668.0982199630776
 30
0.0
  0
ENDBLK
  5
4063
330
3F68
100
AcDbEntity
  8
0
370
    -1
100
AcDbBlockEnd
  0
BLOCK
  5
4064
330
3F82
100
AcDbEntity
  8
0
370
    -1
100
AcDbBlockBegin
  2
*D9
 70
     1
 10
0.0
 20
0.0
 30
0.0
  3
*D9
  1

  0
LINE
  5
41AD
330
3F82
100
AcDbEntity
  8
0
 62
     7
370
    -2
100
AcDbLine
 10
3321.387011962259
 20
2193.230583048045
 30
0.0
 11
3321.387011962259
 21
2266.087991424645
 31
0.0
  0
LINE
  5
41AE
330
3F82
100
AcDbEntity
  8
0
 62
     7
370
    -2
100
AcDbLine
 10
3801.387011962259
 20
2193.230583048045
 30
0.0
 11
3801.387011962259
 21
2266.087991424645
 31
0.0
  0
LINE
  5
41AF
330
3F82
100
AcDbEntity
  8
0
 62
     7
370
    -2
100
AcDbLine
 10
3361.387011962259
 20
2246.087991424645
 30
0.0
 11
3761.387011962259
 21
2246.087991424645
 31
0.0
  0
INSERT
  5
41B0
330
3F82
100
AcDbEntity
  8
0
 62
     7
370
    -2
100
AcDbBlockReference
  2
_OPEN
 10
3321.387011962259
 20
2246.087991424645
 30
0.0
 41
40.0
 42
40.0
 43
40.0
 50
180.0
  0
INSERT
  5
41B1
330
3F82
100
AcDbEntity
  8
0
 62
     7
370
    -2
100
AcDbBlockReference
  2
_OPEN
 10
3801.387011962259
 20
2246.087991424645
 30
0.0
 41
40.0
 42
40.0
 43
40.0
  0
MTEXT
  5
41B2
330
3F82
100
AcDbEntity
  8
0
100
AcDbMText
 10
3561.387011962259
 20
2300.087991424645
 30
0.0
 40
60.0
 41
0.0
 71
     5
 72
     1
  1
\A1;Ｂ
  7
STYLE1
 73
     1
 44
1.0
  0
POINT
  5
41B3
330
3F82
100
AcDbEntity
  8
DEFPOINTS
 62
     0
100
AcDbPoint
 10
3321.387011962259
 20
2161.230583048045
 30
0.0
  0
POINT
  5
41B4
330
3F82
100
AcDbEntity
  8
DEFPOINTS
 62
     0
100
AcDbPoint
 10
3801.387011962259
 20
2161.230583048045
 30
0.0
  0
POINT
  5
41B5
330
3F82
100
AcDbEntity
  8
DEFPOINTS
 62
     0
100
AcDbPoint
 10
3801.387011962259
 20
2246.087991424645
 30
0.0
  0
ENDBLK
  5
406E
330
3F82
100
AcDbEntity
  8
0
370
    -1
100
AcDbBlockEnd
  0
BLOCK
  5
406F
330
3F9A
100
AcDbEntity
  8
0
370
    -1
100
AcDbBlockBegin
  2
*D10
 70
     1
 10
0.0
 20
0.0
 30
0.0
  3
*D10
  1

  0
LINE
  5
41B6
330
3F9A
100
AcDbEntity
  8
0
 62
     7
370
    -2
100
AcDbLine
 10
3166.387011962259
 20
2133.230583048045
 30
0.0
 11
3166.387011962259
 21
2357.714222266182
 31
0.0
  0
LINE
  5
41B7
330
3F9A
100
AcDbEntity
  8
0
 62
     7
370
    -2
100
AcDbLine
 10
3956.387011962259
 20
2133.230583048045
 30
0.0
 11
3956.387011962259
 21
2357.714222266182
 31
0.0
  0
LINE
  5
41B8
330
3F9A
100
AcDbEntity
  8
0
 62
     7
370
    -2
100
AcDbLine
 10
3206.387011962259
 20
2337.714222266182
 30
0.0
 11
3916.387011962259
 21
2337.714222266182
 31
0.0
  0
INSERT
  5
41B9
330
3F9A
100
AcDbEntity
  8
0
 62
     7
370
    -2
100
AcDbBlockReference
  2
_OPEN
 10
3166.387011962259
 20
2337.714222266182
 30
0.0
 41
40.0
 42
40.0
 43
40.0
 50
180.0
  0
INSERT
  5
41BA
330
3F9A
100
AcDbEntity
  8
0
 62
     7
370
    -2
100
AcDbBlockReference
  2
_OPEN
 10
3956.387011962259
 20
2337.714222266182
 30
0.0
 41
40.0
 42
40.0
 43
40.0
  0
MTEXT
  5
41BB
330
3F9A
100
AcDbEntity
  8
0
100
AcDbMText
 10
3561.387011962259
 20
2391.714222266182
 30
0.0
 40
60.0
 41
0.0
 71
     5
 72
     1
  1
\A1;570
  7
STYLE1
 73
     1
 44
1.0
  0
POINT
  5
41BC
330
3F9A
100
AcDbEntity
  8
DEFPOINTS
 62
     0
100
AcDbPoint
 10
3166.387011962259
 20
2101.230583048045
 30
0.0
  0
POINT
  5
41BD
330
3F9A
100
AcDbEntity
  8
DEFPOINTS
 62
     0
100
AcDbPoint
 10
3956.387011962259
 20
2101.230583048045
 30
0.0
  0
POINT
  5
41BE
330
3F9A
100
AcDbEntity
  8
DEFPOINTS
 62
     0
100
AcDbPoint
 10
3956.387011962259
 20
2337.714222266182
 30
0.0
  0
ENDBLK
  5
4079
330
3F9A
100
AcDbEntity
  8
0
370
    -1
100
AcDbBlockEnd
  0
BLOCK
  5
407A
330
3FB2
100
AcDbEntity
  8
0
370
    -1
100
AcDbBlockBegin
  2
*D11
 70
     1
 10
0.0
 20
0.0
 30
0.0
  3
*D11
  1

  0
LINE
  5
41BF
330
3FB2
100
AcDbEntity
  8
0
 62
     7
370
    -2
100
AcDbLine
 10
3091.387011962259
 20
2173.230583048045
 30
0.0
 11
3091.387011962259
 21
2457.7915049813
 31
0.0
  0
LINE
  5
41C0
330
3FB2
100
AcDbEntity
  8
0
 62
     7
370
    -2
100
AcDbLine
 10
4031.387011962259
 20
2173.230583048045
 30
0.0
 11
4031.387011962259
 21
2457.7915049813
 31
0.0
  0
LINE
  5
41C1
330
3FB2
100
AcDbEntity
  8
0
 62
     7
370
    -2
100
AcDbLine
 10
3131.387011962259
 20
2437.7915049813
 30
0.0
 11
3991.387011962259
 21
2437.7915049813
 31
0.0
  0
INSERT
  5
41C2
330
3FB2
100
AcDbEntity
  8
0
 62
     7
370
    -2
100
AcDbBlockReference
  2
_OPEN
 10
3091.387011962259
 20
2437.7915049813
 30
0.0
 41
40.0
 42
40.0
 43
40.0
 50
180.0
  0
INSERT
  5
41C3
330
3FB2
100
AcDbEntity
  8
0
 62
     7
370
    -2
100
AcDbBlockReference
  2
_OPEN
 10
4031.387011962259
 20
2437.7915049813
 30
0.0
 41
40.0
 42
40.0
 43
40.0
  0
MTEXT
  5
41C4
330
3FB2
100
AcDbEntity
  8
0
100
AcDbMText
 10
3561.387011962259
 20
2491.7915049813
 30
0.0
 40
60.0
 41
0.0
 71
     5
 72
     1
  1
\A1;Ｄ
  7
STYLE1
 73
     1
 44
1.0
  0
POINT
  5
41C5
330
3FB2
100
AcDbEntity
  8
DEFPOINTS
 62
     0
100
AcDbPoint
 10
3091.387011962259
 20
2141.230583048045
 30
0.0
  0
POINT
  5
41C6
330
3FB2
100
AcDbEntity
  8
DEFPOINTS
 62
     0
100
AcDbPoint
 10
4031.387011962259
 20
2141.230583048045
 30
0.0
  0
POINT
  5
41C7
330
3FB2
100
AcDbEntity
  8
DEFPOINTS
 62
     0
100
AcDbPoint
 10
4031.387011962259
 20
2437.7915049813
 30
0.0
  0
ENDBLK
  5
4084
330
3FB2
100
AcDbEntity
  8
0
370
    -1
100
AcDbBlockEnd
  0
BLOCK
  5
4085
330
3FCA
100
AcDbEntity
  8
0
370
    -1
100
AcDbBlockBegin
  2
*D12
 70
     1
 10
0.0
 20
0.0
 30
0.0
  3
*D12
  1

  0
LINE
  5
4086
330
3FCA
100
AcDbEntity
  8
0
  6
ByBlock
 62
     7
370
    -1
100
AcDbLine
 10
5276.701384382726
 20
3564.999995102094
 30
0.0
 11
5159.780498547047
 21
3564.999995102094
 31
0.0
  0
LINE
  5
4087
330
3FCA
100
AcDbEntity
  8
0
  6
ByBlock
 62
     7
370
    -1
100
AcDbLine
 10
5276.701384382726
 20
3284.999995102094
 30
0.0
 11
5159.780498547047
 21
3284.999995102094
 31
0.0
  0
LINE
  5
4088
330
3FCA
100
AcDbEntity
  8
0
  6
ByBlock
 62
     7
370
    -1
100
AcDbLine
 10
5179.780498547047
 20
3524.999995102094
 30
0.0
 11
5179.780498547047
 21
3324.999995102094
 31
0.0
  0
INSERT
  5
4089
330
3FCA
100
AcDbEntity
  8
0
  6
ByBlock
 62
     7
370
    -1
100
AcDbBlockReference
  2
_OPEN
 10
5179.780498547047
 20
3564.999995102094
 30
0.0
 41
40.0
 42
40.0
 43
40.0
 50
90.0
  0
INSERT
  5
408A
330
3FCA
100
AcDbEntity
  8
0
  6
ByBlock
 62
     7
370
    -1
100
AcDbBlockReference
  2
_OPEN
 10
5179.780498547047
 20
3284.999995102094
 30
0.0
 41
40.0
 42
40.0
 43
40.0
 50
270.0
  0
MTEXT
  5
408B
330
3FCA
100
AcDbEntity
  8
0
  6
ByBlock
100
AcDbMText
 10
5125.780498547047
 20
3424.999995102094
 30
0.0
 40
60.0
 41
0.0
 71
     5
 72
     1
  1
\A1;Ｅ
  7
STYLE1
 11
6.123031769111886E-17
 21
1.0
 31
0.0
 73
     1
 44
1.0
  0
POINT
  5
408C
330
3FCA
100
AcDbEntity
  8
DEFPOINTS
  6
ByBlock
 62
     0
370
    -1
100
AcDbPoint
 10
5308.701384382726
 20
3564.999995102094
 30
0.0
  0
POINT
  5
408D
330
3FCA
100
AcDbEntity
  8
DEFPOINTS
  6
ByBlock
 62
     0
370
    -1
100
AcDbPoint
 10
5308.701384382726
 20
3284.999995102094
 30
0.0
  0
POINT
  5
408E
330
3FCA
100
AcDbEntity
  8
DEFPOINTS
  6
ByBlock
 62
     0
370
    -1
100
AcDbPoint
 10
5179.780498547047
 20
3284.999995102094
 30
0.0
  0
ENDBLK
  5
408F
330
3FCA
100
AcDbEntity
  8
0
370
    -1
100
AcDbBlockEnd
  0
BLOCK
  5
4090
330
3FE2
100
AcDbEntity
  8
0
370
    -1
100
AcDbBlockBegin
  2
*D13
 70
     1
 10
0.0
 20
0.0
 30
0.0
  3
*D13
  1

  0
LINE
  5
4091
330
3FE2
100
AcDbEntity
  8
0
  6
ByBlock
 62
     7
370
    -1
100
AcDbLine
 10
4766.396081124563
 20
3252.999995102094
 30
0.0
 11
4766.396081124563
 21
3011.032885974014
 31
0.0
  0
LINE
  5
4092
330
3FE2
100
AcDbEntity
  8
0
  6
ByBlock
 62
     7
370
    -1
100
AcDbLine
 10
5308.701384382726
 20
3252.999995102094
 30
0.0
 11
5308.701384382726
 21
3011.032885974014
 31
0.0
  0
LINE
  5
4093
330
3FE2
100
AcDbEntity
  8
0
  6
ByBlock
 62
     7
370
    -1
100
AcDbLine
 10
4806.396081124563
 20
3031.032885974014
 30
0.0
 11
5268.701384382726
 21
3031.032885974014
 31
0.0
  0
INSERT
  5
4094
330
3FE2
100
AcDbEntity
  8
0
  6
ByBlock
 62
     7
370
    -1
100
AcDbBlockReference
  2
_OPEN
 10
4766.396081124563
 20
3031.032885974014
 30
0.0
 41
40.0
 42
40.0
 43
40.0
 50
180.0
  0
INSERT
  5
4095
330
3FE2
100
AcDbEntity
  8
0
  6
ByBlock
 62
     7
370
    -1
100
AcDbBlockReference
  2
_OPEN
 10
5308.701384382726
 20
3031.032885974014
 30
0.0
 41
40.0
 42
40.0
 43
40.0
  0
MTEXT
  5
4096
330
3FE2
100
AcDbEntity
  8
0
  6
ByBlock
100
AcDbMText
 10
5037.548732753645
 20
3085.032885974014
 30
0.0
 40
60.0
 41
0.0
 71
     5
 72
     1
  1
\A1;Ｃ
  7
STYLE1
 73
     1
 44
1.0
  0
POINT
  5
4097
330
3FE2
100
AcDbEntity
  8
DEFPOINTS
  6
ByBlock
 62
     0
370
    -1
100
AcDbPoint
 10
4766.396081124563
 20
3284.999995102094
 30
0.0
  0
POINT
  5
4098
330
3FE2
100
AcDbEntity
  8
DEFPOINTS
  6
ByBlock
 62
     0
370
    -1
100
AcDbPoint
 10
5308.701384382726
 20
3284.999995102094
 30
0.0
  0
POINT
  5
4099
330
3FE2
100
AcDbEntity
  8
DEFPOINTS
  6
ByBlock
 62
     0
370
    -1
100
AcDbPoint
 10
5308.701384382726
 20
3031.032885974014
 30
0.0
  0
ENDBLK
  5
409A
330
3FE2
100
AcDbEntity
  8
0
370
    -1
100
AcDbBlockEnd
  0
ENDSEC
  0
SECTION
  2
ENTITIES
  0
MTEXT
  5
CF
330
18
100
AcDbEntity
  8
0
 62
     0
100
AcDbMText
 10
858.0351123368276
 20
732.0082556994854
 30
0.0
 40
13.125
 41
0.0
 71
     6
 72
     5
  1
\A1;
  7
STYLE1
 73
     1
 44
1.0
  0
LINE
  5
3996
330
18
100
AcDbEntity
  8
0
 62
     0
 48
6.0
370
    -1
100
AcDbLine
 10
1684.306474261677
 20
2827.634291744548
 30
0.0
 11
964.3064742616771
 21
2827.634291744548
 31
0.0
  0
LINE
  5
3997
330
18
100
AcDbEntity
  8
0
 62
     0
 48
6.0
370
    -1
100
AcDbLine
 10
964.3064742616771
 20
3657.634291744548
 30
0.0
 11
1684.306474261677
 21
3657.634291744548
 31
0.0
  0
LINE
  5
3998
330
18
100
AcDbEntity
  8
0
 62
     0
 48
6.0
370
    -1
100
AcDbLine
 10
1684.306474261677
 20
3627.634291744548
 30
0.0
 11
964.3064742616771
 21
3627.634291744548
 31
0.0
  0
LINE
  5
3999
330
18
100
AcDbEntity
  8
0
 62
     0
 48
6.0
370
    -1
100
AcDbLine
 10
964.3064742616771
 20
2857.634291744548
 30
0.0
 11
1684.306474261677
 21
2857.634291744548
 31
0.0
  0
LINE
  5
399A
330
18
100
AcDbEntity
  8
0
 62
     0
 48
6.0
370
    -1
100
AcDbLine
 10
1684.306474261677
 20
3547.634291744548
 30
0.0
 11
964.3064742616771
 21
3547.634291744548
 31
0.0
  0
LINE
  5
399B
330
18
100
AcDbEntity
  8
0
 62
     0
 48
6.0
370
    -1
100
AcDbLine
 10
1684.306474261677
 20
2937.634291744548
 30
0.0
 11
964.3064742616771
 21
2937.634291744548
 31
0.0
  0
LINE
  5
39AB
330
18
100
AcDbEntity
  8
0
  6
CENTER
 62
     0
 48
6.0
370
    -1
100
AcDbLine
 10
914.3064742616771
 20
2727.634291744548
 30
0.0
 11
914.3064742616771
 21
3757.634291744548
 31
0.0
  0
LINE
  5
39AC
330
18
100
AcDbEntity
  8
0
 62
     0
 48
6.0
370
    -1
100
AcDbLine
 10
734.3064742616771
 20
2937.634291744548
 30
0.0
 11
734.3064742616771
 21
3537.634291744548
 31
0.0
  0
LINE
  5
39AD
330
18
100
AcDbEntity
  8
0
 62
     0
 48
6.0
370
    -1
100
AcDbLine
 10
964.3064742616771
 20
3647.634291744548
 30
0.0
 11
964.3064742616771
 21
2837.634291744548
 31
0.0
  0
LINE
  5
39AE
330
18
100
AcDbEntity
  8
0
 62
     0
 48
6.0
370
    -1
100
AcDbLine
 10
864.3064742616771
 20
3647.634291744548
 30
0.0
 11
864.3064742616771
 21
2837.634291744548
 31
0.0
  0
LINE
  5
39AF
330
18
100
AcDbEntity
  8
0
 62
     0
 48
6.0
370
    -1
100
AcDbLine
 10
654.3064742616771
 20
2947.634291744548
 30
0.0
 11
654.3064742616771
 21
3627.634291744548
 31
0.0
  0
LINE
  5
39B0
330
18
100
AcDbEntity
  8
0
 62
     0
 48
6.0
370
    -1
100
AcDbLine
 10
734.3064742616771
 20
2937.634291744548
 30
0.0
 11
734.3064742616771
 21
2857.634291744548
 31
0.0
  0
LINE
  5
39B1
330
18
100
AcDbEntity
  8
0
 62
     0
 48
6.0
370
    -1
100
AcDbLine
 10
614.3064742616771
 20
2927.634291744548
 30
0.0
 11
614.3064742616771
 21
2837.634291744548
 31
0.0
  0
LINE
  5
39B2
330
18
100
AcDbEntity
  8
0
 62
     0
 48
6.0
370
    -1
100
AcDbLine
 10
654.3064742616771
 20
2967.634291744548
 30
0.0
 11
654.3064742616771
 21
2857.634291744548
 31
0.0
  0
LINE
  5
39B3
330
18
100
AcDbEntity
  8
0
 62
     0
 48
6.0
370
    -1
100
AcDbLine
 10
864.3064742616771
 20
2827.634291744548
 30
0.0
 11
734.3064742616771
 21
2827.634291744548
 31
0.0
  0
LINE
  5
39B4
330
18
100
AcDbEntity
  8
0
 62
     0
 48
6.0
370
    -1
100
AcDbLine
 10
654.3064742616771
 20
2857.634291744548
 30
0.0
 11
864.3064742616771
 21
2857.634291744548
 31
0.0
  0
LINE
  5
39B5
330
18
100
AcDbEntity
  8
0
 62
     0
 48
6.0
370
    -1
100
AcDbLine
 10
634.3064742616771
 20
2817.634291744548
 30
0.0
 11
724.3064742616771
 21
2817.634291744548
 31
0.0
  0
LINE
  5
39B6
330
18
100
AcDbEntity
  8
0
  6
CENTER
 62
     0
 48
6.0
370
    -1
100
AcDbLine
 10
634.3064742616771
 20
2857.634291744548
 30
0.0
 11
634.3064742616771
 21
2817.634291744548
 31
0.0
  0
LINE
  5
39B7
330
18
100
AcDbEntity
  8
0
  6
CENTER
 62
     0
 48
6.0
370
    -1
100
AcDbLine
 10
614.3064742616771
 20
2837.634291744548
 30
0.0
 11
654.3064742616771
 21
2837.634291744548
 31
0.0
  0
CIRCLE
  5
39B8
330
18
100
AcDbEntity
  8
0
  6
ByBlock
 62
     0
 48
6.0
370
    -1
100
AcDbCircle
 10
634.3064742616771
 20
2837.634291744548
 30
0.0
 40
10.0
  0
LINE
  5
39B9
330
18
100
AcDbEntity
  8
0
 62
     0
 48
6.0
370
    -1
100
AcDbLine
 10
614.3064742616771
 20
2837.634291744548
 30
0.0
 11
634.3064742616771
 21
2817.634291744548
 31
0.0
  0
LINE
  5
39BA
330
18
100
AcDbEntity
  8
0
 62
     0
 48
6.0
370
    -1
100
AcDbLine
 10
744.3064742616771
 20
2837.634291744548
 30
0.0
 11
744.3064742616771
 21
2857.634291744548
 31
0.0
  0
LINE
  5
39BB
330
18
100
AcDbEntity
  8
0
 62
     0
 48
6.0
370
    -1
100
AcDbLine
 10
724.3064742616771
 20
2817.634291744548
 30
0.0
 11
744.3064742616771
 21
2837.634291744548
 31
0.0
  0
LINE
  5
39BC
330
18
100
AcDbEntity
  8
0
 62
     0
 48
6.0
370
    -1
100
AcDbLine
 10
864.3064742616771
 20
2772.634291744548
 30
0.0
 11
964.3064742616771
 21
2772.634291744548
 31
0.0
  0
LINE
  5
39BD
330
18
100
AcDbEntity
  8
0
 62
     0
 48
6.0
370
    -1
100
AcDbLine
 10
864.3064742616771
 20
2837.634291744548
 30
0.0
 11
864.3064742616771
 21
2787.634291744548
 31
0.0
  0
LINE
  5
39BE
330
18
100
AcDbEntity
  8
0
 62
     0
 48
6.0
370
    -1
100
AcDbLine
 10
864.3064742616771
 20
2772.634291744548
 30
0.0
 11
864.3064742616771
 21
2787.634291744548
 31
0.0
  0
CIRCLE
  5
39BF
330
18
100
AcDbEntity
  8
0
 62
     0
 48
6.0
370
    -1
100
AcDbCircle
 10
914.3064742616771
 20
2812.634291744548
 30
0.0
 40
5.0
  0
LINE
  5
39C0
330
18
100
AcDbEntity
  8
0
 62
     0
 48
6.0
370
    -1
100
AcDbLine
 10
964.3064742616771
 20
2787.634291744548
 30
0.0
 11
964.3064742616771
 21
2847.634291744548
 31
0.0
  0
LINE
  5
39C1
330
18
100
AcDbEntity
  8
0
  6
CENTER
 62
     0
 48
6.0
370
    -1
100
AcDbLine
 10
904.3064742616771
 20
2812.634291744548
 30
0.0
 11
924.3064742616771
 21
2812.634291744548
 31
0.0
  0
LINE
  5
39C2
330
18
100
AcDbEntity
  8
0
 62
     0
 48
6.0
370
    -1
100
AcDbLine
 10
964.3064742616771
 20
2772.634291744548
 30
0.0
 11
964.3064742616771
 21
2787.634291744548
 31
0.0
  0
LINE
  5
39C3
330
18
100
AcDbEntity
  8
0
  6
CENTER
 62
     0
 48
6.0
370
    -1
100
AcDbLine
 10
904.3064742616771
 20
2867.634291744548
 30
0.0
 11
924.3064742616771
 21
2867.634291744548
 31
0.0
  0
CIRCLE
  5
39C4
330
18
100
AcDbEntity
  8
0
 62
     0
 48
6.0
370
    -1
100
AcDbCircle
 10
914.3064742616771
 20
2867.634291744548
 30
0.0
 40
5.0
  0
LINE
  5
39C5
330
18
100
AcDbEntity
  8
0
 62
     0
 48
6.0
370
    -1
100
AcDbLine
 10
864.3064742616771
 20
2937.634291744548
 30
0.0
 11
734.3064742616771
 21
2937.634291744548
 31
0.0
  0
LINE
  5
39C6
330
18
100
AcDbEntity
  8
0
 62
     0
 48
6.0
370
    -1
100
AcDbLine
 10
654.3064742616771
 20
2937.634291744548
 30
0.0
 11
734.3064742616771
 21
2937.634291744548
 31
0.0
  0
LINE
  5
39C7
330
18
100
AcDbEntity
  8
0
 62
     0
 48
6.0
370
    -1
100
AcDbLine
 10
634.3064742616771
 20
2947.634291744548
 30
0.0
 11
614.3064742616771
 21
2927.634291744548
 31
0.0
  0
LINE
  5
39C8
330
18
100
AcDbEntity
  8
0
 62
     0
 48
6.0
370
    -1
100
AcDbLine
 10
654.3064742616771
 20
2947.634291744548
 30
0.0
 11
634.3064742616771
 21
2947.634291744548
 31
0.0
  0
LINE
  5
39C9
330
18
100
AcDbEntity
  8
0
 62
     0
 48
6.0
370
    -1
100
AcDbLine
 10
909.3064742616771
 20
3047.634291744548
 30
0.0
 11
909.3064742616771
 21
3067.634291744548
 31
0.0
  0
LINE
  5
39CA
330
18
100
AcDbEntity
  8
0
 62
     0
 48
6.0
370
    -1
100
AcDbLine
 10
919.3064742616771
 20
3047.634291744548
 30
0.0
 11
919.3064742616771
 21
3067.634291744548
 31
0.0
  0
LINE
  5
39CB
330
18
100
AcDbEntity
  8
0
 62
     0
 48
6.0
370
    -1
100
AcDbLine
 10
874.3064742616771
 20
3047.634291744548
 30
0.0
 11
954.3064742616771
 21
3047.634291744548
 31
0.0
  0
LINE
  5
39CC
330
18
100
AcDbEntity
  8
0
 62
     0
 48
6.0
370
    -1
100
AcDbLine
 10
954.3064742616771
 20
2947.634291744548
 30
0.0
 11
874.3064742616771
 21
2947.634291744548
 31
0.0
  0
LINE
  5
39CD
330
18
100
AcDbEntity
  8
0
 62
     0
 48
6.0
370
    -1
100
AcDbLine
 10
874.3064742616771
 20
2947.634291744548
 30
0.0
 11
874.3064742616771
 21
3047.634291744548
 31
0.0
  0
LINE
  5
39CE
330
18
100
AcDbEntity
  8
0
 62
     0
 48
6.0
370
    -1
100
AcDbLine
 10
884.3064742616771
 20
2947.634291744548
 30
0.0
 11
884.3064742616771
 21
3047.634291744548
 31
0.0
  0
LINE
  5
39CF
330
18
100
AcDbEntity
  8
0
 62
     0
 48
6.0
370
    -1
100
AcDbLine
 10
909.3064742616771
 20
2977.634291744548
 30
0.0
 11
909.3064742616771
 21
2972.634291744548
 31
0.0
  0
LINE
  5
39D0
330
18
100
AcDbEntity
  8
0
 62
     0
 48
6.0
370
    -1
100
AcDbLine
 10
919.3064742616771
 20
2977.634291744548
 30
0.0
 11
919.3064742616771
 21
2972.634291744548
 31
0.0
  0
LINE
  5
39D1
330
18
100
AcDbEntity
  8
0
 62
     0
 48
6.0
370
    -1
100
AcDbLine
 10
894.3064742616771
 20
2947.634291744548
 30
0.0
 11
894.3064742616771
 21
3047.634291744548
 31
0.0
  0
LINE
  5
39D2
330
18
100
AcDbEntity
  8
0
 62
     0
 48
6.0
370
    -1
100
AcDbLine
 10
904.3064742616771
 20
2947.634291744548
 30
0.0
 11
904.3064742616771
 21
3047.634291744548
 31
0.0
  0
LINE
  5
39D3
330
18
100
AcDbEntity
  8
0
 62
     0
 48
6.0
370
    -1
100
AcDbLine
 10
944.3064742616771
 20
2947.634291744548
 30
0.0
 11
944.3064742616771
 21
3047.634291744548
 31
0.0
  0
LINE
  5
39D4
330
18
100
AcDbEntity
  8
0
 62
     0
 48
6.0
370
    -1
100
AcDbLine
 10
924.3064742616771
 20
2947.634291744548
 30
0.0
 11
924.3064742616771
 21
3047.634291744548
 31
0.0
  0
LINE
  5
39D5
330
18
100
AcDbEntity
  8
0
 62
     0
 48
6.0
370
    -1
100
AcDbLine
 10
924.3064742616771
 20
3047.634291744548
 30
0.0
 11
924.3064742616771
 21
2947.634291744548
 31
0.0
  0
LINE
  5
39D6
330
18
100
AcDbEntity
  8
0
 62
     0
 48
6.0
370
    -1
100
AcDbLine
 10
934.3064742616771
 20
2947.634291744548
 30
0.0
 11
934.3064742616771
 21
3047.634291744548
 31
0.0
  0
LINE
  5
39D7
330
18
100
AcDbEntity
  8
0
 62
     0
 48
6.0
370
    -1
100
AcDbLine
 10
954.3064742616771
 20
3047.634291744548
 30
0.0
 11
954.3064742616771
 21
2947.634291744548
 31
0.0
  0
ARC
  5
39D8
330
18
100
AcDbEntity
  8
0
 62
     0
 48
6.0
370
    -1
100
AcDbCircle
 10
914.3064742616771
 20
2972.634291744548
 30
0.0
 40
5.0
100
AcDbArc
 50
180.0
 51
0.0
  0
LINE
  5
39D9
330
18
100
AcDbEntity
  8
0
 62
     0
 48
6.0
370
    -1
100
AcDbLine
 10
914.3064742616771
 20
2947.634291744548
 30
0.0
 11
914.3064742616771
 21
2967.634291744548
 31
0.0
  0
LINE
  5
39DA
330
18
100
AcDbEntity
  8
0
 62
     0
 48
6.0
370
    -1
100
AcDbLine
 10
924.3064742616771
 20
2947.634291744548
 30
0.0
 11
924.3064742616771
 21
2962.634291744548
 31
0.0
  0
LINE
  5
39DB
330
18
100
AcDbEntity
  8
0
 62
     0
 48
6.0
370
    -1
100
AcDbLine
 10
914.3064742616771
 20
3027.634291744548
 30
0.0
 11
914.3064742616771
 21
3047.634291744548
 31
0.0
  0
LINE
  5
39DC
330
18
100
AcDbEntity
  8
0
 62
     0
 48
6.0
370
    -1
100
AcDbLine
 10
919.3064742616771
 20
3017.634291744548
 30
0.0
 11
919.3064742616771
 21
3022.634291744548
 31
0.0
  0
ARC
  5
39DD
330
18
100
AcDbEntity
  8
0
 62
     0
 48
6.0
370
    -1
100
AcDbCircle
 10
914.3064742616771
 20
3022.634291744548
 30
0.0
 40
5.0
100
AcDbArc
 50
0.0
 51
180.0
  0
LINE
  5
39DE
330
18
100
AcDbEntity
  8
0
 62
     0
 48
6.0
370
    -1
100
AcDbLine
 10
909.3064742616771
 20
3017.634291744548
 30
0.0
 11
909.3064742616771
 21
3022.634291744548
 31
0.0
  0
LINE
  5
39DF
330
18
100
AcDbEntity
  8
0
 62
     0
 48
6.0
370
    -1
100
AcDbLine
 10
909.3064742616771
 20
2977.634291744548
 30
0.0
 11
909.3064742616771
 21
3017.634291744548
 31
0.0
  0
LINE
  5
39E0
330
18
100
AcDbEntity
  8
0
 62
     0
 48
6.0
370
    -1
100
AcDbLine
 10
919.3064742616771
 20
3017.634291744548
 30
0.0
 11
919.3064742616771
 21
2977.634291744548
 31
0.0
  0
LINE
  5
39E1
330
18
100
AcDbEntity
  8
0
 62
     0
 48
6.0
370
    -1
100
AcDbLine
 10
909.3064742616771
 20
3067.634291744548
 30
0.0
 11
909.3064742616771
 21
3072.634291744548
 31
0.0
  0
ARC
  5
39E2
330
18
100
AcDbEntity
  8
0
 62
     0
 48
6.0
370
    -1
100
AcDbCircle
 10
914.3064742616771
 20
3072.634291744548
 30
0.0
 40
5.0
100
AcDbArc
 50
0.0
 51
180.0
  0
LINE
  5
39E3
330
18
100
AcDbEntity
  8
0
 62
     0
 48
6.0
370
    -1
100
AcDbLine
 10
919.3064742616771
 20
3067.634291744548
 30
0.0
 11
919.3064742616771
 21
3072.634291744548
 31
0.0
  0
LINE
  5
39E4
330
18
100
AcDbEntity
  8
0
 62
     0
 48
6.0
370
    -1
100
AcDbLine
 10
614.3064742616771
 20
3557.634291744548
 30
0.0
 11
634.3064742616771
 21
3537.634291744548
 31
0.0
  0
LINE
  5
39E5
330
18
100
AcDbEntity
  8
0
 62
     0
 48
6.0
370
    -1
100
AcDbLine
 10
734.3064742616771
 20
3547.634291744548
 30
0.0
 11
734.3064742616771
 21
3537.634291744548
 31
0.0
  0
LINE
  5
39E6
330
18
100
AcDbEntity
  8
0
 62
     0
 48
6.0
370
    -1
100
AcDbLine
 10
634.3064742616771
 20
3537.634291744548
 30
0.0
 11
654.3064742616771
 21
3537.634291744548
 31
0.0
  0
LINE
  5
39E7
330
18
100
AcDbEntity
  8
0
 62
     0
 48
6.0
370
    -1
100
AcDbLine
 10
874.3064742616771
 20
3537.634291744548
 30
0.0
 11
954.3064742616771
 21
3537.634291744548
 31
0.0
  0
LINE
  5
39E8
330
18
100
AcDbEntity
  8
0
 62
     0
 48
6.0
370
    -1
100
AcDbLine
 10
954.3064742616771
 20
3437.634291744548
 30
0.0
 11
874.3064742616771
 21
3437.634291744548
 31
0.0
  0
LINE
  5
39E9
330
18
100
AcDbEntity
  8
0
 62
     0
 48
6.0
370
    -1
100
AcDbLine
 10
874.3064742616771
 20
3437.634291744548
 30
0.0
 11
874.3064742616771
 21
3537.634291744548
 31
0.0
  0
LINE
  5
39EA
330
18
100
AcDbEntity
  8
0
 62
     0
 48
6.0
370
    -1
100
AcDbLine
 10
884.3064742616771
 20
3537.634291744548
 30
0.0
 11
884.3064742616771
 21
3437.634291744548
 31
0.0
  0
LINE
  5
39EB
330
18
100
AcDbEntity
  8
0
 62
     0
 48
6.0
370
    -1
100
AcDbLine
 10
919.3064742616771
 20
3467.634291744548
 30
0.0
 11
919.3064742616771
 21
3462.634291744548
 31
0.0
  0
LINE
  5
39EC
330
18
100
AcDbEntity
  8
0
 62
     0
 48
6.0
370
    -1
100
AcDbLine
 10
909.3064742616771
 20
3467.634291744548
 30
0.0
 11
909.3064742616771
 21
3462.634291744548
 31
0.0
  0
LINE
  5
39ED
330
18
100
AcDbEntity
  8
0
 62
     0
 48
6.0
370
    -1
100
AcDbLine
 10
894.3064742616771
 20
3537.634291744548
 30
0.0
 11
894.3064742616771
 21
3437.634291744548
 31
0.0
  0
LINE
  5
39EE
330
18
100
AcDbEntity
  8
0
 62
     0
 48
6.0
370
    -1
100
AcDbLine
 10
904.3064742616771
 20
3437.634291744548
 30
0.0
 11
904.3064742616771
 21
3537.634291744548
 31
0.0
  0
LINE
  5
39EF
330
18
100
AcDbEntity
  8
0
 62
     0
 48
6.0
370
    -1
100
AcDbLine
 10
904.3064742616771
 20
3537.634291744548
 30
0.0
 11
904.3064742616771
 21
3437.634291744548
 31
0.0
  0
LINE
  5
39F0
330
18
100
AcDbEntity
  8
0
 62
     0
 48
6.0
370
    -1
100
AcDbLine
 10
924.3064742616771
 20
3537.634291744548
 30
0.0
 11
924.3064742616771
 21
3437.634291744548
 31
0.0
  0
LINE
  5
39F1
330
18
100
AcDbEntity
  8
0
 62
     0
 48
6.0
370
    -1
100
AcDbLine
 10
934.3064742616771
 20
3537.634291744548
 30
0.0
 11
934.3064742616771
 21
3437.634291744548
 31
0.0
  0
LINE
  5
39F2
330
18
100
AcDbEntity
  8
0
 62
     0
 48
6.0
370
    -1
100
AcDbLine
 10
944.3064742616771
 20
3537.634291744548
 30
0.0
 11
944.3064742616771
 21
3437.634291744548
 31
0.0
  0
LINE
  5
39F3
330
18
100
AcDbEntity
  8
0
 62
     0
 48
6.0
370
    -1
100
AcDbLine
 10
954.3064742616771
 20
3537.634291744548
 30
0.0
 11
954.3064742616771
 21
3437.634291744548
 31
0.0
  0
ARC
  5
39F4
330
18
100
AcDbEntity
  8
0
 62
     0
 48
6.0
370
    -1
100
AcDbCircle
 10
914.3064742616771
 20
3462.634291744548
 30
0.0
 40
5.0
100
AcDbArc
 50
180.0
 51
0.0
  0
LINE
  5
39F5
330
18
100
AcDbEntity
  8
0
 62
     0
 48
6.0
370
    -1
100
AcDbLine
 10
909.3064742616771
 20
3417.634291744548
 30
0.0
 11
909.3064742616771
 21
3412.634291744548
 31
0.0
  0
LINE
  5
39F6
330
18
100
AcDbEntity
  8
0
 62
     0
 48
6.0
370
    -1
100
AcDbLine
 10
909.3064742616771
 20
3437.634291744548
 30
0.0
 11
909.3064742616771
 21
3417.634291744548
 31
0.0
  0
LINE
  5
39F7
330
18
100
AcDbEntity
  8
0
 62
     0
 48
6.0
370
    -1
100
AcDbLine
 10
919.3064742616771
 20
3437.634291744548
 30
0.0
 11
919.3064742616771
 21
3417.634291744548
 31
0.0
  0
ARC
  5
39F8
330
18
100
AcDbEntity
  8
0
 62
     0
 48
6.0
370
    -1
100
AcDbCircle
 10
914.3064742616771
 20
3412.634291744548
 30
0.0
 40
5.0
100
AcDbArc
 50
180.0
 51
0.0
  0
LINE
  5
39F9
330
18
100
AcDbEntity
  8
0
 62
     0
 48
6.0
370
    -1
100
AcDbLine
 10
919.3064742616771
 20
3417.634291744548
 30
0.0
 11
919.3064742616771
 21
3412.634291744548
 31
0.0
  0
LINE
  5
39FA
330
18
100
AcDbEntity
  8
0
 62
     0
 48
6.0
370
    -1
100
AcDbLine
 10
914.3064742616771
 20
3457.634291744548
 30
0.0
 11
914.3064742616771
 21
3437.634291744548
 31
0.0
  0
LINE
  5
39FB
330
18
100
AcDbEntity
  8
0
 62
     0
 48
6.0
370
    -1
100
AcDbLine
 10
909.3064742616771
 20
3467.634291744548
 30
0.0
 11
909.3064742616771
 21
3507.634291744548
 31
0.0
  0
LINE
  5
39FC
330
18
100
AcDbEntity
  8
0
 62
     0
 48
6.0
370
    -1
100
AcDbLine
 10
919.3064742616771
 20
3507.634291744548
 30
0.0
 11
919.3064742616771
 21
3467.634291744548
 31
0.0
  0
ARC
  5
39FD
330
18
100
AcDbEntity
  8
0
 62
     0
 48
6.0
370
    -1
100
AcDbCircle
 10
914.3064742616771
 20
3512.634291744548
 30
0.0
 40
5.0
100
AcDbArc
 50
0.0
 51
180.0
  0
LINE
  5
39FE
330
18
100
AcDbEntity
  8
0
 62
     0
 48
6.0
370
    -1
100
AcDbLine
 10
909.3064742616771
 20
3507.634291744548
 30
0.0
 11
909.3064742616771
 21
3512.634291744548
 31
0.0
  0
LINE
  5
39FF
330
18
100
AcDbEntity
  8
0
 62
     0
 48
6.0
370
    -1
100
AcDbLine
 10
919.3064742616771
 20
3507.634291744548
 30
0.0
 11
919.3064742616771
 21
3512.634291744548
 31
0.0
  0
LINE
  5
3A00
330
18
100
AcDbEntity
  8
0
 62
     0
 48
6.0
370
    -1
100
AcDbLine
 10
904.3064742616771
 20
3537.634291744548
 30
0.0
 11
904.3064742616771
 21
3522.634291744548
 31
0.0
  0
LINE
  5
3A01
330
18
100
AcDbEntity
  8
0
 62
     0
 48
6.0
370
    -1
100
AcDbLine
 10
914.3064742616771
 20
3537.634291744548
 30
0.0
 11
914.3064742616771
 21
3517.634291744548
 31
0.0
  0
LINE
  5
3A02
330
18
100
AcDbEntity
  8
0
 62
     0
 48
6.0
370
    -1
100
AcDbLine
 10
734.3064742616771
 20
3657.634291744548
 30
0.0
 11
864.3064742616771
 21
3657.634291744548
 31
0.0
  0
LINE
  5
3A03
330
18
100
AcDbEntity
  8
0
 62
     0
 48
6.0
370
    -1
100
AcDbLine
 10
864.3064742616771
 20
3627.634291744548
 30
0.0
 11
654.3064742616771
 21
3627.634291744548
 31
0.0
  0
LINE
  5
3A04
330
18
100
AcDbEntity
  8
0
 62
     0
 48
6.0
370
    -1
100
AcDbLine
 10
864.3064742616771
 20
3547.634291744548
 30
0.0
 11
734.3064742616771
 21
3547.634291744548
 31
0.0
  0
LINE
  5
3A05
330
18
100
AcDbEntity
  8
0
 62
     0
 48
6.0
370
    -1
100
AcDbLine
 10
654.3064742616771
 20
3547.634291744548
 30
0.0
 11
734.3064742616771
 21
3547.634291744548
 31
0.0
  0
LINE
  5
3A06
330
18
100
AcDbEntity
  8
0
 62
     0
 48
6.0
370
    -1
100
AcDbLine
 10
724.3064742616771
 20
3667.634291744548
 30
0.0
 11
634.3064742616771
 21
3667.634291744548
 31
0.0
  0
LINE
  5
3A07
330
18
100
AcDbEntity
  8
0
  6
CENTER
 62
     0
 48
6.0
370
    -1
100
AcDbLine
 10
634.3064742616771
 20
3667.634291744548
 30
0.0
 11
634.3064742616771
 21
3627.634291744548
 31
0.0
  0
LINE
  5
3A08
330
18
100
AcDbEntity
  8
0
 62
     0
 48
6.0
370
    -1
100
AcDbLine
 10
614.3064742616771
 20
3647.634291744548
 30
0.0
 11
614.3064742616771
 21
3557.634291744548
 31
0.0
  0
LINE
  5
3A0B
330
18
100
AcDbEntity
  8
0
  6
CENTER
 62
     0
 48
6.0
370
    -1
100
AcDbLine
 10
614.3064742616771
 20
3647.634291744548
 30
0.0
 11
654.3064742616771
 21
3647.634291744548
 31
0.0
  0
CIRCLE
  5
3A0C
330
18
100
AcDbEntity
  8
0
  6
ByBlock
 62
     0
 48
6.0
370
    -1
100
AcDbCircle
 10
634.3064742616771
 20
3647.634291744548
 30
0.0
 40
10.0
  0
LINE
  5
3A0D
330
18
100
AcDbEntity
  8
0
 62
     0
 48
6.0
370
    -1
100
AcDbLine
 10
634.3064742616771
 20
3667.634291744548
 30
0.0
 11
614.3064742616771
 21
3647.634291744548
 31
0.0
  0
LINE
  5
3A0E
330
18
100
AcDbEntity
  8
0
 62
     0
 48
6.0
370
    -1
100
AcDbLine
 10
744.3064742616771
 20
3627.634291744548
 30
0.0
 11
744.3064742616771
 21
3647.634291744548
 31
0.0
  0
LINE
  5
3A0F
330
18
100
AcDbEntity
  8
0
 62
     0
 48
6.0
370
    -1
100
AcDbLine
 10
734.3064742616771
 20
3627.634291744548
 30
0.0
 11
734.3064742616771
 21
3547.634291744548
 31
0.0
  0
LINE
  5
3A10
330
18
100
AcDbEntity
  8
0
 62
     0
 48
6.0
370
    -1
100
AcDbLine
 10
744.3064742616771
 20
3647.634291744548
 30
0.0
 11
724.3064742616771
 21
3667.634291744548
 31
0.0
  0
LINE
  5
3A13
330
18
100
AcDbEntity
  8
0
 62
     0
 48
6.0
370
    -1
100
AcDbLine
 10
964.3064742616771
 20
3712.634291744548
 30
0.0
 11
964.3064742616771
 21
3692.634291744548
 31
0.0
  0
LINE
  5
3A14
330
18
100
AcDbEntity
  8
0
 62
     0
 48
6.0
370
    -1
100
AcDbLine
 10
864.3064742616771
 20
3712.634291744548
 30
0.0
 11
864.3064742616771
 21
3692.634291744548
 31
0.0
  0
LINE
  5
3A15
330
18
100
AcDbEntity
  8
0
 62
     0
 48
6.0
370
    -1
100
AcDbLine
 10
864.3064742616771
 20
3647.634291744548
 30
0.0
 11
864.3064742616771
 21
3697.634291744548
 31
0.0
  0
LINE
  5
3A16
330
18
100
AcDbEntity
  8
0
  6
CENTER
 62
     0
 48
6.0
370
    -1
100
AcDbLine
 10
904.3064742616771
 20
3617.634291744548
 30
0.0
 11
924.3064742616771
 21
3617.634291744548
 31
0.0
  0
CIRCLE
  5
3A17
330
18
100
AcDbEntity
  8
0
 62
     0
 48
6.0
370
    -1
100
AcDbCircle
 10
914.3064742616771
 20
3617.634291744548
 30
0.0
 40
5.0
  0
LINE
  5
3A18
330
18
100
AcDbEntity
  8
0
  6
CENTER
 62
     0
 48
6.0
370
    -1
100
AcDbLine
 10
904.3064742616771
 20
3672.634291744548
 30
0.0
 11
924.3064742616771
 21
3672.634291744548
 31
0.0
  0
CIRCLE
  5
3A19
330
18
100
AcDbEntity
  8
0
 62
     0
 48
6.0
370
    -1
100
AcDbCircle
 10
914.3064742616771
 20
3672.634291744548
 30
0.0
 40
5.0
  0
LINE
  5
3A1A
330
18
100
AcDbEntity
  8
0
 62
     0
 48
6.0
370
    -1
100
AcDbLine
 10
964.3064742616771
 20
3697.634291744548
 30
0.0
 11
964.3064742616771
 21
3637.634291744548
 31
0.0
  0
LINE
  5
3A1B
330
18
100
AcDbEntity
  8
0
 62
     0
 48
6.0
370
    -1
100
AcDbLine
 10
864.3064742616771
 20
3712.634291744548
 30
0.0
 11
964.3064742616771
 21
3712.634291744548
 31
0.0
  0
LINE
  5
3A72
330
18
100
AcDbEntity
  8
0
 62
     0
 48
6.0
370
    -1
100
AcDbLine
 10
1914.306474261677
 20
2937.634291744548
 30
0.0
 11
1994.306474261677
 21
2937.634291744548
 31
0.0
  0
LINE
  5
3A73
330
18
100
AcDbEntity
  8
0
 62
     0
 48
6.0
370
    -1
100
AcDbLine
 10
1914.306474261677
 20
3547.634291744548
 30
0.0
 11
1994.306474261677
 21
3547.634291744548
 31
0.0
  0
LINE
  5
3A74
330
18
100
AcDbEntity
  8
0
 62
     0
 48
6.0
370
    -1
100
AcDbLine
 10
1994.306474261677
 20
3627.634291744548
 30
0.0
 11
1784.306474261677
 21
3627.634291744548
 31
0.0
  0
LINE
  5
3A75
330
18
100
AcDbEntity
  8
0
 62
     0
 48
6.0
370
    -1
100
AcDbLine
 10
1784.306474261677
 20
2857.634291744548
 30
0.0
 11
1994.306474261677
 21
2857.634291744548
 31
0.0
  0
LINE
  5
3A76
330
18
100
AcDbEntity
  8
0
 62
     0
 48
6.0
370
    -1
100
AcDbLine
 10
1924.306474261677
 20
2817.634291744548
 30
0.0
 11
2014.306474261677
 21
2817.634291744548
 31
0.0
  0
LINE
  5
3A77
330
18
100
AcDbEntity
  8
0
 62
     0
 48
6.0
370
    -1
100
AcDbLine
 10
2014.306474261677
 20
3667.634291744548
 30
0.0
 11
1924.306474261677
 21
3667.634291744548
 31
0.0
  0
LINE
  5
3A78
330
18
100
AcDbEntity
  8
0
  6
CENTER
 62
     0
 48
6.0
370
    -1
100
AcDbLine
 10
1734.306474261677
 20
3757.634291744548
 30
0.0
 11
1734.306474261677
 21
2727.634291744548
 31
0.0
  0
LINE
  5
3A7A
330
18
100
AcDbEntity
  8
0
 62
     0
 48
6.0
370
    -1
100
AcDbLine
 10
1684.306474261677
 20
3697.634291744548
 30
0.0
 11
1684.306474261677
 21
2787.634291744548
 31
0.0
  0
LINE
  5
3A7B
330
18
100
AcDbEntity
  8
0
 62
     0
 48
6.0
370
    -1
100
AcDbLine
 10
1784.306474261677
 20
3697.634291744548
 30
0.0
 11
1784.306474261677
 21
2787.634291744548
 31
0.0
  0
LINE
  5
3A7C
330
18
100
AcDbEntity
  8
0
 62
     0
 48
6.0
370
    -1
100
AcDbLine
 10
1914.306474261677
 20
3527.634291744548
 30
0.0
 11
1914.306474261677
 21
2937.634291744548
 31
0.0
  0
LINE
  5
3A7D
330
18
100
AcDbEntity
  8
0
 62
     0
 48
6.0
370
    -1
100
AcDbLine
 10
1914.306474261677
 20
2937.634291744548
 30
0.0
 11
1914.306474261677
 21
2857.634291744548
 31
0.0
  0
LINE
  5
3A7E
330
18
100
AcDbEntity
  8
0
 62
     0
 48
6.0
370
    -1
100
AcDbLine
 10
1684.306474261677
 20
2772.634291744548
 30
0.0
 11
1784.306474261677
 21
2772.634291744548
 31
0.0
  0
LINE
  5
3A7F
330
18
100
AcDbEntity
  8
0
 62
     0
 48
6.0
370
    -1
100
AcDbLine
 10
1684.306474261677
 20
2792.634291744548
 30
0.0
 11
1684.306474261677
 21
2772.634291744548
 31
0.0
  0
LINE
  5
3A80
330
18
100
AcDbEntity
  8
0
 62
     0
 48
6.0
370
    -1
100
AcDbLine
 10
1914.306474261677
 20
2827.634291744548
 30
0.0
 11
1784.306474261677
 21
2827.634291744548
 31
0.0
  0
CIRCLE
  5
3A81
330
18
100
AcDbEntity
  8
0
 62
     0
 48
6.0
370
    -1
100
AcDbCircle
 10
1734.306474261677
 20
2812.634291744548
 30
0.0
 40
5.0
  0
LINE
  5
3A82
330
18
100
AcDbEntity
  8
0
  6
CENTER
 62
     0
 48
6.0
370
    -1
100
AcDbLine
 10
1724.306474261677
 20
2812.634291744548
 30
0.0
 11
1744.306474261677
 21
2812.634291744548
 31
0.0
  0
LINE
  5
3A83
330
18
100
AcDbEntity
  8
0
 62
     0
 48
6.0
370
    -1
100
AcDbLine
 10
1784.306474261677
 20
2772.634291744548
 30
0.0
 11
1784.306474261677
 21
2792.634291744548
 31
0.0
  0
LINE
  5
3A84
330
18
100
AcDbEntity
  8
0
  6
CENTER
 62
     0
 48
6.0
370
    -1
100
AcDbLine
 10
1724.306474261677
 20
2867.634291744548
 30
0.0
 11
1744.306474261677
 21
2867.634291744548
 31
0.0
  0
CIRCLE
  5
3A85
330
18
100
AcDbEntity
  8
0
 62
     0
 48
6.0
370
    -1
100
AcDbCircle
 10
1734.306474261677
 20
2867.634291744548
 30
0.0
 40
5.0
  0
LINE
  5
3A86
330
18
100
AcDbEntity
  8
0
 62
     0
 48
6.0
370
    -1
100
AcDbLine
 10
1904.306474261677
 20
2837.634291744548
 30
0.0
 11
1924.306474261677
 21
2817.634291744548
 31
0.0
  0
LINE
  5
3A87
330
18
100
AcDbEntity
  8
0
 62
     0
 48
6.0
370
    -1
100
AcDbLine
 10
1904.306474261677
 20
2857.634291744548
 30
0.0
 11
1904.306474261677
 21
2837.634291744548
 31
0.0
  0
LINE
  5
3A88
330
18
100
AcDbEntity
  8
0
 62
     0
 48
6.0
370
    -1
100
AcDbLine
 10
1774.306474261677
 20
2947.634291744548
 30
0.0
 11
1694.306474261677
 21
2947.634291744548
 31
0.0
  0
LINE
  5
3A89
330
18
100
AcDbEntity
  8
0
 62
     0
 48
6.0
370
    -1
100
AcDbLine
 10
1694.306474261677
 20
3047.634291744548
 30
0.0
 11
1774.306474261677
 21
3047.634291744548
 31
0.0
  0
LINE
  5
3A8A
330
18
100
AcDbEntity
  8
0
 62
     0
 48
6.0
370
    -1
100
AcDbLine
 10
1704.306474261677
 20
2947.634291744548
 30
0.0
 11
1704.306474261677
 21
3047.634291744548
 31
0.0
  0
LINE
  5
3A8B
330
18
100
AcDbEntity
  8
0
 62
     0
 48
6.0
370
    -1
100
AcDbLine
 10
1694.306474261677
 20
2947.634291744548
 30
0.0
 11
1694.306474261677
 21
3047.634291744548
 31
0.0
  0
LINE
  5
3A8D
330
18
100
AcDbEntity
  8
0
 62
     0
 48
6.0
370
    -1
100
AcDbLine
 10
1739.306474261677
 20
3047.634291744548
 30
0.0
 11
1739.306474261677
 21
3067.634291744548
 31
0.0
  0
LINE
  5
3A8E
330
18
100
AcDbEntity
  8
0
 62
     0
 48
6.0
370
    -1
100
AcDbLine
 10
1729.306474261677
 20
3047.634291744548
 30
0.0
 11
1729.306474261677
 21
3067.634291744548
 31
0.0
  0
LINE
  5
3A8F
330
18
100
AcDbEntity
  8
0
 62
     0
 48
6.0
370
    -1
100
AcDbLine
 10
1784.306474261677
 20
2937.634291744548
 30
0.0
 11
1914.306474261677
 21
2937.634291744548
 31
0.0
  0
LINE
  5
3A90
330
18
100
AcDbEntity
  8
0
 62
     0
 48
6.0
370
    -1
100
AcDbLine
 10
1774.306474261677
 20
3047.634291744548
 30
0.0
 11
1774.306474261677
 21
2947.634291744548
 31
0.0
  0
LINE
  5
3A91
330
18
100
AcDbEntity
  8
0
 62
     0
 48
6.0
370
    -1
100
AcDbLine
 10
1739.306474261677
 20
2977.634291744548
 30
0.0
 11
1739.306474261677
 21
2972.634291744548
 31
0.0
  0
LINE
  5
3A92
330
18
100
AcDbEntity
  8
0
 62
     0
 48
6.0
370
    -1
100
AcDbLine
 10
1729.306474261677
 20
2977.634291744548
 30
0.0
 11
1729.306474261677
 21
2972.634291744548
 31
0.0
  0
LINE
  5
3A93
330
18
100
AcDbEntity
  8
0
 62
     0
 48
6.0
370
    -1
100
AcDbLine
 10
1754.306474261677
 20
2947.634291744548
 30
0.0
 11
1754.306474261677
 21
3047.634291744548
 31
0.0
  0
LINE
  5
3A94
330
18
100
AcDbEntity
  8
0
 62
     0
 48
6.0
370
    -1
100
AcDbLine
 10
1744.306474261677
 20
3047.634291744548
 30
0.0
 11
1744.306474261677
 21
2947.634291744548
 31
0.0
  0
LINE
  5
3A95
330
18
100
AcDbEntity
  8
0
 62
     0
 48
6.0
370
    -1
100
AcDbLine
 10
1744.306474261677
 20
2947.634291744548
 30
0.0
 11
1744.306474261677
 21
3047.634291744548
 31
0.0
  0
LINE
  5
3A96
330
18
100
AcDbEntity
  8
0
 62
     0
 48
6.0
370
    -1
100
AcDbLine
 10
1724.306474261677
 20
2947.634291744548
 30
0.0
 11
1724.306474261677
 21
3047.634291744548
 31
0.0
  0
LINE
  5
3A97
330
18
100
AcDbEntity
  8
0
 62
     0
 48
6.0
370
    -1
100
AcDbLine
 10
1714.306474261677
 20
2947.634291744548
 30
0.0
 11
1714.306474261677
 21
3047.634291744548
 31
0.0
  0
LINE
  5
3A98
330
18
100
AcDbEntity
  8
0
 62
     0
 48
6.0
370
    -1
100
AcDbLine
 10
1764.306474261677
 20
2947.634291744548
 30
0.0
 11
1764.306474261677
 21
3047.634291744548
 31
0.0
  0
ARC
  5
3A99
330
18
100
AcDbEntity
  8
0
 62
     0
 48
6.0
370
    -1
100
AcDbCircle
 10
1734.306474261677
 20
2972.634291744548
 30
0.0
 40
5.0
100
AcDbArc
 50
180.0
 51
0.0
  0
LINE
  5
3A9A
330
18
100
AcDbEntity
  8
0
 62
     0
 48
6.0
370
    -1
100
AcDbLine
 10
1744.306474261677
 20
2947.634291744548
 30
0.0
 11
1744.306474261677
 21
2962.634291744548
 31
0.0
  0
LINE
  5
3A9B
330
18
100
AcDbEntity
  8
0
 62
     0
 48
6.0
370
    -1
100
AcDbLine
 10
1734.306474261677
 20
2947.634291744548
 30
0.0
 11
1734.306474261677
 21
2967.634291744548
 31
0.0
  0
LINE
  5
3A9C
330
18
100
AcDbEntity
  8
0
 62
     0
 48
6.0
370
    -1
100
AcDbLine
 10
1729.306474261677
 20
3017.634291744548
 30
0.0
 11
1729.306474261677
 21
3022.634291744548
 31
0.0
  0
LINE
  5
3A9D
330
18
100
AcDbEntity
  8
0
 62
     0
 48
6.0
370
    -1
100
AcDbLine
 10
1739.306474261677
 20
3017.634291744548
 30
0.0
 11
1739.306474261677
 21
2977.634291744548
 31
0.0
  0
LINE
  5
3A9E
330
18
100
AcDbEntity
  8
0
 62
     0
 48
6.0
370
    -1
100
AcDbLine
 10
1729.306474261677
 20
2977.634291744548
 30
0.0
 11
1729.306474261677
 21
3017.634291744548
 31
0.0
  0
ARC
  5
3A9F
330
18
100
AcDbEntity
  8
0
 62
     0
 48
6.0
370
    -1
100
AcDbCircle
 10
1734.306474261677
 20
3022.634291744548
 30
0.0
 40
5.0
100
AcDbArc
 50
0.0
 51
180.0
  0
LINE
  5
3AA0
330
18
100
AcDbEntity
  8
0
 62
     0
 48
6.0
370
    -1
100
AcDbLine
 10
1739.306474261677
 20
3017.634291744548
 30
0.0
 11
1739.306474261677
 21
3022.634291744548
 31
0.0
  0
LINE
  5
3AA1
330
18
100
AcDbEntity
  8
0
 62
     0
 48
6.0
370
    -1
100
AcDbLine
 10
1734.306474261677
 20
3027.634291744548
 30
0.0
 11
1734.306474261677
 21
3047.634291744548
 31
0.0
  0
LINE
  5
3AA4
330
18
100
AcDbEntity
  8
0
 62
     0
 48
6.0
370
    -1
100
AcDbLine
 10
1739.306474261677
 20
3067.634291744548
 30
0.0
 11
1739.306474261677
 21
3072.634291744548
 31
0.0
  0
ARC
  5
3AA5
330
18
100
AcDbEntity
  8
0
 62
     0
 48
6.0
370
    -1
100
AcDbCircle
 10
1734.306474261677
 20
3072.634291744548
 30
0.0
 40
5.0
100
AcDbArc
 50
0.0
 51
180.0
  0
LINE
  5
3AA6
330
18
100
AcDbEntity
  8
0
 62
     0
 48
6.0
370
    -1
100
AcDbLine
 10
1729.306474261677
 20
3067.634291744548
 30
0.0
 11
1729.306474261677
 21
3072.634291744548
 31
0.0
  0
LINE
  5
3AA9
330
18
100
AcDbEntity
  8
0
 62
     0
 48
6.0
370
    -1
100
AcDbLine
 10
1914.306474261677
 20
3537.634291744548
 30
0.0
 11
1914.306474261677
 21
3547.634291744548
 31
0.0
  0
LINE
  5
3AAA
330
18
100
AcDbEntity
  8
0
 62
     0
 48
6.0
370
    -1
100
AcDbLine
 10
1774.306474261677
 20
3437.634291744548
 30
0.0
 11
1694.306474261677
 21
3437.634291744548
 31
0.0
  0
LINE
  5
3AAB
330
18
100
AcDbEntity
  8
0
 62
     0
 48
6.0
370
    -1
100
AcDbLine
 10
1694.306474261677
 20
3537.634291744548
 30
0.0
 11
1774.306474261677
 21
3537.634291744548
 31
0.0
  0
LINE
  5
3AAC
330
18
100
AcDbEntity
  8
0
 62
     0
 48
6.0
370
    -1
100
AcDbLine
 10
1684.306474261677
 20
3377.634291744548
 30
0.0
 11
1684.306474261677
 21
3277.634291744548
 31
0.0
  0
LINE
  5
3AAD
330
18
100
AcDbEntity
  8
0
 62
     0
 48
6.0
370
    -1
100
AcDbLine
 10
1704.306474261677
 20
3537.634291744548
 30
0.0
 11
1704.306474261677
 21
3437.634291744548
 31
0.0
  0
LINE
  5
3AAE
330
18
100
AcDbEntity
  8
0
 62
     0
 48
6.0
370
    -1
100
AcDbLine
 10
1694.306474261677
 20
3437.634291744548
 30
0.0
 11
1694.306474261677
 21
3537.634291744548
 31
0.0
  0
LINE
  5
3AAF
330
18
100
AcDbEntity
  8
0
 62
     0
 48
6.0
370
    -1
100
AcDbLine
 10
1764.306474261677
 20
3537.634291744548
 30
0.0
 11
1764.306474261677
 21
3437.634291744548
 31
0.0
  0
LINE
  5
3AB0
330
18
100
AcDbEntity
  8
0
 62
     0
 48
6.0
370
    -1
100
AcDbLine
 10
1754.306474261677
 20
3537.634291744548
 30
0.0
 11
1754.306474261677
 21
3437.634291744548
 31
0.0
  0
LINE
  5
3AB1
330
18
100
AcDbEntity
  8
0
 62
     0
 48
6.0
370
    -1
100
AcDbLine
 10
1744.306474261677
 20
3537.634291744548
 30
0.0
 11
1744.306474261677
 21
3437.634291744548
 31
0.0
  0
LINE
  5
3AB2
330
18
100
AcDbEntity
  8
0
 62
     0
 48
6.0
370
    -1
100
AcDbLine
 10
1724.306474261677
 20
3437.634291744548
 30
0.0
 11
1724.306474261677
 21
3537.634291744548
 31
0.0
  0
LINE
  5
3AB3
330
18
100
AcDbEntity
  8
0
 62
     0
 48
6.0
370
    -1
100
AcDbLine
 10
1724.306474261677
 20
3537.634291744548
 30
0.0
 11
1724.306474261677
 21
3437.634291744548
 31
0.0
  0
LINE
  5
3AB4
330
18
100
AcDbEntity
  8
0
 62
     0
 48
6.0
370
    -1
100
AcDbLine
 10
1714.306474261677
 20
3537.634291744548
 30
0.0
 11
1714.306474261677
 21
3437.634291744548
 31
0.0
  0
LINE
  5
3AB5
330
18
100
AcDbEntity
  8
0
 62
     0
 48
6.0
370
    -1
100
AcDbLine
 10
1739.306474261677
 20
3467.634291744548
 30
0.0
 11
1739.306474261677
 21
3462.634291744548
 31
0.0
  0
LINE
  5
3AB6
330
18
100
AcDbEntity
  8
0
 62
     0
 48
6.0
370
    -1
100
AcDbLine
 10
1729.306474261677
 20
3467.634291744548
 30
0.0
 11
1729.306474261677
 21
3462.634291744548
 31
0.0
  0
LINE
  5
3AB7
330
18
100
AcDbEntity
  8
0
 62
     0
 48
6.0
370
    -1
100
AcDbLine
 10
1774.306474261677
 20
3537.634291744548
 30
0.0
 11
1774.306474261677
 21
3437.634291744548
 31
0.0
  0
LINE
  5
3AB8
330
18
100
AcDbEntity
  8
0
 62
     0
 48
6.0
370
    -1
100
AcDbLine
 10
1734.306474261677
 20
3457.634291744548
 30
0.0
 11
1734.306474261677
 21
3437.634291744548
 31
0.0
  0
ARC
  5
3AB9
330
18
100
AcDbEntity
  8
0
 62
     0
 48
6.0
370
    -1
100
AcDbCircle
 10
1734.306474261677
 20
3412.634291744548
 30
0.0
 40
5.0
100
AcDbArc
 50
180.0
 51
0.0
  0
LINE
  5
3ABA
330
18
100
AcDbEntity
  8
0
 62
     0
 48
6.0
370
    -1
100
AcDbLine
 10
1739.306474261677
 20
3417.634291744548
 30
0.0
 11
1739.306474261677
 21
3412.634291744548
 31
0.0
  0
LINE
  5
3ABB
330
18
100
AcDbEntity
  8
0
 62
     0
 48
6.0
370
    -1
100
AcDbLine
 10
1729.306474261677
 20
3417.634291744548
 30
0.0
 11
1729.306474261677
 21
3412.634291744548
 31
0.0
  0
LINE
  5
3ABC
330
18
100
AcDbEntity
  8
0
 62
     0
 48
6.0
370
    -1
100
AcDbLine
 10
1739.306474261677
 20
3437.634291744548
 30
0.0
 11
1739.306474261677
 21
3417.634291744548
 31
0.0
  0
LINE
  5
3ABD
330
18
100
AcDbEntity
  8
0
 62
     0
 48
6.0
370
    -1
100
AcDbLine
 10
1729.306474261677
 20
3437.634291744548
 30
0.0
 11
1729.306474261677
 21
3417.634291744548
 31
0.0
  0
ARC
  5
3ABE
330
18
100
AcDbEntity
  8
0
 62
     0
 48
6.0
370
    -1
100
AcDbCircle
 10
1734.306474261677
 20
3462.634291744548
 30
0.0
 40
5.0
100
AcDbArc
 50
180.0
 51
0.0
  0
LINE
  5
3ABF
330
18
100
AcDbEntity
  8
0
 62
     0
 48
6.0
370
    -1
100
AcDbLine
 10
1734.306474261677
 20
3537.634291744548
 30
0.0
 11
1734.306474261677
 21
3517.634291744548
 31
0.0
  0
LINE
  5
3AC0
330
18
100
AcDbEntity
  8
0
 62
     0
 48
6.0
370
    -1
100
AcDbLine
 10
1724.306474261677
 20
3537.634291744548
 30
0.0
 11
1724.306474261677
 21
3522.634291744548
 31
0.0
  0
ARC
  5
3AC1
330
18
100
AcDbEntity
  8
0
 62
     0
 48
6.0
370
    -1
100
AcDbCircle
 10
1734.306474261677
 20
3512.634291744548
 30
0.0
 40
5.0
100
AcDbArc
 50
0.0
 51
180.0
  0
LINE
  5
3AC2
330
18
100
AcDbEntity
  8
0
 62
     0
 48
6.0
370
    -1
100
AcDbLine
 10
1739.306474261677
 20
3507.634291744548
 30
0.0
 11
1739.306474261677
 21
3512.634291744548
 31
0.0
  0
LINE
  5
3AC3
330
18
100
AcDbEntity
  8
0
 62
     0
 48
6.0
370
    -1
100
AcDbLine
 10
1729.306474261677
 20
3507.634291744548
 30
0.0
 11
1729.306474261677
 21
3512.634291744548
 31
0.0
  0
LINE
  5
3AC4
330
18
100
AcDbEntity
  8
0
 62
     0
 48
6.0
370
    -1
100
AcDbLine
 10
1729.306474261677
 20
3467.634291744548
 30
0.0
 11
1729.306474261677
 21
3507.634291744548
 31
0.0
  0
LINE
  5
3AC5
330
18
100
AcDbEntity
  8
0
 62
     0
 48
6.0
370
    -1
100
AcDbLine
 10
1739.306474261677
 20
3507.634291744548
 30
0.0
 11
1739.306474261677
 21
3467.634291744548
 31
0.0
  0
LINE
  5
3AC6
330
18
100
AcDbEntity
  8
0
 62
     0
 48
6.0
370
    -1
100
AcDbLine
 10
1914.306474261677
 20
3537.634291744548
 30
0.0
 11
1914.306474261677
 21
3527.634291744548
 31
0.0
  0
LINE
  5
3AC7
330
18
100
AcDbEntity
  8
0
 62
     0
 48
6.0
370
    -1
100
AcDbLine
 10
1684.306474261677
 20
3712.634291744548
 30
0.0
 11
1784.306474261677
 21
3712.634291744548
 31
0.0
  0
LINE
  5
3AC8
330
18
100
AcDbEntity
  8
0
 62
     0
 48
6.0
370
    -1
100
AcDbLine
 10
1684.306474261677
 20
3712.634291744548
 30
0.0
 11
1684.306474261677
 21
3692.634291744548
 31
0.0
  0
LINE
  5
3AC9
330
18
100
AcDbEntity
  8
0
 62
     0
 48
6.0
370
    -1
100
AcDbLine
 10
1784.306474261677
 20
3712.634291744548
 30
0.0
 11
1784.306474261677
 21
3687.634291744548
 31
0.0
  0
LINE
  5
3ACA
330
18
100
AcDbEntity
  8
0
 62
     0
 48
6.0
370
    -1
100
AcDbLine
 10
1784.306474261677
 20
3657.634291744548
 30
0.0
 11
1914.306474261677
 21
3657.634291744548
 31
0.0
  0
LINE
  5
3ACB
330
18
100
AcDbEntity
  8
0
 62
     0
 48
6.0
370
    -1
100
AcDbLine
 10
1914.306474261677
 20
3547.634291744548
 30
0.0
 11
1784.306474261677
 21
3547.634291744548
 31
0.0
  0
LINE
  5
3ACC
330
18
100
AcDbEntity
  8
0
  6
CENTER
 62
     0
 48
6.0
370
    -1
100
AcDbLine
 10
1724.306474261677
 20
3617.634291744548
 30
0.0
 11
1744.306474261677
 21
3617.634291744548
 31
0.0
  0
CIRCLE
  5
3ACD
330
18
100
AcDbEntity
  8
0
 62
     0
 48
6.0
370
    -1
100
AcDbCircle
 10
1734.306474261677
 20
3617.634291744548
 30
0.0
 40
5.0
  0
LINE
  5
3ACE
330
18
100
AcDbEntity
  8
0
  6
CENTER
 62
     0
 48
6.0
370
    -1
100
AcDbLine
 10
1724.306474261677
 20
3672.634291744548
 30
0.0
 11
1744.306474261677
 21
3672.634291744548
 31
0.0
  0
CIRCLE
  5
3ACF
330
18
100
AcDbEntity
  8
0
 62
     0
 48
6.0
370
    -1
100
AcDbCircle
 10
1734.306474261677
 20
3672.634291744548
 30
0.0
 40
5.0
  0
LINE
  5
3AD0
330
18
100
AcDbEntity
  8
0
 62
     0
 48
6.0
370
    -1
100
AcDbLine
 10
1904.306474261677
 20
3627.634291744548
 30
0.0
 11
1904.306474261677
 21
3647.634291744548
 31
0.0
  0
LINE
  5
3AD1
330
18
100
AcDbEntity
  8
0
 62
     0
 48
6.0
370
    -1
100
AcDbLine
 10
1914.306474261677
 20
3627.634291744548
 30
0.0
 11
1914.306474261677
 21
3547.634291744548
 31
0.0
  0
LINE
  5
3AD2
330
18
100
AcDbEntity
  8
0
 62
     0
 48
6.0
370
    -1
100
AcDbLine
 10
1924.306474261677
 20
3667.634291744548
 30
0.0
 11
1904.306474261677
 21
3647.634291744548
 31
0.0
  0
LINE
  5
3AD6
330
18
100
AcDbEntity
  8
0
 62
     0
 48
6.0
370
    -1
100
AcDbLine
 10
1994.306474261677
 20
3627.634291744548
 30
0.0
 11
1994.306474261677
 21
2947.634291744548
 31
0.0
  0
LINE
  5
3AD8
330
18
100
AcDbEntity
  8
0
 62
     0
 48
6.0
370
    -1
100
AcDbLine
 10
2034.306474261677
 20
2837.634291744548
 30
0.0
 11
2034.306474261677
 21
2927.634291744548
 31
0.0
  0
LINE
  5
3AD9
330
18
100
AcDbEntity
  8
0
 62
     0
 48
6.0
370
    -1
100
AcDbLine
 10
1994.306474261677
 20
2857.634291744548
 30
0.0
 11
1994.306474261677
 21
2957.634291744548
 31
0.0
  0
LINE
  5
3ADB
330
18
100
AcDbEntity
  8
0
  6
CENTER
 62
     0
 48
6.0
370
    -1
100
AcDbLine
 10
1994.306474261677
 20
2837.634291744548
 30
0.0
 11
2034.306474261677
 21
2837.634291744548
 31
0.0
  0
CIRCLE
  5
3ADC
330
18
100
AcDbEntity
  8
0
  6
ByBlock
 62
     0
 48
6.0
370
    -1
100
AcDbCircle
 10
2014.306474261677
 20
2837.634291744548
 30
0.0
 40
10.0
  0
LINE
  5
3ADD
330
18
100
AcDbEntity
  8
0
 62
     0
 48
6.0
370
    -1
100
AcDbLine
 10
2014.306474261677
 20
2857.634291744548
 30
0.0
 11
2014.306474261677
 21
2847.634291744548
 31
0.0
  0
LINE
  5
3ADE
330
18
100
AcDbEntity
  8
0
  6
CENTER
 62
     0
 48
6.0
370
    -1
100
AcDbLine
 10
2014.306474261677
 20
2852.634291744548
 30
0.0
 11
2014.306474261677
 21
2817.634291744548
 31
0.0
  0
LINE
  5
3ADF
330
18
100
AcDbEntity
  8
0
 62
     0
 48
6.0
370
    -1
100
AcDbLine
 10
2014.306474261677
 20
2817.634291744548
 30
0.0
 11
2034.306474261677
 21
2837.634291744548
 31
0.0
  0
LINE
  5
3AE3
330
18
100
AcDbEntity
  8
0
 62
     0
 48
6.0
370
    -1
100
AcDbLine
 10
2014.306474261677
 20
2947.634291744548
 30
0.0
 11
1994.306474261677
 21
2947.634291744548
 31
0.0
  0
LINE
  5
3AE4
330
18
100
AcDbEntity
  8
0
 62
     0
 48
6.0
370
    -1
100
AcDbLine
 10
2034.306474261677
 20
2927.634291744548
 30
0.0
 11
2014.306474261677
 21
2947.634291744548
 31
0.0
  0
LINE
  5
3AE6
330
18
100
AcDbEntity
  8
0
 62
     0
 48
6.0
370
    -1
100
AcDbLine
 10
2014.306474261677
 20
3537.634291744548
 30
0.0
 11
2034.306474261677
 21
3557.634291744548
 31
0.0
  0
LINE
  5
3AE7
330
18
100
AcDbEntity
  8
0
 62
     0
 48
6.0
370
    -1
100
AcDbLine
 10
1994.306474261677
 20
3537.634291744548
 30
0.0
 11
2014.306474261677
 21
3537.634291744548
 31
0.0
  0
LINE
  5
3AE9
330
18
100
AcDbEntity
  8
0
  6
CENTER
 62
     0
 48
6.0
370
    -1
100
AcDbLine
 10
2013.21313465498
 20
3667.634291744548
 30
0.0
 11
2013.21313465498
 21
3627.634291744548
 31
0.0
  0
LINE
  5
3AEA
330
18
100
AcDbEntity
  8
0
 62
     0
 48
6.0
370
    -1
100
AcDbLine
 10
2034.306474261677
 20
3557.634291744548
 30
0.0
 11
2034.306474261677
 21
3647.634291744548
 31
0.0
  0
LINE
  5
3AEB
330
18
100
AcDbEntity
  8
0
  6
CENTER
 62
     0
 48
6.0
370
    -1
100
AcDbLine
 10
1993.21313465498
 20
3647.634291744548
 30
0.0
 11
2033.21313465498
 21
3647.634291744548
 31
0.0
  0
CIRCLE
  5
3AEC
330
18
100
AcDbEntity
  8
0
  6
ByBlock
 62
     0
 48
6.0
370
    -1
100
AcDbCircle
 10
2013.21313465498
 20
3647.634291744548
 30
0.0
 40
10.0
  0
LINE
  5
3AEF
330
18
100
AcDbEntity
  8
0
 62
     0
 48
6.0
370
    -1
100
AcDbLine
 10
2034.306474261677
 20
3647.634291744548
 30
0.0
 11
2014.306474261677
 21
3667.634291744548
 31
0.0
  0
LINE
  5
3AF5
330
18
100
AcDbEntity
  8
0
 62
     0
 48
6.0
370
    -1
100
AcDbLine
 10
1695.709622958777
 20
1061.165854522019
 30
0.0
 11
953.6770466043308
 21
1061.165854522019
 31
0.0
  0
LINE
  5
3AF9
330
18
100
AcDbEntity
  8
0
 62
     0
 48
6.0
370
    -1
100
AcDbLine
 10
1695.652076411119
 20
2020.782977772853
 30
0.0
 11
972.1114234685156
 21
2020.782977772853
 31
0.0
  0
LINE
  5
3AFA
330
18
100
AcDbEntity
  8
0
 62
     0
 48
6.0
370
    -1
100
AcDbLine
 10
1324.306474261677
 20
1611.230583048045
 30
0.0
 11
734.4680516184417
 21
1162.080799553006
 31
0.0
  0
LINE
  5
3AFB
330
18
100
AcDbEntity
  8
0
 62
     0
 48
6.0
370
    -1
100
AcDbLine
 10
1274.306474261677
 20
1651.230583048045
 30
0.0
 11
734.3064742616771
 21
1241.230583048045
 31
0.0
  0
LINE
  5
3AFC
330
18
100
AcDbEntity
  8
0
 62
     0
 48
6.0
370
    -1
100
AcDbLine
 10
779.3064742616771
 20
2096.230583048045
 30
0.0
 11
1994.306474261677
 21
1171.230583048045
 31
0.0
  0
LINE
  5
3AFD
330
18
100
AcDbEntity
  8
0
 62
     0
 48
6.0
370
    -1
100
AcDbLine
 10
754.3064742616771
 20
2051.230583048045
 30
0.0
 11
1939.306474261677
 21
1146.230583048045
 31
0.0
  0
LINE
  5
3AFE
330
18
100
AcDbEntity
  8
0
 62
     0
 48
6.0
370
    -1
100
AcDbLine
 10
784.3064742616771
 20
2101.230583048045
 30
0.0
 11
1998.697667923407
 21
1174.921190649784
 31
0.0
  0
LINE
  5
3AFF
330
18
100
AcDbEntity
  8
0
 62
     0
 48
6.0
370
    -1
100
AcDbLine
 10
734.3064742616771
 20
1141.230583048045
 30
0.0
 11
1914.306474261677
 21
1141.230583048045
 31
0.0
  0
LINE
  5
3B00
330
18
100
AcDbEntity
  8
0
 62
     0
 48
6.0
370
    -1
100
AcDbLine
 10
734.3064742616771
 20
2101.230583048045
 30
0.0
 11
1914.306474261677
 21
2101.230583048045
 31
0.0
  0
LINE
  5
3B01
330
18
100
AcDbEntity
  8
0
 62
     0
 48
6.0
370
    -1
100
AcDbLine
 10
734.3064742616771
 20
2101.230583048045
 30
0.0
 11
734.3064742616771
 21
981.230583048045
 31
0.0
  0
LINE
  5
3B02
330
18
100
AcDbEntity
  8
0
 62
     0
 48
6.0
370
    -1
100
AcDbLine
 10
654.3064742616771
 20
2101.230583048045
 30
0.0
 11
654.3064742616771
 21
981.230583048045
 31
0.0
  0
LINE
  5
3B03
330
18
100
AcDbEntity
  8
0
  6
CENTER
 62
     0
 48
6.0
370
    -1
100
AcDbLine
 10
913.5494515237078
 20
1221.806742104088
 30
0.0
 11
913.5494515237078
 21
1041.806742104088
 31
0.0
  0
ARC
  5
3B04
330
18
100
AcDbEntity
  8
0
 62
     0
 48
6.0
370
    -1
100
AcDbCircle
 10
694.3064742616771
 20
886.230583048045
 30
0.0
 40
10.0
100
AcDbArc
 50
0.0
 51
180.0
  0
LINE
  5
3B05
330
18
100
AcDbEntity
  8
0
 62
     0
 48
6.0
370
    -1
100
AcDbLine
 10
644.3064742616771
 20
911.230583048045
 30
0.0
 11
644.3064742616771
 21
841.230583048045
 31
0.0
  0
LINE
  5
3B06
330
18
100
AcDbEntity
  8
0
 62
     0
 48
6.0
370
    -1
100
AcDbLine
 10
744.3064742616771
 20
831.230583048045
 30
0.0
 11
744.3064742616771
 21
911.230583048045
 31
0.0
  0
LINE
  5
3B09
330
18
100
AcDbEntity
  8
0
 62
     0
 48
6.0
370
    -1
100
AcDbLine
 10
614.3064742616771
 20
841.230583048045
 30
0.0
 11
744.3064742616771
 21
841.230583048045
 31
0.0
  0
LINE
  5
3B0A
330
18
100
AcDbEntity
  8
0
 62
     0
 48
6.0
370
    -1
100
AcDbLine
 10
614.3064742616771
 20
831.230583048045
 30
0.0
 11
744.3064742616771
 21
831.230583048045
 31
0.0
  0
LINE
  5
3B0B
330
18
100
AcDbEntity
  8
0
 62
     0
 48
6.0
370
    -1
100
AcDbLine
 10
634.3064742616771
 20
851.230583048045
 30
0.0
 11
634.3064742616771
 21
801.230583048045
 31
0.0
  0
LINE
  5
3B0D
330
18
100
AcDbEntity
  8
0
 62
     0
 48
6.0
370
    -1
100
AcDbLine
 10
614.3064742616771
 20
831.230583048045
 30
0.0
 11
614.3064742616771
 21
841.230583048045
 31
0.0
  0
LINE
  5
3B0E
330
18
100
AcDbEntity
  8
0
 62
     0
 48
6.0
370
    -1
100
AcDbLine
 10
704.3064742616771
 20
886.230583048045
 30
0.0
 11
704.3064742616771
 21
856.230583048045
 31
0.0
  0
LINE
  5
3B0F
330
18
100
AcDbEntity
  8
0
 62
     0
 48
6.0
370
    -1
100
AcDbLine
 10
684.3064742616771
 20
886.230583048045
 30
0.0
 11
684.3064742616771
 21
856.230583048045
 31
0.0
  0
ARC
  5
3B10
330
18
100
AcDbEntity
  8
0
 62
     0
 48
6.0
370
    -1
100
AcDbCircle
 10
694.3064742616771
 20
856.230583048045
 30
0.0
 40
10.0
100
AcDbArc
 50
180.0
 51
0.0
  0
CIRCLE
  5
3B11
330
18
100
AcDbEntity
  8
0
 62
     0
 48
6.0
370
    -1
100
AcDbCircle
 10
774.2194535989111
 20
1095.655683950644
 30
0.0
 40
9.013611994698294
  0
LINE
  5
3B12
330
18
100
AcDbEntity
  8
0
 62
     0
 48
6.0
370
    -1
100
AcDbLine
 10
734.3064742616771
 20
1056.230583048045
 30
0.0
 11
814.3064742616771
 21
1056.230583048045
 31
0.0
  0
LINE
  5
3B13
330
18
100
AcDbEntity
  8
0
 62
     0
 48
6.0
370
    -1
100
AcDbLine
 10
734.3064742616771
 20
1136.230583048045
 30
0.0
 11
804.3064742616771
 21
1136.230583048045
 31
0.0
  0
LINE
  5
3B14
330
18
100
AcDbEntity
  8
0
 62
     0
 48
6.0
370
    -1
100
AcDbLine
 10
744.3064742616771
 20
911.230583048045
 30
0.0
 11
644.3064742616771
 21
911.230583048045
 31
0.0
  0
LINE
  5
3B15
330
18
100
AcDbEntity
  8
0
 62
     0
 48
6.0
370
    -1
100
AcDbLine
 10
654.3064742616771
 20
981.230583048045
 30
0.0
 11
654.3064742616771
 21
951.230583048045
 31
0.0
  0
LINE
  5
3B16
330
18
100
AcDbEntity
  8
0
 62
     0
 48
6.0
370
    -1
100
AcDbLine
 10
654.3064742616771
 20
951.230583048045
 30
0.0
 11
654.3064742616771
 21
911.230583048045
 31
0.0
  0
LINE
  5
3B17
330
18
100
AcDbEntity
  8
0
 62
     0
 48
6.0
370
    -1
100
AcDbLine
 10
734.3064742616771
 20
981.230583048045
 30
0.0
 11
734.3064742616771
 21
951.230583048045
 31
0.0
  0
LINE
  5
3B18
330
18
100
AcDbEntity
  8
0
 62
     0
 48
6.0
370
    -1
100
AcDbLine
 10
734.3064742616771
 20
951.230583048045
 30
0.0
 11
734.3064742616771
 21
911.230583048045
 31
0.0
  0
CIRCLE
  5
3B19
330
18
100
AcDbEntity
  8
0
 62
     0
 48
6.0
370
    -1
100
AcDbCircle
 10
692.2756345610105
 20
1172.749676171901
 30
0.0
 40
9.013611994698294
  0
LINE
  5
3B1A
330
18
100
AcDbEntity
  8
0
 62
     0
 48
6.0
370
    -1
100
AcDbLine
 10
873.5399278964069
 20
1182.851575799175
 30
0.0
 11
953.4095844264994
 21
1182.851575799175
 31
0.0
  0
LINE
  5
3B1B
330
18
100
AcDbEntity
  8
0
 62
     0
 48
6.0
370
    -1
100
AcDbLine
 10
953.9865320884855
 20
1055.911238985545
 30
0.0
 11
873.985955423319
 21
1055.911238985545
 31
0.0
  0
LINE
  5
3B1C
330
18
100
AcDbEntity
  8
0
 62
     0
 48
6.0
370
    -1
100
AcDbLine
 10
875.8041519229882
 20
1136.72171163036
 30
0.0
 11
953.9865320884855
 21
1136.72171163036
 31
0.0
  0
LINE
  5
3B1D
330
18
100
AcDbEntity
  8
0
 62
     0
 48
6.0
370
    -1
100
AcDbLine
 10
873.5494515237078
 20
1203.634895339064
 30
0.0
 11
953.5494515237078
 21
1203.634895339064
 31
0.0
  0
LINE
  5
3B1E
330
18
100
AcDbEntity
  8
0
 62
     0
 48
6.0
370
    -1
100
AcDbLine
 10
874.89505367315
 20
1136.72171163036
 30
0.0
 11
874.89505367315
 21
1056.819215943678
 31
0.0
  0
LINE
  5
3B1F
330
18
100
AcDbEntity
  8
0
 62
     0
 48
6.0
370
    -1
100
AcDbLine
 10
875.1611348623192
 20
1061.165864369011
 30
0.0
 11
814.2436027849653
 21
1061.165864369011
 31
0.0
  0
LINE
  5
3B20
330
18
100
AcDbEntity
  8
0
 62
     0
 48
6.0
370
    -1
100
AcDbLine
 10
814.3064742616771
 20
1056.230583048045
 30
0.0
 11
814.3064742616771
 21
1076.230583048045
 31
0.0
  0
LINE
  5
3B21
330
18
100
AcDbEntity
  8
0
 62
     0
 48
6.0
370
    -1
100
AcDbLine
 10
814.3064742616771
 20
1126.230583048045
 30
0.0
 11
814.3064742616771
 21
1106.230583048045
 31
0.0
  0
LINE
  5
3B22
330
18
100
AcDbEntity
  8
0
 62
     0
 48
6.0
370
    -1
100
AcDbLine
 10
804.3064742616771
 20
1136.230583048045
 30
0.0
 11
814.3064742616771
 21
1126.230583048045
 31
0.0
  0
LINE
  5
3B23
330
18
100
AcDbEntity
  8
0
 62
     0
 48
6.0
370
    -1
100
AcDbLine
 10
814.3064742616771
 20
1066.230583048045
 30
0.0
 11
814.3064742616771
 21
1116.230583048045
 31
0.0
  0
LINE
  5
3B24
330
18
100
AcDbEntity
  8
0
 62
     0
 48
6.0
370
    -1
100
AcDbLine
 10
863.5494515237078
 20
1173.634895339064
 30
0.0
 11
873.5494515237078
 21
1183.634895339064
 31
0.0
  0
LINE
  5
3B25
330
18
100
AcDbEntity
  8
0
 62
     0
 48
6.0
370
    -1
100
AcDbLine
 10
863.9858746751634
 20
1174.856996533797
 30
0.0
 11
863.9858746751634
 21
1143.985581437251
 31
0.0
  0
LINE
  5
3B26
330
18
100
AcDbEntity
  8
0
 62
     0
 48
6.0
370
    -1
100
AcDbLine
 10
883.5494515237078
 20
1203.634895339064
 30
0.0
 11
883.5494515237078
 21
1183.634895339064
 31
0.0
  0
LINE
  5
3B27
330
18
100
AcDbEntity
  8
0
 62
     0
 48
6.0
370
    -1
100
AcDbLine
 10
873.5494515237078
 20
1183.634895339064
 30
0.0
 11
873.5494515237078
 21
1203.634895339064
 31
0.0
  0
LINE
  5
3B28
330
18
100
AcDbEntity
  8
0
 62
     0
 48
6.0
370
    -1
100
AcDbLine
 10
953.9865320884855
 20
1136.72171163036
 30
0.0
 11
953.9865320884855
 21
1055.911238985545
 31
0.0
  0
LINE
  5
3B29
330
18
100
AcDbEntity
  8
0
 62
     0
 48
6.0
370
    -1
100
AcDbLine
 10
943.5494515237078
 20
1203.634895339064
 30
0.0
 11
943.5494515237078
 21
1183.634895339064
 31
0.0
  0
LINE
  5
3B2A
330
18
100
AcDbEntity
  8
0
 62
     0
 48
6.0
370
    -1
100
AcDbLine
 10
933.5494515237078
 20
1203.634895339064
 30
0.0
 11
933.5494515237078
 21
1183.634895339064
 31
0.0
  0
LINE
  5
3B2B
330
18
100
AcDbEntity
  8
0
 62
     0
 48
6.0
370
    -1
100
AcDbLine
 10
923.5494515237078
 20
1203.634895339064
 30
0.0
 11
923.5494515237078
 21
1183.634895339064
 31
0.0
  0
LINE
  5
3B2C
330
18
100
AcDbEntity
  8
0
 62
     0
 48
6.0
370
    -1
100
AcDbLine
 10
903.5494515237078
 20
1203.634895339064
 30
0.0
 11
903.5494515237078
 21
1183.634895339064
 31
0.0
  0
LINE
  5
3B2D
330
18
100
AcDbEntity
  8
0
 62
     0
 48
6.0
370
    -1
100
AcDbLine
 10
893.5494515237078
 20
1203.634895339064
 30
0.0
 11
893.5494515237078
 21
1183.634895339064
 31
0.0
  0
LINE
  5
3B2E
330
18
100
AcDbEntity
  8
0
 62
     0
 48
6.0
370
    -1
100
AcDbLine
 10
963.9865781765984
 20
1173.949001528382
 30
0.0
 11
963.9865781765984
 21
1143.985581437251
 31
0.0
  0
LINE
  5
3B2F
330
18
100
AcDbEntity
  8
0
 62
     0
 48
6.0
370
    -1
100
AcDbLine
 10
953.5494515237078
 20
1183.634895339064
 30
0.0
 11
963.5494515237078
 21
1173.634895339064
 31
0.0
  0
LINE
  5
3B30
330
18
100
AcDbEntity
  8
0
 62
     0
 48
6.0
370
    -1
100
AcDbLine
 10
953.5494515237078
 20
1203.634895339064
 30
0.0
 11
953.5494515237078
 21
1183.634895339064
 31
0.0
  0
CIRCLE
  5
3B35
330
18
100
AcDbEntity
  8
0
 62
     0
 48
6.0
370
    -1
100
AcDbCircle
 10
783.5775568969111
 20
2060.565611766665
 30
0.0
 40
9.013611994698294
  0
LINE
  5
3B36
330
18
100
AcDbEntity
  8
0
 62
     0
 48
6.0
370
    -1
100
AcDbLine
 10
734.3064742616771
 20
2021.230583048045
 30
0.0
 11
784.3064742616771
 21
2021.230583048045
 31
0.0
  0
LINE
  5
3B37
330
18
100
AcDbEntity
  8
0
 62
     0
 48
6.0
370
    -1
100
AcDbLine
 10
784.3064742616771
 20
2101.230583048045
 30
0.0
 11
754.3064742616771
 21
2071.230583048045
 31
0.0
  0
LINE
  5
3B38
330
18
100
AcDbEntity
  8
0
 62
     0
 48
6.0
370
    -1
100
AcDbLine
 10
654.3064742616771
 20
2101.230583048045
 30
0.0
 11
734.3064742616771
 21
2101.230583048045
 31
0.0
  0
LINE
  5
3B3A
330
18
100
AcDbEntity
  8
0
 62
     0
 48
6.0
370
    -1
100
AcDbLine
 10
754.3064742616771
 20
2071.230583048045
 30
0.0
 11
754.3064742616771
 21
2051.230583048045
 31
0.0
  0
LINE
  5
3B3B
330
18
100
AcDbEntity
  8
0
  6
CENTER
 62
     0
 48
6.0
370
    -1
100
AcDbLine
 10
914.3064742616771
 20
2181.230583048045
 30
0.0
 11
914.3064742616771
 21
2001.230583048045
 31
0.0
  0
LINE
  5
3B3C
330
18
100
AcDbEntity
  8
0
 62
     0
 48
6.0
370
    -1
100
AcDbLine
 10
959.3064742616771
 20
2096.230583048045
 30
0.0
 11
959.3064742616771
 21
2016.230583048045
 31
0.0
  0
LINE
  5
3B3D
330
18
100
AcDbEntity
  8
0
 62
     0
 48
6.0
370
    -1
100
AcDbLine
 10
784.3064742616771
 20
2021.230583048045
 30
0.0
 11
794.3064742616771
 21
2021.230583048045
 31
0.0
  0
LINE
  5
3B3E
330
18
100
AcDbEntity
  8
0
 62
     0
 48
6.0
370
    -1
100
AcDbLine
 10
959.3064742616771
 20
2016.230583048045
 30
0.0
 11
894.3064742616771
 21
2016.230583048045
 31
0.0
  0
LINE
  5
3B3F
330
18
100
AcDbEntity
  8
0
 62
     0
 48
6.0
370
    -1
100
AcDbLine
 10
874.3064742616771
 20
2096.230583048045
 30
0.0
 11
959.3064742616771
 21
2096.230583048045
 31
0.0
  0
LINE
  5
3B40
330
18
100
AcDbEntity
  8
0
 62
     0
 48
6.0
370
    -1
100
AcDbLine
 10
873.3973760118388
 20
2142.150741277606
 30
0.0
 11
953.3973760118388
 21
2142.150741277606
 31
0.0
  0
LINE
  5
3B41
330
18
100
AcDbEntity
  8
0
 62
     0
 48
6.0
370
    -1
100
AcDbLine
 10
873.3973760118388
 20
2162.150741277606
 30
0.0
 11
953.3973760118388
 21
2162.150741277606
 31
0.0
  0
LINE
  5
3B42
330
18
100
AcDbEntity
  8
0
 62
     0
 48
6.0
370
    -1
100
AcDbLine
 10
863.6595965098968
 20
2132.46490160878
 30
0.0
 11
863.6595965098968
 21
2102.501463470363
 31
0.0
  0
LINE
  5
3B43
330
18
100
AcDbEntity
  8
0
 62
     0
 48
6.0
370
    -1
100
AcDbLine
 10
784.3064742616771
 20
2101.230583048045
 30
0.0
 11
784.3064742616771
 21
2101.230583048045
 31
0.0
  0
LINE
  5
3B44
330
18
100
AcDbEntity
  8
0
 62
     0
 48
6.0
370
    -1
100
AcDbLine
 10
874.3064742616771
 20
2096.230583048045
 30
0.0
 11
874.3064742616771
 21
2036.230583048045
 31
0.0
  0
LINE
  5
3B45
330
18
100
AcDbEntity
  8
0
 62
     0
 48
6.0
370
    -1
100
AcDbLine
 10
863.3973760118388
 20
2132.150741277606
 30
0.0
 11
873.3973760118388
 21
2142.150741277606
 31
0.0
  0
LINE
  5
3B46
330
18
100
AcDbEntity
  8
0
 62
     0
 48
6.0
370
    -1
100
AcDbLine
 10
873.3973760118388
 20
2142.150741277606
 30
0.0
 11
873.3973760118388
 21
2162.150741277606
 31
0.0
  0
LINE
  5
3B47
330
18
100
AcDbEntity
  8
0
 62
     0
 48
6.0
370
    -1
100
AcDbLine
 10
883.3973760118388
 20
2162.150741277606
 30
0.0
 11
883.3973760118388
 21
2142.150741277606
 31
0.0
  0
LINE
  5
3B48
330
18
100
AcDbEntity
  8
0
 62
     0
 48
6.0
370
    -1
100
AcDbLine
 10
963.6603000113319
 20
2133.37287856691
 30
0.0
 11
963.6603000113319
 21
2102.501463470363
 31
0.0
  0
LINE
  5
3B49
330
18
100
AcDbEntity
  8
0
 62
     0
 48
6.0
370
    -1
100
AcDbLine
 10
933.3973760118388
 20
2162.150741277606
 30
0.0
 11
933.3973760118388
 21
2142.150741277606
 31
0.0
  0
LINE
  5
3B4A
330
18
100
AcDbEntity
  8
0
 62
     0
 48
6.0
370
    -1
100
AcDbLine
 10
943.3973760118388
 20
2162.150741277606
 30
0.0
 11
943.3973760118388
 21
2142.150741277606
 31
0.0
  0
LINE
  5
3B4B
330
18
100
AcDbEntity
  8
0
 62
     0
 48
6.0
370
    -1
100
AcDbLine
 10
893.3973760118388
 20
2162.150741277606
 30
0.0
 11
893.3973760118388
 21
2142.150741277606
 31
0.0
  0
LINE
  5
3B4C
330
18
100
AcDbEntity
  8
0
 62
     0
 48
6.0
370
    -1
100
AcDbLine
 10
903.3973760118388
 20
2162.150741277606
 30
0.0
 11
903.3973760118388
 21
2142.150741277606
 31
0.0
  0
LINE
  5
3B4D
330
18
100
AcDbEntity
  8
0
 62
     0
 48
6.0
370
    -1
100
AcDbLine
 10
913.3973760118388
 20
2162.150741277606
 30
0.0
 11
913.3973760118388
 21
2142.150741277606
 31
0.0
  0
LINE
  5
3B4E
330
18
100
AcDbEntity
  8
0
 62
     0
 48
6.0
370
    -1
100
AcDbLine
 10
923.3973760118388
 20
2162.150741277606
 30
0.0
 11
923.3973760118388
 21
2142.150741277606
 31
0.0
  0
LINE
  5
3B4F
330
18
100
AcDbEntity
  8
0
 62
     0
 48
6.0
370
    -1
100
AcDbLine
 10
953.3973760118388
 20
2142.150741277606
 30
0.0
 11
963.3973760118388
 21
2132.150741277606
 31
0.0
  0
LINE
  5
3B50
330
18
100
AcDbEntity
  8
0
 62
     0
 48
6.0
370
    -1
100
AcDbLine
 10
953.3973760118388
 20
2162.150741277606
 30
0.0
 11
953.3973760118388
 21
2142.150741277606
 31
0.0
  0
LINE
  5
3B58
330
18
100
AcDbEntity
  8
0
 62
     0
 48
6.0
370
    -1
100
AcDbLine
 10
1855.484923413725
 20
2014.622517405065
 30
0.0
 11
1374.306474261677
 21
1651.230583048045
 31
0.0
  0
LINE
  5
3B59
330
18
100
AcDbEntity
  8
0
 62
     0
 48
6.0
370
    -1
100
AcDbLine
 10
1757.033688263022
 20
2014.874708246565
 30
0.0
 11
1324.306474261677
 21
1691.230583048045
 31
0.0
  0
LINE
  5
3B5A
330
18
100
AcDbEntity
  8
0
 62
     0
 48
6.0
370
    -1
100
AcDbLine
 10
1994.306474261677
 20
2101.230583048045
 30
0.0
 11
1994.306474261677
 21
1181.230583048045
 31
0.0
  0
LINE
  5
3B5B
330
18
100
AcDbEntity
  8
0
 62
     0
 48
6.0
370
    -1
100
AcDbLine
 10
1914.306474261677
 20
1241.230583048045
 30
0.0
 11
1914.306474261677
 21
2101.230583048045
 31
0.0
  0
CIRCLE
  5
3B5D
330
18
100
AcDbEntity
  8
0
 62
     0
 48
6.0
370
    -1
100
AcDbCircle
 10
1954.102549606592
 20
1172.749676171901
 30
0.0
 40
9.013611994698294
  0
LINE
  5
3B5E
330
18
100
AcDbEntity
  8
0
 62
     0
 48
6.0
370
    -1
100
AcDbLine
 10
1939.306474261677
 20
1146.230583048045
 30
0.0
 11
1969.306474261677
 21
1146.230583048045
 31
0.0
  0
ARC
  5
3B5F
330
18
100
AcDbEntity
  8
0
 62
     0
 48
6.0
370
    -1
100
AcDbCircle
 10
1954.306474261677
 20
856.230583048045
 30
0.0
 40
10.0
100
AcDbArc
 50
180.0
 51
0.0
  0
ARC
  5
3B60
330
18
100
AcDbEntity
  8
0
 62
     0
 48
6.0
370
    -1
100
AcDbCircle
 10
1954.306474261677
 20
886.230583048045
 30
0.0
 40
10.0
100
AcDbArc
 50
0.0
 51
180.0
  0
LINE
  5
3B61
330
18
100
AcDbEntity
  8
0
 62
     0
 48
6.0
370
    -1
100
AcDbLine
 10
2034.306474261677
 20
841.230583048045
 30
0.0
 11
1904.306474261677
 21
841.230583048045
 31
0.0
  0
LINE
  5
3B62
330
18
100
AcDbEntity
  8
0
 62
     0
 48
6.0
370
    -1
100
AcDbLine
 10
1904.306474261677
 20
831.230583048045
 30
0.0
 11
2034.306474261677
 21
831.230583048045
 31
0.0
  0
LINE
  5
3B63
330
18
100
AcDbEntity
  8
0
 62
     0
 48
6.0
370
    -1
100
AcDbLine
 10
2004.306474261677
 20
911.230583048045
 30
0.0
 11
1904.306474261677
 21
911.230583048045
 31
0.0
  0
LINE
  5
3B64
330
18
100
AcDbEntity
  8
0
  6
CENTER
 62
     0
 48
6.0
370
    -1
100
AcDbLine
 10
1734.306474261677
 20
1221.806742104088
 30
0.0
 11
1734.306474261677
 21
1041.806742104088
 31
0.0
  0
LINE
  5
3B6D
330
18
100
AcDbEntity
  8
0
 62
     0
 48
6.0
370
    -1
100
AcDbLine
 10
1904.306474261677
 20
911.230583048045
 30
0.0
 11
1904.306474261677
 21
841.230583048045
 31
0.0
  0
LINE
  5
3B70
330
18
100
AcDbEntity
  8
0
 62
     0
 48
6.0
370
    -1
100
AcDbLine
 10
1944.306474261677
 20
886.230583048045
 30
0.0
 11
1944.306474261677
 21
856.230583048045
 31
0.0
  0
LINE
  5
3B71
330
18
100
AcDbEntity
  8
0
 62
     0
 48
6.0
370
    -1
100
AcDbLine
 10
1904.306474261677
 20
841.230583048045
 30
0.0
 11
1904.306474261677
 21
831.230583048045
 31
0.0
  0
LINE
  5
3B72
330
18
100
AcDbEntity
  8
0
 62
     0
 48
6.0
370
    -1
100
AcDbLine
 10
1696.561174660957
 20
1136.72171163036
 30
0.0
 11
1774.743554826455
 21
1136.72171163036
 31
0.0
  0
LINE
  5
3B73
330
18
100
AcDbEntity
  8
0
 62
     0
 48
6.0
370
    -1
100
AcDbLine
 10
1774.743554826455
 20
1055.911238985545
 30
0.0
 11
1694.742978161288
 21
1055.911238985545
 31
0.0
  0
LINE
  5
3B74
330
18
100
AcDbEntity
  8
0
 62
     0
 48
6.0
370
    -1
100
AcDbLine
 10
1694.306474261677
 20
1183.634895339064
 30
0.0
 11
1774.306474261677
 21
1183.634895339064
 31
0.0
  0
LINE
  5
3B75
330
18
100
AcDbEntity
  8
0
 62
     0
 48
6.0
370
    -1
100
AcDbLine
 10
1694.306474261677
 20
1203.634895339064
 30
0.0
 11
1774.306474261677
 21
1203.634895339064
 31
0.0
  0
LINE
  5
3B76
330
18
100
AcDbEntity
  8
0
 62
     0
 48
6.0
370
    -1
100
AcDbLine
 10
1695.652076411119
 20
1136.72171163036
 30
0.0
 11
1695.652076411119
 21
1056.819215943678
 31
0.0
  0
LINE
  5
3B77
330
18
100
AcDbEntity
  8
0
 62
     0
 48
6.0
370
    -1
100
AcDbLine
 10
1684.742897413133
 20
1174.856996533797
 30
0.0
 11
1684.742897413133
 21
1143.985581437251
 31
0.0
  0
LINE
  5
3B78
330
18
100
AcDbEntity
  8
0
 62
     0
 48
6.0
370
    -1
100
AcDbLine
 10
1684.306474261677
 20
1173.634895339064
 30
0.0
 11
1694.306474261677
 21
1183.634895339064
 31
0.0
  0
LINE
  5
3B79
330
18
100
AcDbEntity
  8
0
 62
     0
 48
6.0
370
    -1
100
AcDbLine
 10
1704.306474261677
 20
1203.634895339064
 30
0.0
 11
1704.306474261677
 21
1183.634895339064
 31
0.0
  0
LINE
  5
3B7A
330
18
100
AcDbEntity
  8
0
 62
     0
 48
6.0
370
    -1
100
AcDbLine
 10
1694.306474261677
 20
1183.634895339064
 30
0.0
 11
1694.306474261677
 21
1203.634895339064
 31
0.0
  0
LINE
  5
3B7B
330
18
100
AcDbEntity
  8
0
 62
     0
 48
6.0
370
    -1
100
AcDbLine
 10
1914.306474261677
 20
991.230583048045
 30
0.0
 11
1914.306474261677
 21
1161.230583048045
 31
0.0
  0
LINE
  5
3B7C
330
18
100
AcDbEntity
  8
0
 62
     0
 48
6.0
370
    -1
100
AcDbLine
 10
1914.306474261677
 20
991.230583048045
 30
0.0
 11
1914.306474261677
 21
921.230583048045
 31
0.0
  0
LINE
  5
3B7D
330
18
100
AcDbEntity
  8
0
 62
     0
 48
6.0
370
    -1
100
AcDbLine
 10
1914.306474261677
 20
951.230583048045
 30
0.0
 11
1914.306474261677
 21
911.230583048045
 31
0.0
  0
LINE
  5
3B7E
330
18
100
AcDbEntity
  8
0
 62
     0
 48
6.0
370
    -1
100
AcDbLine
 10
1824.306474261677
 20
1061.230583048045
 30
0.0
 11
1834.306474261677
 21
1061.230583048045
 31
0.0
  0
LINE
  5
3B7F
330
18
100
AcDbEntity
  8
0
 62
     0
 48
6.0
370
    -1
100
AcDbLine
 10
1774.743554826455
 20
1136.72171163036
 30
0.0
 11
1774.743554826455
 21
1055.911238985545
 31
0.0
  0
LINE
  5
3B80
330
18
100
AcDbEntity
  8
0
 62
     0
 48
6.0
370
    -1
100
AcDbLine
 10
1796.561983301181
 20
1061.165854522019
 30
0.0
 11
1774.902407094829
 21
1061.165854522019
 31
0.0
  0
LINE
  5
3B81
330
18
100
AcDbEntity
  8
0
 62
     0
 48
6.0
370
    -1
100
AcDbLine
 10
1794.306474261677
 20
1061.230583048045
 30
0.0
 11
1824.306474261677
 21
1061.230583048045
 31
0.0
  0
LINE
  5
3B82
330
18
100
AcDbEntity
  8
0
 62
     0
 48
6.0
370
    -1
100
AcDbLine
 10
1754.306474261677
 20
1203.634895339064
 30
0.0
 11
1754.306474261677
 21
1183.634895339064
 31
0.0
  0
LINE
  5
3B83
330
18
100
AcDbEntity
  8
0
 62
     0
 48
6.0
370
    -1
100
AcDbLine
 10
1744.306474261677
 20
1203.634895339064
 30
0.0
 11
1744.306474261677
 21
1183.634895339064
 31
0.0
  0
LINE
  5
3B84
330
18
100
AcDbEntity
  8
0
 62
     0
 48
6.0
370
    -1
100
AcDbLine
 10
1764.306474261677
 20
1203.634895339064
 30
0.0
 11
1764.306474261677
 21
1183.634895339064
 31
0.0
  0
LINE
  5
3B85
330
18
100
AcDbEntity
  8
0
 62
     0
 48
6.0
370
    -1
100
AcDbLine
 10
1724.306474261677
 20
1203.634895339064
 30
0.0
 11
1724.306474261677
 21
1183.634895339064
 31
0.0
  0
LINE
  5
3B86
330
18
100
AcDbEntity
  8
0
 62
     0
 48
6.0
370
    -1
100
AcDbLine
 10
1714.306474261677
 20
1203.634895339064
 30
0.0
 11
1714.306474261677
 21
1183.634895339064
 31
0.0
  0
LINE
  5
3B87
330
18
100
AcDbEntity
  8
0
 62
     0
 48
6.0
370
    -1
100
AcDbLine
 10
1784.743600914568
 20
1173.949001528382
 30
0.0
 11
1784.743600914568
 21
1143.985581437251
 31
0.0
  0
LINE
  5
3B88
330
18
100
AcDbEntity
  8
0
 62
     0
 48
6.0
370
    -1
100
AcDbLine
 10
1774.306474261677
 20
1183.634895339064
 30
0.0
 11
1784.306474261677
 21
1173.634895339064
 31
0.0
  0
LINE
  5
3B89
330
18
100
AcDbEntity
  8
0
 62
     0
 48
6.0
370
    -1
100
AcDbLine
 10
1774.306474261677
 20
1203.634895339064
 30
0.0
 11
1774.306474261677
 21
1183.634895339064
 31
0.0
  0
LINE
  5
3B8A
330
18
100
AcDbEntity
  8
0
 62
     0
 48
6.0
370
    -1
100
AcDbLine
 10
1914.306474261677
 20
1056.230583048045
 30
0.0
 11
1834.306474261677
 21
1056.230583048045
 31
0.0
  0
LINE
  5
3B8B
330
18
100
AcDbEntity
  8
0
 62
     0
 48
6.0
370
    -1
100
AcDbLine
 10
1914.306474261677
 20
1136.230583048045
 30
0.0
 11
1844.306474261677
 21
1136.230583048045
 31
0.0
  0
LINE
  5
3B8C
330
18
100
AcDbEntity
  8
0
 62
     0
 48
6.0
370
    -1
100
AcDbLine
 10
1834.306474261677
 20
1126.230583048045
 30
0.0
 11
1844.306474261677
 21
1136.230583048045
 31
0.0
  0
LINE
  5
3B8D
330
18
100
AcDbEntity
  8
0
 62
     0
 48
6.0
370
    -1
100
AcDbLine
 10
1834.306474261677
 20
1056.230583048045
 30
0.0
 11
1834.306474261677
 21
1126.230583048045
 31
0.0
  0
CIRCLE
  5
3B8E
330
18
100
AcDbEntity
  8
0
 62
     0
 48
6.0
370
    -1
100
AcDbCircle
 10
1873.910640630442
 20
1095.655683950644
 30
0.0
 40
9.013611994698294
  0
LINE
  5
3B97
330
18
100
AcDbEntity
  8
0
 62
     0
 48
6.0
370
    -1
100
AcDbLine
 10
2004.306474261677
 20
911.230583048045
 30
0.0
 11
2004.306474261677
 21
841.230583048045
 31
0.0
  0
LINE
  5
3B9E
330
18
100
AcDbEntity
  8
0
 62
     0
 48
6.0
370
    -1
100
AcDbLine
 10
2014.306474261677
 20
851.230583048045
 30
0.0
 11
2014.306474261677
 21
801.230583048045
 31
0.0
  0
LINE
  5
3BA0
330
18
100
AcDbEntity
  8
0
 62
     0
 48
6.0
370
    -1
100
AcDbLine
 10
1964.306474261677
 20
886.230583048045
 30
0.0
 11
1964.306474261677
 21
856.230583048045
 31
0.0
  0
LINE
  5
3BA1
330
18
100
AcDbEntity
  8
0
 62
     0
 48
6.0
370
    -1
100
AcDbLine
 10
2034.306474261677
 20
831.230583048045
 30
0.0
 11
2034.306474261677
 21
841.230583048045
 31
0.0
  0
LINE
  5
3BAF
330
18
100
AcDbEntity
  8
0
 62
     0
 48
6.0
370
    -1
100
AcDbLine
 10
1994.306474261677
 20
981.230583048045
 30
0.0
 11
1994.306474261677
 21
1171.230583048045
 31
0.0
  0
LINE
  5
3BB0
330
18
100
AcDbEntity
  8
0
 62
     0
 48
6.0
370
    -1
100
AcDbLine
 10
1994.306474261677
 20
981.230583048045
 30
0.0
 11
1994.306474261677
 21
931.230583048045
 31
0.0
  0
LINE
  5
3BB1
330
18
100
AcDbEntity
  8
0
 62
     0
 48
6.0
370
    -1
100
AcDbLine
 10
1994.306474261677
 20
951.230583048045
 30
0.0
 11
1994.306474261677
 21
911.230583048045
 31
0.0
  0
LINE
  5
3BB4
330
18
100
AcDbEntity
  8
0
 62
     0
 48
6.0
370
    -1
100
AcDbLine
 10
1974.306474261677
 20
1146.230583048045
 30
0.0
 11
1999.306474261677
 21
1176.230583048045
 31
0.0
  0
LINE
  5
3BB5
330
18
100
AcDbEntity
  8
0
 62
     0
 48
6.0
370
    -1
100
AcDbLine
 10
1969.306474261677
 20
1146.230583048045
 30
0.0
 11
1974.306474261677
 21
1146.230583048045
 31
0.0
  0
LINE
  5
3BCD
330
18
100
AcDbEntity
  8
0
 62
     0
 48
6.0
370
    -1
100
AcDbLine
 10
1914.306474261677
 20
2101.230583048045
 30
0.0
 11
1994.306474261677
 21
2101.230583048045
 31
0.0
  0
LINE
  5
3BD3
330
18
100
AcDbEntity
  8
0
 62
     0
 48
6.0
370
    -1
100
AcDbLine
 10
1774.743554826455
 20
2015.335079929502
 30
0.0
 11
1694.742978161288
 21
2015.335079929502
 31
0.0
  0
LINE
  5
3BD4
330
18
100
AcDbEntity
  8
0
 62
     0
 48
6.0
370
    -1
100
AcDbLine
 10
1696.561174660957
 20
2096.145552574316
 30
0.0
 11
1774.743554826455
 21
2096.145552574316
 31
0.0
  0
LINE
  5
3BD5
330
18
100
AcDbEntity
  8
0
 62
     0
 48
6.0
370
    -1
100
AcDbLine
 10
1694.306474261677
 20
2163.058736283021
 30
0.0
 11
1774.306474261677
 21
2163.058736283021
 31
0.0
  0
LINE
  5
3BD6
330
18
100
AcDbEntity
  8
0
 62
     0
 48
6.0
370
    -1
100
AcDbLine
 10
1694.306474261677
 20
2143.058736283021
 30
0.0
 11
1774.306474261677
 21
2143.058736283021
 31
0.0
  0
LINE
  5
3BD7
330
18
100
AcDbEntity
  8
0
 62
     0
 48
6.0
370
    -1
100
AcDbLine
 10
1695.652076411119
 20
2096.145552574316
 30
0.0
 11
1695.652076411119
 21
2016.243056887635
 31
0.0
  0
LINE
  5
3BD8
330
18
100
AcDbEntity
  8
0
 62
     0
 48
6.0
370
    -1
100
AcDbLine
 10
1684.742897413133
 20
2134.280837477754
 30
0.0
 11
1684.742897413133
 21
2103.409422381208
 31
0.0
  0
LINE
  5
3BD9
330
18
100
AcDbEntity
  8
0
 62
     0
 48
6.0
370
    -1
100
AcDbLine
 10
1704.306474261677
 20
2163.058736283021
 30
0.0
 11
1704.306474261677
 21
2143.058736283021
 31
0.0
  0
LINE
  5
3BDA
330
18
100
AcDbEntity
  8
0
 62
     0
 48
6.0
370
    -1
100
AcDbLine
 10
1694.306474261677
 20
2143.058736283021
 30
0.0
 11
1694.306474261677
 21
2163.058736283021
 31
0.0
  0
LINE
  5
3BDB
330
18
100
AcDbEntity
  8
0
 62
     0
 48
6.0
370
    -1
100
AcDbLine
 10
1684.306474261677
 20
2133.058736283021
 30
0.0
 11
1694.306474261677
 21
2143.058736283021
 31
0.0
  0
LINE
  5
3BDC
330
18
100
AcDbEntity
  8
0
  6
CENTER
 62
     0
 48
6.0
370
    -1
100
AcDbLine
 10
1734.306474261677
 20
2181.230583048045
 30
0.0
 11
1734.306474261677
 21
2001.230583048045
 31
0.0
  0
LINE
  5
3BDD
330
18
100
AcDbEntity
  8
0
 62
     0
 48
6.0
370
    -1
100
AcDbLine
 10
1774.743554826455
 20
2096.145552574316
 30
0.0
 11
1774.743554826455
 21
2015.335079929502
 31
0.0
  0
LINE
  5
3BDE
330
18
100
AcDbEntity
  8
0
 62
     0
 48
6.0
370
    -1
100
AcDbLine
 10
1834.306474261677
 20
2016.230583048045
 30
0.0
 11
1834.306474261677
 21
2086.230583048045
 31
0.0
  0
LINE
  5
3BDF
330
18
100
AcDbEntity
  8
0
 62
     0
 48
6.0
370
    -1
100
AcDbLine
 10
1834.74396999531
 20
2020.782977772853
 30
0.0
 11
1774.743554826455
 21
2020.782977772853
 31
0.0
  0
LINE
  5
3BE0
330
18
100
AcDbEntity
  8
0
 62
     0
 48
6.0
370
    -1
100
AcDbLine
 10
1914.306474261677
 20
2016.230583048045
 30
0.0
 11
1834.306474261677
 21
2016.230583048045
 31
0.0
  0
LINE
  5
3BE1
330
18
100
AcDbEntity
  8
0
 62
     0
 48
6.0
370
    -1
100
AcDbLine
 10
1834.306474261677
 20
2016.230583048045
 30
0.0
 11
1834.306474261677
 21
2016.230583048045
 31
0.0
  0
LINE
  5
3BE2
330
18
100
AcDbEntity
  8
0
 62
     0
 48
6.0
370
    -1
100
AcDbLine
 10
1784.743600914568
 20
2133.372842472339
 30
0.0
 11
1784.743600914568
 21
2103.409422381208
 31
0.0
  0
LINE
  5
3BE3
330
18
100
AcDbEntity
  8
0
 62
     0
 48
6.0
370
    -1
100
AcDbLine
 10
1764.306474261677
 20
2163.058736283021
 30
0.0
 11
1764.306474261677
 21
2143.058736283021
 31
0.0
  0
LINE
  5
3BE4
330
18
100
AcDbEntity
  8
0
 62
     0
 48
6.0
370
    -1
100
AcDbLine
 10
1754.306474261677
 20
2163.058736283021
 30
0.0
 11
1754.306474261677
 21
2143.058736283021
 31
0.0
  0
LINE
  5
3BE5
330
18
100
AcDbEntity
  8
0
 62
     0
 48
6.0
370
    -1
100
AcDbLine
 10
1744.306474261677
 20
2163.058736283021
 30
0.0
 11
1744.306474261677
 21
2143.058736283021
 31
0.0
  0
LINE
  5
3BE6
330
18
100
AcDbEntity
  8
0
 62
     0
 48
6.0
370
    -1
100
AcDbLine
 10
1734.306474261677
 20
2163.058736283021
 30
0.0
 11
1734.306474261677
 21
2143.058736283021
 31
0.0
  0
LINE
  5
3BE7
330
18
100
AcDbEntity
  8
0
 62
     0
 48
6.0
370
    -1
100
AcDbLine
 10
1724.306474261677
 20
2163.058736283021
 30
0.0
 11
1724.306474261677
 21
2143.058736283021
 31
0.0
  0
LINE
  5
3BE8
330
18
100
AcDbEntity
  8
0
 62
     0
 48
6.0
370
    -1
100
AcDbLine
 10
1714.306474261677
 20
2163.058736283021
 30
0.0
 11
1714.306474261677
 21
2143.058736283021
 31
0.0
  0
LINE
  5
3BE9
330
18
100
AcDbEntity
  8
0
 62
     0
 48
6.0
370
    -1
100
AcDbLine
 10
1774.306474261677
 20
2163.058736283021
 30
0.0
 11
1774.306474261677
 21
2143.058736283021
 31
0.0
  0
LINE
  5
3BEA
330
18
100
AcDbEntity
  8
0
 62
     0
 48
6.0
370
    -1
100
AcDbLine
 10
1774.306474261677
 20
2143.058736283021
 30
0.0
 11
1784.306474261677
 21
2133.058736283021
 31
0.0
  0
LINE
  5
3BEB
330
18
100
AcDbEntity
  8
0
 62
     0
 48
6.0
370
    -1
100
AcDbLine
 10
1844.306474261677
 20
2096.230583048045
 30
0.0
 11
1914.306474261677
 21
2096.230583048045
 31
0.0
  0
CIRCLE
  5
3BEC
330
18
100
AcDbEntity
  8
0
 62
     0
 48
6.0
370
    -1
100
AcDbCircle
 10
1874.102549606592
 20
2056.023328361574
 30
0.0
 40
9.013611994698294
  0
LINE
  5
3BED
330
18
100
AcDbEntity
  8
0
 62
     0
 48
6.0
370
    -1
100
AcDbLine
 10
1834.306474261677
 20
2086.230583048045
 30
0.0
 11
1844.306474261677
 21
2096.230583048045
 31
0.0
  0
LINE
  5
3D63
330
18
100
AcDbEntity
  8
0
 62
     0
 48
6.0
370
    -1
100
AcDbLine
 10
3966.387011962259
 20
1181.230583048045
 30
0.0
 11
3966.387011962259
 21
2101.230583048045
 31
0.0
  0
LINE
  5
3D64
330
18
100
AcDbEntity
  8
0
 62
     0
 48
6.0
370
    -1
100
AcDbLine
 10
3156.387011962259
 20
2101.230583048045
 30
0.0
 11
3156.387011962259
 21
1181.230583048045
 31
0.0
  0
LINE
  5
3D65
330
18
100
AcDbEntity
  8
0
 62
     0
 48
6.0
370
    -1
100
AcDbLine
 10
3876.387011962259
 20
2001.230583048045
 30
0.0
 11
3876.387011962259
 21
911.230583048045
 31
0.0
  0
LINE
  5
3D66
330
18
100
AcDbEntity
  8
0
 62
     0
 48
6.0
370
    -1
100
AcDbLine
 10
3956.387011962259
 20
1961.230583048045
 30
0.0
 11
3956.387011962259
 21
911.230583048045
 31
0.0
  0
LINE
  5
3D67
330
18
100
AcDbEntity
  8
0
 62
     0
 48
6.0
370
    -1
100
AcDbLine
 10
3956.387011962259
 20
1931.230583048045
 30
0.0
 11
3956.387011962259
 21
911.230583048045
 31
0.0
  0
LINE
  5
3D68
330
18
100
AcDbEntity
  8
0
 62
     0
 48
6.0
370
    -1
100
AcDbLine
 10
3876.387011962259
 20
1941.230583048045
 30
0.0
 11
3876.387011962259
 21
911.230583048045
 31
0.0
  0
LINE
  5
3D69
330
18
100
AcDbEntity
  8
0
 62
     0
 48
6.0
370
    -1
100
AcDbLine
 10
3246.387011962259
 20
1961.230583048045
 30
0.0
 11
3246.387011962259
 21
911.230583048045
 31
0.0
  0
LINE
  5
3D6A
330
18
100
AcDbEntity
  8
0
 62
     0
 48
6.0
370
    -1
100
AcDbLine
 10
3166.387011962259
 20
2001.230583048045
 30
0.0
 11
3166.387011962259
 21
911.230583048045
 31
0.0
  0
LINE
  5
3D6B
330
18
100
AcDbEntity
  8
0
 62
     0
 48
6.0
370
    -1
100
AcDbLine
 10
3956.532039564659
 20
1181.026130409498
 30
0.0
 11
4031.66364607029
 21
1181.026130409498
 31
0.0
  0
LINE
  5
3D6C
330
18
100
AcDbEntity
  8
0
 62
     0
 48
6.0
370
    -1
100
AcDbLine
 10
3956.387011962259
 20
1141.230583048045
 30
0.0
 11
4026.387011962259
 21
1141.230583048045
 31
0.0
  0
LINE
  5
3D6D
330
18
100
AcDbEntity
  8
0
 62
     0
 48
6.0
370
    -1
100
AcDbLine
 10
3246.387011962259
 20
1181.230583048045
 30
0.0
 11
3876.387011962259
 21
1181.230583048045
 31
0.0
  0
LINE
  5
3D70
330
18
100
AcDbEntity
  8
0
 62
     0
 48
6.0
370
    -1
100
AcDbLine
 10
3246.387011962259
 20
1141.230583048045
 30
0.0
 11
3876.387011962259
 21
1141.230583048045
 31
0.0
  0
LINE
  5
3D71
330
18
100
AcDbEntity
  8
0
 62
     0
 48
6.0
370
    -1
100
AcDbLine
 10
3246.387011962259
 20
1061.230583048045
 30
0.0
 11
3876.387011962259
 21
1061.230583048045
 31
0.0
  0
LINE
  5
3D72
330
18
100
AcDbEntity
  8
0
 62
     0
 48
6.0
370
    -1
100
AcDbLine
 10
3156.387011962259
 20
911.230583048045
 30
0.0
 11
3156.387011962259
 21
841.230583048045
 31
0.0
  0
LINE
  5
3D73
330
18
100
AcDbEntity
  8
0
 62
     0
 48
6.0
370
    -1
100
AcDbLine
 10
3256.387011962259
 20
911.230583048045
 30
0.0
 11
3256.387011962259
 21
841.230583048045
 31
0.0
  0
ARC
  5
3D74
330
18
100
AcDbEntity
  8
0
 62
     0
 48
6.0
370
    -1
100
AcDbCircle
 10
3206.387011962259
 20
886.230583048045
 30
0.0
 40
10.0
100
AcDbArc
 50
0.0
 51
180.0
  0
LINE
  5
3D77
330
18
100
AcDbEntity
  8
0
 62
     0
 48
6.0
370
    -1
100
AcDbLine
 10
3126.387011962259
 20
831.230583048045
 30
0.0
 11
3256.387011962259
 21
831.230583048045
 31
0.0
  0
LINE
  5
3D78
330
18
100
AcDbEntity
  8
0
 62
     0
 48
6.0
370
    -1
100
AcDbLine
 10
3256.387011962259
 20
841.230583048045
 30
0.0
 11
3126.387011962259
 21
841.230583048045
 31
0.0
  0
LINE
  5
3D79
330
18
100
AcDbEntity
  8
0
 62
     0
 48
6.0
370
    -1
100
AcDbLine
 10
3146.387011962259
 20
851.230583048045
 30
0.0
 11
3146.387011962259
 21
801.230583048045
 31
0.0
  0
LINE
  5
3D7C
330
18
100
AcDbEntity
  8
0
 62
     0
 48
6.0
370
    -1
100
AcDbLine
 10
3126.387011962259
 20
841.230583048045
 30
0.0
 11
3126.387011962259
 21
831.230583048045
 31
0.0
  0
LINE
  5
3D7D
330
18
100
AcDbEntity
  8
0
 62
     0
 48
6.0
370
    -1
100
AcDbLine
 10
3216.387011962259
 20
886.230583048045
 30
0.0
 11
3216.387011962259
 21
856.230583048045
 31
0.0
  0
LINE
  5
3D7E
330
18
100
AcDbEntity
  8
0
 62
     0
 48
6.0
370
    -1
100
AcDbLine
 10
3196.387011962259
 20
886.230583048045
 30
0.0
 11
3196.387011962259
 21
856.230583048045
 31
0.0
  0
ARC
  5
3D7F
330
18
100
AcDbEntity
  8
0
 62
     0
 48
6.0
370
    -1
100
AcDbCircle
 10
3206.387011962259
 20
856.230583048045
 30
0.0
 40
10.0
100
AcDbArc
 50
180.0
 51
0.0
  0
LINE
  5
3D80
330
18
100
AcDbEntity
  8
0
 62
     0
 48
6.0
370
    -1
100
AcDbLine
 10
3256.387011962259
 20
841.230583048045
 30
0.0
 11
3256.387011962259
 21
831.230583048045
 31
0.0
  0
LINE
  5
3D83
330
18
100
AcDbEntity
  8
0
 62
     0
 48
6.0
370
    -1
100
AcDbLine
 10
3271.387011962259
 20
1201.230583048045
 30
0.0
 11
3321.387011962259
 21
1201.230583048045
 31
0.0
  0
LINE
  5
3D84
330
18
100
AcDbEntity
  8
0
 62
     0
 48
6.0
370
    -1
100
AcDbLine
 10
3271.387011962259
 20
1201.230583048045
 30
0.0
 11
3371.387011962259
 21
1201.230583048045
 31
0.0
  0
LINE
  5
3D85
330
18
100
AcDbEntity
  8
0
 62
     0
 48
6.0
370
    -1
100
AcDbLine
 10
3256.387011962259
 20
911.230583048045
 30
0.0
 11
3156.387011962259
 21
911.230583048045
 31
0.0
  0
LINE
  5
3D86
330
18
100
AcDbEntity
  8
0
 62
     0
 48
6.0
370
    -1
100
AcDbLine
 10
3166.387011962259
 20
951.230583048045
 30
0.0
 11
3166.387011962259
 21
911.230583048045
 31
0.0
  0
LINE
  5
3D87
330
18
100
AcDbEntity
  8
0
 62
     0
 48
6.0
370
    -1
100
AcDbLine
 10
3246.387011962259
 20
951.230583048045
 30
0.0
 11
3246.387011962259
 21
911.230583048045
 31
0.0
  0
LINE
  5
3D88
330
18
100
AcDbEntity
  8
0
 62
     0
 48
6.0
370
    -1
100
AcDbLine
 10
3091.279564129516
 20
1181.364157981561
 30
0.0
 11
3166.41117063515
 21
1181.364157981561
 31
0.0
  0
LINE
  5
3D89
330
18
100
AcDbEntity
  8
0
 62
     0
 48
6.0
370
    -1
100
AcDbLine
 10
3166.387011962259
 20
1141.230583048045
 30
0.0
 11
3096.387011962259
 21
1141.230583048045
 31
0.0
  0
LINE
  5
3D8A
330
18
100
AcDbEntity
  8
0
 62
     0
 48
6.0
370
    -1
100
AcDbLine
 10
3091.279564129516
 20
1141.14027517891
 30
0.0
 11
3099.063483193335
 21
1141.14027517891
 31
0.0
  0
LINE
  5
3D8B
330
18
100
AcDbEntity
  8
0
 62
     0
 48
6.0
370
    -1
100
AcDbLine
 10
3091.387011962259
 20
1141.230583048045
 30
0.0
 11
3091.387011962259
 21
1181.230583048045
 31
0.0
  0
LINE
  5
3D8C
330
18
100
AcDbEntity
  8
0
 62
     0
 48
6.0
370
    -1
100
AcDbLine
 10
3271.387011962259
 20
1181.230583048045
 30
0.0
 11
3271.387011962259
 21
1201.230583048045
 31
0.0
  0
LINE
  5
3D8D
330
18
100
AcDbEntity
  8
0
 62
     0
 48
6.0
370
    -1
100
AcDbLine
 10
3281.387011962259
 20
1201.230583048045
 30
0.0
 11
3281.387011962259
 21
1181.230583048045
 31
0.0
  0
LINE
  5
3D8E
330
18
100
AcDbEntity
  8
0
 62
     0
 48
6.0
370
    -1
100
AcDbLine
 10
3291.387011962259
 20
1201.230583048045
 30
0.0
 11
3291.387011962259
 21
1181.230583048045
 31
0.0
  0
LINE
  5
3D8F
330
18
100
AcDbEntity
  8
0
 62
     0
 48
6.0
370
    -1
100
AcDbLine
 10
3301.387011962259
 20
1201.230583048045
 30
0.0
 11
3301.387011962259
 21
1181.230583048045
 31
0.0
  0
LINE
  5
3D90
330
18
100
AcDbEntity
  8
0
 62
     0
 48
6.0
370
    -1
100
AcDbLine
 10
3311.387011962259
 20
1201.230583048045
 30
0.0
 11
3311.387011962259
 21
1181.230583048045
 31
0.0
  0
LINE
  5
3D91
330
18
100
AcDbEntity
  8
0
 62
     0
 48
6.0
370
    -1
100
AcDbLine
 10
3321.387011962259
 20
1201.230583048045
 30
0.0
 11
3321.387011962259
 21
1181.230583048045
 31
0.0
  0
LINE
  5
3D92
330
18
100
AcDbEntity
  8
0
 62
     0
 48
6.0
370
    -1
100
AcDbLine
 10
3331.387011962259
 20
1201.230583048045
 30
0.0
 11
3331.387011962259
 21
1181.230583048045
 31
0.0
  0
LINE
  5
3D93
330
18
100
AcDbEntity
  8
0
 62
     0
 48
6.0
370
    -1
100
AcDbLine
 10
3341.387011962259
 20
1201.230583048045
 30
0.0
 11
3341.387011962259
 21
1181.230583048045
 31
0.0
  0
LINE
  5
3D94
330
18
100
AcDbEntity
  8
0
 62
     0
 48
6.0
370
    -1
100
AcDbLine
 10
3351.387011962259
 20
1201.230583048045
 30
0.0
 11
3351.387011962259
 21
1181.230583048045
 31
0.0
  0
POINT
  5
3D95
330
18
100
AcDbEntity
  8
DEFPOINTS
  6
ByBlock
 62
     0
 48
6.0
370
    -1
100
AcDbPoint
 10
3315.295821797161
 20
1210.474054037009
 30
0.0
  0
LINE
  5
3D96
330
18
100
AcDbEntity
  8
0
 62
     0
 48
6.0
370
    -1
100
AcDbLine
 10
3371.387011962259
 20
1201.230583048045
 30
0.0
 11
3371.387011962259
 21
1181.230583048045
 31
0.0
  0
LINE
  5
3D97
330
18
100
AcDbEntity
  8
0
 62
     0
 48
6.0
370
    -1
100
AcDbLine
 10
3361.387011962259
 20
1201.230583048045
 30
0.0
 11
3361.387011962259
 21
1181.230583048045
 31
0.0
  0
ARC
  5
3D98
330
18
100
AcDbEntity
  8
0
 62
     0
 48
6.0
370
    -1
100
AcDbCircle
 10
3916.387011962259
 20
886.230583048045
 30
0.0
 40
10.0
100
AcDbArc
 50
0.0
 51
180.0
  0
LINE
  5
3D99
330
18
100
AcDbEntity
  8
0
 62
     0
 48
6.0
370
    -1
100
AcDbLine
 10
3966.387011962259
 20
911.230583048045
 30
0.0
 11
3966.387011962259
 21
841.230583048045
 31
0.0
  0
LINE
  5
3D9A
330
18
100
AcDbEntity
  8
0
 62
     0
 48
6.0
370
    -1
100
AcDbLine
 10
3866.387011962259
 20
911.230583048045
 30
0.0
 11
3866.387011962259
 21
841.230583048045
 31
0.0
  0
LINE
  5
3DA4
330
18
100
AcDbEntity
  8
0
 62
     0
 48
6.0
370
    -1
100
AcDbLine
 10
3996.387011962259
 20
841.230583048045
 30
0.0
 11
3866.387011962259
 21
841.230583048045
 31
0.0
  0
LINE
  5
3DA5
330
18
100
AcDbEntity
  8
0
 62
     0
 48
6.0
370
    -1
100
AcDbLine
 10
3866.387011962259
 20
831.230583048045
 30
0.0
 11
3996.387011962259
 21
831.230583048045
 31
0.0
  0
LINE
  5
3DA6
330
18
100
AcDbEntity
  8
0
 62
     0
 48
6.0
370
    -1
100
AcDbLine
 10
3866.387011962259
 20
841.230583048045
 30
0.0
 11
3866.387011962259
 21
831.230583048045
 31
0.0
  0
LINE
  5
3DA7
330
18
100
AcDbEntity
  8
0
 62
     0
 48
6.0
370
    -1
100
AcDbLine
 10
3976.387011962259
 20
851.230583048045
 30
0.0
 11
3976.387011962259
 21
801.230583048045
 31
0.0
  0
ARC
  5
3DAA
330
18
100
AcDbEntity
  8
0
 62
     0
 48
6.0
370
    -1
100
AcDbCircle
 10
3916.387011962259
 20
856.230583048045
 30
0.0
 40
10.0
100
AcDbArc
 50
180.0
 51
0.0
  0
LINE
  5
3DAB
330
18
100
AcDbEntity
  8
0
 62
     0
 48
6.0
370
    -1
100
AcDbLine
 10
3906.387011962259
 20
886.230583048045
 30
0.0
 11
3906.387011962259
 21
856.230583048045
 31
0.0
  0
LINE
  5
3DAC
330
18
100
AcDbEntity
  8
0
 62
     0
 48
6.0
370
    -1
100
AcDbLine
 10
3926.387011962259
 20
886.230583048045
 30
0.0
 11
3926.387011962259
 21
856.230583048045
 31
0.0
  0
LINE
  5
3DAD
330
18
100
AcDbEntity
  8
0
 62
     0
 48
6.0
370
    -1
100
AcDbLine
 10
3996.387011962259
 20
831.230583048045
 30
0.0
 11
3996.387011962259
 21
841.230583048045
 31
0.0
  0
LINE
  5
3DAE
330
18
100
AcDbEntity
  8
0
 62
     0
 48
6.0
370
    -1
100
AcDbLine
 10
3751.387011962259
 20
1201.230583048045
 30
0.0
 11
3801.387011962259
 21
1201.230583048045
 31
0.0
  0
LINE
  5
3DAF
330
18
100
AcDbEntity
  8
0
 62
     0
 48
6.0
370
    -1
100
AcDbLine
 10
3751.387011962259
 20
1201.230583048045
 30
0.0
 11
3851.387011962259
 21
1201.230583048045
 31
0.0
  0
LINE
  5
3DB0
330
18
100
AcDbEntity
  8
0
 62
     0
 48
6.0
370
    -1
100
AcDbLine
 10
3751.387011962259
 20
1181.230583048045
 30
0.0
 11
3751.387011962259
 21
1201.230583048045
 31
0.0
  0
LINE
  5
3DB1
330
18
100
AcDbEntity
  8
0
 62
     0
 48
6.0
370
    -1
100
AcDbLine
 10
3761.387011962259
 20
1201.230583048045
 30
0.0
 11
3761.387011962259
 21
1181.230583048045
 31
0.0
  0
LINE
  5
3DB2
330
18
100
AcDbEntity
  8
0
 62
     0
 48
6.0
370
    -1
100
AcDbLine
 10
3966.387011962259
 20
911.230583048045
 30
0.0
 11
3866.387011962259
 21
911.230583048045
 31
0.0
  0
LINE
  5
3DB3
330
18
100
AcDbEntity
  8
0
 62
     0
 48
6.0
370
    -1
100
AcDbLine
 10
3876.387011962259
 20
951.230583048045
 30
0.0
 11
3876.387011962259
 21
911.230583048045
 31
0.0
  0
LINE
  5
3DB4
330
18
100
AcDbEntity
  8
0
 62
     0
 48
6.0
370
    -1
100
AcDbLine
 10
3956.387011962259
 20
951.230583048045
 30
0.0
 11
3956.387011962259
 21
911.230583048045
 31
0.0
  0
LINE
  5
3DB5
330
18
100
AcDbEntity
  8
0
 62
     0
 48
6.0
370
    -1
100
AcDbLine
 10
3771.387011962259
 20
1201.230583048045
 30
0.0
 11
3771.387011962259
 21
1181.230583048045
 31
0.0
  0
LINE
  5
3DB6
330
18
100
AcDbEntity
  8
0
 62
     0
 48
6.0
370
    -1
100
AcDbLine
 10
3821.387011962259
 20
1201.230583048045
 30
0.0
 11
3821.387011962259
 21
1181.230583048045
 31
0.0
  0
LINE
  5
3DB7
330
18
100
AcDbEntity
  8
0
 62
     0
 48
6.0
370
    -1
100
AcDbLine
 10
3801.387011962259
 20
1201.230583048045
 30
0.0
 11
3801.387011962259
 21
1181.230583048045
 31
0.0
  0
LINE
  5
3DB8
330
18
100
AcDbEntity
  8
0
 62
     0
 48
6.0
370
    -1
100
AcDbLine
 10
3811.387011962259
 20
1201.230583048045
 30
0.0
 11
3811.387011962259
 21
1181.230583048045
 31
0.0
  0
POINT
  5
3DB9
330
18
100
AcDbEntity
  8
DEFPOINTS
  6
ByBlock
 62
     0
 48
6.0
370
    -1
100
AcDbPoint
 10
3807.38957104805
 20
1210.474054037009
 30
0.0
  0
LINE
  5
3DBA
330
18
100
AcDbEntity
  8
0
 62
     0
 48
6.0
370
    -1
100
AcDbLine
 10
3791.387011962259
 20
1201.230583048045
 30
0.0
 11
3791.387011962259
 21
1181.230583048045
 31
0.0
  0
LINE
  5
3DBB
330
18
100
AcDbEntity
  8
0
 62
     0
 48
6.0
370
    -1
100
AcDbLine
 10
3781.387011962259
 20
1201.230583048045
 30
0.0
 11
3781.387011962259
 21
1181.230583048045
 31
0.0
  0
LINE
  5
3DBC
330
18
100
AcDbEntity
  8
0
 62
     0
 48
6.0
370
    -1
100
AcDbLine
 10
3831.387011962259
 20
1201.230583048045
 30
0.0
 11
3831.387011962259
 21
1181.230583048045
 31
0.0
  0
LINE
  5
3DBD
330
18
100
AcDbEntity
  8
0
 62
     0
 48
6.0
370
    -1
100
AcDbLine
 10
3851.387011962259
 20
1201.230583048045
 30
0.0
 11
3851.387011962259
 21
1181.230583048045
 31
0.0
  0
LINE
  5
3DBE
330
18
100
AcDbEntity
  8
0
 62
     0
 48
6.0
370
    -1
100
AcDbLine
 10
3841.387011962259
 20
1201.230583048045
 30
0.0
 11
3841.387011962259
 21
1181.230583048045
 31
0.0
  0
LINE
  5
3DBF
330
18
100
AcDbEntity
  8
0
 62
     0
 48
6.0
370
    -1
100
AcDbLine
 10
4014.7421198884
 20
1141.14027517891
 30
0.0
 11
4031.66364607029
 21
1141.14027517891
 31
0.0
  0
LINE
  5
3DC0
330
18
100
AcDbEntity
  8
0
 62
     0
 48
6.0
370
    -1
100
AcDbLine
 10
4031.387011962259
 20
1181.230583048045
 30
0.0
 11
4031.387011962259
 21
1141.230583048045
 31
0.0
  0
LINE
  5
3DDE
330
18
100
AcDbEntity
  8
0
 62
     0
 48
6.0
370
    -1
100
AcDbLine
 10
3091.387011962259
 20
2141.230583048045
 30
0.0
 11
4031.387011962259
 21
2141.230583048045
 31
0.0
  0
LINE
  5
3DDF
330
18
100
AcDbEntity
  8
0
 62
     0
 48
6.0
370
    -1
100
AcDbLine
 10
3091.387011962259
 20
2101.230583048045
 30
0.0
 11
4031.387011962259
 21
2101.230583048045
 31
0.0
  0
LINE
  5
3DE3
330
18
100
AcDbEntity
  8
0
 62
     0
 48
6.0
370
    -1
100
AcDbLine
 10
3246.387011962259
 20
2021.230583048045
 30
0.0
 11
3876.387011962259
 21
2021.230583048045
 31
0.0
  0
LINE
  5
3DE8
330
18
100
AcDbEntity
  8
0
 62
     0
 48
6.0
370
    -1
100
AcDbLine
 10
3246.387011962259
 20
2101.230583048045
 30
0.0
 11
3246.387011962259
 21
1926.230583048045
 31
0.0
  0
LINE
  5
3DE9
330
18
100
AcDbEntity
  8
0
 62
     0
 48
6.0
370
    -1
100
AcDbLine
 10
3166.387011962259
 20
2101.230583048045
 30
0.0
 11
3166.387011962259
 21
1981.230583048045
 31
0.0
  0
LINE
  5
3DEA
330
18
100
AcDbEntity
  8
0
 62
     0
 48
6.0
370
    -1
100
AcDbLine
 10
3156.387011962259
 20
2031.230583048045
 30
0.0
 11
3166.387011962259
 21
2031.230583048045
 31
0.0
  0
LINE
  5
3DEB
330
18
100
AcDbEntity
  8
0
 62
     0
 48
6.0
370
    -1
100
AcDbLine
 10
3091.387011962259
 20
2101.230583048045
 30
0.0
 11
3091.387011962259
 21
2141.230583048045
 31
0.0
  0
LINE
  5
3DED
330
18
100
AcDbEntity
  8
0
 62
     0
 48
6.0
370
    -1
100
AcDbLine
 10
3291.387011962259
 20
2161.230583048045
 30
0.0
 11
3291.387011962259
 21
2141.230583048045
 31
0.0
  0
LINE
  5
3DEE
330
18
100
AcDbEntity
  8
0
 62
     0
 48
6.0
370
    -1
100
AcDbLine
 10
3281.387011962259
 20
2161.230583048045
 30
0.0
 11
3281.387011962259
 21
2141.230583048045
 31
0.0
  0
LINE
  5
3DEF
330
18
100
AcDbEntity
  8
0
 62
     0
 48
6.0
370
    -1
100
AcDbLine
 10
3271.387011962259
 20
2141.230583048045
 30
0.0
 11
3271.387011962259
 21
2161.230583048045
 31
0.0
  0
LINE
  5
3DF1
330
18
100
AcDbEntity
  8
0
 62
     0
 48
6.0
370
    -1
100
AcDbLine
 10
3351.387011962259
 20
2161.230583048045
 30
0.0
 11
3351.387011962259
 21
2141.230583048045
 31
0.0
  0
LINE
  5
3DF2
330
18
100
AcDbEntity
  8
0
 62
     0
 48
6.0
370
    -1
100
AcDbLine
 10
3341.387011962259
 20
2161.230583048045
 30
0.0
 11
3341.387011962259
 21
2141.230583048045
 31
0.0
  0
LINE
  5
3DF3
330
18
100
AcDbEntity
  8
0
 62
     0
 48
6.0
370
    -1
100
AcDbLine
 10
3331.387011962259
 20
2161.230583048045
 30
0.0
 11
3331.387011962259
 21
2141.230583048045
 31
0.0
  0
LINE
  5
3DF4
330
18
100
AcDbEntity
  8
0
 62
     0
 48
6.0
370
    -1
100
AcDbLine
 10
3321.387011962259
 20
2161.230583048045
 30
0.0
 11
3321.387011962259
 21
2141.230583048045
 31
0.0
  0
LINE
  5
3DF5
330
18
100
AcDbEntity
  8
0
 62
     0
 48
6.0
370
    -1
100
AcDbLine
 10
3311.387011962259
 20
2161.230583048045
 30
0.0
 11
3311.387011962259
 21
2141.230583048045
 31
0.0
  0
LINE
  5
3DF6
330
18
100
AcDbEntity
  8
0
 62
     0
 48
6.0
370
    -1
100
AcDbLine
 10
3301.387011962259
 20
2161.230583048045
 30
0.0
 11
3301.387011962259
 21
2141.230583048045
 31
0.0
  0
LINE
  5
3DF7
330
18
100
AcDbEntity
  8
0
 62
     0
 48
6.0
370
    -1
100
AcDbLine
 10
3361.387011962259
 20
2161.230583048045
 30
0.0
 11
3361.387011962259
 21
2141.230583048045
 31
0.0
  0
LINE
  5
3DF8
330
18
100
AcDbEntity
  8
0
 62
     0
 48
6.0
370
    -1
100
AcDbLine
 10
3371.387011962259
 20
2161.230583048045
 30
0.0
 11
3371.387011962259
 21
2141.230583048045
 31
0.0
  0
LINE
  5
3E03
330
18
100
AcDbEntity
  8
0
 62
     0
 48
6.0
370
    -1
100
AcDbLine
 10
3761.387011962259
 20
2161.230583048045
 30
0.0
 11
3761.387011962259
 21
2141.230583048045
 31
0.0
  0
LINE
  5
3E04
330
18
100
AcDbEntity
  8
0
 62
     0
 48
6.0
370
    -1
100
AcDbLine
 10
3751.387011962259
 20
2141.230583048045
 30
0.0
 11
3751.387011962259
 21
2161.230583048045
 31
0.0
  0
LINE
  5
3E05
330
18
100
AcDbEntity
  8
0
 62
     0
 48
6.0
370
    -1
100
AcDbLine
 10
3876.387011962259
 20
2101.230583048045
 30
0.0
 11
3876.387011962259
 21
1921.230583048045
 31
0.0
  0
LINE
  5
3E06
330
18
100
AcDbEntity
  8
0
 62
     0
 48
6.0
370
    -1
100
AcDbLine
 10
3956.387011962259
 20
2101.230583048045
 30
0.0
 11
3956.387011962259
 21
1921.230583048045
 31
0.0
  0
LINE
  5
3E07
330
18
100
AcDbEntity
  8
0
 62
     0
 48
6.0
370
    -1
100
AcDbLine
 10
3956.387011962259
 20
2031.230583048045
 30
0.0
 11
3966.387011962259
 21
2031.230583048045
 31
0.0
  0
LINE
  5
3E09
330
18
100
AcDbEntity
  8
0
 62
     0
 48
6.0
370
    -1
100
AcDbLine
 10
3811.387011962259
 20
2161.230583048045
 30
0.0
 11
3811.387011962259
 21
2141.230583048045
 31
0.0
  0
LINE
  5
3E0A
330
18
100
AcDbEntity
  8
0
 62
     0
 48
6.0
370
    -1
100
AcDbLine
 10
3801.387011962259
 20
2161.230583048045
 30
0.0
 11
3801.387011962259
 21
2141.230583048045
 31
0.0
  0
LINE
  5
3E0B
330
18
100
AcDbEntity
  8
0
 62
     0
 48
6.0
370
    -1
100
AcDbLine
 10
3791.387011962259
 20
2161.230583048045
 30
0.0
 11
3791.387011962259
 21
2141.230583048045
 31
0.0
  0
LINE
  5
3E0C
330
18
100
AcDbEntity
  8
0
 62
     0
 48
6.0
370
    -1
100
AcDbLine
 10
3781.387011962259
 20
2161.230583048045
 30
0.0
 11
3781.387011962259
 21
2141.230583048045
 31
0.0
  0
LINE
  5
3E0D
330
18
100
AcDbEntity
  8
0
 62
     0
 48
6.0
370
    -1
100
AcDbLine
 10
3821.387011962259
 20
2161.230583048045
 30
0.0
 11
3821.387011962259
 21
2141.230583048045
 31
0.0
  0
LINE
  5
3E0E
330
18
100
AcDbEntity
  8
0
 62
     0
 48
6.0
370
    -1
100
AcDbLine
 10
3771.387011962259
 20
2161.230583048045
 30
0.0
 11
3771.387011962259
 21
2141.230583048045
 31
0.0
  0
LINE
  5
3E0F
330
18
100
AcDbEntity
  8
0
 62
     0
 48
6.0
370
    -1
100
AcDbLine
 10
3841.387011962259
 20
2161.230583048045
 30
0.0
 11
3841.387011962259
 21
2141.230583048045
 31
0.0
  0
LINE
  5
3E10
330
18
100
AcDbEntity
  8
0
 62
     0
 48
6.0
370
    -1
100
AcDbLine
 10
3851.387011962259
 20
2161.230583048045
 30
0.0
 11
3851.387011962259
 21
2141.230583048045
 31
0.0
  0
LINE
  5
3E11
330
18
100
AcDbEntity
  8
0
 62
     0
 48
6.0
370
    -1
100
AcDbLine
 10
3831.387011962259
 20
2161.230583048045
 30
0.0
 11
3831.387011962259
 21
2141.230583048045
 31
0.0
  0
LINE
  5
3E1B
330
18
100
AcDbEntity
  8
0
 62
     0
 48
6.0
370
    -1
100
AcDbLine
 10
4031.387011962259
 20
2141.230583048045
 30
0.0
 11
4031.387011962259
 21
2101.230583048045
 31
0.0
  0
LINE
  5
3F80
330
18
100
AcDbEntity
  8
0
370
    -1
100
AcDbLine
 10
3751.387011962259
 20
2161.230583048045
 30
0.0
 11
3851.387011962259
 21
2161.230583048045
 31
0.0
  0
LINE
  5
3F81
330
18
100
AcDbEntity
  8
0
370
    -1
100
AcDbLine
 10
3271.387011962259
 20
2161.230583048045
 30
0.0
 11
3371.387011962259
 21
2161.230583048045
 31
0.0
  0
POINT
  5
40DA
330
18
100
AcDbEntity
  8
DEFPOINTS
  6
ByBlock
 62
     0
370
    -1
100
AcDbPoint
 10
1914.306474261677
 20
2016.230583048045
 30
0.0
  0
POINT
  5
40DB
330
18
100
AcDbEntity
  8
DEFPOINTS
  6
ByBlock
 62
     0
370
    -1
100
AcDbPoint
 10
1774.306474261677
 20
1203.634895339064
 30
0.0
  0
ENDSEC
  0
SECTION
  2
OBJECTS
  0
DICTIONARY
  5
C
330
0
100
AcDbDictionary
281
     1
  3
ACAD_GROUP
350
D
  3
ACAD_LAYOUT
350
40E5
  3
ACAD_MLINESTYLE
350
1B
  3
ACAD_PLOTSETTINGS
350
40E6
  3
ACAD_PLOTSTYLENAME
350
40DF
  3
ACAD_SCALELIST
350
4266
  3
ACDBVARIABLEDICTIONARY
350
1827
  3
APPDATA
350
428D
  3
ASE_INDEX_DICTIONARY
350
4244
  3
DRAWINGVARIABLESDICT
350
2623
  3
DWGPROPS
350
428E
  0
DICTIONARY
  5
4215
330
2
100
AcDbDictionary
280
     1
281
     1
  3
ACAD_LAYERFILTERS
360
4219
  3
ACLYDICTIONARY
360
4218
  0
DICTIONARY
  5
D
102
{ACAD_REACTORS
330
C
102
}
330
C
100
AcDbDictionary
281
     1
  0
DICTIONARY
  5
40E5
102
{ACAD_REACTORS
330
C
102
}
330
C
100
AcDbDictionary
281
     1
  3
Model
350
40E7
  3
レイアウト1
350
40E8
  0
DICTIONARY
  5
1B
102
{ACAD_REACTORS
330
C
102
}
330
C
100
AcDbDictionary
281
     1
  3
STANDARD
350
1C
  0
DICTIONARY
  5
40E6
102
{ACAD_REACTORS
330
C
102
}
330
C
100
AcDbDictionary
281
     1
  0
ACDBDICTIONARYWDFLT
  5
40DF
102
{ACAD_REACTORS
330
C
102
}
330
C
100
AcDbDictionary
281
     1
  3
Normal
350
40E0
100
AcDbDictionaryWithDefault
340
40E0
  0
DICTIONARY
  5
4266
102
{ACAD_REACTORS
330
C
102
}
330
C
100
AcDbDictionary
281
     1
  3
A0
350
4267
  3
A1
350
4268
  3
A2
350
4269
  3
A3
350
426A
  3
A4
350
426B
  3
A5
350
426C
  3
A6
350
426D
  3
A7
350
426E
  3
A8
350
426F
  3
A9
350
4270
  3
B0
350
4271
  3
B1
350
4272
  3
B2
350
4273
  3
B3
350
4274
  3
B4
350
4275
  3
B5
350
4276
  3
B6
350
4277
  3
B7
350
4278
  3
B8
350
4279
  3
B9
350
427A
  3
C0
350
427B
  3
C1
350
427C
  3
C2
350
427D
  3
C3
350
427E
  3
C4
350
427F
  3
C5
350
4280
  3
C6
350
4281
  3
C7
350
4282
  3
C8
350
4283
  3
C9
350
4284
  3
D0
350
4285
  3
D1
350
4286
  3
D2
350
4287
  0
DICTIONARY
  5
1827
102
{ACAD_REACTORS
330
C
102
}
330
C
100
AcDbDictionary
281
     1
  3
DIMASSOC
350
40F3
  3
PROJECTNAME
350
40F4
  3
SORTENTS
350
1828
  0
DICTIONARY
  5
428D
102
{ACAD_REACTORS
330
C
102
}
330
C
100
AcDbDictionary
281
     1
  0
DICTIONARY
  5
4244
102
{ACAD_REACTORS
330
C
102
}
330
C
100
AcDbDictionary
281
     1
  3
ASEBlockHierarchyIndexRecord
350
4246
1001
DCO15
1040
1633086365.865
  0
DICTIONARY
  5
2623
102
{ACAD_REACTORS
330
C
102
}
330
C
100
AcDbDictionary
281
     1
1001
DRAWINGVARIABLESXDATA
1000
POLARANG
1000
0.785398163397448280000000
1000
POLARMODE
1000
1
  0
XRECORD
  5
428E
102
{ACAD_REACTORS
330
C
102
}
330
C
100
AcDbXrecord
280
     1
  1
DWGPROPS COOKIE
  2

  3

  4

  6

  7

  8
2344
  9

300
=
301
=
302
=
303
=
304
=
305
=
306
=
307
=
308
=
309
=
 40
0.0
 41
2452346.229164468
 42
2458968.245878171
  1

 90
        0
  0
DICTIONARY
  5
4219
102
{ACAD_REACTORS
330
4215
102
}
330
4215
100
AcDbDictionary
281
     1
  0
DICTIONARY
  5
4218
102
{ACAD_REACTORS
330
4215
102
}
330
4215
100
AcDbDictionary
281
     1
1001
ACAD
1000
<All
  0
LAYOUT
  5
40E7
102
{ACAD_REACTORS
330
40E5
102
}
330
40E5
100
AcDbPlotSettings
  1

  2
自動 Canon <キャノン１>（手差し） (MAIN-PC 上)
  4

  6

 40
0.0
 41
0.0
 42
0.0
 43
0.0
 44
0.0
 45
0.0
 46
0.0
 47
0.0
 48
0.0
 49
0.0
140
0.0
141
0.0
142
1.0
143
1.0
 70
  1712
 72
     0
 73
     0
 74
     0
  7

 75
     0
147
1.0
148
0.0
149
0.0
100
AcDbLayout
  1
Model
 70
     1
 71
     0
 10
0.0
 20
0.0
 11
12.0
 21
9.0
 12
0.0
 22
0.0
 32
0.0
 14
614.3064742616771
 24
801.230583048045
 34
0.0
 15
4031.66364607029
 25
3757.634291744548
 35
0.0
146
0.0
 13
0.0
 23
0.0
 33
0.0
 16
1.0
 26
0.0
 36
0.0
 17
0.0
 27
1.0
 37
0.0
 76
     0
330
18
331
4247
  0
LAYOUT
  5
40E8
102
{ACAD_REACTORS
330
40E5
102
}
330
40E5
100
AcDbPlotSettings
  1

  2
自動 Canon <キャノン１>（手差し） (MAIN-PC 上)
  4

  6

 40
0.0
 41
0.0
 42
0.0
 43
0.0
 44
0.0
 45
0.0
 46
0.0
 47
0.0
 48
0.0
 49
0.0
140
0.0
141
0.0
142
1.0
143
1.0
 70
   688
 72
     0
 73
     0
 74
     5
  7

 75
    16
147
1.0
148
0.0
149
0.0
100
AcDbLayout
  1
レイアウト1
 70
     1
 71
     1
 10
0.0
 20
0.0
 11
420.0
 21
297.0
 12
0.0
 22
0.0
 32
0.0
 14
1.000000000000000E+20
 24
1.000000000000000E+20
 34
1.000000000000000E+20
 15
-1.000000000000000E+20
 25
-1.000000000000000E+20
 35
-1.000000000000000E+20
146
0.0
 13
0.0
 23
0.0
 33
0.0
 16
1.0
 26
0.0
 36
0.0
 17
0.0
 27
1.0
 37
0.0
 76
     0
330
15
  0
MLINESTYLE
  5
1C
102
{ACAD_REACTORS
330
1B
102
}
330
1B
100
AcDbMlineStyle
  2
STANDARD
 70
     0
  3

 62
   256
 51
90.0
 52
90.0
 71
     2
 49
0.5
 62
   256
  6
BYLAYER
 49
-0.5
 62
   256
  6
BYLAYER
  0
ACDBPLACEHOLDER
  5
40E0
102
{ACAD_REACTORS
330
40DF
102
}
330
40DF
  0
SCALE
  5
4267
102
{ACAD_REACTORS
330
4266
102
}
330
4266
100
AcDbScale
 70
     0
300
1:1
140
1.0
141
1.0
290
     1
  0
SCALE
  5
4268
102
{ACAD_REACTORS
330
4266
102
}
330
4266
100
AcDbScale
 70
     0
300
1:2
140
1.0
141
2.0
290
     0
  0
SCALE
  5
4269
102
{ACAD_REACTORS
330
4266
102
}
330
4266
100
AcDbScale
 70
     0
300
1:4
140
1.0
141
4.0
290
     0
  0
SCALE
  5
426A
102
{ACAD_REACTORS
330
4266
102
}
330
4266
100
AcDbScale
 70
     0
300
1:5
140
1.0
141
5.0
290
     0
  0
SCALE
  5
426B
102
{ACAD_REACTORS
330
4266
102
}
330
4266
100
AcDbScale
 70
     0
300
1:8
140
1.0
141
8.0
290
     0
  0
SCALE
  5
426C
102
{ACAD_REACTORS
330
4266
102
}
330
4266
100
AcDbScale
 70
     0
300
1:10
140
1.0
141
10.0
290
     0
  0
SCALE
  5
426D
102
{ACAD_REACTORS
330
4266
102
}
330
4266
100
AcDbScale
 70
     0
300
1:16
140
1.0
141
16.0
290
     0
  0
SCALE
  5
426E
102
{ACAD_REACTORS
330
4266
102
}
330
4266
100
AcDbScale
 70
     0
300
1:20
140
1.0
141
20.0
290
     0
  0
SCALE
  5
426F
102
{ACAD_REACTORS
330
4266
102
}
330
4266
100
AcDbScale
 70
     0
300
1:30
140
1.0
141
30.0
290
     0
  0
SCALE
  5
4270
102
{ACAD_REACTORS
330
4266
102
}
330
4266
100
AcDbScale
 70
     0
300
1:40
140
1.0
141
40.0
290
     0
  0
SCALE
  5
4271
102
{ACAD_REACTORS
330
4266
102
}
330
4266
100
AcDbScale
 70
     0
300
1:50
140
1.0
141
50.0
290
     0
  0
SCALE
  5
4272
102
{ACAD_REACTORS
330
4266
102
}
330
4266
100
AcDbScale
 70
     0
300
1:100
140
1.0
141
100.0
290
     0
  0
SCALE
  5
4273
102
{ACAD_REACTORS
330
4266
102
}
330
4266
100
AcDbScale
 70
     0
300
2:1
140
2.0
141
1.0
290
     0
  0
SCALE
  5
4274
102
{ACAD_REACTORS
330
4266
102
}
330
4266
100
AcDbScale
 70
     0
300
4:1
140
4.0
141
1.0
290
     0
  0
SCALE
  5
4275
102
{ACAD_REACTORS
330
4266
102
}
330
4266
100
AcDbScale
 70
     0
300
8:1
140
8.0
141
1.0
290
     0
  0
SCALE
  5
4276
102
{ACAD_REACTORS
330
4266
102
}
330
4266
100
AcDbScale
 70
     0
300
10:1
140
10.0
141
1.0
290
     0
  0
SCALE
  5
4277
102
{ACAD_REACTORS
330
4266
102
}
330
4266
100
AcDbScale
 70
     0
300
100:1
140
100.0
141
1.0
290
     0
  0
SCALE
  5
4278
102
{ACAD_REACTORS
330
4266
102
}
330
4266
100
AcDbScale
 70
     0
300
1/128" = 1'-0"
140
0.0078125
141
12.0
290
     0
  0
SCALE
  5
4279
102
{ACAD_REACTORS
330
4266
102
}
330
4266
100
AcDbScale
 70
     0
300
1/64" = 1'-0"
140
0.015625
141
12.0
290
     0
  0
SCALE
  5
427A
102
{ACAD_REACTORS
330
4266
102
}
330
4266
100
AcDbScale
 70
     0
300
1/32" = 1'-0"
140
0.03125
141
12.0
290
     0
  0
SCALE
  5
427B
102
{ACAD_REACTORS
330
4266
102
}
330
4266
100
AcDbScale
 70
     0
300
1/16" = 1'-0"
140
0.0625
141
12.0
290
     0
  0
SCALE
  5
427C
102
{ACAD_REACTORS
330
4266
102
}
330
4266
100
AcDbScale
 70
     0
300
3/32" = 1'-0"
140
0.09375
141
12.0
290
     0
  0
SCALE
  5
427D
102
{ACAD_REACTORS
330
4266
102
}
330
4266
100
AcDbScale
 70
     0
300
1/8" = 1'-0"
140
0.125
141
12.0
290
     0
  0
SCALE
  5
427E
102
{ACAD_REACTORS
330
4266
102
}
330
4266
100
AcDbScale
 70
     0
300
3/16" = 1'-0"
140
0.1875
141
12.0
290
     0
  0
SCALE
  5
427F
102
{ACAD_REACTORS
330
4266
102
}
330
4266
100
AcDbScale
 70
     0
300
1/4" = 1'-0"
140
0.25
141
12.0
290
     0
  0
SCALE
  5
4280
102
{ACAD_REACTORS
330
4266
102
}
330
4266
100
AcDbScale
 70
     0
300
3/8" = 1'-0"
140
0.375
141
12.0
290
     0
  0
SCALE
  5
4281
102
{ACAD_REACTORS
330
4266
102
}
330
4266
100
AcDbScale
 70
     0
300
1/2" = 1'-0"
140
0.5
141
12.0
290
     0
  0
SCALE
  5
4282
102
{ACAD_REACTORS
330
4266
102
}
330
4266
100
AcDbScale
 70
     0
300
3/4" = 1'-0"
140
0.75
141
12.0
290
     0
  0
SCALE
  5
4283
102
{ACAD_REACTORS
330
4266
102
}
330
4266
100
AcDbScale
 70
     0
300
1" = 1'-0"
140
1.0
141
12.0
290
     0
  0
SCALE
  5
4284
102
{ACAD_REACTORS
330
4266
102
}
330
4266
100
AcDbScale
 70
     0
300
1-1/2" = 1'-0"
140
1.5
141
12.0
290
     0
  0
SCALE
  5
4285
102
{ACAD_REACTORS
330
4266
102
}
330
4266
100
AcDbScale
 70
     0
300
3" = 1'-0"
140
3.0
141
12.0
290
     0
  0
SCALE
  5
4286
102
{ACAD_REACTORS
330
4266
102
}
330
4266
100
AcDbScale
 70
     0
300
6" = 1'-0"
140
6.0
141
12.0
290
     0
  0
SCALE
  5
4287
102
{ACAD_REACTORS
330
4266
102
}
330
4266
100
AcDbScale
 70
     0
300
1'-0" = 1'-0"
140
12.0
141
12.0
290
     0
  0
DICTIONARYVAR
  5
40F3
102
{ACAD_REACTORS
330
1827
102
}
330
1827
100
DictionaryVariables
280
     0
  1
1
  0
DICTIONARYVAR
  5
40F4
102
{ACAD_REACTORS
330
1827
102
}
330
1827
100
DictionaryVariables
280
     0
  1

  0
DICTIONARYVAR
  5
1828
102
{ACAD_REACTORS
330
1827
102
}
330
1827
100
DictionaryVariables
280
     0
  1
96
  0
XRECORD
  5
4246
102
{ACAD_REACTORS
330
4244
102
}
330
4244
100
AcDbXrecord
280
     1
330
0
330
0
330
41CB
330
41CC
330
41D4
330
41D5
330
41DD
330
41DE
330
41E6
330
41E7
330
41EF
330
41F0
330
41F8
330
41F9
330
4201
330
4202
330
41A7
330
41A8
330
41B0
330
41B1
330
41B9
330
41BA
330
41C2
330
41C3
330
4089
330
408A
330
4094
330
4095
  0
ENDSEC
  0
EOF
