  0
SECTION
  2
HEADER
  9
$ACADVER
  1
AC1015
  9
$ACADMAINTVER
 70
     6
  9
$DWGCODEPAGE
  3
ANSI_932
  9
$INSBASE
 10
0.0
 20
0.0
 30
0.0
  9
$EXTMIN
 10
674.9999868285377
 20
957.9611668086905
 30
0.0
  9
$EXTMAX
 10
3910.276620936569
 20
3862.066378985422
 30
0.0
  9
$LIMMIN
 10
0.0
 20
0.0
  9
$LIMMAX
 10
5940.0
 20
4200.0
  9
$ORTHOMODE
 70
     1
  9
$REGENMODE
 70
     1
  9
$FILLMODE
 70
     1
  9
$QTEXTMODE
 70
     0
  9
$MIRRTEXT
 70
     1
  9
$LTSCALE
 40
10.0
  9
$ATTMODE
 70
     1
  9
$TEXTSIZE
 40
2.5
  9
$TRACEWID
 40
1.0
  9
$TEXTSTYLE
  7
STYLE1
  9
$CLAYER
  8
0
  9
$CELTYPE
  6
BYLAYER
  9
$CECOLOR
 62
   256
  9
$CELTSCALE
 40
1.0
  9
$DISPSILH
 70
     0
  9
$DIMSCALE
 40
16.0
  9
$DIMASZ
 40
2.5
  9
$DIMEXO
 40
2.0
  9
$DIMDLI
 40
3.75
  9
$DIMRND
 40
0.0
  9
$DIMDLE
 40
0.0
  9
$DIMEXE
 40
1.25
  9
$DIMTP
 40
0.0
  9
$DIMTM
 40
0.0
  9
$DIMTXT
 40
3.75
  9
$DIMCEN
 40
2.5
  9
$DIMTSZ
 40
0.0
  9
$DIMTOL
 70
     0
  9
$DIMLIM
 70
     0
  9
$DIMTIH
 70
     0
  9
$DIMTOH
 70
     0
  9
$DIMSE1
 70
     0
  9
$DIMSE2
 70
     0
  9
$DIMTAD
 70
     1
  9
$DIMZIN
 70
     8
  9
$DIMBLK
  1

  9
$DIMASO
 70
     1
  9
$DIMSHO
 70
     1
  9
$DIMPOST
  1

  9
$DIMAPOST
  1

  9
$DIMALT
 70
     0
  9
$DIMALTD
 70
     4
  9
$DIMALTF
 40
0.0394
  9
$DIMLFAC
 40
1.0
  9
$DIMTOFL
 70
     1
  9
$DIMTVP
 40
0.0
  9
$DIMTIX
 70
     0
  9
$DIMSOXD
 70
     0
  9
$DIMSAH
 70
     1
  9
$DIMBLK1
  1
OPEN
  9
$DIMBLK2
  1
OPEN
  9
$DIMSTYLE
  2
STANDARD-WS-20
  9
$DIMCLRD
 70
     7
  9
$DIMCLRE
 70
     7
  9
$DIMCLRT
 70
   256
  9
$DIMTFAC
 40
1.0
  9
$DIMGAP
 40
1.5
  9
$DIMJUST
 70
     0
  9
$DIMSD1
 70
     0
  9
$DIMSD2
 70
     0
  9
$DIMTOLJ
 70
     1
  9
$DIMTZIN
 70
     8
  9
$DIMALTZ
 70
     0
  9
$DIMALTTZ
 70
     0
  9
$DIMUPT
 70
     0
  9
$DIMDEC
 70
     2
  9
$DIMTDEC
 70
     2
  9
$DIMALTU
 70
     8
  9
$DIMALTTD
 70
     4
  9
$DIMTXSTY
  7
STYLE1
  9
$DIMAUNIT
 70
     0
  9
$DIMADEC
 70
     0
  9
$DIMALTRND
 40
0.0
  9
$DIMAZIN
 70
     0
  9
$DIMDSEP
 70
    46
  9
$DIMATFIT
 70
     3
  9
$DIMFRAC
 70
     0
  9
$DIMLDRBLK
  1

  9
$DIMLUNIT
 70
     2
  9
$DIMLWD
 70
    -2
  9
$DIMLWE
 70
    -2
  9
$DIMTMOVE
 70
     1
  9
$LUNITS
 70
     2
  9
$LUPREC
 70
     4
  9
$SKETCHINC
 40
1.0
  9
$FILLETRAD
 40
8.0
  9
$AUNITS
 70
     0
  9
$AUPREC
 70
     0
  9
$MENU
  1
acad
  9
$ELEVATION
 40
0.0
  9
$PELEVATION
 40
0.0
  9
$THICKNESS
 40
0.0
  9
$LIMCHECK
 70
     0
  9
$CHAMFERA
 40
10.0
  9
$CHAMFERB
 40
10.0
  9
$CHAMFERC
 40
20.0
  9
$CHAMFERD
 40
0.0
  9
$SKPOLY
 70
     0
  9
$TDCREATE
 40
2452346.604164468
  9
$TDUCREATE
 40
2452346.229164468
  9
$TDUPDATE
 40
2458968.622594965
  9
$TDUUPDATE
 40
2458968.247594965
  9
$TDINDWG
 40
0.0476672569
  9
$TDUSRTIMER
 40
0.001292338
  9
$USRTIMER
 70
     1
  9
$ANGBASE
 50
0.0
  9
$ANGDIR
 70
     0
  9
$PDMODE
 70
     0
  9
$PDSIZE
 40
0.0
  9
$PLINEWID
 40
0.0
  9
$SPLFRAME
 70
     0
  9
$SPLINETYPE
 70
     6
  9
$SPLINESEGS
 70
     8
  9
$HANDSEED
  5
4593
  9
$SURFTAB1
 70
     6
  9
$SURFTAB2
 70
     6
  9
$SURFTYPE
 70
     6
  9
$SURFU
 70
     6
  9
$SURFV
 70
     6
  9
$UCSBASE
  2

  9
$UCSNAME
  2

  9
$UCSORG
 10
0.0
 20
0.0
 30
0.0
  9
$UCSXDIR
 10
1.0
 20
0.0
 30
0.0
  9
$UCSYDIR
 10
0.0
 20
1.0
 30
0.0
  9
$UCSORTHOREF
  2

  9
$UCSORTHOVIEW
 70
     0
  9
$UCSORGTOP
 10
0.0
 20
0.0
 30
0.0
  9
$UCSORGBOTTOM
 10
0.0
 20
0.0
 30
0.0
  9
$UCSORGLEFT
 10
0.0
 20
0.0
 30
0.0
  9
$UCSORGRIGHT
 10
0.0
 20
0.0
 30
0.0
  9
$UCSORGFRONT
 10
0.0
 20
0.0
 30
0.0
  9
$UCSORGBACK
 10
0.0
 20
0.0
 30
0.0
  9
$PUCSBASE
  2

  9
$PUCSNAME
  2

  9
$PUCSORG
 10
0.0
 20
0.0
 30
0.0
  9
$PUCSXDIR
 10
1.0
 20
0.0
 30
0.0
  9
$PUCSYDIR
 10
0.0
 20
1.0
 30
0.0
  9
$PUCSORTHOREF
  2

  9
$PUCSORTHOVIEW
 70
     0
  9
$PUCSORGTOP
 10
0.0
 20
0.0
 30
0.0
  9
$PUCSORGBOTTOM
 10
0.0
 20
0.0
 30
0.0
  9
$PUCSORGLEFT
 10
0.0
 20
0.0
 30
0.0
  9
$PUCSORGRIGHT
 10
0.0
 20
0.0
 30
0.0
  9
$PUCSORGFRONT
 10
0.0
 20
0.0
 30
0.0
  9
$PUCSORGBACK
 10
0.0
 20
0.0
 30
0.0
  9
$USERI1
 70
     0
  9
$USERI2
 70
     0
  9
$USERI3
 70
     0
  9
$USERI4
 70
     0
  9
$USERI5
 70
     0
  9
$USERR1
 40
0.0
  9
$USERR2
 40
0.0
  9
$USERR3
 40
0.0
  9
$USERR4
 40
0.0
  9
$USERR5
 40
0.0
  9
$WORLDVIEW
 70
     1
  9
$SHADEDGE
 70
     3
  9
$SHADEDIF
 70
    70
  9
$TILEMODE
 70
     1
  9
$MAXACTVP
 70
    48
  9
$PINSBASE
 10
0.0
 20
0.0
 30
0.0
  9
$PLIMCHECK
 70
     0
  9
$PEXTMIN
 10
1.000000000000000E+20
 20
1.000000000000000E+20
 30
1.000000000000000E+20
  9
$PEXTMAX
 10
-1.000000000000000E+20
 20
-1.000000000000000E+20
 30
-1.000000000000000E+20
  9
$PLIMMIN
 10
0.0
 20
0.0
  9
$PLIMMAX
 10
0.0
 20
0.0
  9
$UNITMODE
 70
     0
  9
$VISRETAIN
 70
     1
  9
$PLINEGEN
 70
     0
  9
$PSLTSCALE
 70
     1
  9
$TREEDEPTH
 70
  3020
  9
$CMLSTYLE
  2
STANDARD
  9
$CMLJUST
 70
     0
  9
$CMLSCALE
 40
20.0
  9
$PROXYGRAPHICS
 70
     1
  9
$MEASUREMENT
 70
     1
  9
$CELWEIGHT
370
    -1
  9
$ENDCAPS
280
     0
  9
$JOINSTYLE
280
     0
  9
$LWDISPLAY
290
     0
  9
$INSUNITS
 70
     0
  9
$HYPERLINKBASE
  1

  9
$STYLESHEET
  1

  9
$XEDIT
290
     1
  9
$CEPSNTYPE
380
     0
  9
$PSTYLEMODE
290
     1
  9
$FINGERPRINTGUID
  2
{0396FBF8-9475-40BF-BEAB-8755C423F999}
  9
$VERSIONGUID
  2
{9542B98C-94B8-4AB8-85A1-7003A13E5181}
  9
$EXTNAMES
290
     1
  9
$PSVPSCALE
 40
0.0
  9
$OLESTARTUP
290
     0
  0
ENDSEC
  0
SECTION
  2
CLASSES
  0
CLASS
  1
LWPOLYLINE
  2
AcDbPolyline
  3
ObjectDBX Classes
 90
        0
280
     0
281
     1
  0
CLASS
  1
DICTIONARYVAR
  2
AcDbDictionaryVar
  3
ObjectDBX Classes
 90
        0
280
     0
281
     0
  0
CLASS
  1
ACDBDICTIONARYWDFLT
  2
AcDbDictionaryWithDefault
  3
ObjectDBX Classes
 90
        0
280
     0
281
     0
  0
CLASS
  1
TABLESTYLE
  2
AcDbTableStyle
  3
ObjectDBX Classes
 90
     4095
280
     0
281
     0
  0
CLASS
  1
ACDBPLACEHOLDER
  2
AcDbPlaceHolder
  3
ObjectDBX Classes
 90
        0
280
     0
281
     0
  0
CLASS
  1
LAYOUT
  2
AcDbLayout
  3
ObjectDBX Classes
 90
        0
280
     0
281
     0
  0
CLASS
  1
VISUALSTYLE
  2
AcDbVisualStyle
  3
ObjectDBX Classes
 90
     4095
280
     0
281
     0
  0
CLASS
  1
SCALE
  2
AcDbScale
  3
ObjectDBX Classes
 90
     1153
280
     0
281
     0
  0
CLASS
  1
MATERIAL
  2
AcDbMaterial
  3
ObjectDBX Classes
 90
     1153
280
     0
281
     0
  0
CLASS
  1
MLEADERSTYLE
  2
AcDbMLeaderStyle
  3
ACDB_MLEADERSTYLE_CLASS
 90
     4095
280
     0
281
     0
  0
ENDSEC
  0
SECTION
  2
TABLES
  0
TABLE
  2
VPORT
  5
8
330
0
100
AcDbSymbolTable
 70
     1
  0
VPORT
  5
4548
330
8
100
AcDbSymbolTableRecord
100
AcDbViewportTableRecord
  2
*Active
 70
     0
 10
0.0
 20
0.0
 11
1.0
 21
1.0
 12
1984.910629409228
 22
2384.474820642913
 13
0.0
 23
0.0
 14
10.0
 24
10.0
 15
10.0
 25
10.0
 16
0.0
 26
0.0
 36
1.0
 17
0.0
 27
0.0
 37
0.0
 40
3397.402597402598
 41
2.29737609329446
 42
50.0
 43
0.0
 44
0.0
 50
0.0
 51
0.0
 71
    16
 72
   100
 73
     1
 74
     0
 75
     0
 76
     0
 77
     0
 78
     0
281
     0
 65
     1
110
0.0
120
0.0
130
0.0
111
1.0
121
0.0
131
0.0
112
0.0
122
1.0
132
0.0
 79
     0
146
0.0
  0
ENDTAB
  0
TABLE
  2
LTYPE
  5
5
330
0
100
AcDbSymbolTable
 70
     2
  0
LTYPE
  5
12
330
5
100
AcDbSymbolTableRecord
100
AcDbLinetypeTableRecord
  2
BYBLOCK
 70
     0
  3

 72
    65
 73
     0
 40
0.0
  0
LTYPE
  5
13
330
5
100
AcDbSymbolTableRecord
100
AcDbLinetypeTableRecord
  2
BYLAYER
 70
     0
  3

 72
    65
 73
     0
 40
0.0
  0
LTYPE
  5
14
330
5
100
AcDbSymbolTableRecord
100
AcDbLinetypeTableRecord
  2
CONTINUOUS
 70
     0
  3
Solid line
 72
    65
 73
     0
 40
0.0
  0
LTYPE
  5
3469
330
5
100
AcDbSymbolTableRecord
100
AcDbLinetypeTableRecord
  2
CENTER
 70
     0
  3
____ _ ____ _ ____ _ ____ _ ____ _ ____ _ ____ 
 72
    65
 73
     4
 40
2.0
 49
1.25
 74
     0
 49
-0.25
 74
     0
 49
0.25
 74
     0
 49
-0.25
 74
     0
  0
ENDTAB
  0
TABLE
  2
LAYER
  5
2
330
0
100
AcDbSymbolTable
 70
     3
  0
LAYER
  5
E
330
2
100
AcDbSymbolTableRecord
100
AcDbLayerTableRecord
  2
0
 70
     0
 62
     7
  6
CONTINUOUS
370
    -3
390
43E6
  0
LAYER
  5
16E
330
2
100
AcDbSymbolTableRecord
100
AcDbLayerTableRecord
  2
DEFPOINTS
 70
     0
 62
     7
  6
CONTINUOUS
290
     0
370
    -3
390
43E6
  0
LAYER
  5
4536
330
2
100
AcDbSymbolTableRecord
100
AcDbLayerTableRecord
  2
注記
 70
     0
 62
     7
  6
CONTINUOUS
370
    -3
390
43E6
1001
AcAecLayerStandard
1000

1000

  0
ENDTAB
  0
TABLE
  2
STYLE
  5
3
330
0
100
AcDbSymbolTable
 70
     2
  0
STYLE
  5
F
330
3
100
AcDbSymbolTableRecord
100
AcDbTextStyleTableRecord
  2
STANDARD
 70
     0
 40
0.0
 41
1.0
 50
0.0
 71
     0
 42
2.5
  3
txt
  4

  0
STYLE
  5
26
330
3
100
AcDbSymbolTableRecord
100
AcDbTextStyleTableRecord
  2
STYLE1
 70
     0
 40
0.0
 41
0.9
 50
0.0
 71
     0
 42
100.0
  3
TXT.shx
  4
extfont.shx
  0
ENDTAB
  0
TABLE
  2
VIEW
  5
6
330
0
100
AcDbSymbolTable
 70
     0
  0
ENDTAB
  0
TABLE
  2
UCS
  5
7
330
0
100
AcDbSymbolTable
 70
     0
  0
ENDTAB
  0
TABLE
  2
APPID
  5
9
330
0
100
AcDbSymbolTable
 70
     3
  0
APPID
  5
10
330
9
100
AcDbSymbolTableRecord
100
AcDbRegAppTableRecord
  2
ACAD
 70
     0
  0
APPID
  5
2624
330
9
100
AcDbSymbolTableRecord
100
AcDbRegAppTableRecord
  2
DRAWINGVARIABLESXDATA
 70
     0
  0
APPID
  5
4537
330
9
100
AcDbSymbolTableRecord
100
AcDbRegAppTableRecord
  2
AcAecLayerStandard
 70
     0
  0
ENDTAB
  0
TABLE
  2
DIMSTYLE
  5
A
330
0
100
AcDbSymbolTable
 70
     2
100
AcDbDimStyleTable
  0
DIMSTYLE
105
1D
330
A
100
AcDbSymbolTableRecord
100
AcDbDimStyleTableRecord
  2
STANDARD
 70
     0
178
     0
340
F
  0
DIMSTYLE
105
27
330
A
100
AcDbSymbolTableRecord
100
AcDbDimStyleTableRecord
  2
STANDARD-WS-20
 70
     0
 40
16.0
 41
2.5
 42
2.0
 43
3.75
 44
1.25
 73
     0
 74
     0
 77
     1
 78
     8
140
3.75
141
2.5
143
0.0394
147
1.5
171
     4
172
     1
173
     1
176
     7
177
     7
271
     2
178
   256
271
     2
272
     2
273
     8
274
     4
279
     1
284
     8
340
26
341
20
343
20
344
20
  0
ENDTAB
  0
TABLE
  2
BLOCK_RECORD
  5
1
330
0
100
AcDbSymbolTable
 70
    17
  0
BLOCK_RECORD
  5
18
330
1
100
AcDbSymbolTableRecord
100
AcDbBlockTableRecord
  2
*MODEL_SPACE
340
43ED
  0
BLOCK_RECORD
  5
15
330
1
100
AcDbSymbolTableRecord
100
AcDbBlockTableRecord
  2
*PAPER_SPACE
340
43EE
  0
BLOCK_RECORD
  5
20
330
1
100
AcDbSymbolTableRecord
100
AcDbBlockTableRecord
  2
_OPEN
340
0
102
{BLKREFS
331
44BB
331
44C4
331
44CD
331
44D6
331
44DF
331
44E8
331
4527
331
4530
331
44F1
331
44FA
331
4503
331
450C
331
42E7
331
42F2
331
44BC
331
44C5
331
44CE
331
44D7
331
44E0
331
44E9
331
4528
331
4531
331
44F2
331
44FB
331
4504
331
450D
331
42E8
331
42F3
102
}
  0
BLOCK_RECORD
  5
3453
330
1
100
AcDbSymbolTableRecord
100
AcDbBlockTableRecord
  2
A$C3D287FA5
340
0
102
{BLKREFS
331
0
102
}
  0
BLOCK_RECORD
  5
404F
330
1
100
AcDbSymbolTableRecord
100
AcDbBlockTableRecord
  2
*D2
340
0
  0
BLOCK_RECORD
  5
4067
330
1
100
AcDbSymbolTableRecord
100
AcDbBlockTableRecord
  2
*D3
340
0
  0
BLOCK_RECORD
  5
407F
330
1
100
AcDbSymbolTableRecord
100
AcDbBlockTableRecord
  2
*D4
340
0
  0
BLOCK_RECORD
  5
408C
330
1
100
AcDbSymbolTableRecord
100
AcDbBlockTableRecord
  2
*D5
340
0
  0
BLOCK_RECORD
  5
4099
330
1
100
AcDbSymbolTableRecord
100
AcDbBlockTableRecord
  2
*D6
340
0
  0
BLOCK_RECORD
  5
40C7
330
1
100
AcDbSymbolTableRecord
100
AcDbBlockTableRecord
  2
*D7
340
0
  0
BLOCK_RECORD
  5
40DF
330
1
100
AcDbSymbolTableRecord
100
AcDbBlockTableRecord
  2
*D8
340
0
  0
BLOCK_RECORD
  5
4102
330
1
100
AcDbSymbolTableRecord
100
AcDbBlockTableRecord
  2
*D9
340
0
  0
BLOCK_RECORD
  5
411A
330
1
100
AcDbSymbolTableRecord
100
AcDbBlockTableRecord
  2
*D10
340
0
  0
BLOCK_RECORD
  5
413F
330
1
100
AcDbSymbolTableRecord
100
AcDbBlockTableRecord
  2
*D11
340
0
  0
BLOCK_RECORD
  5
4157
330
1
100
AcDbSymbolTableRecord
100
AcDbBlockTableRecord
  2
*D12
340
0
  0
BLOCK_RECORD
  5
416F
330
1
100
AcDbSymbolTableRecord
100
AcDbBlockTableRecord
  2
*D13
340
0
  0
BLOCK_RECORD
  5
4187
330
1
100
AcDbSymbolTableRecord
100
AcDbBlockTableRecord
  2
*D14
340
0
  0
BLOCK_RECORD
  5
419F
330
1
100
AcDbSymbolTableRecord
100
AcDbBlockTableRecord
  2
*D15
340
0
  0
BLOCK_RECORD
  5
43D9
330
1
100
AcDbSymbolTableRecord
100
AcDbBlockTableRecord
  2
A$C6EAD5BA8
340
0
  0
ENDTAB
  0
ENDSEC
  0
SECTION
  2
BLOCKS
  0
BLOCK
  5
19
330
18
100
AcDbEntity
  8
0
370
    -1
100
AcDbBlockBegin
  2
*MODEL_SPACE
 70
     0
 10
0.0
 20
0.0
 30
0.0
  3
*MODEL_SPACE
  1

  0
ENDBLK
  5
1A
330
18
100
AcDbEntity
  8
0
370
    -1
100
AcDbBlockEnd
  0
BLOCK
  5
16
330
15
100
AcDbEntity
 67
     1
  8
0
370
    -1
100
AcDbBlockBegin
  2
*PAPER_SPACE
 70
     0
 10
0.0
 20
0.0
 30
0.0
  3
*PAPER_SPACE
  1

  0
ENDBLK
  5
17
330
15
100
AcDbEntity
 67
     1
  8
0
370
    -1
100
AcDbBlockEnd
  0
BLOCK
  5
24
330
20
100
AcDbEntity
  8
0
370
    -1
100
AcDbBlockBegin
  2
_OPEN
 70
     0
 10
0.0
 20
0.0
 30
0.0
  3
_OPEN
  1

  0
LINE
  5
21
330
20
100
AcDbEntity
  8
0
  6
ByBlock
 62
     0
370
    -1
100
AcDbLine
 10
-1.0
 20
0.1666666666666667
 30
0.0
 11
0.0
 21
0.0
 31
0.0
  0
LINE
  5
22
330
20
100
AcDbEntity
  8
0
  6
ByBlock
 62
     0
370
    -1
100
AcDbLine
 10
0.0
 20
0.0
 30
0.0
 11
-1.0
 21
-0.1666666666666667
 31
0.0
  0
LINE
  5
23
330
20
100
AcDbEntity
  8
0
  6
ByBlock
 62
     0
370
    -1
100
AcDbLine
 10
0.0
 20
0.0
 30
0.0
 11
-1.0
 21
0.0
 31
0.0
  0
ENDBLK
  5
25
330
20
100
AcDbEntity
  8
0
370
    -1
100
AcDbBlockEnd
  0
BLOCK
  5
3467
330
3453
100
AcDbEntity
  8
0
 62
     0
 48
6.0
370
    -1
100
AcDbBlockBegin
  2
A$C3D287FA5
 70
     0
 10
0.0
 20
0.0
 30
0.0
  3
A$C3D287FA5
  1

  0
LINE
  5
3454
330
3453
100
AcDbEntity
  8
0
 48
6.0
370
    -1
100
AcDbLine
 10
0.0000048003930715
 20
-0.0000025918616302
 30
0.0
 11
1200.000004800393
 21
-0.0000025918616302
 31
0.0
  0
LINE
  5
3455
330
3453
100
AcDbEntity
  8
0
 48
6.0
370
    -1
100
AcDbLine
 10
0.0000048003930715
 20
369.9999974081384
 30
0.0
 11
1200.000004800393
 21
369.9999974081384
 31
0.0
  0
LINE
  5
3456
330
3453
100
AcDbEntity
  8
0
370
    -1
100
AcDbLine
 10
0.0000048003930715
 20
369.9824853772225
 30
0.0
 11
1200.000004800393
 21
369.9824853772225
 31
0.0
  0
LINE
  5
3457
330
3453
100
AcDbEntity
  8
0
370
    -1
100
AcDbLine
 10
0.1130764343124611
 20
230.8521655065542
 30
0.0
 11
1199.409346793074
 21
230.8521655065542
 31
0.0
  0
TEXT
  5
3458
330
3453
100
AcDbEntity
  8
0
370
    -1
100
AcDbText
 10
80.00000480039307
 20
265.6346617198033
 30
0.0
 40
65.0
  1
日
  7
STYLE1
100
AcDbText
  0
TEXT
  5
3459
330
3453
100
AcDbEntity
  8
0
 48
6.0
370
    -1
100
AcDbText
 10
820.0000048003931
 20
269.9999974081384
 30
0.0
 40
65.0
  1
計
  7
STYLE1
100
AcDbText
  0
TEXT
  5
345A
330
3453
100
AcDbEntity
  8
0
 48
6.0
370
    -1
100
AcDbText
 10
700.0000048003931
 20
269.9999974081384
 30
0.0
 40
65.0
  1
設
  7
STYLE1
100
AcDbText
  0
LINE
  5
345B
330
3453
100
AcDbEntity
  8
0
 48
6.0
370
    -1
100
AcDbLine
 10
930.0000048003931
 20
369.9999974081384
 30
0.0
 11
930.0000048003931
 21
89.99999740813837
 31
0.0
  0
LINE
  5
345C
330
3453
100
AcDbEntity
  8
0
 48
6.0
370
    -1
100
AcDbLine
 10
660.0000048003931
 20
369.9999974081384
 30
0.0
 11
660.0000048003931
 21
89.99999740813837
 31
0.0
  0
LINE
  5
345D
330
3453
100
AcDbEntity
  8
0
 48
6.0
370
    -1
100
AcDbLine
 10
390.0000048003931
 20
369.9999974081384
 30
0.0
 11
390.0000048003931
 21
89.99999740813837
 31
0.0
  0
TEXT
  5
345E
330
3453
100
AcDbEntity
  8
0
370
    -1
100
AcDbText
 10
1100.708223768201
 20
270.8520542298083
 30
0.0
 40
65.0
  1
図
  7
STYLE1
100
AcDbText
  0
TEXT
  5
345F
330
3453
100
AcDbEntity
  8
0
370
    -1
100
AcDbText
 10
983.2955520528303
 20
268.6781424010987
 30
0.0
 40
65.0
  1
作
  7
STYLE1
100
AcDbText
  0
TEXT
  5
3460
330
3453
100
AcDbEntity
  8
0
370
    -1
100
AcDbText
 10
553.9423981087348
 20
269.1129262336744
 30
0.0
 40
65.0
  1
認
  7
STYLE1
100
AcDbText
  0
TEXT
  5
3461
330
3453
100
AcDbEntity
  8
0
370
    -1
100
AcDbText
 10
425.6468508563012
 20
269.9824853772225
 30
0.0
 40
65.0
  1
承
  7
STYLE1
100
AcDbText
  0
TEXT
  5
3462
330
3453
100
AcDbEntity
  8
0
370
    -1
100
AcDbText
 10
235.0000048003931
 20
269.9824853772225
 30
0.0
 40
65.0
  1
付
  7
STYLE1
100
AcDbText
  0
LINE
  5
3463
330
3453
100
AcDbEntity
  8
0
 48
6.0
370
    -1
100
AcDbLine
 10
390.0000048003931
 20
99.99999740813837
 30
0.0
 11
390.0000048003931
 21
-0.0000025918616302
 31
0.0
  0
LINE
  5
3464
330
3453
100
AcDbEntity
  8
0
 48
6.0
370
    -1
100
AcDbLine
 10
660.0000048003931
 20
109.9999974081384
 30
0.0
 11
660.0000048003931
 21
-0.0000025918616302
 31
0.0
  0
LINE
  5
3465
330
3453
100
AcDbEntity
  8
0
 48
6.0
370
    -1
100
AcDbLine
 10
930.0000048003931
 20
99.99999740813837
 30
0.0
 11
930.0000048003931
 21
-0.0000025918616302
 31
0.0
  0
LINE
  5
3466
330
3453
100
AcDbEntity
  8
0
 48
6.0
370
    -1
100
AcDbLine
 10
900.0000048003931
 20
-0.0000025918616302
 30
0.0
 11
900.0000048003931
 21
-0.0000025918616302
 31
0.0
  0
ENDBLK
  5
3468
330
3453
100
AcDbEntity
  8
0
 62
     0
 48
6.0
370
    -1
100
AcDbBlockEnd
  0
BLOCK
  5
425F
330
404F
100
AcDbEntity
  8
0
370
    -1
100
AcDbBlockBegin
  2
*D2
 70
     1
 10
0.0
 20
0.0
 30
0.0
  3
*D2
  1

  0
LINE
  5
44B8
330
404F
100
AcDbEntity
  8
0
 62
     7
370
    -2
100
AcDbLine
 10
714.9999868285377
 20
2289.96116680869
 30
0.0
 11
714.9999868285377
 21
2607.96116680869
 31
0.0
  0
LINE
  5
44B9
330
404F
100
AcDbEntity
  8
0
 62
     7
370
    -2
100
AcDbLine
 10
2054.999986828538
 20
2289.96116680869
 30
0.0
 11
2054.999986828538
 21
2607.96116680869
 31
0.0
  0
LINE
  5
44BA
330
404F
100
AcDbEntity
  8
0
 62
     7
370
    -2
100
AcDbLine
 10
754.9999868285377
 20
2587.96116680869
 30
0.0
 11
2014.999986828538
 21
2587.96116680869
 31
0.0
  0
INSERT
  5
44BB
330
404F
100
AcDbEntity
  8
0
 62
     7
370
    -2
100
AcDbBlockReference
  2
_OPEN
 10
714.9999868285377
 20
2587.96116680869
 30
0.0
 41
40.0
 42
40.0
 43
40.0
 50
180.0
  0
INSERT
  5
44BC
330
404F
100
AcDbEntity
  8
0
 62
     7
370
    -2
100
AcDbBlockReference
  2
_OPEN
 10
2054.999986828538
 20
2587.96116680869
 30
0.0
 41
40.0
 42
40.0
 43
40.0
  0
MTEXT
  5
44BD
330
404F
100
AcDbEntity
  8
0
100
AcDbMText
 10
1384.999986828538
 20
2641.96116680869
 30
0.0
 40
60.0
 41
0.0
 71
     5
 72
     1
  1
\A1;Ｗ
  7
STYLE1
 73
     1
 44
1.0
  0
POINT
  5
44BE
330
404F
100
AcDbEntity
  8
DEFPOINTS
 62
     0
100
AcDbPoint
 10
714.9999868285377
 20
2257.96116680869
 30
0.0
  0
POINT
  5
44BF
330
404F
100
AcDbEntity
  8
DEFPOINTS
 62
     0
100
AcDbPoint
 10
2054.999986828538
 20
2257.96116680869
 30
0.0
  0
POINT
  5
44C0
330
404F
100
AcDbEntity
  8
DEFPOINTS
 62
     0
100
AcDbPoint
 10
2054.999986828538
 20
2587.96116680869
 30
0.0
  0
ENDBLK
  5
4269
330
404F
100
AcDbEntity
  8
0
370
    -1
100
AcDbBlockEnd
  0
BLOCK
  5
426A
330
4067
100
AcDbEntity
  8
0
370
    -1
100
AcDbBlockBegin
  2
*D3
 70
     1
 10
0.0
 20
0.0
 30
0.0
  3
*D3
  1

  0
LINE
  5
44C1
330
4067
100
AcDbEntity
  8
0
 62
     7
370
    -2
100
AcDbLine
 10
974.9999868285377
 20
2369.96116680869
 30
0.0
 11
974.9999868285377
 21
2457.96116680869
 31
0.0
  0
LINE
  5
44C2
330
4067
100
AcDbEntity
  8
0
 62
     7
370
    -2
100
AcDbLine
 10
1794.999986828538
 20
2369.96116680869
 30
0.0
 11
1794.999986828538
 21
2457.96116680869
 31
0.0
  0
LINE
  5
44C3
330
4067
100
AcDbEntity
  8
0
 62
     7
370
    -2
100
AcDbLine
 10
1014.999986828538
 20
2437.96116680869
 30
0.0
 11
1754.999986828538
 21
2437.96116680869
 31
0.0
  0
INSERT
  5
44C4
330
4067
100
AcDbEntity
  8
0
 62
     7
370
    -2
100
AcDbBlockReference
  2
_OPEN
 10
974.9999868285377
 20
2437.96116680869
 30
0.0
 41
40.0
 42
40.0
 43
40.0
 50
180.0
  0
INSERT
  5
44C5
330
4067
100
AcDbEntity
  8
0
 62
     7
370
    -2
100
AcDbBlockReference
  2
_OPEN
 10
1794.999986828538
 20
2437.96116680869
 30
0.0
 41
40.0
 42
40.0
 43
40.0
  0
MTEXT
  5
44C6
330
4067
100
AcDbEntity
  8
0
100
AcDbMText
 10
1384.999986828538
 20
2491.96116680869
 30
0.0
 40
60.0
 41
0.0
 71
     5
 72
     1
  1
\A1;Ａ
  7
STYLE1
 73
     1
 44
1.0
  0
POINT
  5
44C7
330
4067
100
AcDbEntity
  8
DEFPOINTS
 62
     0
100
AcDbPoint
 10
974.9999868285377
 20
2337.96116680869
 30
0.0
  0
POINT
  5
44C8
330
4067
100
AcDbEntity
  8
DEFPOINTS
 62
     0
100
AcDbPoint
 10
1794.999986828538
 20
2337.96116680869
 30
0.0
  0
POINT
  5
44C9
330
4067
100
AcDbEntity
  8
DEFPOINTS
 62
     0
100
AcDbPoint
 10
1794.999986828538
 20
2437.96116680869
 30
0.0
  0
ENDBLK
  5
4274
330
4067
100
AcDbEntity
  8
0
370
    -1
100
AcDbBlockEnd
  0
BLOCK
  5
4275
330
407F
100
AcDbEntity
  8
0
370
    -1
100
AcDbBlockBegin
  2
*D4
 70
     1
 10
0.0
 20
0.0
 30
0.0
  3
*D4
  1

  0
LINE
  5
44CA
330
407F
100
AcDbEntity
  8
0
 62
     7
370
    -2
100
AcDbLine
 10
2006.999986828538
 20
2172.96116680869
 30
0.0
 11
2256.853276722806
 21
2172.96116680869
 31
0.0
  0
LINE
  5
44CB
330
407F
100
AcDbEntity
  8
0
 62
     7
370
    -2
100
AcDbLine
 10
1866.999986828538
 20
1360.365479099709
 30
0.0
 11
2256.853276722806
 21
1360.365479099709
 31
0.0
  0
LINE
  5
44CC
330
407F
100
AcDbEntity
  8
0
 62
     7
370
    -2
100
AcDbLine
 10
2236.853276722806
 20
2132.96116680869
 30
0.0
 11
2236.853276722806
 21
1400.365479099709
 31
0.0
  0
INSERT
  5
44CD
330
407F
100
AcDbEntity
  8
0
 62
     7
370
    -2
100
AcDbBlockReference
  2
_OPEN
 10
2236.853276722806
 20
2172.96116680869
 30
0.0
 41
40.0
 42
40.0
 43
40.0
 50
90.0
  0
INSERT
  5
44CE
330
407F
100
AcDbEntity
  8
0
 62
     7
370
    -2
100
AcDbBlockReference
  2
_OPEN
 10
2236.853276722806
 20
1360.365479099709
 30
0.0
 41
40.0
 42
40.0
 43
40.0
 50
270.0
  0
MTEXT
  5
44CF
330
407F
100
AcDbEntity
  8
0
100
AcDbMText
 10
2182.853276722806
 20
1766.6633229542
 30
0.0
 40
60.0
 41
0.0
 71
     5
 72
     1
  1
\A1;Ｆ
  7
STYLE1
 11
6.123031769111886E-17
 21
1.0
 31
0.0
 73
     1
 44
1.0
  0
POINT
  5
44D0
330
407F
100
AcDbEntity
  8
DEFPOINTS
 62
     0
100
AcDbPoint
 10
1974.999986828538
 20
2172.96116680869
 30
0.0
  0
POINT
  5
44D1
330
407F
100
AcDbEntity
  8
DEFPOINTS
 62
     0
100
AcDbPoint
 10
1834.999986828538
 20
1360.365479099709
 30
0.0
  0
POINT
  5
44D2
330
407F
100
AcDbEntity
  8
DEFPOINTS
 62
     0
100
AcDbPoint
 10
2236.853276722806
 20
1360.365479099709
 30
0.0
  0
ENDBLK
  5
427F
330
407F
100
AcDbEntity
  8
0
370
    -1
100
AcDbBlockEnd
  0
BLOCK
  5
4280
330
408C
100
AcDbEntity
  8
0
370
    -1
100
AcDbBlockBegin
  2
*D5
 70
     1
 10
0.0
 20
0.0
 30
0.0
  3
*D5
  1

  0
LINE
  5
44D3
330
408C
100
AcDbEntity
  8
0
 62
     7
370
    -2
100
AcDbLine
 10
2092.301631775672
 20
1360.365479099709
 30
0.0
 11
2256.853276722807
 21
1360.365479099709
 31
0.0
  0
LINE
  5
44D4
330
408C
100
AcDbEntity
  8
0
 62
     7
370
    -2
100
AcDbLine
 10
2126.999986828538
 20
987.9611668086905
 30
0.0
 11
2256.853276722806
 21
987.9611668086905
 31
0.0
  0
LINE
  5
44D5
330
408C
100
AcDbEntity
  8
0
 62
     7
370
    -2
100
AcDbLine
 10
2236.853276722807
 20
1320.365479099709
 30
0.0
 11
2236.853276722807
 21
1027.96116680869
 31
0.0
  0
INSERT
  5
44D6
330
408C
100
AcDbEntity
  8
0
 62
     7
370
    -2
100
AcDbBlockReference
  2
_OPEN
 10
2236.853276722807
 20
1360.365479099709
 30
0.0
 41
40.0
 42
40.0
 43
40.0
 50
90.0
  0
INSERT
  5
44D7
330
408C
100
AcDbEntity
  8
0
 62
     7
370
    -2
100
AcDbBlockReference
  2
_OPEN
 10
2236.853276722806
 20
987.9611668086905
 30
0.0
 41
40.0
 42
40.0
 43
40.0
 50
270.0
  0
MTEXT
  5
44D8
330
408C
100
AcDbEntity
  8
0
100
AcDbMText
 10
2182.853276722806
 20
1174.1633229542
 30
0.0
 40
60.0
 41
0.0
 71
     5
 72
     1
  1
\A1;240
  7
STYLE1
 11
6.123031769111886E-17
 21
1.0
 31
0.0
 73
     1
 44
1.0
  0
POINT
  5
44D9
330
408C
100
AcDbEntity
  8
DEFPOINTS
 62
     0
100
AcDbPoint
 10
2060.301631775672
 20
1360.365479099709
 30
0.0
  0
POINT
  5
44DA
330
408C
100
AcDbEntity
  8
DEFPOINTS
 62
     0
100
AcDbPoint
 10
2094.999986828538
 20
987.9611668086905
 30
0.0
  0
POINT
  5
44DB
330
408C
100
AcDbEntity
  8
DEFPOINTS
 62
     0
100
AcDbPoint
 10
2236.853276722806
 20
987.9611668086905
 30
0.0
  0
ENDBLK
  5
428A
330
408C
100
AcDbEntity
  8
0
370
    -1
100
AcDbBlockEnd
  0
BLOCK
  5
428B
330
4099
100
AcDbEntity
  8
0
370
    -1
100
AcDbBlockBegin
  2
*D6
 70
     1
 10
0.0
 20
0.0
 30
0.0
  3
*D6
  1

  0
LINE
  5
44DC
330
4099
100
AcDbEntity
  8
0
 62
     7
370
    -2
100
AcDbLine
 10
2222.301631775672
 20
987.9611668086905
 30
0.0
 11
2447.726032737155
 21
987.9611668086903
 31
0.0
  0
LINE
  5
44DD
330
4099
100
AcDbEntity
  8
0
 62
     7
370
    -2
100
AcDbLine
 10
1866.999986828538
 20
2319.789320043666
 30
0.0
 11
2447.726032737155
 21
2319.789320043666
 31
0.0
  0
LINE
  5
44DE
330
4099
100
AcDbEntity
  8
0
 62
     7
370
    -2
100
AcDbLine
 10
2427.726032737155
 20
1027.96116680869
 30
0.0
 11
2427.726032737155
 21
2279.789320043666
 31
0.0
  0
INSERT
  5
44DF
330
4099
100
AcDbEntity
  8
0
 62
     7
370
    -2
100
AcDbBlockReference
  2
_OPEN
 10
2427.726032737155
 20
987.9611668086903
 30
0.0
 41
40.0
 42
40.0
 43
40.0
 50
270.0
  0
INSERT
  5
44E0
330
4099
100
AcDbEntity
  8
0
 62
     7
370
    -2
100
AcDbBlockReference
  2
_OPEN
 10
2427.726032737155
 20
2319.789320043666
 30
0.0
 41
40.0
 42
40.0
 43
40.0
 50
90.0
  0
MTEXT
  5
44E1
330
4099
100
AcDbEntity
  8
0
100
AcDbMText
 10
2373.726032737155
 20
1653.875243426178
 30
0.0
 40
60.0
 41
0.0
 71
     5
 72
     1
  1
\A1;Ｈ
  7
STYLE1
 11
6.123031769111886E-17
 21
1.0
 31
0.0
 73
     1
 44
1.0
  0
POINT
  5
44E2
330
4099
100
AcDbEntity
  8
DEFPOINTS
 62
     0
100
AcDbPoint
 10
2190.301631775672
 20
987.9611668086905
 30
0.0
  0
POINT
  5
44E3
330
4099
100
AcDbEntity
  8
DEFPOINTS
 62
     0
100
AcDbPoint
 10
1834.999986828538
 20
2319.789320043666
 30
0.0
  0
POINT
  5
44E4
330
4099
100
AcDbEntity
  8
DEFPOINTS
 62
     0
100
AcDbPoint
 10
2427.726032737155
 20
2319.789320043666
 30
0.0
  0
ENDBLK
  5
4295
330
4099
100
AcDbEntity
  8
0
370
    -1
100
AcDbBlockEnd
  0
BLOCK
  5
4296
330
40C7
100
AcDbEntity
  8
0
370
    -1
100
AcDbBlockBegin
  2
*D7
 70
     1
 10
0.0
 20
0.0
 30
0.0
  3
*D7
  1

  0
LINE
  5
44E5
330
40C7
100
AcDbEntity
  8
0
 62
     7
370
    -2
100
AcDbLine
 10
674.9999868285377
 20
955.9611668086905
 30
0.0
 11
674.9999868285377
 21
857.9611668086905
 31
0.0
  0
LINE
  5
44E6
330
40C7
100
AcDbEntity
  8
0
 62
     7
370
    -2
100
AcDbLine
 10
2094.999986828538
 20
955.9611668086905
 30
0.0
 11
2094.999986828538
 21
857.9611668086905
 31
0.0
  0
LINE
  5
44E7
330
40C7
100
AcDbEntity
  8
0
 62
     7
370
    -2
100
AcDbLine
 10
714.9999868285377
 20
877.9611668086905
 30
0.0
 11
2054.999986828538
 21
877.9611668086905
 31
0.0
  0
INSERT
  5
44E8
330
40C7
100
AcDbEntity
  8
0
 62
     7
370
    -2
100
AcDbBlockReference
  2
_OPEN
 10
674.9999868285377
 20
877.9611668086905
 30
0.0
 41
40.0
 42
40.0
 43
40.0
 50
180.0
  0
INSERT
  5
44E9
330
40C7
100
AcDbEntity
  8
0
 62
     7
370
    -2
100
AcDbBlockReference
  2
_OPEN
 10
2094.999986828538
 20
877.9611668086905
 30
0.0
 41
40.0
 42
40.0
 43
40.0
  0
MTEXT
  5
44EA
330
40C7
100
AcDbEntity
  8
0
100
AcDbMText
 10
1384.999986828538
 20
931.9611668086905
 30
0.0
 40
60.0
 41
0.0
 71
     5
 72
     1
  1
\A1;1260（外付時）
  7
STYLE1
 73
     1
 44
1.0
  0
POINT
  5
44EB
330
40C7
100
AcDbEntity
  8
DEFPOINTS
 62
     0
100
AcDbPoint
 10
674.9999868285377
 20
987.9611668086905
 30
0.0
  0
POINT
  5
44EC
330
40C7
100
AcDbEntity
  8
DEFPOINTS
 62
     0
100
AcDbPoint
 10
2094.999986828538
 20
987.9611668086905
 30
0.0
  0
POINT
  5
44ED
330
40C7
100
AcDbEntity
  8
DEFPOINTS
 62
     0
100
AcDbPoint
 10
2094.999986828538
 20
877.9611668086905
 30
0.0
  0
ENDBLK
  5
42A0
330
40C7
100
AcDbEntity
  8
0
370
    -1
100
AcDbBlockEnd
  0
BLOCK
  5
42A1
330
40DF
100
AcDbEntity
  8
0
370
    -1
100
AcDbBlockBegin
  2
*D8
 70
     1
 10
0.0
 20
0.0
 30
0.0
  3
*D8
  1

  0
LINE
  5
4524
330
40DF
100
AcDbEntity
  8
0
 62
     7
370
    -2
100
AcDbLine
 10
694.9999868285377
 20
3804.066378985422
 30
0.0
 11
694.9999868285377
 21
3940.523334914436
 31
0.0
  0
LINE
  5
4525
330
40DF
100
AcDbEntity
  8
0
 62
     7
370
    -2
100
AcDbLine
 10
2073.90664722184
 20
3804.066378985422
 30
0.0
 11
2073.90664722184
 21
3940.523334914436
 31
0.0
  0
LINE
  5
4526
330
40DF
100
AcDbEntity
  8
0
 62
     7
370
    -2
100
AcDbLine
 10
734.9999868285377
 20
3920.523334914436
 30
0.0
 11
2033.90664722184
 21
3920.523334914436
 31
0.0
  0
INSERT
  5
4527
330
40DF
100
AcDbEntity
  8
0
 62
     7
370
    -2
100
AcDbBlockReference
  2
_OPEN
 10
694.9999868285377
 20
3920.523334914436
 30
0.0
 41
40.0
 42
40.0
 43
40.0
 50
180.0
  0
INSERT
  5
4528
330
40DF
100
AcDbEntity
  8
0
 62
     7
370
    -2
100
AcDbBlockReference
  2
_OPEN
 10
2073.90664722184
 20
3920.523334914436
 30
0.0
 41
40.0
 42
40.0
 43
40.0
  0
MTEXT
  5
4529
330
40DF
100
AcDbEntity
  8
0
100
AcDbMText
 10
1384.453317025189
 20
3974.523334914436
 30
0.0
 40
60.0
 41
0.0
 71
     5
 72
     1
  1
\A1;Ｃ
  7
STYLE1
 73
     1
 44
1.0
  0
POINT
  5
452A
330
40DF
100
AcDbEntity
  8
DEFPOINTS
 62
     0
100
AcDbPoint
 10
694.9999868285377
 20
3772.066378985422
 30
0.0
  0
POINT
  5
452B
330
40DF
100
AcDbEntity
  8
DEFPOINTS
 62
     0
100
AcDbPoint
 10
2073.90664722184
 20
3772.066378985422
 30
0.0
  0
POINT
  5
452C
330
40DF
100
AcDbEntity
  8
DEFPOINTS
 62
     0
100
AcDbPoint
 10
2073.90664722184
 20
3920.523334914436
 30
0.0
  0
ENDBLK
  5
42AB
330
40DF
100
AcDbEntity
  8
0
370
    -1
100
AcDbBlockEnd
  0
BLOCK
  5
42AC
330
4102
100
AcDbEntity
  8
0
370
    -1
100
AcDbBlockBegin
  2
*D9
 70
     1
 10
0.0
 20
0.0
 30
0.0
  3
*D9
  1

  0
LINE
  5
452D
330
4102
100
AcDbEntity
  8
0
 62
     7
370
    -2
100
AcDbLine
 10
2126.999986828538
 20
3752.066378985422
 30
0.0
 11
2444.999986828538
 21
3752.066378985422
 31
0.0
  0
LINE
  5
452E
330
4102
100
AcDbEntity
  8
0
 62
     7
370
    -2
100
AcDbLine
 10
2126.999986828538
 20
2942.066378985422
 30
0.0
 11
2444.999986828538
 21
2942.066378985422
 31
0.0
  0
LINE
  5
452F
330
4102
100
AcDbEntity
  8
0
 62
     7
370
    -2
100
AcDbLine
 10
2424.999986828538
 20
3712.066378985422
 30
0.0
 11
2424.999986828538
 21
2982.066378985422
 31
0.0
  0
INSERT
  5
4530
330
4102
100
AcDbEntity
  8
0
 62
     7
370
    -2
100
AcDbBlockReference
  2
_OPEN
 10
2424.999986828538
 20
3752.066378985422
 30
0.0
 41
40.0
 42
40.0
 43
40.0
 50
90.0
  0
INSERT
  5
4531
330
4102
100
AcDbEntity
  8
0
 62
     7
370
    -2
100
AcDbBlockReference
  2
_OPEN
 10
2424.999986828538
 20
2942.066378985422
 30
0.0
 41
40.0
 42
40.0
 43
40.0
 50
270.0
  0
MTEXT
  5
4532
330
4102
100
AcDbEntity
  8
0
100
AcDbMText
 10
2370.999986828537
 20
3347.066378985423
 30
0.0
 40
60.0
 41
0.0
 71
     5
 72
     1
  1
\A1;Ｅ
  7
STYLE1
 11
6.123031769111886E-17
 21
1.0
 31
0.0
 73
     1
 44
1.0
  0
POINT
  5
4533
330
4102
100
AcDbEntity
  8
DEFPOINTS
 62
     0
100
AcDbPoint
 10
2094.999986828538
 20
3752.066378985422
 30
0.0
  0
POINT
  5
4534
330
4102
100
AcDbEntity
  8
DEFPOINTS
 62
     0
100
AcDbPoint
 10
2094.999986828538
 20
2942.066378985422
 30
0.0
  0
POINT
  5
4535
330
4102
100
AcDbEntity
  8
DEFPOINTS
 62
     0
100
AcDbPoint
 10
2424.999986828538
 20
2942.066378985422
 30
0.0
  0
ENDBLK
  5
42B6
330
4102
100
AcDbEntity
  8
0
370
    -1
100
AcDbBlockEnd
  0
BLOCK
  5
42B7
330
411A
100
AcDbEntity
  8
0
370
    -1
100
AcDbBlockBegin
  2
*D10
 70
     1
 10
0.0
 20
0.0
 30
0.0
  3
*D10
  1

  0
LINE
  5
44EE
330
411A
100
AcDbEntity
  8
0
 62
     7
370
    -2
100
AcDbLine
 10
3004.999986828538
 20
955.9611668086905
 30
0.0
 11
3004.999986828538
 21
804.828803723723
 31
0.0
  0
LINE
  5
44EF
330
411A
100
AcDbEntity
  8
0
 62
     7
370
    -2
100
AcDbLine
 10
3874.999986828538
 20
955.9611668086905
 30
0.0
 11
3874.999986828538
 21
804.828803723723
 31
0.0
  0
LINE
  5
44F0
330
411A
100
AcDbEntity
  8
0
 62
     7
370
    -2
100
AcDbLine
 10
3044.999986828538
 20
824.828803723723
 30
0.0
 11
3834.999986828538
 21
824.828803723723
 31
0.0
  0
INSERT
  5
44F1
330
411A
100
AcDbEntity
  8
0
 62
     7
370
    -2
100
AcDbBlockReference
  2
_OPEN
 10
3004.999986828538
 20
824.828803723723
 30
0.0
 41
40.0
 42
40.0
 43
40.0
 50
180.0
  0
INSERT
  5
44F2
330
411A
100
AcDbEntity
  8
0
 62
     7
370
    -2
100
AcDbBlockReference
  2
_OPEN
 10
3874.999986828538
 20
824.828803723723
 30
0.0
 41
40.0
 42
40.0
 43
40.0
  0
MTEXT
  5
44F3
330
411A
100
AcDbEntity
  8
0
100
AcDbMText
 10
3439.999986828538
 20
878.828803723723
 30
0.0
 40
60.0
 41
0.0
 71
     5
 72
     1
  1
\A1;630（外付時）
  7
STYLE1
 73
     1
 44
1.0
  0
POINT
  5
44F4
330
411A
100
AcDbEntity
  8
DEFPOINTS
 62
     0
100
AcDbPoint
 10
3004.999986828538
 20
987.9611668086905
 30
0.0
  0
POINT
  5
44F5
330
411A
100
AcDbEntity
  8
DEFPOINTS
 62
     0
100
AcDbPoint
 10
3874.999986828538
 20
987.9611668086905
 30
0.0
  0
POINT
  5
44F6
330
411A
100
AcDbEntity
  8
DEFPOINTS
 62
     0
100
AcDbPoint
 10
3874.999986828538
 20
824.828803723723
 30
0.0
  0
ENDBLK
  5
42C1
330
411A
100
AcDbEntity
  8
0
370
    -1
100
AcDbBlockEnd
  0
BLOCK
  5
42C2
330
413F
100
AcDbEntity
  8
0
370
    -1
100
AcDbBlockBegin
  2
*D11
 70
     1
 10
0.0
 20
0.0
 30
0.0
  3
*D11
  1

  0
LINE
  5
44F7
330
413F
100
AcDbEntity
  8
0
 62
     7
370
    -2
100
AcDbLine
 10
3199.999986828538
 20
2349.96116680869
 30
0.0
 11
3199.999986828538
 21
2422.81857518529
 31
0.0
  0
LINE
  5
44F8
330
413F
100
AcDbEntity
  8
0
 62
     7
370
    -2
100
AcDbLine
 10
3678.591466677914
 20
2349.96116680869
 30
0.0
 11
3678.591466677914
 21
2422.81857518529
 31
0.0
  0
LINE
  5
44F9
330
413F
100
AcDbEntity
  8
0
 62
     7
370
    -2
100
AcDbLine
 10
3239.999986828538
 20
2402.81857518529
 30
0.0
 11
3638.591466677914
 21
2402.81857518529
 31
0.0
  0
INSERT
  5
44FA
330
413F
100
AcDbEntity
  8
0
 62
     7
370
    -2
100
AcDbBlockReference
  2
_OPEN
 10
3199.999986828538
 20
2402.81857518529
 30
0.0
 41
40.0
 42
40.0
 43
40.0
 50
180.0
  0
INSERT
  5
44FB
330
413F
100
AcDbEntity
  8
0
 62
     7
370
    -2
100
AcDbBlockReference
  2
_OPEN
 10
3678.591466677914
 20
2402.81857518529
 30
0.0
 41
40.0
 42
40.0
 43
40.0
  0
MTEXT
  5
44FC
330
413F
100
AcDbEntity
  8
0
100
AcDbMText
 10
3439.295726753226
 20
2456.81857518529
 30
0.0
 40
60.0
 41
0.0
 71
     5
 72
     1
  1
\A1;Ｂ
  7
STYLE1
 73
     1
 44
1.0
  0
POINT
  5
44FD
330
413F
100
AcDbEntity
  8
DEFPOINTS
 62
     0
100
AcDbPoint
 10
3199.999986828538
 20
2317.96116680869
 30
0.0
  0
POINT
  5
44FE
330
413F
100
AcDbEntity
  8
DEFPOINTS
 62
     0
100
AcDbPoint
 10
3678.591466677914
 20
2317.96116680869
 30
0.0
  0
POINT
  5
44FF
330
413F
100
AcDbEntity
  8
DEFPOINTS
 62
     0
100
AcDbPoint
 10
3678.591466677914
 20
2402.81857518529
 30
0.0
  0
ENDBLK
  5
42CC
330
413F
100
AcDbEntity
  8
0
370
    -1
100
AcDbBlockEnd
  0
BLOCK
  5
42CD
330
4157
100
AcDbEntity
  8
0
370
    -1
100
AcDbBlockBegin
  2
*D12
 70
     1
 10
0.0
 20
0.0
 30
0.0
  3
*D12
  1

  0
LINE
  5
4500
330
4157
100
AcDbEntity
  8
0
 62
     7
370
    -2
100
AcDbLine
 10
3044.999986828538
 20
2289.96116680869
 30
0.0
 11
3044.999986828538
 21
2514.444806026827
 31
0.0
  0
LINE
  5
4501
330
4157
100
AcDbEntity
  8
0
 62
     7
370
    -2
100
AcDbLine
 10
3834.999986828538
 20
2289.96116680869
 30
0.0
 11
3834.999986828538
 21
2514.444806026827
 31
0.0
  0
LINE
  5
4502
330
4157
100
AcDbEntity
  8
0
 62
     7
370
    -2
100
AcDbLine
 10
3084.999986828538
 20
2494.444806026827
 30
0.0
 11
3794.999986828538
 21
2494.444806026827
 31
0.0
  0
INSERT
  5
4503
330
4157
100
AcDbEntity
  8
0
 62
     7
370
    -2
100
AcDbBlockReference
  2
_OPEN
 10
3044.999986828538
 20
2494.444806026827
 30
0.0
 41
40.0
 42
40.0
 43
40.0
 50
180.0
  0
INSERT
  5
4504
330
4157
100
AcDbEntity
  8
0
 62
     7
370
    -2
100
AcDbBlockReference
  2
_OPEN
 10
3834.999986828538
 20
2494.444806026827
 30
0.0
 41
40.0
 42
40.0
 43
40.0
  0
MTEXT
  5
4505
330
4157
100
AcDbEntity
  8
0
100
AcDbMText
 10
3439.999986828538
 20
2548.444806026827
 30
0.0
 40
60.0
 41
0.0
 71
     5
 72
     1
  1
\A1;570
  7
STYLE1
 73
     1
 44
1.0
  0
POINT
  5
4506
330
4157
100
AcDbEntity
  8
DEFPOINTS
 62
     0
100
AcDbPoint
 10
3044.999986828538
 20
2257.96116680869
 30
0.0
  0
POINT
  5
4507
330
4157
100
AcDbEntity
  8
DEFPOINTS
 62
     0
100
AcDbPoint
 10
3834.999986828538
 20
2257.96116680869
 30
0.0
  0
POINT
  5
4508
330
4157
100
AcDbEntity
  8
DEFPOINTS
 62
     0
100
AcDbPoint
 10
3834.999986828538
 20
2494.444806026827
 30
0.0
  0
ENDBLK
  5
42D7
330
4157
100
AcDbEntity
  8
0
370
    -1
100
AcDbBlockEnd
  0
BLOCK
  5
42D8
330
416F
100
AcDbEntity
  8
0
370
    -1
100
AcDbBlockBegin
  2
*D13
 70
     1
 10
0.0
 20
0.0
 30
0.0
  3
*D13
  1

  0
LINE
  5
4509
330
416F
100
AcDbEntity
  8
0
 62
     7
370
    -2
100
AcDbLine
 10
2969.999986828538
 20
2329.96116680869
 30
0.0
 11
2969.999986828538
 21
2614.522088741945
 31
0.0
  0
LINE
  5
450A
330
416F
100
AcDbEntity
  8
0
 62
     7
370
    -2
100
AcDbLine
 10
3909.999986828538
 20
2329.96116680869
 30
0.0
 11
3909.999986828538
 21
2614.522088741945
 31
0.0
  0
LINE
  5
450B
330
416F
100
AcDbEntity
  8
0
 62
     7
370
    -2
100
AcDbLine
 10
3009.999986828538
 20
2594.522088741945
 30
0.0
 11
3869.999986828538
 21
2594.522088741945
 31
0.0
  0
INSERT
  5
450C
330
416F
100
AcDbEntity
  8
0
 62
     7
370
    -2
100
AcDbBlockReference
  2
_OPEN
 10
2969.999986828538
 20
2594.522088741945
 30
0.0
 41
40.0
 42
40.0
 43
40.0
 50
180.0
  0
INSERT
  5
450D
330
416F
100
AcDbEntity
  8
0
 62
     7
370
    -2
100
AcDbBlockReference
  2
_OPEN
 10
3909.999986828538
 20
2594.522088741945
 30
0.0
 41
40.0
 42
40.0
 43
40.0
  0
MTEXT
  5
450E
330
416F
100
AcDbEntity
  8
0
100
AcDbMText
 10
3439.999986828538
 20
2648.522088741945
 30
0.0
 40
60.0
 41
0.0
 71
     5
 72
     1
  1
\A1;Ｄ
  7
STYLE1
 73
     1
 44
1.0
  0
POINT
  5
450F
330
416F
100
AcDbEntity
  8
DEFPOINTS
 62
     0
100
AcDbPoint
 10
2969.999986828538
 20
2297.96116680869
 30
0.0
  0
POINT
  5
4510
330
416F
100
AcDbEntity
  8
DEFPOINTS
 62
     0
100
AcDbPoint
 10
3909.999986828538
 20
2297.96116680869
 30
0.0
  0
POINT
  5
4511
330
416F
100
AcDbEntity
  8
DEFPOINTS
 62
     0
100
AcDbPoint
 10
3909.999986828538
 20
2594.522088741945
 30
0.0
  0
ENDBLK
  5
42E2
330
416F
100
AcDbEntity
  8
0
370
    -1
100
AcDbBlockEnd
  0
BLOCK
  5
42E3
330
4187
100
AcDbEntity
  8
0
370
    -1
100
AcDbBlockBegin
  2
*D14
 70
     1
 10
0.0
 20
0.0
 30
0.0
  3
*D14
  1

  0
LINE
  5
42E4
330
4187
100
AcDbEntity
  8
0
  6
ByBlock
 62
     7
370
    -1
100
AcDbLine
 10
5276.701384382726
 20
3284.999995102094
 30
0.0
 11
5159.780498547047
 21
3284.999995102094
 31
0.0
  0
LINE
  5
42E5
330
4187
100
AcDbEntity
  8
0
  6
ByBlock
 62
     7
370
    -1
100
AcDbLine
 10
5276.701384382726
 20
3564.999995102094
 30
0.0
 11
5159.780498547047
 21
3564.999995102094
 31
0.0
  0
LINE
  5
42E6
330
4187
100
AcDbEntity
  8
0
  6
ByBlock
 62
     7
370
    -1
100
AcDbLine
 10
5179.780498547047
 20
3324.999995102094
 30
0.0
 11
5179.780498547047
 21
3524.999995102094
 31
0.0
  0
INSERT
  5
42E7
330
4187
100
AcDbEntity
  8
0
  6
ByBlock
 62
     7
370
    -1
100
AcDbBlockReference
  2
_OPEN
 10
5179.780498547047
 20
3284.999995102094
 30
0.0
 41
40.0
 42
40.0
 43
40.0
 50
270.0
  0
INSERT
  5
42E8
330
4187
100
AcDbEntity
  8
0
  6
ByBlock
 62
     7
370
    -1
100
AcDbBlockReference
  2
_OPEN
 10
5179.780498547047
 20
3564.999995102094
 30
0.0
 41
40.0
 42
40.0
 43
40.0
 50
90.0
  0
MTEXT
  5
42E9
330
4187
100
AcDbEntity
  8
0
  6
ByBlock
100
AcDbMText
 10
5125.780498547047
 20
3424.999995102094
 30
0.0
 40
60.0
 41
0.0
 71
     5
 72
     1
  1
\A1;Ｅ
  7
STYLE1
 11
6.123031769111886E-17
 21
1.0
 31
0.0
 73
     1
 44
1.0
  0
POINT
  5
42EA
330
4187
100
AcDbEntity
  8
DEFPOINTS
  6
ByBlock
 62
     0
370
    -1
100
AcDbPoint
 10
5308.701384382726
 20
3284.999995102094
 30
0.0
  0
POINT
  5
42EB
330
4187
100
AcDbEntity
  8
DEFPOINTS
  6
ByBlock
 62
     0
370
    -1
100
AcDbPoint
 10
5308.701384382726
 20
3564.999995102094
 30
0.0
  0
POINT
  5
42EC
330
4187
100
AcDbEntity
  8
DEFPOINTS
  6
ByBlock
 62
     0
370
    -1
100
AcDbPoint
 10
5179.780498547047
 20
3564.999995102094
 30
0.0
  0
ENDBLK
  5
42ED
330
4187
100
AcDbEntity
  8
0
370
    -1
100
AcDbBlockEnd
  0
BLOCK
  5
42EE
330
419F
100
AcDbEntity
  8
0
370
    -1
100
AcDbBlockBegin
  2
*D15
 70
     1
 10
0.0
 20
0.0
 30
0.0
  3
*D15
  1

  0
LINE
  5
42EF
330
419F
100
AcDbEntity
  8
0
  6
ByBlock
 62
     7
370
    -1
100
AcDbLine
 10
4766.396081124563
 20
3252.999995102094
 30
0.0
 11
4766.396081124563
 21
3053.137241550401
 31
0.0
  0
LINE
  5
42F0
330
419F
100
AcDbEntity
  8
0
  6
ByBlock
 62
     7
370
    -1
100
AcDbLine
 10
5308.701384382726
 20
3252.999995102094
 30
0.0
 11
5308.701384382726
 21
3053.137241550401
 31
0.0
  0
LINE
  5
42F1
330
419F
100
AcDbEntity
  8
0
  6
ByBlock
 62
     7
370
    -1
100
AcDbLine
 10
4806.396081124563
 20
3073.137241550401
 30
0.0
 11
5268.701384382726
 21
3073.137241550401
 31
0.0
  0
INSERT
  5
42F2
330
419F
100
AcDbEntity
  8
0
  6
ByBlock
 62
     7
370
    -1
100
AcDbBlockReference
  2
_OPEN
 10
4766.396081124563
 20
3073.137241550401
 30
0.0
 41
40.0
 42
40.0
 43
40.0
 50
180.0
  0
INSERT
  5
42F3
330
419F
100
AcDbEntity
  8
0
  6
ByBlock
 62
     7
370
    -1
100
AcDbBlockReference
  2
_OPEN
 10
5308.701384382726
 20
3073.137241550401
 30
0.0
 41
40.0
 42
40.0
 43
40.0
  0
MTEXT
  5
42F4
330
419F
100
AcDbEntity
  8
0
  6
ByBlock
100
AcDbMText
 10
5037.548732753645
 20
3127.137241550401
 30
0.0
 40
60.0
 41
0.0
 71
     5
 72
     1
  1
\A1;Ｃ
  7
STYLE1
 73
     1
 44
1.0
  0
POINT
  5
42F5
330
419F
100
AcDbEntity
  8
DEFPOINTS
  6
ByBlock
 62
     0
370
    -1
100
AcDbPoint
 10
4766.396081124563
 20
3284.999995102094
 30
0.0
  0
POINT
  5
42F6
330
419F
100
AcDbEntity
  8
DEFPOINTS
  6
ByBlock
 62
     0
370
    -1
100
AcDbPoint
 10
5308.701384382726
 20
3284.999995102094
 30
0.0
  0
POINT
  5
42F7
330
419F
100
AcDbEntity
  8
DEFPOINTS
  6
ByBlock
 62
     0
370
    -1
100
AcDbPoint
 10
5308.701384382726
 20
3073.137241550401
 30
0.0
  0
ENDBLK
  5
42F8
330
419F
100
AcDbEntity
  8
0
370
    -1
100
AcDbBlockEnd
  0
BLOCK
  5
43DD
330
43D9
100
AcDbEntity
  8
0
370
    -1
100
AcDbBlockBegin
  2
A$C6EAD5BA8
 70
     0
 10
0.0
 20
0.0
 30
0.0
  3
A$C6EAD5BA8
  1

  0
TEXT
  5
43DA
330
43D9
100
AcDbEntity
  8
0
370
    -1
100
AcDbText
 10
22.27654362165595
 20
59.13333569270026
 30
0.0
 40
65.0
  1
’０３．０１．０６
 41
0.5
  7
STYLE1
100
AcDbText
  0
TEXT
  5
43DB
330
43D9
100
AcDbEntity
  8
0
 62
     0
370
    -1
100
AcDbText
 10
992.1755380083941
 20
66.0694497842228
 30
0.0
 40
65.0
  1
末永
  7
STYLE1
100
AcDbText
  0
LINE
  5
43DC
330
43D9
100
AcDbEntity
  8
0
370
    -1
100
AcDbLine
 10
-0.0000034967360989
 20
0.0000028274203032
 30
0.0
 11
1199.999996503264
 21
209.9824907965044
 31
0.0
  0
ENDBLK
  5
43DE
330
43D9
100
AcDbEntity
  8
0
370
    -1
100
AcDbBlockEnd
  0
ENDSEC
  0
SECTION
  2
ENTITIES
  0
MTEXT
  5
CF
330
18
100
AcDbEntity
  8
0
 62
     0
100
AcDbMText
 10
858.0351123368276
 20
732.0082556994854
 30
0.0
 40
13.125
 41
0.0
 71
     6
 72
     5
  1
\A1;
  7
STYLE1
 73
     1
 44
1.0
  0
LINE
  5
3A84
330
18
100
AcDbEntity
  8
0
 62
     0
 48
6.0
370
    -1
100
AcDbLine
 10
1744.999986828538
 20
2932.066378985422
 30
0.0
 11
1024.999986828538
 21
2932.066378985422
 31
0.0
  0
LINE
  5
3A85
330
18
100
AcDbEntity
  8
0
 62
     0
 48
6.0
370
    -1
100
AcDbLine
 10
1024.999986828538
 20
3762.066378985422
 30
0.0
 11
1744.999986828538
 21
3762.066378985422
 31
0.0
  0
LINE
  5
3A86
330
18
100
AcDbEntity
  8
0
 62
     0
 48
6.0
370
    -1
100
AcDbLine
 10
1744.999986828538
 20
3732.066378985422
 30
0.0
 11
1024.999986828538
 21
3732.066378985422
 31
0.0
  0
LINE
  5
3A87
330
18
100
AcDbEntity
  8
0
 62
     0
 48
6.0
370
    -1
100
AcDbLine
 10
1024.999986828538
 20
2962.066378985422
 30
0.0
 11
1744.999986828538
 21
2962.066378985422
 31
0.0
  0
LINE
  5
3A88
330
18
100
AcDbEntity
  8
0
 62
     0
 48
6.0
370
    -1
100
AcDbLine
 10
1744.999986828538
 20
3652.066378985422
 30
0.0
 11
1024.999986828538
 21
3652.066378985422
 31
0.0
  0
LINE
  5
3A89
330
18
100
AcDbEntity
  8
0
 62
     0
 48
6.0
370
    -1
100
AcDbLine
 10
1744.999986828538
 20
3042.066378985422
 30
0.0
 11
1024.999986828538
 21
3042.066378985422
 31
0.0
  0
LINE
  5
3AA9
330
18
100
AcDbEntity
  8
0
  6
CENTER
 62
     0
 48
6.0
370
    -1
100
AcDbLine
 10
974.9999868285377
 20
2832.066378985422
 30
0.0
 11
974.9999868285377
 21
3862.066378985422
 31
0.0
  0
LINE
  5
3AAA
330
18
100
AcDbEntity
  8
0
 62
     0
 48
6.0
370
    -1
100
AcDbLine
 10
794.9999868285377
 20
3042.066378985422
 30
0.0
 11
794.9999868285377
 21
3642.066378985422
 31
0.0
  0
LINE
  5
3AAB
330
18
100
AcDbEntity
  8
0
 62
     0
 48
6.0
370
    -1
100
AcDbLine
 10
1024.999986828538
 20
3752.066378985422
 30
0.0
 11
1024.999986828538
 21
2942.066378985422
 31
0.0
  0
LINE
  5
3AAC
330
18
100
AcDbEntity
  8
0
 62
     0
 48
6.0
370
    -1
100
AcDbLine
 10
924.9999868285377
 20
3752.066378985422
 30
0.0
 11
924.9999868285377
 21
2942.066378985422
 31
0.0
  0
LINE
  5
3AAD
330
18
100
AcDbEntity
  8
0
 62
     0
 48
6.0
370
    -1
100
AcDbLine
 10
714.9999868285377
 20
3052.066378985422
 30
0.0
 11
714.9999868285377
 21
3732.066378985422
 31
0.0
  0
LINE
  5
3AAE
330
18
100
AcDbEntity
  8
0
 62
     0
 48
6.0
370
    -1
100
AcDbLine
 10
1024.999986828538
 20
2892.066378985422
 30
0.0
 11
1024.999986828538
 21
2952.066378985422
 31
0.0
  0
LINE
  5
3AAF
330
18
100
AcDbEntity
  8
0
 62
     0
 48
6.0
370
    -1
100
AcDbLine
 10
924.9999868285377
 20
2942.066378985422
 30
0.0
 11
924.9999868285377
 21
2892.066378985422
 31
0.0
  0
LINE
  5
3AB3
330
18
100
AcDbEntity
  8
0
 62
     0
 48
6.0
370
    -1
100
AcDbLine
 10
924.9999868285377
 20
2877.066378985422
 30
0.0
 11
1024.999986828538
 21
2877.066378985422
 31
0.0
  0
LINE
  5
3AB4
330
18
100
AcDbEntity
  8
0
 62
     0
 48
6.0
370
    -1
100
AcDbLine
 10
924.9999868285377
 20
2877.066378985422
 30
0.0
 11
924.9999868285377
 21
2892.066378985422
 31
0.0
  0
LINE
  5
3AB5
330
18
100
AcDbEntity
  8
0
 62
     0
 48
6.0
370
    -1
100
AcDbLine
 10
1024.999986828538
 20
2877.066378985422
 30
0.0
 11
1024.999986828538
 21
2892.066378985422
 31
0.0
  0
LINE
  5
3AB6
330
18
100
AcDbEntity
  8
0
 62
     0
 48
6.0
370
    -1
100
AcDbLine
 10
924.9999868285377
 20
2932.066378985422
 30
0.0
 11
794.9999868285377
 21
2932.066378985422
 31
0.0
  0
LINE
  5
3AB7
330
18
100
AcDbEntity
  8
0
 62
     0
 48
6.0
370
    -1
100
AcDbLine
 10
714.9999868285377
 20
2962.066378985422
 30
0.0
 11
924.9999868285377
 21
2962.066378985422
 31
0.0
  0
LINE
  5
3AB8
330
18
100
AcDbEntity
  8
0
 62
     0
 48
6.0
370
    -1
100
AcDbLine
 10
924.9999868285377
 20
3042.066378985422
 30
0.0
 11
794.9999868285377
 21
3042.066378985422
 31
0.0
  0
LINE
  5
3AB9
330
18
100
AcDbEntity
  8
0
 62
     0
 48
6.0
370
    -1
100
AcDbLine
 10
714.9999868285377
 20
3042.066378985422
 30
0.0
 11
794.9999868285377
 21
3042.066378985422
 31
0.0
  0
LINE
  5
3ABA
330
18
100
AcDbEntity
  8
0
 62
     0
 48
6.0
370
    -1
100
AcDbLine
 10
694.9999868285377
 20
2922.066378985422
 30
0.0
 11
784.9999868285377
 21
2922.066378985422
 31
0.0
  0
LINE
  5
3ABB
330
18
100
AcDbEntity
  8
0
 62
     0
 48
6.0
370
    -1
100
AcDbLine
 10
674.9999868285377
 20
3032.066378985422
 30
0.0
 11
674.9999868285377
 21
2942.066378985422
 31
0.0
  0
LINE
  5
3ABC
330
18
100
AcDbEntity
  8
0
 62
     0
 48
6.0
370
    -1
100
AcDbLine
 10
714.9999868285377
 20
3072.066378985422
 30
0.0
 11
714.9999868285377
 21
2962.066378985422
 31
0.0
  0
LINE
  5
3ABD
330
18
100
AcDbEntity
  8
0
  6
CENTER
 62
     0
 48
6.0
370
    -1
100
AcDbLine
 10
694.9999868285377
 20
2962.066378985422
 30
0.0
 11
694.9999868285377
 21
2922.066378985422
 31
0.0
  0
LINE
  5
3ABE
330
18
100
AcDbEntity
  8
0
  6
CENTER
 62
     0
 48
6.0
370
    -1
100
AcDbLine
 10
674.9999868285377
 20
2942.066378985422
 30
0.0
 11
714.9999868285377
 21
2942.066378985422
 31
0.0
  0
CIRCLE
  5
3ABF
330
18
100
AcDbEntity
  8
0
  6
ByBlock
 62
     0
 48
6.0
370
    -1
100
AcDbCircle
 10
694.9999868285377
 20
2942.066378985422
 30
0.0
 40
10.0
  0
LINE
  5
3AC0
330
18
100
AcDbEntity
  8
0
 62
     0
 48
6.0
370
    -1
100
AcDbLine
 10
674.9999868285377
 20
2942.066378985422
 30
0.0
 11
694.9999868285377
 21
2922.066378985422
 31
0.0
  0
LINE
  5
3AC1
330
18
100
AcDbEntity
  8
0
 62
     0
 48
6.0
370
    -1
100
AcDbLine
 10
694.9999868285377
 20
3052.066378985422
 30
0.0
 11
674.9999868285377
 21
3032.066378985422
 31
0.0
  0
LINE
  5
3AC2
330
18
100
AcDbEntity
  8
0
 62
     0
 48
6.0
370
    -1
100
AcDbLine
 10
714.9999868285377
 20
3052.066378985422
 30
0.0
 11
694.9999868285377
 21
3052.066378985422
 31
0.0
  0
LINE
  5
3AC3
330
18
100
AcDbEntity
  8
0
 62
     0
 48
6.0
370
    -1
100
AcDbLine
 10
794.9999868285377
 20
3042.066378985422
 30
0.0
 11
794.9999868285377
 21
2962.066378985422
 31
0.0
  0
LINE
  5
3AC4
330
18
100
AcDbEntity
  8
0
 62
     0
 48
6.0
370
    -1
100
AcDbLine
 10
804.9999868285377
 20
2942.066378985422
 30
0.0
 11
804.9999868285377
 21
2962.066378985422
 31
0.0
  0
LINE
  5
3AC5
330
18
100
AcDbEntity
  8
0
 62
     0
 48
6.0
370
    -1
100
AcDbLine
 10
784.9999868285377
 20
2922.066378985422
 30
0.0
 11
804.9999868285377
 21
2942.066378985422
 31
0.0
  0
ARC
  5
3AC6
330
18
100
AcDbEntity
  8
0
 62
     0
 48
6.0
370
    -1
100
AcDbCircle
 10
974.9999868285377
 20
3077.066378985422
 30
0.0
 40
5.0
100
AcDbArc
 50
180.0
 51
0.0
  0
LINE
  5
3AC7
330
18
100
AcDbEntity
  8
0
 62
     0
 48
6.0
370
    -1
100
AcDbLine
 10
954.9999868285377
 20
3052.066378985422
 30
0.0
 11
954.9999868285377
 21
3152.066378985422
 31
0.0
  0
LINE
  5
3AC8
330
18
100
AcDbEntity
  8
0
 62
     0
 48
6.0
370
    -1
100
AcDbLine
 10
964.9999868285377
 20
3052.066378985422
 30
0.0
 11
964.9999868285377
 21
3152.066378985422
 31
0.0
  0
LINE
  5
3AC9
330
18
100
AcDbEntity
  8
0
 62
     0
 48
6.0
370
    -1
100
AcDbLine
 10
1004.999986828538
 20
3052.066378985422
 30
0.0
 11
1004.999986828538
 21
3152.066378985422
 31
0.0
  0
LINE
  5
3ACA
330
18
100
AcDbEntity
  8
0
 62
     0
 48
6.0
370
    -1
100
AcDbLine
 10
984.9999868285377
 20
3052.066378985422
 30
0.0
 11
984.9999868285377
 21
3152.066378985422
 31
0.0
  0
LINE
  5
3ACB
330
18
100
AcDbEntity
  8
0
 62
     0
 48
6.0
370
    -1
100
AcDbLine
 10
984.9999868285377
 20
3152.066378985422
 30
0.0
 11
984.9999868285377
 21
3052.066378985422
 31
0.0
  0
LINE
  5
3ACC
330
18
100
AcDbEntity
  8
0
 62
     0
 48
6.0
370
    -1
100
AcDbLine
 10
994.9999868285377
 20
3052.066378985422
 30
0.0
 11
994.9999868285377
 21
3152.066378985422
 31
0.0
  0
LINE
  5
3ACD
330
18
100
AcDbEntity
  8
0
 62
     0
 48
6.0
370
    -1
100
AcDbLine
 10
1014.999986828538
 20
3152.066378985422
 30
0.0
 11
1014.999986828538
 21
3052.066378985422
 31
0.0
  0
LINE
  5
3ACE
330
18
100
AcDbEntity
  8
0
 62
     0
 48
6.0
370
    -1
100
AcDbLine
 10
934.9999868285377
 20
3052.066378985422
 30
0.0
 11
934.9999868285377
 21
3152.066378985422
 31
0.0
  0
LINE
  5
3ACF
330
18
100
AcDbEntity
  8
0
 62
     0
 48
6.0
370
    -1
100
AcDbLine
 10
944.9999868285377
 20
3052.066378985422
 30
0.0
 11
944.9999868285377
 21
3152.066378985422
 31
0.0
  0
LINE
  5
3AD0
330
18
100
AcDbEntity
  8
0
 62
     0
 48
6.0
370
    -1
100
AcDbLine
 10
1014.999986828538
 20
3052.066378985422
 30
0.0
 11
934.9999868285377
 21
3052.066378985422
 31
0.0
  0
LINE
  5
3AD1
330
18
100
AcDbEntity
  8
0
  6
CENTER
 62
     0
 48
6.0
370
    -1
100
AcDbLine
 10
964.9999868285377
 20
2972.066378985422
 30
0.0
 11
984.9999868285377
 21
2972.066378985422
 31
0.0
  0
LINE
  5
3AD2
330
18
100
AcDbEntity
  8
0
  6
CENTER
 62
     0
 48
6.0
370
    -1
100
AcDbLine
 10
964.9999868285377
 20
2917.066378985422
 30
0.0
 11
984.9999868285377
 21
2917.066378985422
 31
0.0
  0
CIRCLE
  5
3AD3
330
18
100
AcDbEntity
  8
0
 62
     0
 48
6.0
370
    -1
100
AcDbCircle
 10
974.9999868285377
 20
2972.066378985422
 30
0.0
 40
5.0
  0
CIRCLE
  5
3AD4
330
18
100
AcDbEntity
  8
0
 62
     0
 48
6.0
370
    -1
100
AcDbCircle
 10
974.9999868285377
 20
2917.066378985422
 30
0.0
 40
5.0
  0
LINE
  5
3AD5
330
18
100
AcDbEntity
  8
0
 62
     0
 48
6.0
370
    -1
100
AcDbLine
 10
974.9999868285377
 20
3052.066378985422
 30
0.0
 11
974.9999868285377
 21
3072.066378985422
 31
0.0
  0
LINE
  5
3AD6
330
18
100
AcDbEntity
  8
0
 62
     0
 48
6.0
370
    -1
100
AcDbLine
 10
984.9999868285377
 20
3052.066378985422
 30
0.0
 11
984.9999868285377
 21
3067.066378985422
 31
0.0
  0
LINE
  5
3AD7
330
18
100
AcDbEntity
  8
0
 62
     0
 48
6.0
370
    -1
100
AcDbLine
 10
934.9999868285377
 20
3152.066378985422
 30
0.0
 11
1014.999986828538
 21
3152.066378985422
 31
0.0
  0
LINE
  5
3AD8
330
18
100
AcDbEntity
  8
0
 62
     0
 48
6.0
370
    -1
100
AcDbLine
 10
969.9999868285377
 20
3152.066378985422
 30
0.0
 11
969.9999868285377
 21
3172.066378985422
 31
0.0
  0
LINE
  5
3AD9
330
18
100
AcDbEntity
  8
0
 62
     0
 48
6.0
370
    -1
100
AcDbLine
 10
979.9999868285377
 20
3152.066378985422
 30
0.0
 11
979.9999868285377
 21
3172.066378985422
 31
0.0
  0
LINE
  5
3ADA
330
18
100
AcDbEntity
  8
0
 62
     0
 48
6.0
370
    -1
100
AcDbLine
 10
974.9999868285377
 20
3132.066378985422
 30
0.0
 11
974.9999868285377
 21
3152.066378985422
 31
0.0
  0
LINE
  5
3ADB
330
18
100
AcDbEntity
  8
0
 62
     0
 48
6.0
370
    -1
100
AcDbLine
 10
979.9999868285377
 20
3122.066378985422
 30
0.0
 11
979.9999868285377
 21
3127.066378985422
 31
0.0
  0
ARC
  5
3ADC
330
18
100
AcDbEntity
  8
0
 62
     0
 48
6.0
370
    -1
100
AcDbCircle
 10
974.9999868285377
 20
3127.066378985422
 30
0.0
 40
5.0
100
AcDbArc
 50
0.0
 51
180.0
  0
LINE
  5
3ADD
330
18
100
AcDbEntity
  8
0
 62
     0
 48
6.0
370
    -1
100
AcDbLine
 10
969.9999868285377
 20
3122.066378985422
 30
0.0
 11
969.9999868285377
 21
3127.066378985422
 31
0.0
  0
LINE
  5
3ADE
330
18
100
AcDbEntity
  8
0
 62
     0
 48
6.0
370
    -1
100
AcDbLine
 10
969.9999868285377
 20
3082.066378985422
 30
0.0
 11
969.9999868285377
 21
3077.066378985422
 31
0.0
  0
LINE
  5
3ADF
330
18
100
AcDbEntity
  8
0
 62
     0
 48
6.0
370
    -1
100
AcDbLine
 10
979.9999868285377
 20
3082.066378985422
 30
0.0
 11
979.9999868285377
 21
3077.066378985422
 31
0.0
  0
LINE
  5
3AE0
330
18
100
AcDbEntity
  8
0
 62
     0
 48
6.0
370
    -1
100
AcDbLine
 10
969.9999868285377
 20
3082.066378985422
 30
0.0
 11
969.9999868285377
 21
3122.066378985422
 31
0.0
  0
LINE
  5
3AE1
330
18
100
AcDbEntity
  8
0
 62
     0
 48
6.0
370
    -1
100
AcDbLine
 10
979.9999868285377
 20
3122.066378985422
 30
0.0
 11
979.9999868285377
 21
3082.066378985422
 31
0.0
  0
LINE
  5
3AE2
330
18
100
AcDbEntity
  8
0
 62
     0
 48
6.0
370
    -1
100
AcDbLine
 10
969.9999868285377
 20
3172.066378985422
 30
0.0
 11
969.9999868285377
 21
3177.066378985422
 31
0.0
  0
ARC
  5
3AE3
330
18
100
AcDbEntity
  8
0
 62
     0
 48
6.0
370
    -1
100
AcDbCircle
 10
974.9999868285377
 20
3177.066378985422
 30
0.0
 40
5.0
100
AcDbArc
 50
0.0
 51
180.0
  0
LINE
  5
3AE4
330
18
100
AcDbEntity
  8
0
 62
     0
 48
6.0
370
    -1
100
AcDbLine
 10
979.9999868285377
 20
3172.066378985422
 30
0.0
 11
979.9999868285377
 21
3177.066378985422
 31
0.0
  0
LINE
  5
3AE5
330
18
100
AcDbEntity
  8
0
 62
     0
 48
6.0
370
    -1
100
AcDbLine
 10
974.9999868285377
 20
3562.066378985422
 30
0.0
 11
974.9999868285377
 21
3542.066378985422
 31
0.0
  0
LINE
  5
3AE6
330
18
100
AcDbEntity
  8
0
 62
     0
 48
6.0
370
    -1
100
AcDbLine
 10
954.9999868285377
 20
3642.066378985422
 30
0.0
 11
954.9999868285377
 21
3542.066378985422
 31
0.0
  0
LINE
  5
3AE7
330
18
100
AcDbEntity
  8
0
 62
     0
 48
6.0
370
    -1
100
AcDbLine
 10
964.9999868285377
 20
3542.066378985422
 30
0.0
 11
964.9999868285377
 21
3642.066378985422
 31
0.0
  0
LINE
  5
3AE8
330
18
100
AcDbEntity
  8
0
 62
     0
 48
6.0
370
    -1
100
AcDbLine
 10
964.9999868285377
 20
3642.066378985422
 30
0.0
 11
964.9999868285377
 21
3542.066378985422
 31
0.0
  0
LINE
  5
3AE9
330
18
100
AcDbEntity
  8
0
 62
     0
 48
6.0
370
    -1
100
AcDbLine
 10
984.9999868285377
 20
3642.066378985422
 30
0.0
 11
984.9999868285377
 21
3542.066378985422
 31
0.0
  0
LINE
  5
3AEA
330
18
100
AcDbEntity
  8
0
 62
     0
 48
6.0
370
    -1
100
AcDbLine
 10
994.9999868285377
 20
3642.066378985422
 30
0.0
 11
994.9999868285377
 21
3542.066378985422
 31
0.0
  0
LINE
  5
3AEB
330
18
100
AcDbEntity
  8
0
 62
     0
 48
6.0
370
    -1
100
AcDbLine
 10
1004.999986828538
 20
3642.066378985422
 30
0.0
 11
1004.999986828538
 21
3542.066378985422
 31
0.0
  0
LINE
  5
3AEC
330
18
100
AcDbEntity
  8
0
 62
     0
 48
6.0
370
    -1
100
AcDbLine
 10
1014.999986828538
 20
3642.066378985422
 30
0.0
 11
1014.999986828538
 21
3542.066378985422
 31
0.0
  0
LINE
  5
3AED
330
18
100
AcDbEntity
  8
0
 62
     0
 48
6.0
370
    -1
100
AcDbLine
 10
934.9999868285377
 20
3542.066378985422
 30
0.0
 11
934.9999868285377
 21
3642.066378985422
 31
0.0
  0
LINE
  5
3AEE
330
18
100
AcDbEntity
  8
0
 62
     0
 48
6.0
370
    -1
100
AcDbLine
 10
944.9999868285377
 20
3642.066378985422
 30
0.0
 11
944.9999868285377
 21
3542.066378985422
 31
0.0
  0
LINE
  5
3AEF
330
18
100
AcDbEntity
  8
0
 62
     0
 48
6.0
370
    -1
100
AcDbLine
 10
1014.999986828538
 20
3542.066378985422
 30
0.0
 11
934.9999868285377
 21
3542.066378985422
 31
0.0
  0
LINE
  5
3AF0
330
18
100
AcDbEntity
  8
0
 62
     0
 48
6.0
370
    -1
100
AcDbLine
 10
969.9999868285377
 20
3522.066378985422
 30
0.0
 11
969.9999868285377
 21
3517.066378985422
 31
0.0
  0
LINE
  5
3AF1
330
18
100
AcDbEntity
  8
0
 62
     0
 48
6.0
370
    -1
100
AcDbLine
 10
969.9999868285377
 20
3542.066378985422
 30
0.0
 11
969.9999868285377
 21
3522.066378985422
 31
0.0
  0
LINE
  5
3AF2
330
18
100
AcDbEntity
  8
0
 62
     0
 48
6.0
370
    -1
100
AcDbLine
 10
979.9999868285377
 20
3542.066378985422
 30
0.0
 11
979.9999868285377
 21
3522.066378985422
 31
0.0
  0
ARC
  5
3AF3
330
18
100
AcDbEntity
  8
0
 62
     0
 48
6.0
370
    -1
100
AcDbCircle
 10
974.9999868285377
 20
3517.066378985422
 30
0.0
 40
5.0
100
AcDbArc
 50
180.0
 51
0.0
  0
LINE
  5
3AF4
330
18
100
AcDbEntity
  8
0
 62
     0
 48
6.0
370
    -1
100
AcDbLine
 10
979.9999868285377
 20
3522.066378985422
 30
0.0
 11
979.9999868285377
 21
3517.066378985422
 31
0.0
  0
LINE
  5
3AF5
330
18
100
AcDbEntity
  8
0
 62
     0
 48
6.0
370
    -1
100
AcDbLine
 10
794.9999868285377
 20
3762.066378985422
 30
0.0
 11
924.9999868285377
 21
3762.066378985422
 31
0.0
  0
LINE
  5
3AF6
330
18
100
AcDbEntity
  8
0
 62
     0
 48
6.0
370
    -1
100
AcDbLine
 10
924.9999868285377
 20
3732.066378985422
 30
0.0
 11
714.9999868285377
 21
3732.066378985422
 31
0.0
  0
LINE
  5
3AF7
330
18
100
AcDbEntity
  8
0
 62
     0
 48
6.0
370
    -1
100
AcDbLine
 10
924.9999868285377
 20
3652.066378985422
 30
0.0
 11
794.9999868285377
 21
3652.066378985422
 31
0.0
  0
LINE
  5
3AF8
330
18
100
AcDbEntity
  8
0
 62
     0
 48
6.0
370
    -1
100
AcDbLine
 10
794.9999868285377
 20
3732.066378985422
 30
0.0
 11
794.9999868285377
 21
3652.066378985422
 31
0.0
  0
LINE
  5
3AF9
330
18
100
AcDbEntity
  8
0
 62
     0
 48
6.0
370
    -1
100
AcDbLine
 10
674.9999868285377
 20
3752.066378985422
 30
0.0
 11
674.9999868285377
 21
3662.066378985422
 31
0.0
  0
LINE
  5
3AFA
330
18
100
AcDbEntity
  8
0
 62
     0
 48
6.0
370
    -1
100
AcDbLine
 10
714.9999868285377
 20
3652.066378985422
 30
0.0
 11
794.9999868285377
 21
3652.066378985422
 31
0.0
  0
LINE
  5
3AFB
330
18
100
AcDbEntity
  8
0
 62
     0
 48
6.0
370
    -1
100
AcDbLine
 10
674.9999868285377
 20
3662.066378985422
 30
0.0
 11
694.9999868285377
 21
3642.066378985422
 31
0.0
  0
LINE
  5
3AFC
330
18
100
AcDbEntity
  8
0
 62
     0
 48
6.0
370
    -1
100
AcDbLine
 10
694.9999868285377
 20
3642.066378985422
 30
0.0
 11
714.9999868285377
 21
3642.066378985422
 31
0.0
  0
LINE
  5
3AFD
330
18
100
AcDbEntity
  8
0
 62
     0
 48
6.0
370
    -1
100
AcDbLine
 10
794.9999868285377
 20
3652.066378985422
 30
0.0
 11
794.9999868285377
 21
3642.066378985422
 31
0.0
  0
LINE
  5
3AFE
330
18
100
AcDbEntity
  8
0
 62
     0
 48
6.0
370
    -1
100
AcDbLine
 10
784.9999868285377
 20
3772.066378985422
 30
0.0
 11
694.9999868285377
 21
3772.066378985422
 31
0.0
  0
LINE
  5
3B00
330
18
100
AcDbEntity
  8
0
  6
CENTER
 62
     0
 48
6.0
370
    -1
100
AcDbLine
 10
694.9999868285377
 20
3772.066378985422
 30
0.0
 11
694.9999868285377
 21
3732.066378985422
 31
0.0
  0
LINE
  5
3B01
330
18
100
AcDbEntity
  8
0
  6
CENTER
 62
     0
 48
6.0
370
    -1
100
AcDbLine
 10
674.9999868285377
 20
3752.066378985422
 30
0.0
 11
714.9999868285377
 21
3752.066378985422
 31
0.0
  0
CIRCLE
  5
3B02
330
18
100
AcDbEntity
  8
0
  6
ByBlock
 62
     0
 48
6.0
370
    -1
100
AcDbCircle
 10
694.9999868285377
 20
3752.066378985422
 30
0.0
 40
10.0
  0
LINE
  5
3B03
330
18
100
AcDbEntity
  8
0
 62
     0
 48
6.0
370
    -1
100
AcDbLine
 10
694.9999868285377
 20
3772.066378985422
 30
0.0
 11
674.9999868285377
 21
3752.066378985422
 31
0.0
  0
LINE
  5
3B05
330
18
100
AcDbEntity
  8
0
 62
     0
 48
6.0
370
    -1
100
AcDbLine
 10
804.9999868285377
 20
3752.066378985422
 30
0.0
 11
784.9999868285377
 21
3772.066378985422
 31
0.0
  0
LINE
  5
3B06
330
18
100
AcDbEntity
  8
0
 62
     0
 48
6.0
370
    -1
100
AcDbLine
 10
804.9999868285377
 20
3732.066378985422
 30
0.0
 11
804.9999868285377
 21
3752.066378985422
 31
0.0
  0
CIRCLE
  5
3B07
330
18
100
AcDbEntity
  8
0
 62
     0
 48
6.0
370
    -1
100
AcDbCircle
 10
974.9999868285377
 20
3722.066378985422
 30
0.0
 40
5.0
  0
LINE
  5
3B08
330
18
100
AcDbEntity
  8
0
 62
     0
 48
6.0
370
    -1
100
AcDbLine
 10
934.9999868285377
 20
3642.066378985422
 30
0.0
 11
1014.999986828538
 21
3642.066378985422
 31
0.0
  0
LINE
  5
3B09
330
18
100
AcDbEntity
  8
0
 62
     0
 48
6.0
370
    -1
100
AcDbLine
 10
979.9999868285377
 20
3572.066378985422
 30
0.0
 11
979.9999868285377
 21
3567.066378985422
 31
0.0
  0
LINE
  5
3B0A
330
18
100
AcDbEntity
  8
0
 62
     0
 48
6.0
370
    -1
100
AcDbLine
 10
969.9999868285377
 20
3572.066378985422
 30
0.0
 11
969.9999868285377
 21
3612.066378985422
 31
0.0
  0
LINE
  5
3B0B
330
18
100
AcDbEntity
  8
0
 62
     0
 48
6.0
370
    -1
100
AcDbLine
 10
979.9999868285377
 20
3612.066378985422
 30
0.0
 11
979.9999868285377
 21
3572.066378985422
 31
0.0
  0
ARC
  5
3B0C
330
18
100
AcDbEntity
  8
0
 62
     0
 48
6.0
370
    -1
100
AcDbCircle
 10
974.9999868285377
 20
3617.066378985422
 30
0.0
 40
5.0
100
AcDbArc
 50
0.0
 51
180.0
  0
LINE
  5
3B0D
330
18
100
AcDbEntity
  8
0
 62
     0
 48
6.0
370
    -1
100
AcDbLine
 10
969.9999868285377
 20
3612.066378985422
 30
0.0
 11
969.9999868285377
 21
3617.066378985422
 31
0.0
  0
LINE
  5
3B0E
330
18
100
AcDbEntity
  8
0
 62
     0
 48
6.0
370
    -1
100
AcDbLine
 10
979.9999868285377
 20
3612.066378985422
 30
0.0
 11
979.9999868285377
 21
3617.066378985422
 31
0.0
  0
ARC
  5
3B0F
330
18
100
AcDbEntity
  8
0
 62
     0
 48
6.0
370
    -1
100
AcDbCircle
 10
974.9999868285377
 20
3567.066378985422
 30
0.0
 40
5.0
100
AcDbArc
 50
180.0
 51
0.0
  0
LINE
  5
3B10
330
18
100
AcDbEntity
  8
0
 62
     0
 48
6.0
370
    -1
100
AcDbLine
 10
969.9999868285377
 20
3572.066378985422
 30
0.0
 11
969.9999868285377
 21
3567.066378985422
 31
0.0
  0
LINE
  5
3B11
330
18
100
AcDbEntity
  8
0
 62
     0
 48
6.0
370
    -1
100
AcDbLine
 10
964.9999868285377
 20
3642.066378985422
 30
0.0
 11
964.9999868285377
 21
3627.066378985422
 31
0.0
  0
LINE
  5
3B12
330
18
100
AcDbEntity
  8
0
 62
     0
 48
6.0
370
    -1
100
AcDbLine
 10
974.9999868285377
 20
3642.066378985422
 30
0.0
 11
974.9999868285377
 21
3622.066378985422
 31
0.0
  0
LINE
  5
3B13
330
18
100
AcDbEntity
  8
0
  6
CENTER
 62
     0
 48
6.0
370
    -1
100
AcDbLine
 10
964.9999868285377
 20
3722.066378985422
 30
0.0
 11
984.9999868285377
 21
3722.066378985422
 31
0.0
  0
LINE
  5
3B14
330
18
100
AcDbEntity
  8
0
 62
     0
 48
6.0
370
    -1
100
AcDbLine
 10
924.9999868285377
 20
3817.066378985422
 30
0.0
 11
1024.999986828538
 21
3817.066378985422
 31
0.0
  0
LINE
  5
3B15
330
18
100
AcDbEntity
  8
0
 62
     0
 48
6.0
370
    -1
100
AcDbLine
 10
924.9999868285377
 20
3817.066378985422
 30
0.0
 11
924.9999868285377
 21
3797.066378985422
 31
0.0
  0
LINE
  5
3B16
330
18
100
AcDbEntity
  8
0
 62
     0
 48
6.0
370
    -1
100
AcDbLine
 10
924.9999868285377
 20
3752.066378985422
 30
0.0
 11
924.9999868285377
 21
3802.066378985422
 31
0.0
  0
LINE
  5
3B17
330
18
100
AcDbEntity
  8
0
 62
     0
 48
6.0
370
    -1
100
AcDbLine
 10
1024.999986828538
 20
3817.066378985422
 30
0.0
 11
1024.999986828538
 21
3797.066378985422
 31
0.0
  0
LINE
  5
3B18
330
18
100
AcDbEntity
  8
0
  6
CENTER
 62
     0
 48
6.0
370
    -1
100
AcDbLine
 10
964.9999868285377
 20
3777.066378985422
 30
0.0
 11
984.9999868285377
 21
3777.066378985422
 31
0.0
  0
CIRCLE
  5
3B19
330
18
100
AcDbEntity
  8
0
 62
     0
 48
6.0
370
    -1
100
AcDbCircle
 10
974.9999868285377
 20
3777.066378985422
 30
0.0
 40
5.0
  0
LINE
  5
3B1A
330
18
100
AcDbEntity
  8
0
 62
     0
 48
6.0
370
    -1
100
AcDbLine
 10
1024.999986828538
 20
3802.066378985422
 30
0.0
 11
1024.999986828538
 21
3742.066378985422
 31
0.0
  0
LINE
  5
3BC0
330
18
100
AcDbEntity
  8
0
 62
     0
 48
6.0
370
    -1
100
AcDbLine
 10
1974.999986828538
 20
3042.066378985422
 30
0.0
 11
2054.999986828538
 21
3042.066378985422
 31
0.0
  0
LINE
  5
3BC1
330
18
100
AcDbEntity
  8
0
 62
     0
 48
6.0
370
    -1
100
AcDbLine
 10
1974.999986828538
 20
3652.066378985422
 30
0.0
 11
2054.999986828538
 21
3652.066378985422
 31
0.0
  0
LINE
  5
3BC2
330
18
100
AcDbEntity
  8
0
 62
     0
 48
6.0
370
    -1
100
AcDbLine
 10
2054.999986828538
 20
3732.066378985422
 30
0.0
 11
1844.999986828538
 21
3732.066378985422
 31
0.0
  0
LINE
  5
3BC3
330
18
100
AcDbEntity
  8
0
 62
     0
 48
6.0
370
    -1
100
AcDbLine
 10
1844.999986828538
 20
2962.066378985422
 30
0.0
 11
2054.999986828538
 21
2962.066378985422
 31
0.0
  0
LINE
  5
3BC4
330
18
100
AcDbEntity
  8
0
 62
     0
 48
6.0
370
    -1
100
AcDbLine
 10
1984.999986828538
 20
2922.066378985422
 30
0.0
 11
2074.999986828538
 21
2922.066378985422
 31
0.0
  0
LINE
  5
3BC5
330
18
100
AcDbEntity
  8
0
 62
     0
 48
6.0
370
    -1
100
AcDbLine
 10
2074.999986828538
 20
3772.066378985422
 30
0.0
 11
1984.999986828538
 21
3772.066378985422
 31
0.0
  0
LINE
  5
3BC8
330
18
100
AcDbEntity
  8
0
  6
CENTER
 62
     0
 48
6.0
370
    -1
100
AcDbLine
 10
1794.999986828538
 20
3862.066378985422
 30
0.0
 11
1794.999986828538
 21
2832.066378985422
 31
0.0
  0
LINE
  5
3BCA
330
18
100
AcDbEntity
  8
0
 62
     0
 48
6.0
370
    -1
100
AcDbLine
 10
1744.999986828538
 20
3802.066378985422
 30
0.0
 11
1744.999986828538
 21
2892.066378985422
 31
0.0
  0
LINE
  5
3BCB
330
18
100
AcDbEntity
  8
0
 62
     0
 48
6.0
370
    -1
100
AcDbLine
 10
1844.999986828538
 20
3802.066378985422
 30
0.0
 11
1844.999986828538
 21
2892.066378985422
 31
0.0
  0
LINE
  5
3BCC
330
18
100
AcDbEntity
  8
0
 62
     0
 48
6.0
370
    -1
100
AcDbLine
 10
1974.999986828538
 20
3632.066378985422
 30
0.0
 11
1974.999986828538
 21
3042.066378985422
 31
0.0
  0
LINE
  5
3BD5
330
18
100
AcDbEntity
  8
0
 62
     0
 48
6.0
370
    -1
100
AcDbLine
 10
1744.999986828538
 20
2877.066378985422
 30
0.0
 11
1844.999986828538
 21
2877.066378985422
 31
0.0
  0
LINE
  5
3BD6
330
18
100
AcDbEntity
  8
0
 62
     0
 48
6.0
370
    -1
100
AcDbLine
 10
1744.999986828538
 20
2897.066378985422
 30
0.0
 11
1744.999986828538
 21
2877.066378985422
 31
0.0
  0
LINE
  5
3BD7
330
18
100
AcDbEntity
  8
0
 62
     0
 48
6.0
370
    -1
100
AcDbLine
 10
1844.999986828538
 20
2877.066378985422
 30
0.0
 11
1844.999986828538
 21
2897.066378985422
 31
0.0
  0
LINE
  5
3BD8
330
18
100
AcDbEntity
  8
0
 62
     0
 48
6.0
370
    -1
100
AcDbLine
 10
1834.999986828538
 20
3052.066378985422
 30
0.0
 11
1754.999986828538
 21
3052.066378985422
 31
0.0
  0
LINE
  5
3BD9
330
18
100
AcDbEntity
  8
0
 62
     0
 48
6.0
370
    -1
100
AcDbLine
 10
1754.999986828538
 20
3152.066378985422
 30
0.0
 11
1834.999986828538
 21
3152.066378985422
 31
0.0
  0
LINE
  5
3BDA
330
18
100
AcDbEntity
  8
0
 62
     0
 48
6.0
370
    -1
100
AcDbLine
 10
1764.999986828538
 20
3052.066378985422
 30
0.0
 11
1764.999986828538
 21
3152.066378985422
 31
0.0
  0
LINE
  5
3BDB
330
18
100
AcDbEntity
  8
0
 62
     0
 48
6.0
370
    -1
100
AcDbLine
 10
1754.999986828538
 20
3052.066378985422
 30
0.0
 11
1754.999986828538
 21
3152.066378985422
 31
0.0
  0
LINE
  5
3BDC
330
18
100
AcDbEntity
  8
0
 62
     0
 48
6.0
370
    -1
100
AcDbLine
 10
1834.999986828538
 20
3152.066378985422
 30
0.0
 11
1834.999986828538
 21
3052.066378985422
 31
0.0
  0
ARC
  5
3BDD
330
18
100
AcDbEntity
  8
0
 62
     0
 48
6.0
370
    -1
100
AcDbCircle
 10
1794.999986828538
 20
3077.066378985422
 30
0.0
 40
5.0
100
AcDbArc
 50
180.0
 51
0.0
  0
LINE
  5
3BDE
330
18
100
AcDbEntity
  8
0
 62
     0
 48
6.0
370
    -1
100
AcDbLine
 10
1814.999986828538
 20
3052.066378985422
 30
0.0
 11
1814.999986828538
 21
3152.066378985422
 31
0.0
  0
LINE
  5
3BDF
330
18
100
AcDbEntity
  8
0
 62
     0
 48
6.0
370
    -1
100
AcDbLine
 10
1804.999986828538
 20
3152.066378985422
 30
0.0
 11
1804.999986828538
 21
3052.066378985422
 31
0.0
  0
LINE
  5
3BE0
330
18
100
AcDbEntity
  8
0
 62
     0
 48
6.0
370
    -1
100
AcDbLine
 10
1804.999986828538
 20
3052.066378985422
 30
0.0
 11
1804.999986828538
 21
3152.066378985422
 31
0.0
  0
LINE
  5
3BE1
330
18
100
AcDbEntity
  8
0
 62
     0
 48
6.0
370
    -1
100
AcDbLine
 10
1784.999986828538
 20
3052.066378985422
 30
0.0
 11
1784.999986828538
 21
3152.066378985422
 31
0.0
  0
LINE
  5
3BE2
330
18
100
AcDbEntity
  8
0
 62
     0
 48
6.0
370
    -1
100
AcDbLine
 10
1774.999986828538
 20
3052.066378985422
 30
0.0
 11
1774.999986828538
 21
3152.066378985422
 31
0.0
  0
LINE
  5
3BE3
330
18
100
AcDbEntity
  8
0
 62
     0
 48
6.0
370
    -1
100
AcDbLine
 10
1824.999986828538
 20
3052.066378985422
 30
0.0
 11
1824.999986828538
 21
3152.066378985422
 31
0.0
  0
LINE
  5
3BE4
330
18
100
AcDbEntity
  8
0
 62
     0
 48
6.0
370
    -1
100
AcDbLine
 10
1974.999986828538
 20
2932.066378985422
 30
0.0
 11
1844.999986828538
 21
2932.066378985422
 31
0.0
  0
LINE
  5
3BE5
330
18
100
AcDbEntity
  8
0
 62
     0
 48
6.0
370
    -1
100
AcDbLine
 10
1844.999986828538
 20
3042.066378985422
 30
0.0
 11
1974.999986828538
 21
3042.066378985422
 31
0.0
  0
LINE
  5
3BE6
330
18
100
AcDbEntity
  8
0
  6
CENTER
 62
     0
 48
6.0
370
    -1
100
AcDbLine
 10
1784.999986828538
 20
2917.066378985422
 30
0.0
 11
1804.999986828538
 21
2917.066378985422
 31
0.0
  0
LINE
  5
3BE7
330
18
100
AcDbEntity
  8
0
  6
CENTER
 62
     0
 48
6.0
370
    -1
100
AcDbLine
 10
1784.999986828538
 20
2972.066378985422
 30
0.0
 11
1804.999986828538
 21
2972.066378985422
 31
0.0
  0
CIRCLE
  5
3BE8
330
18
100
AcDbEntity
  8
0
 62
     0
 48
6.0
370
    -1
100
AcDbCircle
 10
1794.999986828538
 20
2972.066378985422
 30
0.0
 40
5.0
  0
CIRCLE
  5
3BE9
330
18
100
AcDbEntity
  8
0
 62
     0
 48
6.0
370
    -1
100
AcDbCircle
 10
1794.999986828538
 20
2917.066378985422
 30
0.0
 40
5.0
  0
LINE
  5
3BEA
330
18
100
AcDbEntity
  8
0
 62
     0
 48
6.0
370
    -1
100
AcDbLine
 10
1804.999986828538
 20
3052.066378985422
 30
0.0
 11
1804.999986828538
 21
3067.066378985422
 31
0.0
  0
LINE
  5
3BEB
330
18
100
AcDbEntity
  8
0
 62
     0
 48
6.0
370
    -1
100
AcDbLine
 10
1794.999986828538
 20
3052.066378985422
 30
0.0
 11
1794.999986828538
 21
3072.066378985422
 31
0.0
  0
LINE
  5
3BEC
330
18
100
AcDbEntity
  8
0
 62
     0
 48
6.0
370
    -1
100
AcDbLine
 10
1974.999986828538
 20
3042.066378985422
 30
0.0
 11
1974.999986828538
 21
2962.066378985422
 31
0.0
  0
LINE
  5
3BED
330
18
100
AcDbEntity
  8
0
 62
     0
 48
6.0
370
    -1
100
AcDbLine
 10
1964.999986828538
 20
2942.066378985422
 30
0.0
 11
1984.999986828538
 21
2922.066378985422
 31
0.0
  0
LINE
  5
3BEE
330
18
100
AcDbEntity
  8
0
 62
     0
 48
6.0
370
    -1
100
AcDbLine
 10
1964.999986828538
 20
2962.066378985422
 30
0.0
 11
1964.999986828538
 21
2942.066378985422
 31
0.0
  0
LINE
  5
3BF0
330
18
100
AcDbEntity
  8
0
 62
     0
 48
6.0
370
    -1
100
AcDbLine
 10
1799.999986828538
 20
3152.066378985422
 30
0.0
 11
1799.999986828538
 21
3172.066378985422
 31
0.0
  0
LINE
  5
3BF1
330
18
100
AcDbEntity
  8
0
 62
     0
 48
6.0
370
    -1
100
AcDbLine
 10
1789.999986828538
 20
3152.066378985422
 30
0.0
 11
1789.999986828538
 21
3172.066378985422
 31
0.0
  0
LINE
  5
3BF2
330
18
100
AcDbEntity
  8
0
 62
     0
 48
6.0
370
    -1
100
AcDbLine
 10
1789.999986828538
 20
3122.066378985422
 30
0.0
 11
1789.999986828538
 21
3127.066378985422
 31
0.0
  0
LINE
  5
3BF3
330
18
100
AcDbEntity
  8
0
 62
     0
 48
6.0
370
    -1
100
AcDbLine
 10
1799.999986828538
 20
3122.066378985422
 30
0.0
 11
1799.999986828538
 21
3082.066378985422
 31
0.0
  0
LINE
  5
3BF4
330
18
100
AcDbEntity
  8
0
 62
     0
 48
6.0
370
    -1
100
AcDbLine
 10
1789.999986828538
 20
3082.066378985422
 30
0.0
 11
1789.999986828538
 21
3122.066378985422
 31
0.0
  0
LINE
  5
3BF5
330
18
100
AcDbEntity
  8
0
 62
     0
 48
6.0
370
    -1
100
AcDbLine
 10
1799.999986828538
 20
3082.066378985422
 30
0.0
 11
1799.999986828538
 21
3077.066378985422
 31
0.0
  0
LINE
  5
3BF6
330
18
100
AcDbEntity
  8
0
 62
     0
 48
6.0
370
    -1
100
AcDbLine
 10
1789.999986828538
 20
3082.066378985422
 30
0.0
 11
1789.999986828538
 21
3077.066378985422
 31
0.0
  0
ARC
  5
3BF7
330
18
100
AcDbEntity
  8
0
 62
     0
 48
6.0
370
    -1
100
AcDbCircle
 10
1794.999986828538
 20
3127.066378985422
 30
0.0
 40
5.0
100
AcDbArc
 50
0.0
 51
180.0
  0
LINE
  5
3BF8
330
18
100
AcDbEntity
  8
0
 62
     0
 48
6.0
370
    -1
100
AcDbLine
 10
1799.999986828538
 20
3122.066378985422
 30
0.0
 11
1799.999986828538
 21
3127.066378985422
 31
0.0
  0
LINE
  5
3BF9
330
18
100
AcDbEntity
  8
0
 62
     0
 48
6.0
370
    -1
100
AcDbLine
 10
1794.999986828538
 20
3132.066378985422
 30
0.0
 11
1794.999986828538
 21
3152.066378985422
 31
0.0
  0
LINE
  5
3BFA
330
18
100
AcDbEntity
  8
0
 62
     0
 48
6.0
370
    -1
100
AcDbLine
 10
1799.999986828538
 20
3172.066378985422
 30
0.0
 11
1799.999986828538
 21
3177.066378985422
 31
0.0
  0
ARC
  5
3BFB
330
18
100
AcDbEntity
  8
0
 62
     0
 48
6.0
370
    -1
100
AcDbCircle
 10
1794.999986828538
 20
3177.066378985422
 30
0.0
 40
5.0
100
AcDbArc
 50
0.0
 51
180.0
  0
LINE
  5
3BFC
330
18
100
AcDbEntity
  8
0
 62
     0
 48
6.0
370
    -1
100
AcDbLine
 10
1789.999986828538
 20
3172.066378985422
 30
0.0
 11
1789.999986828538
 21
3177.066378985422
 31
0.0
  0
LINE
  5
3BFF
330
18
100
AcDbEntity
  8
0
 62
     0
 48
6.0
370
    -1
100
AcDbLine
 10
1794.999986828538
 20
3562.066378985422
 30
0.0
 11
1794.999986828538
 21
3542.066378985422
 31
0.0
  0
LINE
  5
3C00
330
18
100
AcDbEntity
  8
0
 62
     0
 48
6.0
370
    -1
100
AcDbLine
 10
1824.999986828538
 20
3642.066378985422
 30
0.0
 11
1824.999986828538
 21
3542.066378985422
 31
0.0
  0
LINE
  5
3C01
330
18
100
AcDbEntity
  8
0
 62
     0
 48
6.0
370
    -1
100
AcDbLine
 10
1814.999986828538
 20
3642.066378985422
 30
0.0
 11
1814.999986828538
 21
3542.066378985422
 31
0.0
  0
LINE
  5
3C02
330
18
100
AcDbEntity
  8
0
 62
     0
 48
6.0
370
    -1
100
AcDbLine
 10
1804.999986828538
 20
3642.066378985422
 30
0.0
 11
1804.999986828538
 21
3542.066378985422
 31
0.0
  0
LINE
  5
3C03
330
18
100
AcDbEntity
  8
0
 62
     0
 48
6.0
370
    -1
100
AcDbLine
 10
1784.999986828538
 20
3542.066378985422
 30
0.0
 11
1784.999986828538
 21
3642.066378985422
 31
0.0
  0
LINE
  5
3C04
330
18
100
AcDbEntity
  8
0
 62
     0
 48
6.0
370
    -1
100
AcDbLine
 10
1784.999986828538
 20
3642.066378985422
 30
0.0
 11
1784.999986828538
 21
3542.066378985422
 31
0.0
  0
LINE
  5
3C05
330
18
100
AcDbEntity
  8
0
 62
     0
 48
6.0
370
    -1
100
AcDbLine
 10
1774.999986828538
 20
3642.066378985422
 30
0.0
 11
1774.999986828538
 21
3542.066378985422
 31
0.0
  0
LINE
  5
3C06
330
18
100
AcDbEntity
  8
0
 62
     0
 48
6.0
370
    -1
100
AcDbLine
 10
1764.999986828538
 20
3642.066378985422
 30
0.0
 11
1764.999986828538
 21
3542.066378985422
 31
0.0
  0
LINE
  5
3C07
330
18
100
AcDbEntity
  8
0
 62
     0
 48
6.0
370
    -1
100
AcDbLine
 10
1754.999986828538
 20
3542.066378985422
 30
0.0
 11
1754.999986828538
 21
3642.066378985422
 31
0.0
  0
LINE
  5
3C08
330
18
100
AcDbEntity
  8
0
 62
     0
 48
6.0
370
    -1
100
AcDbLine
 10
1834.999986828538
 20
3642.066378985422
 30
0.0
 11
1834.999986828538
 21
3542.066378985422
 31
0.0
  0
LINE
  5
3C09
330
18
100
AcDbEntity
  8
0
 62
     0
 48
6.0
370
    -1
100
AcDbLine
 10
1834.999986828538
 20
3542.066378985422
 30
0.0
 11
1754.999986828538
 21
3542.066378985422
 31
0.0
  0
LINE
  5
3C0A
330
18
100
AcDbEntity
  8
0
 62
     0
 48
6.0
370
    -1
100
AcDbLine
 10
1744.999986828538
 20
3482.066378985422
 30
0.0
 11
1744.999986828538
 21
3382.066378985422
 31
0.0
  0
ARC
  5
3C0B
330
18
100
AcDbEntity
  8
0
 62
     0
 48
6.0
370
    -1
100
AcDbCircle
 10
1794.999986828538
 20
3517.066378985422
 30
0.0
 40
5.0
100
AcDbArc
 50
180.0
 51
0.0
  0
LINE
  5
3C0C
330
18
100
AcDbEntity
  8
0
 62
     0
 48
6.0
370
    -1
100
AcDbLine
 10
1799.999986828538
 20
3522.066378985422
 30
0.0
 11
1799.999986828538
 21
3517.066378985422
 31
0.0
  0
LINE
  5
3C0D
330
18
100
AcDbEntity
  8
0
 62
     0
 48
6.0
370
    -1
100
AcDbLine
 10
1789.999986828538
 20
3522.066378985422
 30
0.0
 11
1789.999986828538
 21
3517.066378985422
 31
0.0
  0
LINE
  5
3C0E
330
18
100
AcDbEntity
  8
0
 62
     0
 48
6.0
370
    -1
100
AcDbLine
 10
1799.999986828538
 20
3542.066378985422
 30
0.0
 11
1799.999986828538
 21
3522.066378985422
 31
0.0
  0
LINE
  5
3C0F
330
18
100
AcDbEntity
  8
0
 62
     0
 48
6.0
370
    -1
100
AcDbLine
 10
1789.999986828538
 20
3542.066378985422
 30
0.0
 11
1789.999986828538
 21
3522.066378985422
 31
0.0
  0
LINE
  5
3C10
330
18
100
AcDbEntity
  8
0
 62
     0
 48
6.0
370
    -1
100
AcDbLine
 10
1754.999986828538
 20
3642.066378985422
 30
0.0
 11
1834.999986828538
 21
3642.066378985422
 31
0.0
  0
LINE
  5
3C11
330
18
100
AcDbEntity
  8
0
 62
     0
 48
6.0
370
    -1
100
AcDbLine
 10
1744.999986828538
 20
3817.066378985422
 30
0.0
 11
1844.999986828538
 21
3817.066378985422
 31
0.0
  0
LINE
  5
3C12
330
18
100
AcDbEntity
  8
0
 62
     0
 48
6.0
370
    -1
100
AcDbLine
 10
1744.999986828538
 20
3817.066378985422
 30
0.0
 11
1744.999986828538
 21
3797.066378985422
 31
0.0
  0
CIRCLE
  5
3C13
330
18
100
AcDbEntity
  8
0
 62
     0
 48
6.0
370
    -1
100
AcDbCircle
 10
1794.999986828538
 20
3722.066378985422
 30
0.0
 40
5.0
  0
LINE
  5
3C14
330
18
100
AcDbEntity
  8
0
 62
     0
 48
6.0
370
    -1
100
AcDbLine
 10
1974.999986828538
 20
3732.066378985422
 30
0.0
 11
1974.999986828538
 21
3652.066378985422
 31
0.0
  0
LINE
  5
3C15
330
18
100
AcDbEntity
  8
0
 62
     0
 48
6.0
370
    -1
100
AcDbLine
 10
1974.999986828538
 20
3652.066378985422
 30
0.0
 11
1844.999986828538
 21
3652.066378985422
 31
0.0
  0
LINE
  5
3C16
330
18
100
AcDbEntity
  8
0
 62
     0
 48
6.0
370
    -1
100
AcDbLine
 10
1794.999986828538
 20
3642.066378985422
 30
0.0
 11
1794.999986828538
 21
3622.066378985422
 31
0.0
  0
LINE
  5
3C17
330
18
100
AcDbEntity
  8
0
 62
     0
 48
6.0
370
    -1
100
AcDbLine
 10
1784.999986828538
 20
3642.066378985422
 30
0.0
 11
1784.999986828538
 21
3627.066378985422
 31
0.0
  0
ARC
  5
3C18
330
18
100
AcDbEntity
  8
0
 62
     0
 48
6.0
370
    -1
100
AcDbCircle
 10
1794.999986828538
 20
3567.066378985422
 30
0.0
 40
5.0
100
AcDbArc
 50
180.0
 51
0.0
  0
ARC
  5
3C19
330
18
100
AcDbEntity
  8
0
 62
     0
 48
6.0
370
    -1
100
AcDbCircle
 10
1794.999986828538
 20
3617.066378985422
 30
0.0
 40
5.0
100
AcDbArc
 50
0.0
 51
180.0
  0
LINE
  5
3C1A
330
18
100
AcDbEntity
  8
0
 62
     0
 48
6.0
370
    -1
100
AcDbLine
 10
1799.999986828538
 20
3572.066378985422
 30
0.0
 11
1799.999986828538
 21
3567.066378985422
 31
0.0
  0
LINE
  5
3C1B
330
18
100
AcDbEntity
  8
0
 62
     0
 48
6.0
370
    -1
100
AcDbLine
 10
1789.999986828538
 20
3572.066378985422
 30
0.0
 11
1789.999986828538
 21
3567.066378985422
 31
0.0
  0
LINE
  5
3C1C
330
18
100
AcDbEntity
  8
0
 62
     0
 48
6.0
370
    -1
100
AcDbLine
 10
1799.999986828538
 20
3612.066378985422
 30
0.0
 11
1799.999986828538
 21
3617.066378985422
 31
0.0
  0
LINE
  5
3C1D
330
18
100
AcDbEntity
  8
0
 62
     0
 48
6.0
370
    -1
100
AcDbLine
 10
1789.999986828538
 20
3612.066378985422
 30
0.0
 11
1789.999986828538
 21
3617.066378985422
 31
0.0
  0
LINE
  5
3C1E
330
18
100
AcDbEntity
  8
0
 62
     0
 48
6.0
370
    -1
100
AcDbLine
 10
1789.999986828538
 20
3572.066378985422
 30
0.0
 11
1789.999986828538
 21
3612.066378985422
 31
0.0
  0
LINE
  5
3C1F
330
18
100
AcDbEntity
  8
0
 62
     0
 48
6.0
370
    -1
100
AcDbLine
 10
1799.999986828538
 20
3612.066378985422
 30
0.0
 11
1799.999986828538
 21
3572.066378985422
 31
0.0
  0
LINE
  5
3C20
330
18
100
AcDbEntity
  8
0
  6
CENTER
 62
     0
 48
6.0
370
    -1
100
AcDbLine
 10
1784.999986828538
 20
3722.066378985422
 30
0.0
 11
1804.999986828538
 21
3722.066378985422
 31
0.0
  0
LINE
  5
3C21
330
18
100
AcDbEntity
  8
0
 62
     0
 48
6.0
370
    -1
100
AcDbLine
 10
1974.999986828538
 20
3642.066378985422
 30
0.0
 11
1974.999986828538
 21
3652.066378985422
 31
0.0
  0
LINE
  5
3C22
330
18
100
AcDbEntity
  8
0
 62
     0
 48
6.0
370
    -1
100
AcDbLine
 10
1974.999986828538
 20
3642.066378985422
 30
0.0
 11
1974.999986828538
 21
3632.066378985422
 31
0.0
  0
LINE
  5
3C23
330
18
100
AcDbEntity
  8
0
 62
     0
 48
6.0
370
    -1
100
AcDbLine
 10
1844.999986828538
 20
3762.066378985422
 30
0.0
 11
1974.999986828538
 21
3762.066378985422
 31
0.0
  0
LINE
  5
3C24
330
18
100
AcDbEntity
  8
0
 62
     0
 48
6.0
370
    -1
100
AcDbLine
 10
1844.999986828538
 20
3817.066378985422
 30
0.0
 11
1844.999986828538
 21
3792.066378985422
 31
0.0
  0
LINE
  5
3C25
330
18
100
AcDbEntity
  8
0
  6
CENTER
 62
     0
 48
6.0
370
    -1
100
AcDbLine
 10
1784.999986828538
 20
3777.066378985422
 30
0.0
 11
1804.999986828538
 21
3777.066378985422
 31
0.0
  0
CIRCLE
  5
3C26
330
18
100
AcDbEntity
  8
0
 62
     0
 48
6.0
370
    -1
100
AcDbCircle
 10
1794.999986828538
 20
3777.066378985422
 30
0.0
 40
5.0
  0
LINE
  5
3C27
330
18
100
AcDbEntity
  8
0
 62
     0
 48
6.0
370
    -1
100
AcDbLine
 10
1984.999986828538
 20
3772.066378985422
 30
0.0
 11
1964.999986828538
 21
3752.066378985422
 31
0.0
  0
LINE
  5
3C28
330
18
100
AcDbEntity
  8
0
 62
     0
 48
6.0
370
    -1
100
AcDbLine
 10
1964.999986828538
 20
3732.066378985422
 30
0.0
 11
1964.999986828538
 21
3752.066378985422
 31
0.0
  0
LINE
  5
3C2B
330
18
100
AcDbEntity
  8
0
 62
     0
 48
6.0
370
    -1
100
AcDbLine
 10
2054.999986828538
 20
3732.066378985422
 30
0.0
 11
2054.999986828538
 21
3052.066378985422
 31
0.0
  0
LINE
  5
3C31
330
18
100
AcDbEntity
  8
0
 62
     0
 48
6.0
370
    -1
100
AcDbLine
 10
2094.999986828538
 20
2942.066378985422
 30
0.0
 11
2094.999986828538
 21
3032.066378985422
 31
0.0
  0
LINE
  5
3C32
330
18
100
AcDbEntity
  8
0
 62
     0
 48
6.0
370
    -1
100
AcDbLine
 10
2054.999986828538
 20
2962.066378985422
 30
0.0
 11
2054.999986828538
 21
3062.066378985422
 31
0.0
  0
LINE
  5
3C33
330
18
100
AcDbEntity
  8
0
  6
CENTER
 62
     0
 48
6.0
370
    -1
100
AcDbLine
 10
2054.999986828538
 20
2942.066378985422
 30
0.0
 11
2094.999986828538
 21
2942.066378985422
 31
0.0
  0
CIRCLE
  5
3C34
330
18
100
AcDbEntity
  8
0
  6
ByBlock
 62
     0
 48
6.0
370
    -1
100
AcDbCircle
 10
2074.999986828538
 20
2942.066378985422
 30
0.0
 40
10.0
  0
LINE
  5
3C35
330
18
100
AcDbEntity
  8
0
 62
     0
 48
6.0
370
    -1
100
AcDbLine
 10
2074.999986828538
 20
2962.066378985422
 30
0.0
 11
2074.999986828538
 21
2952.066378985422
 31
0.0
  0
LINE
  5
3C36
330
18
100
AcDbEntity
  8
0
  6
CENTER
 62
     0
 48
6.0
370
    -1
100
AcDbLine
 10
2074.999986828538
 20
2957.066378985422
 30
0.0
 11
2074.999986828538
 21
2922.066378985422
 31
0.0
  0
LINE
  5
3C37
330
18
100
AcDbEntity
  8
0
 62
     0
 48
6.0
370
    -1
100
AcDbLine
 10
2074.999986828538
 20
2922.066378985422
 30
0.0
 11
2094.999986828538
 21
2942.066378985422
 31
0.0
  0
LINE
  5
3C38
330
18
100
AcDbEntity
  8
0
 62
     0
 48
6.0
370
    -1
100
AcDbLine
 10
2074.999986828538
 20
3052.066378985422
 30
0.0
 11
2054.999986828538
 21
3052.066378985422
 31
0.0
  0
LINE
  5
3C39
330
18
100
AcDbEntity
  8
0
 62
     0
 48
6.0
370
    -1
100
AcDbLine
 10
2094.999986828538
 20
3032.066378985422
 30
0.0
 11
2074.999986828538
 21
3052.066378985422
 31
0.0
  0
LINE
  5
3C4A
330
18
100
AcDbEntity
  8
0
 62
     0
 48
6.0
370
    -1
100
AcDbLine
 10
2094.999986828538
 20
3662.066378985422
 30
0.0
 11
2094.999986828538
 21
3752.066378985422
 31
0.0
  0
LINE
  5
3C4B
330
18
100
AcDbEntity
  8
0
 62
     0
 48
6.0
370
    -1
100
AcDbLine
 10
2074.999986828538
 20
3642.066378985422
 30
0.0
 11
2094.999986828538
 21
3662.066378985422
 31
0.0
  0
LINE
  5
3C4C
330
18
100
AcDbEntity
  8
0
 62
     0
 48
6.0
370
    -1
100
AcDbLine
 10
2054.999986828538
 20
3642.066378985422
 30
0.0
 11
2074.999986828538
 21
3642.066378985422
 31
0.0
  0
LINE
  5
3C4D
330
18
100
AcDbEntity
  8
0
  6
CENTER
 62
     0
 48
6.0
370
    -1
100
AcDbLine
 10
2053.90664722184
 20
3752.066378985422
 30
0.0
 11
2093.90664722184
 21
3752.066378985422
 31
0.0
  0
CIRCLE
  5
3C4E
330
18
100
AcDbEntity
  8
0
  6
ByBlock
 62
     0
 48
6.0
370
    -1
100
AcDbCircle
 10
2073.90664722184
 20
3752.066378985422
 30
0.0
 40
10.0
  0
LINE
  5
3C50
330
18
100
AcDbEntity
  8
0
  6
CENTER
 62
     0
 48
6.0
370
    -1
100
AcDbLine
 10
2073.90664722184
 20
3772.066378985422
 30
0.0
 11
2073.90664722184
 21
3732.066378985422
 31
0.0
  0
LINE
  5
3C51
330
18
100
AcDbEntity
  8
0
 62
     0
 48
6.0
370
    -1
100
AcDbLine
 10
2094.999986828538
 20
3752.066378985422
 30
0.0
 11
2074.999986828538
 21
3772.066378985422
 31
0.0
  0
LINE
  5
3C55
330
18
100
AcDbEntity
  8
0
 62
     0
 48
6.0
370
    -1
100
AcDbLine
 10
1756.403135525637
 20
1217.896438282665
 30
0.0
 11
1014.370559171191
 21
1217.896438282665
 31
0.0
  0
LINE
  5
3C5A
330
18
100
AcDbEntity
  8
0
 62
     0
 48
6.0
370
    -1
100
AcDbLine
 10
1756.34558897798
 20
2177.513561533498
 30
0.0
 11
1032.804936035376
 21
2177.513561533498
 31
0.0
  0
LINE
  5
3C5B
330
18
100
AcDbEntity
  8
0
 62
     0
 48
6.0
370
    -1
100
AcDbLine
 10
1384.999986828538
 20
1767.96116680869
 30
0.0
 11
795.1615641853023
 21
1318.811383313652
 31
0.0
  0
LINE
  5
3C5C
330
18
100
AcDbEntity
  8
0
 62
     0
 48
6.0
370
    -1
100
AcDbLine
 10
1334.999986828538
 20
1807.96116680869
 30
0.0
 11
794.9999868285377
 21
1397.96116680869
 31
0.0
  0
LINE
  5
3C5D
330
18
100
AcDbEntity
  8
0
 62
     0
 48
6.0
370
    -1
100
AcDbLine
 10
839.9999868285377
 20
2252.96116680869
 30
0.0
 11
2054.999986828538
 21
1327.96116680869
 31
0.0
  0
LINE
  5
3C5E
330
18
100
AcDbEntity
  8
0
 62
     0
 48
6.0
370
    -1
100
AcDbLine
 10
814.9999868285377
 20
2207.96116680869
 30
0.0
 11
1999.999986828538
 21
1302.96116680869
 31
0.0
  0
LINE
  5
3C5F
330
18
100
AcDbEntity
  8
0
 62
     0
 48
6.0
370
    -1
100
AcDbLine
 10
844.9999868285377
 20
2257.96116680869
 30
0.0
 11
2059.391180490267
 21
1331.651774410429
 31
0.0
  0
LINE
  5
3C60
330
18
100
AcDbEntity
  8
0
 62
     0
 48
6.0
370
    -1
100
AcDbLine
 10
794.9999868285377
 20
1297.96116680869
 30
0.0
 11
1974.999986828538
 21
1297.96116680869
 31
0.0
  0
LINE
  5
3C61
330
18
100
AcDbEntity
  8
0
 62
     0
 48
6.0
370
    -1
100
AcDbLine
 10
794.9999868285377
 20
2257.96116680869
 30
0.0
 11
1974.999986828538
 21
2257.96116680869
 31
0.0
  0
LINE
  5
3C62
330
18
100
AcDbEntity
  8
0
 62
     0
 48
6.0
370
    -1
100
AcDbLine
 10
794.9999868285377
 20
2257.96116680869
 30
0.0
 11
794.9999868285377
 21
1137.96116680869
 31
0.0
  0
LINE
  5
3C63
330
18
100
AcDbEntity
  8
0
 62
     0
 48
6.0
370
    -1
100
AcDbLine
 10
714.9999868285377
 20
2257.96116680869
 30
0.0
 11
714.9999868285377
 21
1137.96116680869
 31
0.0
  0
LINE
  5
3C64
330
18
100
AcDbEntity
  8
0
  6
CENTER
 62
     0
 48
6.0
370
    -1
100
AcDbLine
 10
974.2429640905684
 20
1378.537325864734
 30
0.0
 11
974.2429640905684
 21
1198.537325864734
 31
0.0
  0
ARC
  5
3C65
330
18
100
AcDbEntity
  8
0
 62
     0
 48
6.0
370
    -1
100
AcDbCircle
 10
754.9999868285377
 20
1042.96116680869
 30
0.0
 40
10.0
100
AcDbArc
 50
0.0
 51
180.0
  0
LINE
  5
3C66
330
18
100
AcDbEntity
  8
0
 62
     0
 48
6.0
370
    -1
100
AcDbLine
 10
704.9999868285377
 20
1067.96116680869
 30
0.0
 11
704.9999868285377
 21
997.9611668086905
 31
0.0
  0
LINE
  5
3C67
330
18
100
AcDbEntity
  8
0
 62
     0
 48
6.0
370
    -1
100
AcDbLine
 10
804.9999868285377
 20
987.9611668086905
 30
0.0
 11
804.9999868285377
 21
1067.96116680869
 31
0.0
  0
LINE
  5
3C6B
330
18
100
AcDbEntity
  8
0
 62
     0
 48
6.0
370
    -1
100
AcDbLine
 10
674.9999868285377
 20
997.9611668086905
 30
0.0
 11
804.9999868285377
 21
997.9611668086905
 31
0.0
  0
LINE
  5
3C6C
330
18
100
AcDbEntity
  8
0
 62
     0
 48
6.0
370
    -1
100
AcDbLine
 10
674.9999868285377
 20
987.9611668086905
 30
0.0
 11
804.9999868285377
 21
987.9611668086905
 31
0.0
  0
LINE
  5
3C6D
330
18
100
AcDbEntity
  8
0
 62
     0
 48
6.0
370
    -1
100
AcDbLine
 10
694.9999868285377
 20
1007.96116680869
 30
0.0
 11
694.9999868285377
 21
957.9611668086905
 31
0.0
  0
LINE
  5
3C6F
330
18
100
AcDbEntity
  8
0
 62
     0
 48
6.0
370
    -1
100
AcDbLine
 10
674.9999868285377
 20
987.9611668086905
 30
0.0
 11
674.9999868285377
 21
997.9611668086905
 31
0.0
  0
LINE
  5
3C70
330
18
100
AcDbEntity
  8
0
 62
     0
 48
6.0
370
    -1
100
AcDbLine
 10
764.9999868285377
 20
1042.96116680869
 30
0.0
 11
764.9999868285377
 21
1012.96116680869
 31
0.0
  0
LINE
  5
3C71
330
18
100
AcDbEntity
  8
0
 62
     0
 48
6.0
370
    -1
100
AcDbLine
 10
744.9999868285377
 20
1042.96116680869
 30
0.0
 11
744.9999868285377
 21
1012.96116680869
 31
0.0
  0
ARC
  5
3C72
330
18
100
AcDbEntity
  8
0
 62
     0
 48
6.0
370
    -1
100
AcDbCircle
 10
754.9999868285377
 20
1012.96116680869
 30
0.0
 40
10.0
100
AcDbArc
 50
180.0
 51
0.0
  0
CIRCLE
  5
3C73
330
18
100
AcDbEntity
  8
0
 62
     0
 48
6.0
370
    -1
100
AcDbCircle
 10
834.9129661657716
 20
1252.38626771129
 30
0.0
 40
9.013611994698294
  0
LINE
  5
3C74
330
18
100
AcDbEntity
  8
0
 62
     0
 48
6.0
370
    -1
100
AcDbLine
 10
794.9999868285377
 20
1212.96116680869
 30
0.0
 11
874.9999868285377
 21
1212.96116680869
 31
0.0
  0
LINE
  5
3C75
330
18
100
AcDbEntity
  8
0
 62
     0
 48
6.0
370
    -1
100
AcDbLine
 10
794.9999868285377
 20
1292.96116680869
 30
0.0
 11
864.9999868285377
 21
1292.96116680869
 31
0.0
  0
LINE
  5
3C76
330
18
100
AcDbEntity
  8
0
 62
     0
 48
6.0
370
    -1
100
AcDbLine
 10
804.9999868285377
 20
1067.96116680869
 30
0.0
 11
704.9999868285377
 21
1067.96116680869
 31
0.0
  0
LINE
  5
3C77
330
18
100
AcDbEntity
  8
0
 62
     0
 48
6.0
370
    -1
100
AcDbLine
 10
714.9999868285377
 20
1137.96116680869
 30
0.0
 11
714.9999868285377
 21
1107.96116680869
 31
0.0
  0
LINE
  5
3C78
330
18
100
AcDbEntity
  8
0
 62
     0
 48
6.0
370
    -1
100
AcDbLine
 10
714.9999868285377
 20
1107.96116680869
 30
0.0
 11
714.9999868285377
 21
1067.96116680869
 31
0.0
  0
LINE
  5
3C79
330
18
100
AcDbEntity
  8
0
 62
     0
 48
6.0
370
    -1
100
AcDbLine
 10
794.9999868285377
 20
1137.96116680869
 30
0.0
 11
794.9999868285377
 21
1107.96116680869
 31
0.0
  0
LINE
  5
3C7A
330
18
100
AcDbEntity
  8
0
 62
     0
 48
6.0
370
    -1
100
AcDbLine
 10
794.9999868285377
 20
1107.96116680869
 30
0.0
 11
794.9999868285377
 21
1067.96116680869
 31
0.0
  0
CIRCLE
  5
3C7B
330
18
100
AcDbEntity
  8
0
 62
     0
 48
6.0
370
    -1
100
AcDbCircle
 10
752.9691471278711
 20
1329.480259932546
 30
0.0
 40
9.013611994698294
  0
LINE
  5
3C7C
330
18
100
AcDbEntity
  8
0
 62
     0
 48
6.0
370
    -1
100
AcDbLine
 10
934.2334404632675
 20
1339.58215955982
 30
0.0
 11
1014.10309699336
 21
1339.58215955982
 31
0.0
  0
LINE
  5
3C7D
330
18
100
AcDbEntity
  8
0
 62
     0
 48
6.0
370
    -1
100
AcDbLine
 10
1014.680044655346
 20
1212.64182274619
 30
0.0
 11
934.6794679901795
 21
1212.64182274619
 31
0.0
  0
LINE
  5
3C7E
330
18
100
AcDbEntity
  8
0
 62
     0
 48
6.0
370
    -1
100
AcDbLine
 10
936.4976644898488
 20
1293.452295391005
 30
0.0
 11
1014.680044655346
 21
1293.452295391005
 31
0.0
  0
LINE
  5
3C7F
330
18
100
AcDbEntity
  8
0
 62
     0
 48
6.0
370
    -1
100
AcDbLine
 10
934.2429640905684
 20
1360.365479099709
 30
0.0
 11
1014.242964090568
 21
1360.365479099709
 31
0.0
  0
LINE
  5
3C80
330
18
100
AcDbEntity
  8
0
 62
     0
 48
6.0
370
    -1
100
AcDbLine
 10
935.5885662400106
 20
1293.452295391005
 30
0.0
 11
935.5885662400106
 21
1213.549799704324
 31
0.0
  0
LINE
  5
3C81
330
18
100
AcDbEntity
  8
0
 62
     0
 48
6.0
370
    -1
100
AcDbLine
 10
935.8546474291797
 20
1217.896448129657
 30
0.0
 11
874.9371153518259
 21
1217.896448129657
 31
0.0
  0
LINE
  5
3C82
330
18
100
AcDbEntity
  8
0
 62
     0
 48
6.0
370
    -1
100
AcDbLine
 10
874.9999868285377
 20
1212.96116680869
 30
0.0
 11
874.9999868285377
 21
1232.96116680869
 31
0.0
  0
LINE
  5
3C83
330
18
100
AcDbEntity
  8
0
 62
     0
 48
6.0
370
    -1
100
AcDbLine
 10
874.9999868285377
 20
1282.96116680869
 30
0.0
 11
874.9999868285377
 21
1262.96116680869
 31
0.0
  0
LINE
  5
3C84
330
18
100
AcDbEntity
  8
0
 62
     0
 48
6.0
370
    -1
100
AcDbLine
 10
864.9999868285377
 20
1292.96116680869
 30
0.0
 11
874.9999868285377
 21
1282.96116680869
 31
0.0
  0
LINE
  5
3C85
330
18
100
AcDbEntity
  8
0
 62
     0
 48
6.0
370
    -1
100
AcDbLine
 10
874.9999868285377
 20
1222.96116680869
 30
0.0
 11
874.9999868285377
 21
1272.96116680869
 31
0.0
  0
LINE
  5
3C86
330
18
100
AcDbEntity
  8
0
 62
     0
 48
6.0
370
    -1
100
AcDbLine
 10
924.2429640905684
 20
1330.365479099709
 30
0.0
 11
934.2429640905684
 21
1340.365479099709
 31
0.0
  0
LINE
  5
3C87
330
18
100
AcDbEntity
  8
0
 62
     0
 48
6.0
370
    -1
100
AcDbLine
 10
924.679387242024
 20
1331.587580294442
 30
0.0
 11
924.679387242024
 21
1300.716165197896
 31
0.0
  0
LINE
  5
3C88
330
18
100
AcDbEntity
  8
0
 62
     0
 48
6.0
370
    -1
100
AcDbLine
 10
944.2429640905684
 20
1360.365479099709
 30
0.0
 11
944.2429640905684
 21
1340.365479099709
 31
0.0
  0
LINE
  5
3C89
330
18
100
AcDbEntity
  8
0
 62
     0
 48
6.0
370
    -1
100
AcDbLine
 10
934.2429640905684
 20
1340.365479099709
 30
0.0
 11
934.2429640905684
 21
1360.365479099709
 31
0.0
  0
LINE
  5
3C8A
330
18
100
AcDbEntity
  8
0
 62
     0
 48
6.0
370
    -1
100
AcDbLine
 10
1014.680044655346
 20
1293.452295391005
 30
0.0
 11
1014.680044655346
 21
1212.64182274619
 31
0.0
  0
LINE
  5
3C8B
330
18
100
AcDbEntity
  8
0
 62
     0
 48
6.0
370
    -1
100
AcDbLine
 10
1004.242964090568
 20
1360.365479099709
 30
0.0
 11
1004.242964090568
 21
1340.365479099709
 31
0.0
  0
LINE
  5
3C8C
330
18
100
AcDbEntity
  8
0
 62
     0
 48
6.0
370
    -1
100
AcDbLine
 10
994.2429640905684
 20
1360.365479099709
 30
0.0
 11
994.2429640905684
 21
1340.365479099709
 31
0.0
  0
LINE
  5
3C8D
330
18
100
AcDbEntity
  8
0
 62
     0
 48
6.0
370
    -1
100
AcDbLine
 10
984.2429640905684
 20
1360.365479099709
 30
0.0
 11
984.2429640905684
 21
1340.365479099709
 31
0.0
  0
LINE
  5
3C8E
330
18
100
AcDbEntity
  8
0
 62
     0
 48
6.0
370
    -1
100
AcDbLine
 10
964.2429640905684
 20
1360.365479099709
 30
0.0
 11
964.2429640905684
 21
1340.365479099709
 31
0.0
  0
LINE
  5
3C8F
330
18
100
AcDbEntity
  8
0
 62
     0
 48
6.0
370
    -1
100
AcDbLine
 10
954.2429640905684
 20
1360.365479099709
 30
0.0
 11
954.2429640905684
 21
1340.365479099709
 31
0.0
  0
LINE
  5
3C90
330
18
100
AcDbEntity
  8
0
 62
     0
 48
6.0
370
    -1
100
AcDbLine
 10
1024.680090743459
 20
1330.679585289028
 30
0.0
 11
1024.680090743459
 21
1300.716165197896
 31
0.0
  0
LINE
  5
3C91
330
18
100
AcDbEntity
  8
0
 62
     0
 48
6.0
370
    -1
100
AcDbLine
 10
1014.242964090568
 20
1340.365479099709
 30
0.0
 11
1024.242964090568
 21
1330.365479099709
 31
0.0
  0
LINE
  5
3C92
330
18
100
AcDbEntity
  8
0
 62
     0
 48
6.0
370
    -1
100
AcDbLine
 10
1014.242964090568
 20
1360.365479099709
 30
0.0
 11
1014.242964090568
 21
1340.365479099709
 31
0.0
  0
CIRCLE
  5
3C97
330
18
100
AcDbEntity
  8
0
 62
     0
 48
6.0
370
    -1
100
AcDbCircle
 10
844.2710694637717
 20
2217.296195527311
 30
0.0
 40
9.013611994698294
  0
LINE
  5
3C98
330
18
100
AcDbEntity
  8
0
 62
     0
 48
6.0
370
    -1
100
AcDbLine
 10
794.9999868285377
 20
2177.96116680869
 30
0.0
 11
844.9999868285377
 21
2177.96116680869
 31
0.0
  0
LINE
  5
3C99
330
18
100
AcDbEntity
  8
0
 62
     0
 48
6.0
370
    -1
100
AcDbLine
 10
844.9999868285377
 20
2257.96116680869
 30
0.0
 11
814.9999868285377
 21
2227.96116680869
 31
0.0
  0
LINE
  5
3C9A
330
18
100
AcDbEntity
  8
0
 62
     0
 48
6.0
370
    -1
100
AcDbLine
 10
714.9999868285377
 20
2257.96116680869
 30
0.0
 11
794.9999868285377
 21
2257.96116680869
 31
0.0
  0
LINE
  5
3C9C
330
18
100
AcDbEntity
  8
0
 62
     0
 48
6.0
370
    -1
100
AcDbLine
 10
814.9999868285377
 20
2227.96116680869
 30
0.0
 11
814.9999868285377
 21
2207.96116680869
 31
0.0
  0
LINE
  5
3C9D
330
18
100
AcDbEntity
  8
0
  6
CENTER
 62
     0
 48
6.0
370
    -1
100
AcDbLine
 10
974.9999868285377
 20
2337.96116680869
 30
0.0
 11
974.9999868285377
 21
2157.96116680869
 31
0.0
  0
LINE
  5
3C9E
330
18
100
AcDbEntity
  8
0
 62
     0
 48
6.0
370
    -1
100
AcDbLine
 10
1019.999986828538
 20
2252.96116680869
 30
0.0
 11
1019.999986828538
 21
2172.96116680869
 31
0.0
  0
LINE
  5
3C9F
330
18
100
AcDbEntity
  8
0
 62
     0
 48
6.0
370
    -1
100
AcDbLine
 10
844.9999868285377
 20
2177.96116680869
 30
0.0
 11
854.9999868285377
 21
2177.96116680869
 31
0.0
  0
LINE
  5
3CA0
330
18
100
AcDbEntity
  8
0
 62
     0
 48
6.0
370
    -1
100
AcDbLine
 10
1019.999986828538
 20
2172.96116680869
 30
0.0
 11
954.9999868285377
 21
2172.96116680869
 31
0.0
  0
LINE
  5
3CA1
330
18
100
AcDbEntity
  8
0
 62
     0
 48
6.0
370
    -1
100
AcDbLine
 10
934.9999868285377
 20
2252.96116680869
 30
0.0
 11
1019.999986828538
 21
2252.96116680869
 31
0.0
  0
LINE
  5
3CA2
330
18
100
AcDbEntity
  8
0
 62
     0
 48
6.0
370
    -1
100
AcDbLine
 10
934.0908885786994
 20
2298.881325038251
 30
0.0
 11
1014.090888578699
 21
2298.881325038251
 31
0.0
  0
LINE
  5
3CA3
330
18
100
AcDbEntity
  8
0
 62
     0
 48
6.0
370
    -1
100
AcDbLine
 10
934.0908885786994
 20
2318.881325038251
 30
0.0
 11
1014.090888578699
 21
2318.881325038251
 31
0.0
  0
LINE
  5
3CA4
330
18
100
AcDbEntity
  8
0
 62
     0
 48
6.0
370
    -1
100
AcDbLine
 10
924.3531090767574
 20
2289.195485369426
 30
0.0
 11
924.3531090767574
 21
2259.232047231009
 31
0.0
  0
LINE
  5
3CA5
330
18
100
AcDbEntity
  8
0
 62
     0
 48
6.0
370
    -1
100
AcDbLine
 10
844.9999868285377
 20
2257.96116680869
 30
0.0
 11
844.9999868285377
 21
2257.96116680869
 31
0.0
  0
LINE
  5
3CA6
330
18
100
AcDbEntity
  8
0
 62
     0
 48
6.0
370
    -1
100
AcDbLine
 10
934.9999868285377
 20
2252.96116680869
 30
0.0
 11
934.9999868285377
 21
2192.96116680869
 31
0.0
  0
LINE
  5
3CA7
330
18
100
AcDbEntity
  8
0
 62
     0
 48
6.0
370
    -1
100
AcDbLine
 10
924.0908885786994
 20
2288.881325038251
 30
0.0
 11
934.0908885786994
 21
2298.881325038251
 31
0.0
  0
LINE
  5
3CA8
330
18
100
AcDbEntity
  8
0
 62
     0
 48
6.0
370
    -1
100
AcDbLine
 10
934.0908885786994
 20
2298.881325038251
 30
0.0
 11
934.0908885786994
 21
2318.881325038251
 31
0.0
  0
LINE
  5
3CA9
330
18
100
AcDbEntity
  8
0
 62
     0
 48
6.0
370
    -1
100
AcDbLine
 10
944.0908885786994
 20
2318.881325038251
 30
0.0
 11
944.0908885786994
 21
2298.881325038251
 31
0.0
  0
LINE
  5
3CAA
330
18
100
AcDbEntity
  8
0
 62
     0
 48
6.0
370
    -1
100
AcDbLine
 10
1024.353812578192
 20
2290.103462327555
 30
0.0
 11
1024.353812578192
 21
2259.232047231009
 31
0.0
  0
LINE
  5
3CAB
330
18
100
AcDbEntity
  8
0
 62
     0
 48
6.0
370
    -1
100
AcDbLine
 10
994.0908885786994
 20
2318.881325038251
 30
0.0
 11
994.0908885786994
 21
2298.881325038251
 31
0.0
  0
LINE
  5
3CAC
330
18
100
AcDbEntity
  8
0
 62
     0
 48
6.0
370
    -1
100
AcDbLine
 10
1004.090888578699
 20
2318.881325038251
 30
0.0
 11
1004.090888578699
 21
2298.881325038251
 31
0.0
  0
LINE
  5
3CAD
330
18
100
AcDbEntity
  8
0
 62
     0
 48
6.0
370
    -1
100
AcDbLine
 10
954.0908885786994
 20
2318.881325038251
 30
0.0
 11
954.0908885786994
 21
2298.881325038251
 31
0.0
  0
LINE
  5
3CAE
330
18
100
AcDbEntity
  8
0
 62
     0
 48
6.0
370
    -1
100
AcDbLine
 10
964.0908885786994
 20
2318.881325038251
 30
0.0
 11
964.0908885786994
 21
2298.881325038251
 31
0.0
  0
LINE
  5
3CAF
330
18
100
AcDbEntity
  8
0
 62
     0
 48
6.0
370
    -1
100
AcDbLine
 10
974.0908885786994
 20
2318.881325038251
 30
0.0
 11
974.0908885786994
 21
2298.881325038251
 31
0.0
  0
LINE
  5
3CB0
330
18
100
AcDbEntity
  8
0
 62
     0
 48
6.0
370
    -1
100
AcDbLine
 10
984.0908885786994
 20
2318.881325038251
 30
0.0
 11
984.0908885786994
 21
2298.881325038251
 31
0.0
  0
LINE
  5
3CB1
330
18
100
AcDbEntity
  8
0
 62
     0
 48
6.0
370
    -1
100
AcDbLine
 10
1014.090888578699
 20
2298.881325038251
 30
0.0
 11
1024.090888578699
 21
2288.881325038251
 31
0.0
  0
LINE
  5
3CB2
330
18
100
AcDbEntity
  8
0
 62
     0
 48
6.0
370
    -1
100
AcDbLine
 10
1014.090888578699
 20
2318.881325038251
 30
0.0
 11
1014.090888578699
 21
2298.881325038251
 31
0.0
  0
LINE
  5
3CBA
330
18
100
AcDbEntity
  8
0
 62
     0
 48
6.0
370
    -1
100
AcDbLine
 10
1916.178435980586
 20
2171.35310116571
 30
0.0
 11
1434.999986828538
 21
1807.96116680869
 31
0.0
  0
LINE
  5
3CBB
330
18
100
AcDbEntity
  8
0
 62
     0
 48
6.0
370
    -1
100
AcDbLine
 10
1817.727200829882
 20
2171.60529200721
 30
0.0
 11
1384.999986828538
 21
1847.96116680869
 31
0.0
  0
LINE
  5
3CBC
330
18
100
AcDbEntity
  8
0
 62
     0
 48
6.0
370
    -1
100
AcDbLine
 10
2054.999986828538
 20
2257.96116680869
 30
0.0
 11
2054.999986828538
 21
1337.96116680869
 31
0.0
  0
LINE
  5
3CBD
330
18
100
AcDbEntity
  8
0
 62
     0
 48
6.0
370
    -1
100
AcDbLine
 10
1974.999986828538
 20
1397.96116680869
 30
0.0
 11
1974.999986828538
 21
2257.96116680869
 31
0.0
  0
CIRCLE
  5
3CBF
330
18
100
AcDbEntity
  8
0
 62
     0
 48
6.0
370
    -1
100
AcDbCircle
 10
2014.796062173453
 20
1329.480259932546
 30
0.0
 40
9.013611994698294
  0
LINE
  5
3CC0
330
18
100
AcDbEntity
  8
0
 62
     0
 48
6.0
370
    -1
100
AcDbLine
 10
1999.999986828538
 20
1302.96116680869
 30
0.0
 11
2029.999986828538
 21
1302.96116680869
 31
0.0
  0
ARC
  5
3CC1
330
18
100
AcDbEntity
  8
0
 62
     0
 48
6.0
370
    -1
100
AcDbCircle
 10
2014.999986828538
 20
1012.96116680869
 30
0.0
 40
10.0
100
AcDbArc
 50
180.0
 51
0.0
  0
ARC
  5
3CC2
330
18
100
AcDbEntity
  8
0
 62
     0
 48
6.0
370
    -1
100
AcDbCircle
 10
2014.999986828538
 20
1042.96116680869
 30
0.0
 40
10.0
100
AcDbArc
 50
0.0
 51
180.0
  0
LINE
  5
3CC3
330
18
100
AcDbEntity
  8
0
 62
     0
 48
6.0
370
    -1
100
AcDbLine
 10
2094.999986828538
 20
997.9611668086905
 30
0.0
 11
1964.999986828538
 21
997.9611668086905
 31
0.0
  0
LINE
  5
3CC4
330
18
100
AcDbEntity
  8
0
 62
     0
 48
6.0
370
    -1
100
AcDbLine
 10
1964.999986828538
 20
987.9611668086905
 30
0.0
 11
2094.999986828538
 21
987.9611668086905
 31
0.0
  0
LINE
  5
3CC5
330
18
100
AcDbEntity
  8
0
 62
     0
 48
6.0
370
    -1
100
AcDbLine
 10
2064.999986828538
 20
1067.96116680869
 30
0.0
 11
1964.999986828538
 21
1067.96116680869
 31
0.0
  0
LINE
  5
3CC6
330
18
100
AcDbEntity
  8
0
  6
CENTER
 62
     0
 48
6.0
370
    -1
100
AcDbLine
 10
1794.999986828538
 20
1378.537325864734
 30
0.0
 11
1794.999986828538
 21
1198.537325864734
 31
0.0
  0
LINE
  5
3CD0
330
18
100
AcDbEntity
  8
0
 62
     0
 48
6.0
370
    -1
100
AcDbLine
 10
1964.999986828538
 20
1067.96116680869
 30
0.0
 11
1964.999986828538
 21
997.9611668086905
 31
0.0
  0
LINE
  5
3CD3
330
18
100
AcDbEntity
  8
0
 62
     0
 48
6.0
370
    -1
100
AcDbLine
 10
2004.999986828538
 20
1042.96116680869
 30
0.0
 11
2004.999986828538
 21
1012.96116680869
 31
0.0
  0
LINE
  5
3CD4
330
18
100
AcDbEntity
  8
0
 62
     0
 48
6.0
370
    -1
100
AcDbLine
 10
1964.999986828538
 20
997.9611668086905
 30
0.0
 11
1964.999986828538
 21
987.9611668086905
 31
0.0
  0
LINE
  5
3CD5
330
18
100
AcDbEntity
  8
0
 62
     0
 48
6.0
370
    -1
100
AcDbLine
 10
1757.254687227818
 20
1293.452295391005
 30
0.0
 11
1835.437067393315
 21
1293.452295391005
 31
0.0
  0
LINE
  5
3CD6
330
18
100
AcDbEntity
  8
0
 62
     0
 48
6.0
370
    -1
100
AcDbLine
 10
1835.437067393315
 20
1212.64182274619
 30
0.0
 11
1755.436490728149
 21
1212.64182274619
 31
0.0
  0
LINE
  5
3CD7
330
18
100
AcDbEntity
  8
0
 62
     0
 48
6.0
370
    -1
100
AcDbLine
 10
1754.999986828538
 20
1340.365479099709
 30
0.0
 11
1834.999986828538
 21
1340.365479099709
 31
0.0
  0
LINE
  5
3CD8
330
18
100
AcDbEntity
  8
0
 62
     0
 48
6.0
370
    -1
100
AcDbLine
 10
1754.999986828538
 20
1360.365479099709
 30
0.0
 11
1834.999986828538
 21
1360.365479099709
 31
0.0
  0
LINE
  5
3CD9
330
18
100
AcDbEntity
  8
0
 62
     0
 48
6.0
370
    -1
100
AcDbLine
 10
1756.34558897798
 20
1293.452295391005
 30
0.0
 11
1756.34558897798
 21
1213.549799704324
 31
0.0
  0
LINE
  5
3CDA
330
18
100
AcDbEntity
  8
0
 62
     0
 48
6.0
370
    -1
100
AcDbLine
 10
1745.436409979993
 20
1331.587580294442
 30
0.0
 11
1745.436409979993
 21
1300.716165197896
 31
0.0
  0
LINE
  5
3CDB
330
18
100
AcDbEntity
  8
0
 62
     0
 48
6.0
370
    -1
100
AcDbLine
 10
1744.999986828538
 20
1330.365479099709
 30
0.0
 11
1754.999986828538
 21
1340.365479099709
 31
0.0
  0
LINE
  5
3CDC
330
18
100
AcDbEntity
  8
0
 62
     0
 48
6.0
370
    -1
100
AcDbLine
 10
1764.999986828538
 20
1360.365479099709
 30
0.0
 11
1764.999986828538
 21
1340.365479099709
 31
0.0
  0
LINE
  5
3CDD
330
18
100
AcDbEntity
  8
0
 62
     0
 48
6.0
370
    -1
100
AcDbLine
 10
1754.999986828538
 20
1340.365479099709
 30
0.0
 11
1754.999986828538
 21
1360.365479099709
 31
0.0
  0
LINE
  5
3CDE
330
18
100
AcDbEntity
  8
0
 62
     0
 48
6.0
370
    -1
100
AcDbLine
 10
1974.999986828538
 20
1147.96116680869
 30
0.0
 11
1974.999986828538
 21
1317.96116680869
 31
0.0
  0
LINE
  5
3CDF
330
18
100
AcDbEntity
  8
0
 62
     0
 48
6.0
370
    -1
100
AcDbLine
 10
1974.999986828538
 20
1147.96116680869
 30
0.0
 11
1974.999986828538
 21
1077.96116680869
 31
0.0
  0
LINE
  5
3CE0
330
18
100
AcDbEntity
  8
0
 62
     0
 48
6.0
370
    -1
100
AcDbLine
 10
1974.999986828538
 20
1107.96116680869
 30
0.0
 11
1974.999986828538
 21
1067.96116680869
 31
0.0
  0
LINE
  5
3CE1
330
18
100
AcDbEntity
  8
0
 62
     0
 48
6.0
370
    -1
100
AcDbLine
 10
1884.999986828538
 20
1217.96116680869
 30
0.0
 11
1894.999986828538
 21
1217.96116680869
 31
0.0
  0
LINE
  5
3CE2
330
18
100
AcDbEntity
  8
0
 62
     0
 48
6.0
370
    -1
100
AcDbLine
 10
1835.437067393315
 20
1293.452295391005
 30
0.0
 11
1835.437067393315
 21
1212.64182274619
 31
0.0
  0
LINE
  5
3CE3
330
18
100
AcDbEntity
  8
0
 62
     0
 48
6.0
370
    -1
100
AcDbLine
 10
1857.255495868041
 20
1217.896438282665
 30
0.0
 11
1835.59591966169
 21
1217.896438282665
 31
0.0
  0
LINE
  5
3CE4
330
18
100
AcDbEntity
  8
0
 62
     0
 48
6.0
370
    -1
100
AcDbLine
 10
1854.999986828538
 20
1217.96116680869
 30
0.0
 11
1884.999986828538
 21
1217.96116680869
 31
0.0
  0
LINE
  5
3CE5
330
18
100
AcDbEntity
  8
0
 62
     0
 48
6.0
370
    -1
100
AcDbLine
 10
1814.999986828538
 20
1360.365479099709
 30
0.0
 11
1814.999986828538
 21
1340.365479099709
 31
0.0
  0
LINE
  5
3CE6
330
18
100
AcDbEntity
  8
0
 62
     0
 48
6.0
370
    -1
100
AcDbLine
 10
1804.999986828538
 20
1360.365479099709
 30
0.0
 11
1804.999986828538
 21
1340.365479099709
 31
0.0
  0
LINE
  5
3CE7
330
18
100
AcDbEntity
  8
0
 62
     0
 48
6.0
370
    -1
100
AcDbLine
 10
1824.999986828538
 20
1360.365479099709
 30
0.0
 11
1824.999986828538
 21
1340.365479099709
 31
0.0
  0
LINE
  5
3CE8
330
18
100
AcDbEntity
  8
0
 62
     0
 48
6.0
370
    -1
100
AcDbLine
 10
1784.999986828538
 20
1360.365479099709
 30
0.0
 11
1784.999986828538
 21
1340.365479099709
 31
0.0
  0
LINE
  5
3CE9
330
18
100
AcDbEntity
  8
0
 62
     0
 48
6.0
370
    -1
100
AcDbLine
 10
1774.999986828538
 20
1360.365479099709
 30
0.0
 11
1774.999986828538
 21
1340.365479099709
 31
0.0
  0
LINE
  5
3CEA
330
18
100
AcDbEntity
  8
0
 62
     0
 48
6.0
370
    -1
100
AcDbLine
 10
1845.437113481428
 20
1330.679585289028
 30
0.0
 11
1845.437113481428
 21
1300.716165197896
 31
0.0
  0
LINE
  5
3CEB
330
18
100
AcDbEntity
  8
0
 62
     0
 48
6.0
370
    -1
100
AcDbLine
 10
1834.999986828538
 20
1340.365479099709
 30
0.0
 11
1844.999986828538
 21
1330.365479099709
 31
0.0
  0
LINE
  5
3CEC
330
18
100
AcDbEntity
  8
0
 62
     0
 48
6.0
370
    -1
100
AcDbLine
 10
1834.999986828538
 20
1360.365479099709
 30
0.0
 11
1834.999986828538
 21
1340.365479099709
 31
0.0
  0
LINE
  5
3CED
330
18
100
AcDbEntity
  8
0
 62
     0
 48
6.0
370
    -1
100
AcDbLine
 10
1974.999986828538
 20
1212.96116680869
 30
0.0
 11
1894.999986828538
 21
1212.96116680869
 31
0.0
  0
LINE
  5
3CEE
330
18
100
AcDbEntity
  8
0
 62
     0
 48
6.0
370
    -1
100
AcDbLine
 10
1974.999986828538
 20
1292.96116680869
 30
0.0
 11
1904.999986828538
 21
1292.96116680869
 31
0.0
  0
LINE
  5
3CEF
330
18
100
AcDbEntity
  8
0
 62
     0
 48
6.0
370
    -1
100
AcDbLine
 10
1894.999986828538
 20
1282.96116680869
 30
0.0
 11
1904.999986828538
 21
1292.96116680869
 31
0.0
  0
LINE
  5
3CF0
330
18
100
AcDbEntity
  8
0
 62
     0
 48
6.0
370
    -1
100
AcDbLine
 10
1894.999986828538
 20
1212.96116680869
 30
0.0
 11
1894.999986828538
 21
1282.96116680869
 31
0.0
  0
CIRCLE
  5
3CF1
330
18
100
AcDbEntity
  8
0
 62
     0
 48
6.0
370
    -1
100
AcDbCircle
 10
1934.604153197302
 20
1252.38626771129
 30
0.0
 40
9.013611994698294
  0
LINE
  5
3CFA
330
18
100
AcDbEntity
  8
0
 62
     0
 48
6.0
370
    -1
100
AcDbLine
 10
2064.999986828538
 20
1067.96116680869
 30
0.0
 11
2064.999986828538
 21
997.9611668086905
 31
0.0
  0
LINE
  5
3D03
330
18
100
AcDbEntity
  8
0
 62
     0
 48
6.0
370
    -1
100
AcDbLine
 10
2074.999986828538
 20
1007.96116680869
 30
0.0
 11
2074.999986828538
 21
957.9611668086905
 31
0.0
  0
LINE
  5
3D05
330
18
100
AcDbEntity
  8
0
 62
     0
 48
6.0
370
    -1
100
AcDbLine
 10
2024.999986828538
 20
1042.96116680869
 30
0.0
 11
2024.999986828538
 21
1012.96116680869
 31
0.0
  0
LINE
  5
3D06
330
18
100
AcDbEntity
  8
0
 62
     0
 48
6.0
370
    -1
100
AcDbLine
 10
2094.999986828538
 20
987.9611668086905
 30
0.0
 11
2094.999986828538
 21
997.9611668086905
 31
0.0
  0
LINE
  5
3D14
330
18
100
AcDbEntity
  8
0
 62
     0
 48
6.0
370
    -1
100
AcDbLine
 10
2054.999986828538
 20
1137.96116680869
 30
0.0
 11
2054.999986828538
 21
1327.96116680869
 31
0.0
  0
LINE
  5
3D15
330
18
100
AcDbEntity
  8
0
 62
     0
 48
6.0
370
    -1
100
AcDbLine
 10
2054.999986828538
 20
1137.96116680869
 30
0.0
 11
2054.999986828538
 21
1087.96116680869
 31
0.0
  0
LINE
  5
3D16
330
18
100
AcDbEntity
  8
0
 62
     0
 48
6.0
370
    -1
100
AcDbLine
 10
2054.999986828538
 20
1107.96116680869
 30
0.0
 11
2054.999986828538
 21
1067.96116680869
 31
0.0
  0
LINE
  5
3D19
330
18
100
AcDbEntity
  8
0
 62
     0
 48
6.0
370
    -1
100
AcDbLine
 10
2034.999986828538
 20
1302.96116680869
 30
0.0
 11
2059.999986828538
 21
1332.96116680869
 31
0.0
  0
LINE
  5
3D1A
330
18
100
AcDbEntity
  8
0
 62
     0
 48
6.0
370
    -1
100
AcDbLine
 10
2029.999986828538
 20
1302.96116680869
 30
0.0
 11
2034.999986828538
 21
1302.96116680869
 31
0.0
  0
LINE
  5
3D32
330
18
100
AcDbEntity
  8
0
 62
     0
 48
6.0
370
    -1
100
AcDbLine
 10
1974.999986828538
 20
2257.96116680869
 30
0.0
 11
2054.999986828538
 21
2257.96116680869
 31
0.0
  0
LINE
  5
3D38
330
18
100
AcDbEntity
  8
0
 62
     0
 48
6.0
370
    -1
100
AcDbLine
 10
1835.437067393315
 20
2172.065663690147
 30
0.0
 11
1755.436490728149
 21
2172.065663690147
 31
0.0
  0
LINE
  5
3D39
330
18
100
AcDbEntity
  8
0
 62
     0
 48
6.0
370
    -1
100
AcDbLine
 10
1757.254687227818
 20
2252.876136334962
 30
0.0
 11
1835.437067393315
 21
2252.876136334962
 31
0.0
  0
LINE
  5
3D3A
330
18
100
AcDbEntity
  8
0
 62
     0
 48
6.0
370
    -1
100
AcDbLine
 10
1754.999986828538
 20
2319.789320043666
 30
0.0
 11
1834.999986828538
 21
2319.789320043666
 31
0.0
  0
LINE
  5
3D3B
330
18
100
AcDbEntity
  8
0
 62
     0
 48
6.0
370
    -1
100
AcDbLine
 10
1754.999986828538
 20
2299.789320043666
 30
0.0
 11
1834.999986828538
 21
2299.789320043666
 31
0.0
  0
LINE
  5
3D3C
330
18
100
AcDbEntity
  8
0
 62
     0
 48
6.0
370
    -1
100
AcDbLine
 10
1756.34558897798
 20
2252.876136334962
 30
0.0
 11
1756.34558897798
 21
2172.97364064828
 31
0.0
  0
LINE
  5
3D3D
330
18
100
AcDbEntity
  8
0
 62
     0
 48
6.0
370
    -1
100
AcDbLine
 10
1745.436409979993
 20
2291.011421238399
 30
0.0
 11
1745.436409979993
 21
2260.140006141853
 31
0.0
  0
LINE
  5
3D3E
330
18
100
AcDbEntity
  8
0
 62
     0
 48
6.0
370
    -1
100
AcDbLine
 10
1764.999986828538
 20
2319.789320043666
 30
0.0
 11
1764.999986828538
 21
2299.789320043666
 31
0.0
  0
LINE
  5
3D3F
330
18
100
AcDbEntity
  8
0
 62
     0
 48
6.0
370
    -1
100
AcDbLine
 10
1754.999986828538
 20
2299.789320043666
 30
0.0
 11
1754.999986828538
 21
2319.789320043666
 31
0.0
  0
LINE
  5
3D40
330
18
100
AcDbEntity
  8
0
 62
     0
 48
6.0
370
    -1
100
AcDbLine
 10
1744.999986828538
 20
2289.789320043666
 30
0.0
 11
1754.999986828538
 21
2299.789320043666
 31
0.0
  0
LINE
  5
3D41
330
18
100
AcDbEntity
  8
0
  6
CENTER
 62
     0
 48
6.0
370
    -1
100
AcDbLine
 10
1794.999986828538
 20
2337.96116680869
 30
0.0
 11
1794.999986828538
 21
2157.96116680869
 31
0.0
  0
LINE
  5
3D42
330
18
100
AcDbEntity
  8
0
 62
     0
 48
6.0
370
    -1
100
AcDbLine
 10
1835.437067393315
 20
2252.876136334962
 30
0.0
 11
1835.437067393315
 21
2172.065663690147
 31
0.0
  0
LINE
  5
3D43
330
18
100
AcDbEntity
  8
0
 62
     0
 48
6.0
370
    -1
100
AcDbLine
 10
1894.999986828538
 20
2172.96116680869
 30
0.0
 11
1894.999986828538
 21
2242.96116680869
 31
0.0
  0
LINE
  5
3D44
330
18
100
AcDbEntity
  8
0
 62
     0
 48
6.0
370
    -1
100
AcDbLine
 10
1895.437482562171
 20
2177.513561533498
 30
0.0
 11
1835.437067393315
 21
2177.513561533498
 31
0.0
  0
LINE
  5
3D45
330
18
100
AcDbEntity
  8
0
 62
     0
 48
6.0
370
    -1
100
AcDbLine
 10
1974.999986828538
 20
2172.96116680869
 30
0.0
 11
1894.999986828538
 21
2172.96116680869
 31
0.0
  0
LINE
  5
3D46
330
18
100
AcDbEntity
  8
0
 62
     0
 48
6.0
370
    -1
100
AcDbLine
 10
1894.999986828538
 20
2172.96116680869
 30
0.0
 11
1894.999986828538
 21
2172.96116680869
 31
0.0
  0
LINE
  5
3D47
330
18
100
AcDbEntity
  8
0
 62
     0
 48
6.0
370
    -1
100
AcDbLine
 10
1845.437113481428
 20
2290.103426232984
 30
0.0
 11
1845.437113481428
 21
2260.140006141853
 31
0.0
  0
LINE
  5
3D48
330
18
100
AcDbEntity
  8
0
 62
     0
 48
6.0
370
    -1
100
AcDbLine
 10
1824.999986828538
 20
2319.789320043666
 30
0.0
 11
1824.999986828538
 21
2299.789320043666
 31
0.0
  0
LINE
  5
3D49
330
18
100
AcDbEntity
  8
0
 62
     0
 48
6.0
370
    -1
100
AcDbLine
 10
1814.999986828538
 20
2319.789320043666
 30
0.0
 11
1814.999986828538
 21
2299.789320043666
 31
0.0
  0
LINE
  5
3D4A
330
18
100
AcDbEntity
  8
0
 62
     0
 48
6.0
370
    -1
100
AcDbLine
 10
1804.999986828538
 20
2319.789320043666
 30
0.0
 11
1804.999986828538
 21
2299.789320043666
 31
0.0
  0
LINE
  5
3D4B
330
18
100
AcDbEntity
  8
0
 62
     0
 48
6.0
370
    -1
100
AcDbLine
 10
1794.999986828538
 20
2319.789320043666
 30
0.0
 11
1794.999986828538
 21
2299.789320043666
 31
0.0
  0
LINE
  5
3D4C
330
18
100
AcDbEntity
  8
0
 62
     0
 48
6.0
370
    -1
100
AcDbLine
 10
1784.999986828538
 20
2319.789320043666
 30
0.0
 11
1784.999986828538
 21
2299.789320043666
 31
0.0
  0
LINE
  5
3D4D
330
18
100
AcDbEntity
  8
0
 62
     0
 48
6.0
370
    -1
100
AcDbLine
 10
1774.999986828538
 20
2319.789320043666
 30
0.0
 11
1774.999986828538
 21
2299.789320043666
 31
0.0
  0
LINE
  5
3D4E
330
18
100
AcDbEntity
  8
0
 62
     0
 48
6.0
370
    -1
100
AcDbLine
 10
1834.999986828538
 20
2319.789320043666
 30
0.0
 11
1834.999986828538
 21
2299.789320043666
 31
0.0
  0
LINE
  5
3D4F
330
18
100
AcDbEntity
  8
0
 62
     0
 48
6.0
370
    -1
100
AcDbLine
 10
1834.999986828538
 20
2299.789320043666
 30
0.0
 11
1844.999986828538
 21
2289.789320043666
 31
0.0
  0
LINE
  5
3D50
330
18
100
AcDbEntity
  8
0
 62
     0
 48
6.0
370
    -1
100
AcDbLine
 10
1904.999986828538
 20
2252.96116680869
 30
0.0
 11
1974.999986828538
 21
2252.96116680869
 31
0.0
  0
CIRCLE
  5
3D51
330
18
100
AcDbEntity
  8
0
 62
     0
 48
6.0
370
    -1
100
AcDbCircle
 10
1934.796062173453
 20
2212.753912122219
 30
0.0
 40
9.013611994698294
  0
LINE
  5
3D52
330
18
100
AcDbEntity
  8
0
 62
     0
 48
6.0
370
    -1
100
AcDbLine
 10
1894.999986828538
 20
2242.96116680869
 30
0.0
 11
1904.999986828538
 21
2252.96116680869
 31
0.0
  0
LINE
  5
3F15
330
18
100
AcDbEntity
  8
0
 62
     0
 48
6.0
370
    -1
100
AcDbLine
 10
3844.999986828538
 20
1337.96116680869
 30
0.0
 11
3844.999986828538
 21
2257.96116680869
 31
0.0
  0
LINE
  5
3F16
330
18
100
AcDbEntity
  8
0
 62
     0
 48
6.0
370
    -1
100
AcDbLine
 10
3034.999986828538
 20
2257.96116680869
 30
0.0
 11
3034.999986828538
 21
1337.96116680869
 31
0.0
  0
LINE
  5
3F17
330
18
100
AcDbEntity
  8
0
 62
     0
 48
6.0
370
    -1
100
AcDbLine
 10
3754.999986828538
 20
2157.96116680869
 30
0.0
 11
3754.999986828538
 21
1067.96116680869
 31
0.0
  0
LINE
  5
3F18
330
18
100
AcDbEntity
  8
0
 62
     0
 48
6.0
370
    -1
100
AcDbLine
 10
3834.999986828538
 20
2117.96116680869
 30
0.0
 11
3834.999986828538
 21
1067.96116680869
 31
0.0
  0
LINE
  5
3F19
330
18
100
AcDbEntity
  8
0
 62
     0
 48
6.0
370
    -1
100
AcDbLine
 10
3834.999986828538
 20
2087.96116680869
 30
0.0
 11
3834.999986828538
 21
1067.96116680869
 31
0.0
  0
LINE
  5
3F1A
330
18
100
AcDbEntity
  8
0
 62
     0
 48
6.0
370
    -1
100
AcDbLine
 10
3754.999986828538
 20
2097.96116680869
 30
0.0
 11
3754.999986828538
 21
1067.96116680869
 31
0.0
  0
LINE
  5
3F1B
330
18
100
AcDbEntity
  8
0
 62
     0
 48
6.0
370
    -1
100
AcDbLine
 10
3124.999986828538
 20
2117.96116680869
 30
0.0
 11
3124.999986828538
 21
1067.96116680869
 31
0.0
  0
LINE
  5
3F1C
330
18
100
AcDbEntity
  8
0
 62
     0
 48
6.0
370
    -1
100
AcDbLine
 10
3044.999986828538
 20
2157.96116680869
 30
0.0
 11
3044.999986828538
 21
1067.96116680869
 31
0.0
  0
LINE
  5
3F1D
330
18
100
AcDbEntity
  8
0
 62
     0
 48
6.0
370
    -1
100
AcDbLine
 10
3835.145014430938
 20
1337.756714170143
 30
0.0
 11
3910.276620936569
 21
1337.756714170143
 31
0.0
  0
LINE
  5
3F1E
330
18
100
AcDbEntity
  8
0
 62
     0
 48
6.0
370
    -1
100
AcDbLine
 10
3834.999986828538
 20
1297.96116680869
 30
0.0
 11
3904.999986828538
 21
1297.96116680869
 31
0.0
  0
LINE
  5
3F1F
330
18
100
AcDbEntity
  8
0
 62
     0
 48
6.0
370
    -1
100
AcDbLine
 10
3124.999986828538
 20
1337.96116680869
 30
0.0
 11
3754.999986828538
 21
1337.96116680869
 31
0.0
  0
LINE
  5
3F22
330
18
100
AcDbEntity
  8
0
 62
     0
 48
6.0
370
    -1
100
AcDbLine
 10
3124.999986828538
 20
1297.96116680869
 30
0.0
 11
3754.999986828538
 21
1297.96116680869
 31
0.0
  0
LINE
  5
3F23
330
18
100
AcDbEntity
  8
0
 62
     0
 48
6.0
370
    -1
100
AcDbLine
 10
3124.999986828538
 20
1217.96116680869
 30
0.0
 11
3754.999986828538
 21
1217.96116680869
 31
0.0
  0
LINE
  5
3F24
330
18
100
AcDbEntity
  8
0
 62
     0
 48
6.0
370
    -1
100
AcDbLine
 10
3034.999986828538
 20
1067.96116680869
 30
0.0
 11
3034.999986828538
 21
997.9611668086905
 31
0.0
  0
LINE
  5
3F25
330
18
100
AcDbEntity
  8
0
 62
     0
 48
6.0
370
    -1
100
AcDbLine
 10
3134.999986828538
 20
1067.96116680869
 30
0.0
 11
3134.999986828538
 21
997.9611668086905
 31
0.0
  0
ARC
  5
3F26
330
18
100
AcDbEntity
  8
0
 62
     0
 48
6.0
370
    -1
100
AcDbCircle
 10
3084.999986828538
 20
1042.96116680869
 30
0.0
 40
10.0
100
AcDbArc
 50
0.0
 51
180.0
  0
LINE
  5
3F29
330
18
100
AcDbEntity
  8
0
 62
     0
 48
6.0
370
    -1
100
AcDbLine
 10
3004.999986828538
 20
987.9611668086905
 30
0.0
 11
3134.999986828538
 21
987.9611668086905
 31
0.0
  0
LINE
  5
3F2A
330
18
100
AcDbEntity
  8
0
 62
     0
 48
6.0
370
    -1
100
AcDbLine
 10
3134.999986828538
 20
997.9611668086905
 30
0.0
 11
3004.999986828538
 21
997.9611668086905
 31
0.0
  0
LINE
  5
3F2B
330
18
100
AcDbEntity
  8
0
 62
     0
 48
6.0
370
    -1
100
AcDbLine
 10
3024.999986828538
 20
1007.96116680869
 30
0.0
 11
3024.999986828538
 21
957.9611668086905
 31
0.0
  0
LINE
  5
3F2E
330
18
100
AcDbEntity
  8
0
 62
     0
 48
6.0
370
    -1
100
AcDbLine
 10
3004.999986828538
 20
997.9611668086905
 30
0.0
 11
3004.999986828538
 21
987.9611668086905
 31
0.0
  0
LINE
  5
3F2F
330
18
100
AcDbEntity
  8
0
 62
     0
 48
6.0
370
    -1
100
AcDbLine
 10
3094.999986828538
 20
1042.96116680869
 30
0.0
 11
3094.999986828538
 21
1012.96116680869
 31
0.0
  0
LINE
  5
3F30
330
18
100
AcDbEntity
  8
0
 62
     0
 48
6.0
370
    -1
100
AcDbLine
 10
3074.999986828538
 20
1042.96116680869
 30
0.0
 11
3074.999986828538
 21
1012.96116680869
 31
0.0
  0
ARC
  5
3F31
330
18
100
AcDbEntity
  8
0
 62
     0
 48
6.0
370
    -1
100
AcDbCircle
 10
3084.999986828538
 20
1012.96116680869
 30
0.0
 40
10.0
100
AcDbArc
 50
180.0
 51
0.0
  0
LINE
  5
3F32
330
18
100
AcDbEntity
  8
0
 62
     0
 48
6.0
370
    -1
100
AcDbLine
 10
3134.999986828538
 20
997.9611668086905
 30
0.0
 11
3134.999986828538
 21
987.9611668086905
 31
0.0
  0
LINE
  5
3F35
330
18
100
AcDbEntity
  8
0
 62
     0
 48
6.0
370
    -1
100
AcDbLine
 10
3149.999986828538
 20
1357.96116680869
 30
0.0
 11
3199.999986828538
 21
1357.96116680869
 31
0.0
  0
LINE
  5
3F36
330
18
100
AcDbEntity
  8
0
 62
     0
 48
6.0
370
    -1
100
AcDbLine
 10
3149.999986828538
 20
1357.96116680869
 30
0.0
 11
3249.999986828538
 21
1357.96116680869
 31
0.0
  0
LINE
  5
3F37
330
18
100
AcDbEntity
  8
0
 62
     0
 48
6.0
370
    -1
100
AcDbLine
 10
3134.999986828538
 20
1067.96116680869
 30
0.0
 11
3034.999986828538
 21
1067.96116680869
 31
0.0
  0
LINE
  5
3F38
330
18
100
AcDbEntity
  8
0
 62
     0
 48
6.0
370
    -1
100
AcDbLine
 10
3044.999986828538
 20
1107.96116680869
 30
0.0
 11
3044.999986828538
 21
1067.96116680869
 31
0.0
  0
LINE
  5
3F39
330
18
100
AcDbEntity
  8
0
 62
     0
 48
6.0
370
    -1
100
AcDbLine
 10
3124.999986828538
 20
1107.96116680869
 30
0.0
 11
3124.999986828538
 21
1067.96116680869
 31
0.0
  0
LINE
  5
3F3A
330
18
100
AcDbEntity
  8
0
 62
     0
 48
6.0
370
    -1
100
AcDbLine
 10
2969.892538995795
 20
1338.094741742206
 30
0.0
 11
3045.024145501429
 21
1338.094741742206
 31
0.0
  0
LINE
  5
3F3B
330
18
100
AcDbEntity
  8
0
 62
     0
 48
6.0
370
    -1
100
AcDbLine
 10
3044.999986828538
 20
1297.96116680869
 30
0.0
 11
2974.999986828538
 21
1297.96116680869
 31
0.0
  0
LINE
  5
3F3C
330
18
100
AcDbEntity
  8
0
 62
     0
 48
6.0
370
    -1
100
AcDbLine
 10
2969.892538995795
 20
1297.870858939555
 30
0.0
 11
2977.676458059614
 21
1297.870858939555
 31
0.0
  0
LINE
  5
3F3D
330
18
100
AcDbEntity
  8
0
 62
     0
 48
6.0
370
    -1
100
AcDbLine
 10
2969.999986828538
 20
1297.96116680869
 30
0.0
 11
2969.999986828538
 21
1337.96116680869
 31
0.0
  0
LINE
  5
3F3E
330
18
100
AcDbEntity
  8
0
 62
     0
 48
6.0
370
    -1
100
AcDbLine
 10
3149.999986828538
 20
1337.96116680869
 30
0.0
 11
3149.999986828538
 21
1357.96116680869
 31
0.0
  0
LINE
  5
3F3F
330
18
100
AcDbEntity
  8
0
 62
     0
 48
6.0
370
    -1
100
AcDbLine
 10
3159.999986828538
 20
1357.96116680869
 30
0.0
 11
3159.999986828538
 21
1337.96116680869
 31
0.0
  0
LINE
  5
3F40
330
18
100
AcDbEntity
  8
0
 62
     0
 48
6.0
370
    -1
100
AcDbLine
 10
3169.999986828538
 20
1357.96116680869
 30
0.0
 11
3169.999986828538
 21
1337.96116680869
 31
0.0
  0
LINE
  5
3F41
330
18
100
AcDbEntity
  8
0
 62
     0
 48
6.0
370
    -1
100
AcDbLine
 10
3179.999986828538
 20
1357.96116680869
 30
0.0
 11
3179.999986828538
 21
1337.96116680869
 31
0.0
  0
LINE
  5
3F42
330
18
100
AcDbEntity
  8
0
 62
     0
 48
6.0
370
    -1
100
AcDbLine
 10
3189.999986828538
 20
1357.96116680869
 30
0.0
 11
3189.999986828538
 21
1337.96116680869
 31
0.0
  0
LINE
  5
3F43
330
18
100
AcDbEntity
  8
0
 62
     0
 48
6.0
370
    -1
100
AcDbLine
 10
3199.999986828538
 20
1357.96116680869
 30
0.0
 11
3199.999986828538
 21
1337.96116680869
 31
0.0
  0
LINE
  5
3F44
330
18
100
AcDbEntity
  8
0
 62
     0
 48
6.0
370
    -1
100
AcDbLine
 10
3209.999986828538
 20
1357.96116680869
 30
0.0
 11
3209.999986828538
 21
1337.96116680869
 31
0.0
  0
LINE
  5
3F45
330
18
100
AcDbEntity
  8
0
 62
     0
 48
6.0
370
    -1
100
AcDbLine
 10
3219.999986828538
 20
1357.96116680869
 30
0.0
 11
3219.999986828538
 21
1337.96116680869
 31
0.0
  0
LINE
  5
3F46
330
18
100
AcDbEntity
  8
0
 62
     0
 48
6.0
370
    -1
100
AcDbLine
 10
3229.999986828538
 20
1357.96116680869
 30
0.0
 11
3229.999986828538
 21
1337.96116680869
 31
0.0
  0
POINT
  5
3F47
330
18
100
AcDbEntity
  8
DEFPOINTS
  6
ByBlock
 62
     0
 48
6.0
370
    -1
100
AcDbPoint
 10
3193.90879666344
 20
1367.204637797654
 30
0.0
  0
LINE
  5
3F48
330
18
100
AcDbEntity
  8
0
 62
     0
 48
6.0
370
    -1
100
AcDbLine
 10
3249.999986828538
 20
1357.96116680869
 30
0.0
 11
3249.999986828538
 21
1337.96116680869
 31
0.0
  0
LINE
  5
3F49
330
18
100
AcDbEntity
  8
0
 62
     0
 48
6.0
370
    -1
100
AcDbLine
 10
3239.999986828538
 20
1357.96116680869
 30
0.0
 11
3239.999986828538
 21
1337.96116680869
 31
0.0
  0
ARC
  5
3F4A
330
18
100
AcDbEntity
  8
0
 62
     0
 48
6.0
370
    -1
100
AcDbCircle
 10
3794.999986828538
 20
1042.96116680869
 30
0.0
 40
10.0
100
AcDbArc
 50
0.0
 51
180.0
  0
LINE
  5
3F4B
330
18
100
AcDbEntity
  8
0
 62
     0
 48
6.0
370
    -1
100
AcDbLine
 10
3844.999986828538
 20
1067.96116680869
 30
0.0
 11
3844.999986828538
 21
997.9611668086905
 31
0.0
  0
LINE
  5
3F4C
330
18
100
AcDbEntity
  8
0
 62
     0
 48
6.0
370
    -1
100
AcDbLine
 10
3744.999986828538
 20
1067.96116680869
 30
0.0
 11
3744.999986828538
 21
997.9611668086905
 31
0.0
  0
LINE
  5
3F56
330
18
100
AcDbEntity
  8
0
 62
     0
 48
6.0
370
    -1
100
AcDbLine
 10
3874.999986828538
 20
997.9611668086905
 30
0.0
 11
3744.999986828538
 21
997.9611668086905
 31
0.0
  0
LINE
  5
3F57
330
18
100
AcDbEntity
  8
0
 62
     0
 48
6.0
370
    -1
100
AcDbLine
 10
3744.999986828538
 20
987.9611668086905
 30
0.0
 11
3874.999986828538
 21
987.9611668086905
 31
0.0
  0
LINE
  5
3F58
330
18
100
AcDbEntity
  8
0
 62
     0
 48
6.0
370
    -1
100
AcDbLine
 10
3744.999986828538
 20
997.9611668086905
 30
0.0
 11
3744.999986828538
 21
987.9611668086905
 31
0.0
  0
LINE
  5
3F59
330
18
100
AcDbEntity
  8
0
 62
     0
 48
6.0
370
    -1
100
AcDbLine
 10
3854.999986828538
 20
1007.96116680869
 30
0.0
 11
3854.999986828538
 21
957.9611668086905
 31
0.0
  0
ARC
  5
3F5C
330
18
100
AcDbEntity
  8
0
 62
     0
 48
6.0
370
    -1
100
AcDbCircle
 10
3794.999986828538
 20
1012.96116680869
 30
0.0
 40
10.0
100
AcDbArc
 50
180.0
 51
0.0
  0
LINE
  5
3F5D
330
18
100
AcDbEntity
  8
0
 62
     0
 48
6.0
370
    -1
100
AcDbLine
 10
3784.999986828538
 20
1042.96116680869
 30
0.0
 11
3784.999986828538
 21
1012.96116680869
 31
0.0
  0
LINE
  5
3F5E
330
18
100
AcDbEntity
  8
0
 62
     0
 48
6.0
370
    -1
100
AcDbLine
 10
3804.999986828538
 20
1042.96116680869
 30
0.0
 11
3804.999986828538
 21
1012.96116680869
 31
0.0
  0
LINE
  5
3F5F
330
18
100
AcDbEntity
  8
0
 62
     0
 48
6.0
370
    -1
100
AcDbLine
 10
3874.999986828538
 20
987.9611668086905
 30
0.0
 11
3874.999986828538
 21
997.9611668086905
 31
0.0
  0
LINE
  5
3F60
330
18
100
AcDbEntity
  8
0
 62
     0
 48
6.0
370
    -1
100
AcDbLine
 10
3629.999986828538
 20
1357.96116680869
 30
0.0
 11
3679.999986828538
 21
1357.96116680869
 31
0.0
  0
LINE
  5
3F61
330
18
100
AcDbEntity
  8
0
 62
     0
 48
6.0
370
    -1
100
AcDbLine
 10
3629.999986828538
 20
1357.96116680869
 30
0.0
 11
3729.999986828538
 21
1357.96116680869
 31
0.0
  0
LINE
  5
3F62
330
18
100
AcDbEntity
  8
0
 62
     0
 48
6.0
370
    -1
100
AcDbLine
 10
3629.999986828538
 20
1337.96116680869
 30
0.0
 11
3629.999986828538
 21
1357.96116680869
 31
0.0
  0
LINE
  5
3F63
330
18
100
AcDbEntity
  8
0
 62
     0
 48
6.0
370
    -1
100
AcDbLine
 10
3639.999986828538
 20
1357.96116680869
 30
0.0
 11
3639.999986828538
 21
1337.96116680869
 31
0.0
  0
LINE
  5
3F64
330
18
100
AcDbEntity
  8
0
 62
     0
 48
6.0
370
    -1
100
AcDbLine
 10
3844.999986828538
 20
1067.96116680869
 30
0.0
 11
3744.999986828538
 21
1067.96116680869
 31
0.0
  0
LINE
  5
3F65
330
18
100
AcDbEntity
  8
0
 62
     0
 48
6.0
370
    -1
100
AcDbLine
 10
3754.999986828538
 20
1107.96116680869
 30
0.0
 11
3754.999986828538
 21
1067.96116680869
 31
0.0
  0
LINE
  5
3F66
330
18
100
AcDbEntity
  8
0
 62
     0
 48
6.0
370
    -1
100
AcDbLine
 10
3834.999986828538
 20
1107.96116680869
 30
0.0
 11
3834.999986828538
 21
1067.96116680869
 31
0.0
  0
LINE
  5
3F67
330
18
100
AcDbEntity
  8
0
 62
     0
 48
6.0
370
    -1
100
AcDbLine
 10
3649.999986828538
 20
1357.96116680869
 30
0.0
 11
3649.999986828538
 21
1337.96116680869
 31
0.0
  0
LINE
  5
3F68
330
18
100
AcDbEntity
  8
0
 62
     0
 48
6.0
370
    -1
100
AcDbLine
 10
3699.999986828538
 20
1357.96116680869
 30
0.0
 11
3699.999986828538
 21
1337.96116680869
 31
0.0
  0
LINE
  5
3F69
330
18
100
AcDbEntity
  8
0
 62
     0
 48
6.0
370
    -1
100
AcDbLine
 10
3679.999986828538
 20
1357.96116680869
 30
0.0
 11
3679.999986828538
 21
1337.96116680869
 31
0.0
  0
LINE
  5
3F6A
330
18
100
AcDbEntity
  8
0
 62
     0
 48
6.0
370
    -1
100
AcDbLine
 10
3689.999986828538
 20
1357.96116680869
 30
0.0
 11
3689.999986828538
 21
1337.96116680869
 31
0.0
  0
POINT
  5
3F6B
330
18
100
AcDbEntity
  8
DEFPOINTS
  6
ByBlock
 62
     0
 48
6.0
370
    -1
100
AcDbPoint
 10
3686.002545914329
 20
1367.204637797654
 30
0.0
  0
LINE
  5
3F6C
330
18
100
AcDbEntity
  8
0
 62
     0
 48
6.0
370
    -1
100
AcDbLine
 10
3669.999986828538
 20
1357.96116680869
 30
0.0
 11
3669.999986828538
 21
1337.96116680869
 31
0.0
  0
LINE
  5
3F6D
330
18
100
AcDbEntity
  8
0
 62
     0
 48
6.0
370
    -1
100
AcDbLine
 10
3659.999986828538
 20
1357.96116680869
 30
0.0
 11
3659.999986828538
 21
1337.96116680869
 31
0.0
  0
LINE
  5
3F6E
330
18
100
AcDbEntity
  8
0
 62
     0
 48
6.0
370
    -1
100
AcDbLine
 10
3709.999986828538
 20
1357.96116680869
 30
0.0
 11
3709.999986828538
 21
1337.96116680869
 31
0.0
  0
LINE
  5
3F6F
330
18
100
AcDbEntity
  8
0
 62
     0
 48
6.0
370
    -1
100
AcDbLine
 10
3729.999986828538
 20
1357.96116680869
 30
0.0
 11
3729.999986828538
 21
1337.96116680869
 31
0.0
  0
LINE
  5
3F70
330
18
100
AcDbEntity
  8
0
 62
     0
 48
6.0
370
    -1
100
AcDbLine
 10
3719.999986828538
 20
1357.96116680869
 30
0.0
 11
3719.999986828538
 21
1337.96116680869
 31
0.0
  0
LINE
  5
3F71
330
18
100
AcDbEntity
  8
0
 62
     0
 48
6.0
370
    -1
100
AcDbLine
 10
3893.355094754679
 20
1297.870858939555
 30
0.0
 11
3910.276620936569
 21
1297.870858939555
 31
0.0
  0
LINE
  5
3F72
330
18
100
AcDbEntity
  8
0
 62
     0
 48
6.0
370
    -1
100
AcDbLine
 10
3909.999986828538
 20
1337.96116680869
 30
0.0
 11
3909.999986828538
 21
1297.96116680869
 31
0.0
  0
LINE
  5
3F90
330
18
100
AcDbEntity
  8
0
 62
     0
 48
6.0
370
    -1
100
AcDbLine
 10
2969.999986828538
 20
2297.96116680869
 30
0.0
 11
3909.999986828538
 21
2297.96116680869
 31
0.0
  0
LINE
  5
3F91
330
18
100
AcDbEntity
  8
0
 62
     0
 48
6.0
370
    -1
100
AcDbLine
 10
2969.999986828538
 20
2257.96116680869
 30
0.0
 11
3909.999986828538
 21
2257.96116680869
 31
0.0
  0
LINE
  5
3F95
330
18
100
AcDbEntity
  8
0
 62
     0
 48
6.0
370
    -1
100
AcDbLine
 10
3124.999986828538
 20
2177.96116680869
 30
0.0
 11
3754.999986828538
 21
2177.96116680869
 31
0.0
  0
LINE
  5
3F98
330
18
100
AcDbEntity
  8
0
 62
     0
 48
6.0
370
    -1
100
AcDbLine
 10
3149.999986828538
 20
2317.96116680869
 30
0.0
 11
3249.999986828538
 21
2317.96116680869
 31
0.0
  0
LINE
  5
3F99
330
18
100
AcDbEntity
  8
0
 62
     0
 48
6.0
370
    -1
100
AcDbLine
 10
3149.999986828538
 20
2317.96116680869
 30
0.0
 11
3199.999986828538
 21
2317.96116680869
 31
0.0
  0
LINE
  5
3F9A
330
18
100
AcDbEntity
  8
0
 62
     0
 48
6.0
370
    -1
100
AcDbLine
 10
3124.999986828538
 20
2257.96116680869
 30
0.0
 11
3124.999986828538
 21
2082.96116680869
 31
0.0
  0
LINE
  5
3F9B
330
18
100
AcDbEntity
  8
0
 62
     0
 48
6.0
370
    -1
100
AcDbLine
 10
3044.999986828538
 20
2257.96116680869
 30
0.0
 11
3044.999986828538
 21
2137.96116680869
 31
0.0
  0
LINE
  5
3F9C
330
18
100
AcDbEntity
  8
0
 62
     0
 48
6.0
370
    -1
100
AcDbLine
 10
3034.999986828538
 20
2187.96116680869
 30
0.0
 11
3044.999986828538
 21
2187.96116680869
 31
0.0
  0
LINE
  5
3F9D
330
18
100
AcDbEntity
  8
0
 62
     0
 48
6.0
370
    -1
100
AcDbLine
 10
2969.999986828538
 20
2257.96116680869
 30
0.0
 11
2969.999986828538
 21
2297.96116680869
 31
0.0
  0
LINE
  5
3F9F
330
18
100
AcDbEntity
  8
0
 62
     0
 48
6.0
370
    -1
100
AcDbLine
 10
3169.999986828538
 20
2317.96116680869
 30
0.0
 11
3169.999986828538
 21
2297.96116680869
 31
0.0
  0
LINE
  5
3FA0
330
18
100
AcDbEntity
  8
0
 62
     0
 48
6.0
370
    -1
100
AcDbLine
 10
3159.999986828538
 20
2317.96116680869
 30
0.0
 11
3159.999986828538
 21
2297.96116680869
 31
0.0
  0
LINE
  5
3FA1
330
18
100
AcDbEntity
  8
0
 62
     0
 48
6.0
370
    -1
100
AcDbLine
 10
3149.999986828538
 20
2297.96116680869
 30
0.0
 11
3149.999986828538
 21
2317.96116680869
 31
0.0
  0
LINE
  5
3FA3
330
18
100
AcDbEntity
  8
0
 62
     0
 48
6.0
370
    -1
100
AcDbLine
 10
3229.999986828538
 20
2317.96116680869
 30
0.0
 11
3229.999986828538
 21
2297.96116680869
 31
0.0
  0
LINE
  5
3FA4
330
18
100
AcDbEntity
  8
0
 62
     0
 48
6.0
370
    -1
100
AcDbLine
 10
3219.999986828538
 20
2317.96116680869
 30
0.0
 11
3219.999986828538
 21
2297.96116680869
 31
0.0
  0
LINE
  5
3FA5
330
18
100
AcDbEntity
  8
0
 62
     0
 48
6.0
370
    -1
100
AcDbLine
 10
3209.999986828538
 20
2317.96116680869
 30
0.0
 11
3209.999986828538
 21
2297.96116680869
 31
0.0
  0
LINE
  5
3FA6
330
18
100
AcDbEntity
  8
0
 62
     0
 48
6.0
370
    -1
100
AcDbLine
 10
3199.999986828538
 20
2317.96116680869
 30
0.0
 11
3199.999986828538
 21
2297.96116680869
 31
0.0
  0
LINE
  5
3FA7
330
18
100
AcDbEntity
  8
0
 62
     0
 48
6.0
370
    -1
100
AcDbLine
 10
3189.999986828538
 20
2317.96116680869
 30
0.0
 11
3189.999986828538
 21
2297.96116680869
 31
0.0
  0
LINE
  5
3FA8
330
18
100
AcDbEntity
  8
0
 62
     0
 48
6.0
370
    -1
100
AcDbLine
 10
3179.999986828538
 20
2317.96116680869
 30
0.0
 11
3179.999986828538
 21
2297.96116680869
 31
0.0
  0
LINE
  5
3FA9
330
18
100
AcDbEntity
  8
0
 62
     0
 48
6.0
370
    -1
100
AcDbLine
 10
3239.999986828538
 20
2317.96116680869
 30
0.0
 11
3239.999986828538
 21
2297.96116680869
 31
0.0
  0
LINE
  5
3FAA
330
18
100
AcDbEntity
  8
0
 62
     0
 48
6.0
370
    -1
100
AcDbLine
 10
3249.999986828538
 20
2317.96116680869
 30
0.0
 11
3249.999986828538
 21
2297.96116680869
 31
0.0
  0
LINE
  5
3FB7
330
18
100
AcDbEntity
  8
0
 62
     0
 48
6.0
370
    -1
100
AcDbLine
 10
3754.999986828538
 20
2257.96116680869
 30
0.0
 11
3754.999986828538
 21
2077.96116680869
 31
0.0
  0
LINE
  5
3FB8
330
18
100
AcDbEntity
  8
0
 62
     0
 48
6.0
370
    -1
100
AcDbLine
 10
3834.999986828538
 20
2257.96116680869
 30
0.0
 11
3834.999986828538
 21
2077.96116680869
 31
0.0
  0
LINE
  5
3FB9
330
18
100
AcDbEntity
  8
0
 62
     0
 48
6.0
370
    -1
100
AcDbLine
 10
3834.999986828538
 20
2187.96116680869
 30
0.0
 11
3844.999986828538
 21
2187.96116680869
 31
0.0
  0
LINE
  5
3FCD
330
18
100
AcDbEntity
  8
0
 62
     0
 48
6.0
370
    -1
100
AcDbLine
 10
3909.999986828538
 20
2297.96116680869
 30
0.0
 11
3909.999986828538
 21
2257.96116680869
 31
0.0
  0
LINE
  5
4132
330
18
100
AcDbEntity
  8
0
 62
     0
 48
6.0
370
    -1
100
AcDbLine
 10
3728.591466677914
 20
2317.96116680869
 30
0.0
 11
3628.591466677914
 21
2317.96116680869
 31
0.0
  0
LINE
  5
4133
330
18
100
AcDbEntity
  8
0
 62
     0
 48
6.0
370
    -1
100
AcDbLine
 10
3698.591466677914
 20
2317.96116680869
 30
0.0
 11
3698.591466677914
 21
2297.96116680869
 31
0.0
  0
LINE
  5
4134
330
18
100
AcDbEntity
  8
0
 62
     0
 48
6.0
370
    -1
100
AcDbLine
 10
3688.591466677914
 20
2317.96116680869
 30
0.0
 11
3688.591466677914
 21
2297.96116680869
 31
0.0
  0
LINE
  5
4135
330
18
100
AcDbEntity
  8
0
 62
     0
 48
6.0
370
    -1
100
AcDbLine
 10
3678.591466677914
 20
2317.96116680869
 30
0.0
 11
3678.591466677914
 21
2297.96116680869
 31
0.0
  0
LINE
  5
4136
330
18
100
AcDbEntity
  8
0
 62
     0
 48
6.0
370
    -1
100
AcDbLine
 10
3728.591466677914
 20
2297.96116680869
 30
0.0
 11
3728.591466677914
 21
2317.96116680869
 31
0.0
  0
LINE
  5
4137
330
18
100
AcDbEntity
  8
0
 62
     0
 48
6.0
370
    -1
100
AcDbLine
 10
3718.591466677914
 20
2317.96116680869
 30
0.0
 11
3718.591466677914
 21
2297.96116680869
 31
0.0
  0
LINE
  5
4138
330
18
100
AcDbEntity
  8
0
 62
     0
 48
6.0
370
    -1
100
AcDbLine
 10
3708.591466677914
 20
2317.96116680869
 30
0.0
 11
3708.591466677914
 21
2297.96116680869
 31
0.0
  0
LINE
  5
4139
330
18
100
AcDbEntity
  8
0
 62
     0
 48
6.0
370
    -1
100
AcDbLine
 10
3728.591466677914
 20
2317.96116680869
 30
0.0
 11
3678.591466677914
 21
2317.96116680869
 31
0.0
  0
LINE
  5
413A
330
18
100
AcDbEntity
  8
0
 62
     0
 48
6.0
370
    -1
100
AcDbLine
 10
3628.591466677914
 20
2317.96116680869
 30
0.0
 11
3628.591466677914
 21
2297.96116680869
 31
0.0
  0
LINE
  5
413B
330
18
100
AcDbEntity
  8
0
 62
     0
 48
6.0
370
    -1
100
AcDbLine
 10
3638.591466677914
 20
2317.96116680869
 30
0.0
 11
3638.591466677914
 21
2297.96116680869
 31
0.0
  0
LINE
  5
413C
330
18
100
AcDbEntity
  8
0
 62
     0
 48
6.0
370
    -1
100
AcDbLine
 10
3668.591466677914
 20
2317.96116680869
 30
0.0
 11
3668.591466677914
 21
2297.96116680869
 31
0.0
  0
LINE
  5
413D
330
18
100
AcDbEntity
  8
0
 62
     0
 48
6.0
370
    -1
100
AcDbLine
 10
3658.591466677914
 20
2317.96116680869
 30
0.0
 11
3658.591466677914
 21
2297.96116680869
 31
0.0
  0
LINE
  5
413E
330
18
100
AcDbEntity
  8
0
 62
     0
 48
6.0
370
    -1
100
AcDbLine
 10
3648.591466677914
 20
2317.96116680869
 30
0.0
 11
3648.591466677914
 21
2297.96116680869
 31
0.0
  0
ENDSEC
  0
SECTION
  2
OBJECTS
  0
DICTIONARY
  5
C
330
0
100
AcDbDictionary
281
     1
  3
ACAD_GROUP
350
D
  3
ACAD_LAYOUT
350
43EB
  3
ACAD_MLINESTYLE
350
1B
  3
ACAD_PLOTSETTINGS
350
43EC
  3
ACAD_PLOTSTYLENAME
350
43E5
  3
ACAD_SCALELIST
350
456A
  3
ACDBVARIABLEDICTIONARY
350
1827
  3
APPDATA
350
4591
  3
DRAWINGVARIABLESDICT
350
2623
  3
DWGPROPS
350
4592
  0
DICTIONARY
  5
D
102
{ACAD_REACTORS
330
C
102
}
330
C
100
AcDbDictionary
281
     1
  0
DICTIONARY
  5
43EB
102
{ACAD_REACTORS
330
C
102
}
330
C
100
AcDbDictionary
281
     1
  3
Model
350
43ED
  3
レイアウト1
350
43EE
  0
DICTIONARY
  5
1B
102
{ACAD_REACTORS
330
C
102
}
330
C
100
AcDbDictionary
281
     1
  3
STANDARD
350
1C
  0
DICTIONARY
  5
43EC
102
{ACAD_REACTORS
330
C
102
}
330
C
100
AcDbDictionary
281
     1
  0
ACDBDICTIONARYWDFLT
  5
43E5
102
{ACAD_REACTORS
330
C
102
}
330
C
100
AcDbDictionary
281
     1
  3
Normal
350
43E6
100
AcDbDictionaryWithDefault
340
43E6
  0
DICTIONARY
  5
456A
102
{ACAD_REACTORS
330
C
102
}
330
C
100
AcDbDictionary
281
     1
  3
A0
350
456B
  3
A1
350
456C
  3
A2
350
456D
  3
A3
350
456E
  3
A4
350
456F
  3
A5
350
4570
  3
A6
350
4571
  3
A7
350
4572
  3
A8
350
4573
  3
A9
350
4574
  3
B0
350
4575
  3
B1
350
4576
  3
B2
350
4577
  3
B3
350
4578
  3
B4
350
4579
  3
B5
350
457A
  3
B6
350
457B
  3
B7
350
457C
  3
B8
350
457D
  3
B9
350
457E
  3
C0
350
457F
  3
C1
350
4580
  3
C2
350
4581
  3
C3
350
4582
  3
C4
350
4583
  3
C5
350
4584
  3
C6
350
4585
  3
C7
350
4586
  3
C8
350
4587
  3
C9
350
4588
  3
D0
350
4589
  3
D1
350
458A
  3
D2
350
458B
  0
DICTIONARY
  5
1827
102
{ACAD_REACTORS
330
C
102
}
330
C
100
AcDbDictionary
281
     1
  3
DIMASSOC
350
454F
  3
PROJECTNAME
350
4550
  3
SORTENTS
350
1828
  0
DICTIONARY
  5
4591
102
{ACAD_REACTORS
330
C
102
}
330
C
100
AcDbDictionary
281
     1
  0
DICTIONARY
  5
2623
102
{ACAD_REACTORS
330
C
102
}
330
C
100
AcDbDictionary
281
     1
1001
DRAWINGVARIABLESXDATA
1000
POLARANG
1000
0.785398163397448280000000
1000
POLARMODE
1000
1
  0
XRECORD
  5
4592
102
{ACAD_REACTORS
330
C
102
}
330
C
100
AcDbXrecord
280
     1
  1
DWGPROPS COOKIE
  2

  3

  4

  6

  7

  8
2344
  9

300
=
301
=
302
=
303
=
304
=
305
=
306
=
307
=
308
=
309
=
 40
0.0
 41
2452346.229164468
 42
2458968.247594965
  1

 90
        0
  0
LAYOUT
  5
43ED
102
{ACAD_REACTORS
330
43EB
102
}
330
43EB
100
AcDbPlotSettings
  1

  2
自動 Canon <キャノン１>（手差し） (MAIN-PC 上)
  4

  6

 40
0.0
 41
0.0
 42
0.0
 43
0.0
 44
0.0
 45
0.0
 46
0.0
 47
0.0
 48
0.0
 49
0.0
140
0.0
141
0.0
142
1.0
143
1.0
 70
  1712
 72
     0
 73
     0
 74
     0
  7

 75
     0
147
1.0
148
0.0
149
0.0
100
AcDbLayout
  1
Model
 70
     1
 71
     0
 10
0.0
 20
0.0
 11
12.0
 21
9.0
 12
0.0
 22
0.0
 32
0.0
 14
674.9999868285377
 24
957.9611668086905
 34
0.0
 15
3910.276620936569
 25
3862.066378985422
 35
0.0
146
0.0
 13
0.0
 23
0.0
 33
0.0
 16
1.0
 26
0.0
 36
0.0
 17
0.0
 27
1.0
 37
0.0
 76
     0
330
18
331
4548
  0
LAYOUT
  5
43EE
102
{ACAD_REACTORS
330
43EB
102
}
330
43EB
100
AcDbPlotSettings
  1

  2
自動 Canon <キャノン１>（手差し） (MAIN-PC 上)
  4

  6

 40
0.0
 41
0.0
 42
0.0
 43
0.0
 44
0.0
 45
0.0
 46
0.0
 47
0.0
 48
0.0
 49
0.0
140
0.0
141
0.0
142
1.0
143
1.0
 70
   688
 72
     0
 73
     0
 74
     5
  7

 75
    16
147
1.0
148
0.0
149
0.0
100
AcDbLayout
  1
レイアウト1
 70
     1
 71
     1
 10
0.0
 20
0.0
 11
420.0
 21
297.0
 12
0.0
 22
0.0
 32
0.0
 14
1.000000000000000E+20
 24
1.000000000000000E+20
 34
1.000000000000000E+20
 15
-1.000000000000000E+20
 25
-1.000000000000000E+20
 35
-1.000000000000000E+20
146
0.0
 13
0.0
 23
0.0
 33
0.0
 16
1.0
 26
0.0
 36
0.0
 17
0.0
 27
1.0
 37
0.0
 76
     0
330
15
  0
MLINESTYLE
  5
1C
102
{ACAD_REACTORS
330
1B
102
}
330
1B
100
AcDbMlineStyle
  2
STANDARD
 70
     0
  3

 62
   256
 51
90.0
 52
90.0
 71
     2
 49
0.5
 62
   256
  6
BYLAYER
 49
-0.5
 62
   256
  6
BYLAYER
  0
ACDBPLACEHOLDER
  5
43E6
102
{ACAD_REACTORS
330
43E5
102
}
330
43E5
  0
SCALE
  5
456B
102
{ACAD_REACTORS
330
456A
102
}
330
456A
100
AcDbScale
 70
     0
300
1:1
140
1.0
141
1.0
290
     1
  0
SCALE
  5
456C
102
{ACAD_REACTORS
330
456A
102
}
330
456A
100
AcDbScale
 70
     0
300
1:2
140
1.0
141
2.0
290
     0
  0
SCALE
  5
456D
102
{ACAD_REACTORS
330
456A
102
}
330
456A
100
AcDbScale
 70
     0
300
1:4
140
1.0
141
4.0
290
     0
  0
SCALE
  5
456E
102
{ACAD_REACTORS
330
456A
102
}
330
456A
100
AcDbScale
 70
     0
300
1:5
140
1.0
141
5.0
290
     0
  0
SCALE
  5
456F
102
{ACAD_REACTORS
330
456A
102
}
330
456A
100
AcDbScale
 70
     0
300
1:8
140
1.0
141
8.0
290
     0
  0
SCALE
  5
4570
102
{ACAD_REACTORS
330
456A
102
}
330
456A
100
AcDbScale
 70
     0
300
1:10
140
1.0
141
10.0
290
     0
  0
SCALE
  5
4571
102
{ACAD_REACTORS
330
456A
102
}
330
456A
100
AcDbScale
 70
     0
300
1:16
140
1.0
141
16.0
290
     0
  0
SCALE
  5
4572
102
{ACAD_REACTORS
330
456A
102
}
330
456A
100
AcDbScale
 70
     0
300
1:20
140
1.0
141
20.0
290
     0
  0
SCALE
  5
4573
102
{ACAD_REACTORS
330
456A
102
}
330
456A
100
AcDbScale
 70
     0
300
1:30
140
1.0
141
30.0
290
     0
  0
SCALE
  5
4574
102
{ACAD_REACTORS
330
456A
102
}
330
456A
100
AcDbScale
 70
     0
300
1:40
140
1.0
141
40.0
290
     0
  0
SCALE
  5
4575
102
{ACAD_REACTORS
330
456A
102
}
330
456A
100
AcDbScale
 70
     0
300
1:50
140
1.0
141
50.0
290
     0
  0
SCALE
  5
4576
102
{ACAD_REACTORS
330
456A
102
}
330
456A
100
AcDbScale
 70
     0
300
1:100
140
1.0
141
100.0
290
     0
  0
SCALE
  5
4577
102
{ACAD_REACTORS
330
456A
102
}
330
456A
100
AcDbScale
 70
     0
300
2:1
140
2.0
141
1.0
290
     0
  0
SCALE
  5
4578
102
{ACAD_REACTORS
330
456A
102
}
330
456A
100
AcDbScale
 70
     0
300
4:1
140
4.0
141
1.0
290
     0
  0
SCALE
  5
4579
102
{ACAD_REACTORS
330
456A
102
}
330
456A
100
AcDbScale
 70
     0
300
8:1
140
8.0
141
1.0
290
     0
  0
SCALE
  5
457A
102
{ACAD_REACTORS
330
456A
102
}
330
456A
100
AcDbScale
 70
     0
300
10:1
140
10.0
141
1.0
290
     0
  0
SCALE
  5
457B
102
{ACAD_REACTORS
330
456A
102
}
330
456A
100
AcDbScale
 70
     0
300
100:1
140
100.0
141
1.0
290
     0
  0
SCALE
  5
457C
102
{ACAD_REACTORS
330
456A
102
}
330
456A
100
AcDbScale
 70
     0
300
1/128" = 1'-0"
140
0.0078125
141
12.0
290
     0
  0
SCALE
  5
457D
102
{ACAD_REACTORS
330
456A
102
}
330
456A
100
AcDbScale
 70
     0
300
1/64" = 1'-0"
140
0.015625
141
12.0
290
     0
  0
SCALE
  5
457E
102
{ACAD_REACTORS
330
456A
102
}
330
456A
100
AcDbScale
 70
     0
300
1/32" = 1'-0"
140
0.03125
141
12.0
290
     0
  0
SCALE
  5
457F
102
{ACAD_REACTORS
330
456A
102
}
330
456A
100
AcDbScale
 70
     0
300
1/16" = 1'-0"
140
0.0625
141
12.0
290
     0
  0
SCALE
  5
4580
102
{ACAD_REACTORS
330
456A
102
}
330
456A
100
AcDbScale
 70
     0
300
3/32" = 1'-0"
140
0.09375
141
12.0
290
     0
  0
SCALE
  5
4581
102
{ACAD_REACTORS
330
456A
102
}
330
456A
100
AcDbScale
 70
     0
300
1/8" = 1'-0"
140
0.125
141
12.0
290
     0
  0
SCALE
  5
4582
102
{ACAD_REACTORS
330
456A
102
}
330
456A
100
AcDbScale
 70
     0
300
3/16" = 1'-0"
140
0.1875
141
12.0
290
     0
  0
SCALE
  5
4583
102
{ACAD_REACTORS
330
456A
102
}
330
456A
100
AcDbScale
 70
     0
300
1/4" = 1'-0"
140
0.25
141
12.0
290
     0
  0
SCALE
  5
4584
102
{ACAD_REACTORS
330
456A
102
}
330
456A
100
AcDbScale
 70
     0
300
3/8" = 1'-0"
140
0.375
141
12.0
290
     0
  0
SCALE
  5
4585
102
{ACAD_REACTORS
330
456A
102
}
330
456A
100
AcDbScale
 70
     0
300
1/2" = 1'-0"
140
0.5
141
12.0
290
     0
  0
SCALE
  5
4586
102
{ACAD_REACTORS
330
456A
102
}
330
456A
100
AcDbScale
 70
     0
300
3/4" = 1'-0"
140
0.75
141
12.0
290
     0
  0
SCALE
  5
4587
102
{ACAD_REACTORS
330
456A
102
}
330
456A
100
AcDbScale
 70
     0
300
1" = 1'-0"
140
1.0
141
12.0
290
     0
  0
SCALE
  5
4588
102
{ACAD_REACTORS
330
456A
102
}
330
456A
100
AcDbScale
 70
     0
300
1-1/2" = 1'-0"
140
1.5
141
12.0
290
     0
  0
SCALE
  5
4589
102
{ACAD_REACTORS
330
456A
102
}
330
456A
100
AcDbScale
 70
     0
300
3" = 1'-0"
140
3.0
141
12.0
290
     0
  0
SCALE
  5
458A
102
{ACAD_REACTORS
330
456A
102
}
330
456A
100
AcDbScale
 70
     0
300
6" = 1'-0"
140
6.0
141
12.0
290
     0
  0
SCALE
  5
458B
102
{ACAD_REACTORS
330
456A
102
}
330
456A
100
AcDbScale
 70
     0
300
1'-0" = 1'-0"
140
12.0
141
12.0
290
     0
  0
DICTIONARYVAR
  5
454F
102
{ACAD_REACTORS
330
1827
102
}
330
1827
100
DictionaryVariables
280
     0
  1
1
  0
DICTIONARYVAR
  5
4550
102
{ACAD_REACTORS
330
1827
102
}
330
1827
100
DictionaryVariables
280
     0
  1

  0
DICTIONARYVAR
  5
1828
102
{ACAD_REACTORS
330
1827
102
}
330
1827
100
DictionaryVariables
280
     0
  1
96
  0
ENDSEC
  0
EOF
