  0
SECTION
  2
HEADER
  9
$ACADVER
  1
AC1015
  9
$ACADMAINTVER
 70
     6
  9
$DWGCODEPAGE
  3
ANSI_932
  9
$INSBASE
 10
0.0
 20
0.0
 30
0.0
  9
$EXTMIN
 10
607.3021942334622
 20
941.252715401055
 30
0.0
  9
$EXTMAX
 10
2476.609947455372
 20
2262.467979872034
 30
0.0
  9
$LIMMIN
 10
0.0
 20
0.0
  9
$LIMMAX
 10
4200.0
 20
2970.0
  9
$ORTHOMODE
 70
     1
  9
$REGENMODE
 70
     1
  9
$FILLMODE
 70
     1
  9
$QTEXTMODE
 70
     0
  9
$MIRRTEXT
 70
     1
  9
$LTSCALE
 40
3.0
  9
$ATTMODE
 70
     1
  9
$TEXTSIZE
 40
30.0
  9
$TRACEWID
 40
1.0
  9
$TEXTSTYLE
  7
Standard
  9
$CLAYER
  8
01注記寸法
  9
$CELTYPE
  6
ByLayer
  9
$CECOLOR
 62
   256
  9
$CELTSCALE
 40
1.0
  9
$DISPSILH
 70
     0
  9
$DIMSCALE
 40
10.0
  9
$DIMASZ
 40
3.0
  9
$DIMEXO
 40
1.5
  9
$DIMDLI
 40
10.0
  9
$DIMRND
 40
0.0
  9
$DIMDLE
 40
0.0
  9
$DIMEXE
 40
1.0
  9
$DIMTP
 40
0.0
  9
$DIMTM
 40
0.0
  9
$DIMTXT
 40
3.0
  9
$DIMCEN
 40
1.5
  9
$DIMTSZ
 40
0.0
  9
$DIMTOL
 70
     0
  9
$DIMLIM
 70
     0
  9
$DIMTIH
 70
     0
  9
$DIMTOH
 70
     0
  9
$DIMSE1
 70
     0
  9
$DIMSE2
 70
     0
  9
$DIMTAD
 70
     1
  9
$DIMZIN
 70
     8
  9
$DIMBLK
  1
Open
  9
$DIMASO
 70
     1
  9
$DIMSHO
 70
     1
  9
$DIMPOST
  1

  9
$DIMAPOST
  1

  9
$DIMALT
 70
     0
  9
$DIMALTD
 70
     3
  9
$DIMALTF
 40
0.03937007874016
  9
$DIMLFAC
 40
1.0
  9
$DIMTOFL
 70
     1
  9
$DIMTVP
 40
0.0
  9
$DIMTIX
 70
     0
  9
$DIMSOXD
 70
     0
  9
$DIMSAH
 70
     0
  9
$DIMBLK1
  1

  9
$DIMBLK2
  1

  9
$DIMSTYLE
  2
NEMY-10
  9
$DIMCLRD
 70
     0
  9
$DIMCLRE
 70
     0
  9
$DIMCLRT
 70
     0
  9
$DIMTFAC
 40
1.0
  9
$DIMGAP
 40
1.0
  9
$DIMJUST
 70
     0
  9
$DIMSD1
 70
     0
  9
$DIMSD2
 70
     0
  9
$DIMTOLJ
 70
     0
  9
$DIMTZIN
 70
     8
  9
$DIMALTZ
 70
     0
  9
$DIMALTTZ
 70
     0
  9
$DIMUPT
 70
     0
  9
$DIMDEC
 70
     1
  9
$DIMTDEC
 70
     1
  9
$DIMALTU
 70
     2
  9
$DIMALTTD
 70
     3
  9
$DIMTXSTY
  7
Standard
  9
$DIMAUNIT
 70
     0
  9
$DIMADEC
 70
     0
  9
$DIMALTRND
 40
0.0
  9
$DIMAZIN
 70
     0
  9
$DIMDSEP
 70
    46
  9
$DIMATFIT
 70
     3
  9
$DIMFRAC
 70
     0
  9
$DIMLDRBLK
  1
Open
  9
$DIMLUNIT
 70
     2
  9
$DIMLWD
 70
    -2
  9
$DIMLWE
 70
    -2
  9
$DIMTMOVE
 70
     0
  9
$LUNITS
 70
     2
  9
$LUPREC
 70
     4
  9
$SKETCHINC
 40
1.0
  9
$FILLETRAD
 40
15.0
  9
$AUNITS
 70
     0
  9
$AUPREC
 70
     0
  9
$MENU
  1
.
  9
$ELEVATION
 40
0.0
  9
$PELEVATION
 40
0.0
  9
$THICKNESS
 40
0.0
  9
$LIMCHECK
 70
     0
  9
$CHAMFERA
 40
5.0
  9
$CHAMFERB
 40
5.0
  9
$CHAMFERC
 40
20.0
  9
$CHAMFERD
 40
0.0
  9
$SKPOLY
 70
     0
  9
$TDCREATE
 40
2455859.405048461
  9
$TDUCREATE
 40
2455859.030048461
  9
$TDUPDATE
 40
2459031.594347106
  9
$TDUUPDATE
 40
2459031.219347106
  9
$TDINDWG
 40
0.9426772338
  9
$TDUSRTIMER
 40
0.0004550579
  9
$USRTIMER
 70
     1
  9
$ANGBASE
 50
0.0
  9
$ANGDIR
 70
     0
  9
$PDMODE
 70
     0
  9
$PDSIZE
 40
0.0
  9
$PLINEWID
 40
0.0
  9
$SPLFRAME
 70
     0
  9
$SPLINETYPE
 70
     6
  9
$SPLINESEGS
 70
     8
  9
$HANDSEED
  5
11AE5
  9
$SURFTAB1
 70
     6
  9
$SURFTAB2
 70
     6
  9
$SURFTYPE
 70
     6
  9
$SURFU
 70
     6
  9
$SURFV
 70
     6
  9
$UCSBASE
  2

  9
$UCSNAME
  2

  9
$UCSORG
 10
0.0
 20
0.0
 30
0.0
  9
$UCSXDIR
 10
1.0
 20
0.0
 30
0.0
  9
$UCSYDIR
 10
0.0
 20
1.0
 30
0.0
  9
$UCSORTHOREF
  2

  9
$UCSORTHOVIEW
 70
     0
  9
$UCSORGTOP
 10
0.0
 20
0.0
 30
0.0
  9
$UCSORGBOTTOM
 10
0.0
 20
0.0
 30
0.0
  9
$UCSORGLEFT
 10
0.0
 20
0.0
 30
0.0
  9
$UCSORGRIGHT
 10
0.0
 20
0.0
 30
0.0
  9
$UCSORGFRONT
 10
0.0
 20
0.0
 30
0.0
  9
$UCSORGBACK
 10
0.0
 20
0.0
 30
0.0
  9
$PUCSBASE
  2

  9
$PUCSNAME
  2

  9
$PUCSORG
 10
0.0
 20
0.0
 30
0.0
  9
$PUCSXDIR
 10
1.0
 20
0.0
 30
0.0
  9
$PUCSYDIR
 10
0.0
 20
1.0
 30
0.0
  9
$PUCSORTHOREF
  2

  9
$PUCSORTHOVIEW
 70
     0
  9
$PUCSORGTOP
 10
0.0
 20
0.0
 30
0.0
  9
$PUCSORGBOTTOM
 10
0.0
 20
0.0
 30
0.0
  9
$PUCSORGLEFT
 10
0.0
 20
0.0
 30
0.0
  9
$PUCSORGRIGHT
 10
0.0
 20
0.0
 30
0.0
  9
$PUCSORGFRONT
 10
0.0
 20
0.0
 30
0.0
  9
$PUCSORGBACK
 10
0.0
 20
0.0
 30
0.0
  9
$USERI1
 70
     0
  9
$USERI2
 70
     0
  9
$USERI3
 70
     0
  9
$USERI4
 70
     0
  9
$USERI5
 70
     0
  9
$USERR1
 40
0.0
  9
$USERR2
 40
0.0
  9
$USERR3
 40
0.0
  9
$USERR4
 40
0.0
  9
$USERR5
 40
0.0
  9
$WORLDVIEW
 70
     1
  9
$SHADEDGE
 70
     3
  9
$SHADEDIF
 70
    70
  9
$TILEMODE
 70
     1
  9
$MAXACTVP
 70
    64
  9
$PINSBASE
 10
0.0
 20
0.0
 30
0.0
  9
$PLIMCHECK
 70
     0
  9
$PEXTMIN
 10
1.000000000000000E+20
 20
1.000000000000000E+20
 30
1.000000000000000E+20
  9
$PEXTMAX
 10
-1.000000000000000E+20
 20
-1.000000000000000E+20
 30
-1.000000000000000E+20
  9
$PLIMMIN
 10
-7.5
 20
-20.0
  9
$PLIMMAX
 10
412.5
 20
277.0
  9
$UNITMODE
 70
     0
  9
$VISRETAIN
 70
     1
  9
$PLINEGEN
 70
     0
  9
$PSLTSCALE
 70
     1
  9
$TREEDEPTH
 70
  3020
  9
$CMLSTYLE
  2
Standard
  9
$CMLJUST
 70
     0
  9
$CMLSCALE
 40
20.0
  9
$PROXYGRAPHICS
 70
     1
  9
$MEASUREMENT
 70
     1
  9
$CELWEIGHT
370
    -1
  9
$ENDCAPS
280
     0
  9
$JOINSTYLE
280
     0
  9
$LWDISPLAY
290
     0
  9
$INSUNITS
 70
     4
  9
$HYPERLINKBASE
  1

  9
$STYLESHEET
  1
monochrome.ctb
  9
$XEDIT
290
     1
  9
$CEPSNTYPE
380
     0
  9
$PSTYLEMODE
290
     1
  9
$FINGERPRINTGUID
  2
{FDEAD578-A652-11D2-9A35-0060089B3A3F}
  9
$VERSIONGUID
  2
{11DB8456-EC16-47A0-BA21-BBDA07550E8A}
  9
$EXTNAMES
290
     1
  9
$PSVPSCALE
 40
0.0
  9
$OLESTARTUP
290
     0
  0
ENDSEC
  0
SECTION
  2
CLASSES
  0
CLASS
  1
ACDBDICTIONARYWDFLT
  2
AcDbDictionaryWithDefault
  3
ObjectDBX Classes
 90
        0
280
     0
281
     0
  0
CLASS
  1
ACDBPLACEHOLDER
  2
AcDbPlaceHolder
  3
ObjectDBX Classes
 90
        0
280
     0
281
     0
  0
CLASS
  1
LAYOUT
  2
AcDbLayout
  3
ObjectDBX Classes
 90
        0
280
     0
281
     0
  0
CLASS
  1
DICTIONARYVAR
  2
AcDbDictionaryVar
  3
ObjectDBX Classes
 90
        0
280
     0
281
     0
  0
CLASS
  1
SCALE
  2
AcDbScale
  3
ObjectDBX Classes
 90
     1153
280
     0
281
     0
  0
CLASS
  1
MATERIAL
  2
AcDbMaterial
  3
ObjectDBX Classes
 90
     1153
280
     0
281
     0
  0
CLASS
  1
VISUALSTYLE
  2
AcDbVisualStyle
  3
ObjectDBX Classes
 90
     4095
280
     0
281
     0
  0
CLASS
  1
TABLESTYLE
  2
AcDbTableStyle
  3
ObjectDBX Classes
 90
     4095
280
     0
281
     0
  0
CLASS
  1
RASTERVARIABLES
  2
AcDbRasterVariables
  3
ISM
 90
        0
280
     0
281
     0
  0
CLASS
  1
SORTENTSTABLE
  2
AcDbSortentsTable
  3
ObjectDBX Classes
 90
        0
280
     0
281
     0
  0
CLASS
  1
SUN
  2
AcDbSun
  3
SCENEOE
 90
     1153
280
     0
281
     0
  0
CLASS
  1
AEC_VARS_DWG_SETUP
  2
AecDbVarsDwgSetup
  3
AecBase60
 90
      129
280
     0
281
     0
  0
CLASS
  1
AEC_DISP_REP_2D_SECTION
  2
AecDbDispRep2dSection
  3
AecBase60
 90
      129
280
     0
281
     0
  0
CLASS
  1
AEC_DISP_PROPS_2D_SECTION
  2
AecDbDispProps2dSection
  3
AecBase60
 90
      129
280
     0
281
     0
  0
CLASS
  1
AEC_DISP_REP_CLIP_VOLUME_MODEL
  2
AecDbDispRepClipVolModel
  3
AecBase60
 90
      129
280
     0
281
     0
  0
CLASS
  1
AEC_DISP_PROPS_CLIP_VOLUME
  2
AecDbDispPropsClipVol
  3
AecBase60
 90
      129
280
     0
281
     0
  0
CLASS
  1
AEC_DISP_REP_CLIP_VOLUME_PLAN
  2
AecDbDispRepClipVolPlan
  3
AecBase60
 90
      129
280
     0
281
     0
  0
CLASS
  1
AEC_DISP_REP_CLIP_VOLUME_RESULT
  2
AecDbDispRepClipVolResult
  3
AecBase60
 90
      129
280
     0
281
     0
  0
CLASS
  1
AEC_DISP_REP_CLIP_VOLUME_RESULT_SUBDIV
  2
AecDbDispRepClipVolResSubDiv
  3
AecBase60
 90
      129
280
     0
281
     0
  0
CLASS
  1
AEC_DISP_PROPS_CLIP_VOLUME_RESULT
  2
AecDbDispPropsClipVolResSubDiv
  3
AecBase60
 90
      129
280
     0
281
     0
  0
CLASS
  1
AEC_DISP_REP_DISPLAYTHEME
  2
AecDbDispRepDisplayTheme
  3
AecBase60
 90
      129
280
     0
281
     0
  0
CLASS
  1
AEC_DISP_PROPS_DISPLAYTHEME
  2
AecDbDispPropsDisplayTheme
  3
AecBase60
 90
      129
280
     0
281
     0
  0
CLASS
  1
AEC_DISP_REP_ENT_REF
  2
AecDbDispRepEntRef
  3
AecBase60
 90
      129
280
     0
281
     0
  0
CLASS
  1
AEC_DISP_PROPS_ENT_REF
  2
AecDbDispPropsEntRef
  3
AecBase60
 90
      129
280
     0
281
     0
  0
CLASS
  1
AEC_DISP_REP_LAYOUT_CURVE
  2
AecDbDispRepLayoutCurve
  3
AecBase60
 90
      129
280
     0
281
     0
  0
CLASS
  1
AEC_DISP_PROPS_LAYOUT_CURVE
  2
AecDbDispPropsLayoutCurve
  3
AecBase60
 90
      129
280
     0
281
     0
  0
CLASS
  1
AEC_DISP_REP_LAYOUT_GRID2D
  2
AecDbDispRepLayoutGrid2d
  3
AecBase60
 90
      129
280
     0
281
     0
  0
CLASS
  1
AEC_DISP_PROPS_LAYOUT_GRID2D
  2
AecDbDispPropsLayoutGrid2d
  3
AecBase60
 90
      129
280
     0
281
     0
  0
CLASS
  1
AEC_DISP_REP_LAYOUT_GRID3D
  2
AecDbDispRepLayoutGrid3d
  3
AecBase60
 90
      129
280
     0
281
     0
  0
CLASS
  1
AEC_DISP_PROPS_LAYOUT_GRID3D
  2
AecDbDispPropsLayoutGrid3d
  3
AecBase60
 90
      129
280
     0
281
     0
  0
CLASS
  1
AEC_DISP_REP_MASKBLOCK_REF
  2
AecDbDispRepMaskBlockRef
  3
AecBase60
 90
      129
280
     0
281
     0
  0
CLASS
  1
AEC_DISP_PROPS_MASKBLOCK
  2
AecDbDispPropsMaskBlock
  3
AecBase60
 90
      129
280
     0
281
     0
  0
CLASS
  1
AEC_DISP_REP_MASKBLOCK_REF_RCP
  2
AecDbDispRepMaskBlockRefRcp
  3
AecArchBase60
 90
      129
280
     0
281
     0
  0
CLASS
  1
AEC_DISP_REP_MASS_ELEM_MODEL
  2
AecDbDispRepMassElemModel
  3
AecBase60
 90
      129
280
     0
281
     0
  0
CLASS
  1
AEC_DISP_PROPS_MASS_ELEM_MODEL
  2
AecDbDispPropsMassElem
  3
AecBase60
 90
      129
280
     0
281
     0
  0
CLASS
  1
AEC_DISP_REP_MASS_ELEM_SCHEM
  2
AecDbDispRepMassElemSchem
  3
AecBase60
 90
      129
280
     0
281
     0
  0
CLASS
  1
AEC_DISPREPAECDBDISPREPMASSELEMPLAN50
  2
AecDbDispRepMassElemPlan50
  3
AecArchDACHBase60
 90
      129
280
     0
281
     0
  0
CLASS
  1
AEC_DISPROPSMASSELEMPLANCOMMON
  2
AecDbDispPropsMassElemPlanCommon
  3
AecArchDACHBase60
 90
      129
280
     0
281
     0
  0
CLASS
  1
AEC_DISPREPAECDBDISPREPMASSELEMPLAN100
  2
AecDbDispRepMassElemPlan100
  3
AecArchDACHBase60
 90
      129
280
     0
281
     0
  0
CLASS
  1
AEC_DISP_REP_MASS_ELEM_RCP
  2
AecDbDispRepMassElemRcp
  3
AecArchBase60
 90
      129
280
     0
281
     0
  0
CLASS
  1
AEC_DISP_REP_MASS_GROUP_MODEL
  2
AecDbDispRepMassGroupModel
  3
AecBase60
 90
      129
280
     0
281
     0
  0
CLASS
  1
AEC_DISP_PROPS_MASS_GROUP
  2
AecDbDispPropsMassGroup
  3
AecBase60
 90
      129
280
     0
281
     0
  0
CLASS
  1
AEC_DISP_REP_MASS_GROUP_PLAN
  2
AecDbDispRepMassGroupPlan
  3
AecBase60
 90
      129
280
     0
281
     0
  0
CLASS
  1
AEC_DISPREPAECDBDISPREPMASSGROUPPLAN50
  2
AecDbDispRepMassGroupPlan50
  3
AecArchDACHBase60
 90
      129
280
     0
281
     0
  0
CLASS
  1
AEC_DISPROPSMASSGROUPPLANCOMMON
  2
AecDbDispPropsMassGroupPlanCommon
  3
AecArchDACHBase60
 90
      129
280
     0
281
     0
  0
CLASS
  1
AEC_DISPREPAECDBDISPREPMASSGROUPPLAN100
  2
AecDbDispRepMassGroupPlan100
  3
AecArchDACHBase60
 90
      129
280
     0
281
     0
  0
CLASS
  1
AEC_DISP_REP_MASS_GROUP_RCP
  2
AecDbDispRepMassGroupRcp
  3
AecArchBase60
 90
      129
280
     0
281
     0
  0
CLASS
  1
AEC_DISP_REP_MVBLOCK_REF
  2
AecDbDispRepMvBlockRef
  3
AecBase60
 90
      129
280
     0
281
     0
  0
CLASS
  1
AEC_DISP_REP_MVBLOCK_REF_MODEL
  2
AecDbDispRepMvBlockRefModel
  3
AecBase60
 90
      129
280
     0
281
     0
  0
CLASS
  1
AEC_AECDBDISPREPMVBLOCKREFPLAN100
  2
AecDbDispRepMvBlockRefPlan100
  3
AecBase60
 90
      129
280
     0
281
     0
  0
CLASS
  1
AEC_AECDBDISPREPMVBLOCKREFPLAN50
  2
AecDbDispRepMvBlockRefPlan50
  3
AecBase60
 90
      129
280
     0
281
     0
  0
CLASS
  1
AEC_DISP_REP_POLYGON_MODEL
  2
AecDbDispRepPolygonModel
  3
AecBase60
 90
      129
280
     0
281
     0
  0
CLASS
  1
AEC_DISP_PROPS_POLYGON_MODEL
  2
AecDbDispPropsPolygonModel
  3
AecBase60
 90
      129
280
     0
281
     0
  0
CLASS
  1
AEC_DISP_REP_POLYGON_TRUECOLOUR
  2
AecDbDispRepPolygonTrueColour
  3
AecBase60
 90
      129
280
     0
281
     0
  0
CLASS
  1
AEC_DISP_PROPS_POLYGON_TRUECOLOUR
  2
AecDbDispPropsPolygonTrueColour
  3
AecBase60
 90
      129
280
     0
281
     0
  0
CLASS
  1
AEC_DISP_REP_SLICE
  2
AecDbDispRepSlice
  3
AecBase60
 90
      129
280
     0
281
     0
  0
CLASS
  1
AEC_DISP_PROPS_SLICE
  2
AecDbDispPropsSlice
  3
AecBase60
 90
      129
280
     0
281
     0
  0
CLASS
  1
AEC_DISP_REP_ANCHOR
  2
AecDbDispRepAnchor
  3
AecBase60
 90
      129
280
     0
281
     0
  0
CLASS
  1
AEC_DISP_REP_ANCHOR_ENT_TO_NODE
  2
AecDbDispRepAnchorEntToNode
  3
AecBase60
 90
      129
280
     0
281
     0
  0
CLASS
  1
AEC_DISP_PROPS_ENT
  2
AecDbDispPropsEnt
  3
AecBase60
 90
      129
280
     0
281
     0
  0
CLASS
  1
AEC_DISP_REP_MATERIAL
  2
AecDbDispRepMaterial
  3
AecBase60
 90
      129
280
     0
281
     0
  0
CLASS
  1
AEC_DISP_PROPS_MATERIAL
  2
AecDbDispPropsMaterial
  3
AecBase60
 90
      129
280
     0
281
     0
  0
CLASS
  1
AEC_DISP_REP_EDITINPLACEPROFILE
  2
AecDbDispRepEditInPlaceProfile
  3
AecBase60
 90
      129
280
     0
281
     0
  0
CLASS
  1
AEC_DISP_PROPS_EDITINPLACEPROFILE_MODEL
  2
AecDbDispPropsEditInPlaceProfile
  3
AecBase60
 90
      129
280
     0
281
     0
  0
CLASS
  1
MLEADERSTYLE
  2
AcDbMLeaderStyle
  3
ACDB_MLEADERSTYLE_CLASS
 90
     4095
280
     0
281
     0
  0
ENDSEC
  0
SECTION
  2
TABLES
  0
TABLE
  2
VPORT
  5
8
330
0
100
AcDbSymbolTable
 70
     1
  0
VPORT
  5
7A57
330
8
100
AcDbSymbolTableRecord
100
AcDbViewportTableRecord
  2
*Active
 70
     0
 10
0.0
 20
0.0
 11
1.0
 21
1.0
 12
1468.05051691646
 22
1449.548567184931
 13
0.0
 23
0.0
 14
10.0
 24
10.0
 15
10.0
 25
10.0
 16
0.0
 26
0.0
 36
1.0
 17
0.0
 27
0.0
 37
0.0
 40
2408.614103667267
 41
1.410216718266254
 42
50.0
 43
0.0
 44
0.0
 50
0.0
 51
0.0
 71
    16
 72
   100
 73
     1
 74
     2
 75
     0
 76
     0
 77
     0
 78
     0
281
     0
 65
     1
110
0.0
120
0.0
130
0.0
111
1.0
121
0.0
131
0.0
112
0.0
122
1.0
132
0.0
 79
     0
146
0.0
  0
ENDTAB
  0
TABLE
  2
LTYPE
  5
5
330
0
100
AcDbSymbolTable
 70
     7
  0
LTYPE
  5
14
330
5
100
AcDbSymbolTableRecord
100
AcDbLinetypeTableRecord
  2
ByBlock
 70
     0
  3

 72
    65
 73
     0
 40
0.0
  0
LTYPE
  5
15
330
5
100
AcDbSymbolTableRecord
100
AcDbLinetypeTableRecord
  2
ByLayer
 70
     0
  3

 72
    65
 73
     0
 40
0.0
  0
LTYPE
  5
16
330
5
100
AcDbSymbolTableRecord
100
AcDbLinetypeTableRecord
  2
Continuous
 70
     0
  3
Solid line
 72
    65
 73
     0
 40
0.0
  0
LTYPE
  5
BA
330
5
100
AcDbSymbolTableRecord
100
AcDbLinetypeTableRecord
  2
HIDDEN
 70
     0
  3
Hidden __ __ __ __ __ __ __ __ __ __ __ __ __ _
 72
    65
 73
     2
 40
9.524999999999999
 49
6.35
 74
     0
 49
-3.175
 74
     0
  0
LTYPE
  5
BB
330
5
100
AcDbSymbolTableRecord
100
AcDbLinetypeTableRecord
  2
PHANTOM
 70
     0
  3
Phantom ______  __  __  ______  __  __  ______
 72
    65
 73
     6
 40
63.5
 49
31.75
 74
     0
 49
-6.35
 74
     0
 49
6.35
 74
     0
 49
-6.35
 74
     0
 49
6.35
 74
     0
 49
-6.35
 74
     0
  0
LTYPE
  5
BC
330
5
100
AcDbSymbolTableRecord
100
AcDbLinetypeTableRecord
  2
CENTER
 70
     0
  3
Center ____ _ ____ _ ____ _ ____ _ ____ _ ____
 72
    65
 73
     4
 40
50.8
 49
31.75
 74
     0
 49
-6.35
 74
     0
 49
6.35
 74
     0
 49
-6.35
 74
     0
  0
LTYPE
  5
47C
330
5
100
AcDbSymbolTableRecord
100
AcDbLinetypeTableRecord
  2
DOT
 70
     0
  3
Dot . . . . . . . . . . . . . . . . . . . . . .
 72
    65
 73
     2
 40
6.35
 49
0.0
 74
     0
 49
-6.35
 74
     0
  0
LTYPE
  5
A953
330
5
100
AcDbSymbolTableRecord
100
AcDbLinetypeTableRecord
  2
CENTER2
 70
     0
  3
Center (.5x) ___ _ ___ _ ___ _ ___ _ ___ _ ___
 72
    65
 73
     4
 40
28.575
 49
19.05
 74
     0
 49
-3.175
 74
     0
 49
3.175
 74
     0
 49
-3.175
 74
     0
  0
LTYPE
  5
A954
330
5
100
AcDbSymbolTableRecord
100
AcDbLinetypeTableRecord
  2
HIDDEN2
 70
     0
  3
Hidden (.5x) _ _ _ _ _ _ _ _ _ _ _ _ _ _ _ _ _
 72
    65
 73
     2
 40
4.762499999999999
 49
3.175
 74
     0
 49
-1.5875
 74
     0
  0
ENDTAB
  0
TABLE
  2
LAYER
  5
2
102
{ACAD_XDICTIONARY
360
7A6F
102
}
330
0
100
AcDbSymbolTable
 70
    15
  0
LAYER
  5
10
330
2
100
AcDbSymbolTableRecord
100
AcDbLayerTableRecord
  2
0
 70
     0
 62
     7
  6
Continuous
370
    -3
390
F
  0
LAYER
  5
45
330
2
100
AcDbSymbolTableRecord
100
AcDbLayerTableRecord
  2
01注記寸法
 70
     0
 62
     7
  6
Continuous
370
     9
390
F
  0
LAYER
  5
46
330
2
100
AcDbSymbolTableRecord
100
AcDbLayerTableRecord
  2
02実線
 70
     0
 62
     2
  6
Continuous
370
    15
390
F
  0
LAYER
  5
5F
330
2
100
AcDbSymbolTableRecord
100
AcDbLayerTableRecord
  2
Defpoints
 70
     0
 62
     7
  6
Continuous
290
     0
370
    -3
390
F
  0
LAYER
  5
7E52
330
2
100
AcDbSymbolTableRecord
100
AcDbLayerTableRecord
  2
03破線
 70
     0
 62
     3
  6
HIDDEN
370
     9
390
F
  0
LAYER
  5
7E55
330
2
100
AcDbSymbolTableRecord
100
AcDbLayerTableRecord
  2
04一点鎖線
 70
     0
 62
    70
  6
CENTER
370
     9
390
F
  0
LAYER
  5
7E58
330
2
100
AcDbSymbolTableRecord
100
AcDbLayerTableRecord
  2
05二点鎖線
 70
     0
 62
   110
  6
PHANTOM
370
     9
390
F
  0
LAYER
  5
7E5B
330
2
100
AcDbSymbolTableRecord
100
AcDbLayerTableRecord
  2
06点線
 70
     0
 62
    96
  6
DOT
370
     9
390
F
  0
LAYER
  5
7E5E
330
2
100
AcDbSymbolTableRecord
100
AcDbLayerTableRecord
  2
07その他
 70
     0
 62
     6
  6
Continuous
370
     5
390
F
  0
LAYER
  5
7E60
330
2
100
AcDbSymbolTableRecord
100
AcDbLayerTableRecord
  2
08非表示
 70
     0
 62
     4
  6
Continuous
290
     0
370
     0
390
F
  0
LAYER
  5
7E62
330
2
100
AcDbSymbolTableRecord
100
AcDbLayerTableRecord
  2
09図枠
 70
     0
 62
     1
  6
Continuous
370
    30
390
F
  0
LAYER
  5
835A
330
2
100
AcDbSymbolTableRecord
100
AcDbLayerTableRecord
  2
10副資材
 70
     0
 62
    51
  6
Continuous
290
     0
370
    -3
390
F
1001
AcAecLayerStandard
1000

1000

  0
LAYER
  5
8CAC
330
2
100
AcDbSymbolTableRecord
100
AcDbLayerTableRecord
  2
11機器
 70
     0
 62
    11
  6
Continuous
290
     0
370
    -3
390
F
1001
AcAecLayerStandard
1000

1000

  0
LAYER
  5
8CB1
330
2
100
AcDbSymbolTableRecord
100
AcDbLayerTableRecord
  2
12防振架台
 70
     0
 62
   190
  6
Continuous
290
     0
370
    -3
390
F
1001
AcAecLayerStandard
1000

1000

  0
LAYER
  5
A15B
330
2
100
AcDbSymbolTableRecord
100
AcDbLayerTableRecord
  2
13製作用注記
 70
     0
 62
     5
  6
Continuous
290
     0
370
     9
390
F
1001
AcAecLayerStandard
1000

1000

  0
ENDTAB
  0
TABLE
  2
STYLE
  5
3
330
0
100
AcDbSymbolTable
 70
     3
  0
STYLE
  5
11
330
3
100
AcDbSymbolTableRecord
100
AcDbTextStyleTableRecord
  2
Standard
 70
     0
 40
0.0
 41
1.0
 50
0.0
 71
     0
 42
30.0
  3
MSGOTHIC.TTC
  4

1001
ACAD
1000
MS Gothic
1071
    32817
  0
STYLE
  5
47B
330
3
100
AcDbSymbolTableRecord
100
AcDbTextStyleTableRecord
  2

 70
     1
 40
0.0
 41
1.0
 50
0.0
 71
     0
 42
3.0
  3
ltypeshp.shx
  4

  0
STYLE
  5
10A73
330
3
100
AcDbSymbolTableRecord
100
AcDbTextStyleTableRecord
  2
STYLE1
 70
     0
 40
0.0
 41
0.9
 50
0.0
 71
     0
 42
30.0
  3
TXT.shx
  4
extfont.shx
  0
ENDTAB
  0
TABLE
  2
VIEW
  5
6
330
0
100
AcDbSymbolTable
 70
     0
  0
ENDTAB
  0
TABLE
  2
UCS
  5
7
330
0
100
AcDbSymbolTable
 70
     0
  0
ENDTAB
  0
TABLE
  2
APPID
  5
9
330
0
100
AcDbSymbolTable
 70
     9
  0
APPID
  5
12
330
9
100
AcDbSymbolTableRecord
100
AcDbRegAppTableRecord
  2
ACAD
 70
     0
  0
APPID
  5
6A9E
330
9
100
AcDbSymbolTableRecord
100
AcDbRegAppTableRecord
  2
ACAD_DSTYLE_DIMRADIAL_EXTENSION
 70
     0
  0
APPID
  5
742C
330
9
100
AcDbSymbolTableRecord
100
AcDbRegAppTableRecord
  2
ACAD_PSEXT
 70
     0
  0
APPID
  5
742D
330
9
100
AcDbSymbolTableRecord
100
AcDbRegAppTableRecord
  2
ACAD_DSTYLE_DIMJAG
 70
     0
  0
APPID
  5
742E
330
9
100
AcDbSymbolTableRecord
100
AcDbRegAppTableRecord
  2
ACAD_DSTYLE_DIMTALN
 70
     0
  0
APPID
  5
835C
330
9
100
AcDbSymbolTableRecord
100
AcDbRegAppTableRecord
  2
AcAecLayerStandard
 70
     0
  0
APPID
  5
F0B0
330
9
100
AcDbSymbolTableRecord
100
AcDbRegAppTableRecord
  2
AECBASE
 70
     0
  0
APPID
  5
F0B1
330
9
100
AcDbSymbolTableRecord
100
AcDbRegAppTableRecord
  2
AEC_2DSECTION_XDATA
 70
     0
  0
APPID
  5
F0B2
330
9
100
AcDbSymbolTableRecord
100
AcDbRegAppTableRecord
  2
AEC_MASSGROUP_XDADA
 70
     0
  0
ENDTAB
  0
TABLE
  2
DIMSTYLE
  5
A
330
0
100
AcDbSymbolTable
 70
    25
100
AcDbDimStyleTable
  0
DIMSTYLE
105
73
330
A
100
AcDbSymbolTableRecord
100
AcDbDimStyleTableRecord
  2
NEMY-1
 70
     0
 41
3.0
 42
1.5
 43
10.0
 44
1.0
 73
     0
 74
     0
 77
     1
 78
     8
140
3.0
141
1.5
143
0.03937007874016
147
1.0
171
     3
172
     1
178
     0
271
     1
272
     1
274
     3
283
     0
284
     8
340
11
341
8F
342
8F
  0
DIMSTYLE
105
4DCE
330
A
100
AcDbSymbolTableRecord
100
AcDbDimStyleTableRecord
  2
NEMY-2
 70
     0
 40
2.0
 41
3.0
 42
1.5
 43
10.0
 44
1.0
 73
     0
 74
     0
 77
     1
 78
     8
140
3.0
141
1.5
143
0.03937007874016
147
1.0
171
     3
172
     1
178
     0
271
     1
272
     1
274
     3
283
     0
284
     8
340
11
341
8F
342
8F
  0
DIMSTYLE
105
4DCF
330
A
100
AcDbSymbolTableRecord
100
AcDbDimStyleTableRecord
  2
NEMY-3
 70
     0
 40
3.0
 41
3.0
 42
1.5
 43
10.0
 44
1.0
 73
     0
 74
     0
 77
     1
 78
     8
140
3.0
141
1.5
143
0.03937007874016
147
1.0
171
     3
172
     1
178
     0
271
     1
272
     1
274
     3
283
     0
284
     8
340
11
341
8F
342
8F
  0
DIMSTYLE
105
4DD0
330
A
100
AcDbSymbolTableRecord
100
AcDbDimStyleTableRecord
  2
NEMY-5
 70
     0
 40
5.0
 41
3.0
 42
1.5
 43
10.0
 44
1.0
 73
     0
 74
     0
 77
     1
 78
     8
140
3.0
141
1.5
143
0.03937007874016
147
1.0
171
     3
172
     1
178
     0
271
     1
272
     1
274
     3
283
     0
284
     8
340
11
341
8F
342
8F
  0
DIMSTYLE
105
4DD1
330
A
100
AcDbSymbolTableRecord
100
AcDbDimStyleTableRecord
  2
NEMY-8
 70
     0
 40
8.0
 41
3.0
 42
1.5
 43
10.0
 44
1.0
 73
     0
 74
     0
 77
     1
 78
     8
140
3.0
141
1.5
143
0.03937007874016
147
1.0
171
     3
172
     1
178
     0
271
     1
272
     1
274
     3
283
     0
284
     8
340
11
341
8F
342
8F
  0
DIMSTYLE
105
4DD2
330
A
100
AcDbSymbolTableRecord
100
AcDbDimStyleTableRecord
  2
NEMY-15
 70
     0
 40
15.0
 41
3.0
 42
1.5
 43
10.0
 44
1.0
 73
     0
 74
     0
 77
     1
 78
     8
140
3.0
141
1.5
143
0.03937007874016
147
1.0
171
     3
172
     1
178
     0
271
     1
272
     1
274
     3
283
     0
284
     8
340
11
341
8F
342
8F
  0
DIMSTYLE
105
4DD3
102
{ACAD_REACTORS
102
}
330
A
100
AcDbSymbolTableRecord
100
AcDbDimStyleTableRecord
  2
NEMY-10
 70
     0
 40
10.0
 41
3.0
 42
1.5
 43
10.0
 44
1.0
 73
     0
 74
     0
 77
     1
 78
     8
140
3.0
141
1.5
143
0.03937007874016
147
1.0
171
     3
172
     1
178
     0
271
     1
272
     1
274
     3
283
     0
284
     8
340
11
341
8F
342
8F
  0
DIMSTYLE
105
4DD4
330
A
100
AcDbSymbolTableRecord
100
AcDbDimStyleTableRecord
  2
NEMY-25
 70
     0
 40
25.0
 41
3.0
 42
1.5
 43
10.0
 44
1.0
 73
     0
 74
     0
 77
     1
 78
     8
140
3.0
141
1.5
143
0.03937007874016
147
1.0
171
     3
172
     1
178
     0
271
     1
272
     1
274
     3
283
     0
284
     8
340
11
341
8F
342
8F
  0
DIMSTYLE
105
4DD5
330
A
100
AcDbSymbolTableRecord
100
AcDbDimStyleTableRecord
  2
NEMY-30
 70
     0
 40
30.0
 41
3.0
 42
1.5
 43
10.0
 44
1.0
 73
     0
 74
     0
 77
     1
 78
     8
140
3.0
141
1.5
143
0.03937007874016
147
1.0
171
     3
172
     1
178
     0
271
     1
272
     1
274
     3
283
     0
284
     8
340
11
341
8F
342
8F
  0
DIMSTYLE
105
4DD6
330
A
100
AcDbSymbolTableRecord
100
AcDbDimStyleTableRecord
  2
NEMY-50
 70
     0
 40
50.0
 41
3.0
 42
1.5
 43
10.0
 44
1.0
 73
     0
 74
     0
 77
     1
 78
     8
140
3.0
141
1.5
143
0.03937007874016
147
1.0
171
     3
172
     1
178
     0
271
     1
272
     1
274
     3
283
     0
284
     8
340
11
341
8F
342
8F
  0
DIMSTYLE
105
4E6F
330
A
100
AcDbSymbolTableRecord
100
AcDbDimStyleTableRecord
  2
NEMY-20
 70
     0
 40
20.0
 41
3.0
 42
1.5
 43
10.0
 44
1.0
 73
     0
 74
     0
 77
     1
 78
     8
140
3.0
141
1.5
143
0.03937007874016
147
1.0
171
     3
172
     1
178
     0
271
     1
272
     1
274
     3
283
     0
284
     8
340
11
341
8F
342
8F
  0
DIMSTYLE
105
4F44
330
A
100
AcDbSymbolTableRecord
100
AcDbDimStyleTableRecord
  2
NEMY-10$3
 70
     0
 40
10.0
 41
3.0
 42
1.5
 43
10.0
 44
1.0
 77
     1
 78
     8
140
3.0
141
1.5
143
0.03937007874016
147
1.0
171
     3
172
     1
178
     0
271
     1
272
     1
274
     3
283
     0
284
     8
340
11
341
8F
342
8F
  0
DIMSTYLE
105
4F45
330
A
100
AcDbSymbolTableRecord
100
AcDbDimStyleTableRecord
  2
NEMY-1$3
 70
     0
 41
3.0
 42
1.5
 43
10.0
 44
1.0
 77
     1
 78
     8
140
3.0
141
1.5
143
0.03937007874016
147
1.0
171
     3
172
     1
178
     0
271
     1
272
     1
274
     3
283
     0
284
     8
340
11
341
8F
342
8F
  0
DIMSTYLE
105
4F46
330
A
100
AcDbSymbolTableRecord
100
AcDbDimStyleTableRecord
  2
NEMY-12
 70
     0
 40
12.0
 41
3.0
 42
1.5
 43
10.0
 44
1.0
 73
     0
 74
     0
 77
     1
 78
     8
140
3.0
141
1.5
143
0.03937007874016
147
1.0
171
     3
172
     1
178
     0
271
     1
272
     1
274
     3
283
     0
284
     8
340
11
341
8F
342
8F
  0
DIMSTYLE
105
4F47
330
A
100
AcDbSymbolTableRecord
100
AcDbDimStyleTableRecord
  2
NEMY-12$3
 70
     0
 40
12.0
 41
3.0
 42
1.5
 43
10.0
 44
1.0
 77
     1
 78
     8
140
3.0
141
1.5
143
0.03937007874016
147
1.0
171
     3
172
     1
178
     0
271
     1
272
     1
274
     3
283
     0
284
     8
340
11
341
8F
342
8F
  0
DIMSTYLE
105
5E6E
330
A
100
AcDbSymbolTableRecord
100
AcDbDimStyleTableRecord
  2
NEMY-8$3
 70
     0
 40
8.0
 41
3.0
 42
1.5
 43
10.0
 44
1.0
 77
     1
 78
     8
140
3.0
141
1.5
143
0.03937007874016
147
1.0
171
     3
172
     1
178
     0
271
     1
272
     1
274
     3
283
     0
284
     8
340
11
341
8F
342
8F
  0
DIMSTYLE
105
5E6F
330
A
100
AcDbSymbolTableRecord
100
AcDbDimStyleTableRecord
  2
NEMY-50$3
 70
     0
 40
50.0
 41
3.0
 42
1.5
 43
10.0
 44
1.0
 77
     1
 78
     8
140
3.0
141
1.5
143
0.03937007874016
147
1.0
171
     3
172
     1
178
     0
271
     1
272
     1
274
     3
283
     0
284
     8
340
11
341
8F
342
8F
  0
DIMSTYLE
105
5E70
330
A
100
AcDbSymbolTableRecord
100
AcDbDimStyleTableRecord
  2
NEMY-5$3
 70
     0
 40
5.0
 41
3.0
 42
1.5
 43
10.0
 44
1.0
 77
     1
 78
     8
140
3.0
141
1.5
143
0.03937007874016
147
1.0
171
     3
172
     1
178
     0
271
     1
272
     1
274
     3
283
     0
284
     8
340
11
341
8F
342
8F
  0
DIMSTYLE
105
5E71
330
A
100
AcDbSymbolTableRecord
100
AcDbDimStyleTableRecord
  2
NEMY-30$3
 70
     0
 40
30.0
 41
3.0
 42
1.5
 43
10.0
 44
1.0
 77
     1
 78
     8
140
3.0
141
1.5
143
0.03937007874016
147
1.0
171
     3
172
     1
178
     0
271
     1
272
     1
274
     3
283
     0
284
     8
340
11
341
8F
342
8F
  0
DIMSTYLE
105
5E72
330
A
100
AcDbSymbolTableRecord
100
AcDbDimStyleTableRecord
  2
NEMY-3$3
 70
     0
 40
3.0
 41
3.0
 42
1.5
 43
10.0
 44
1.0
 77
     1
 78
     8
140
3.0
141
1.5
143
0.03937007874016
147
1.0
171
     3
172
     1
178
     0
271
     1
272
     1
274
     3
283
     0
284
     8
340
11
341
8F
342
8F
  0
DIMSTYLE
105
5E73
330
A
100
AcDbSymbolTableRecord
100
AcDbDimStyleTableRecord
  2
NEMY-25$3
 70
     0
 40
25.0
 41
3.0
 42
1.5
 43
10.0
 44
1.0
 77
     1
 78
     8
140
3.0
141
1.5
143
0.03937007874016
147
1.0
171
     3
172
     1
178
     0
271
     1
272
     1
274
     3
283
     0
284
     8
340
11
341
8F
342
8F
  0
DIMSTYLE
105
5E74
330
A
100
AcDbSymbolTableRecord
100
AcDbDimStyleTableRecord
  2
NEMY-20$3
 70
     0
 40
20.0
 41
3.0
 42
1.5
 43
10.0
 44
1.0
 77
     1
 78
     8
140
3.0
141
1.5
143
0.03937007874016
147
1.0
171
     3
172
     1
178
     0
271
     1
272
     1
274
     3
283
     0
284
     8
340
11
341
8F
342
8F
  0
DIMSTYLE
105
5E75
330
A
100
AcDbSymbolTableRecord
100
AcDbDimStyleTableRecord
  2
NEMY-2$3
 70
     0
 40
2.0
 41
3.0
 42
1.5
 43
10.0
 44
1.0
 77
     1
 78
     8
140
3.0
141
1.5
143
0.03937007874016
147
1.0
171
     3
172
     1
178
     0
271
     1
272
     1
274
     3
283
     0
284
     8
340
11
341
8F
342
8F
  0
DIMSTYLE
105
5E76
330
A
100
AcDbSymbolTableRecord
100
AcDbDimStyleTableRecord
  2
NEMY-15$3
 70
     0
 40
15.0
 41
3.0
 42
1.5
 43
10.0
 44
1.0
 77
     1
 78
     8
140
3.0
141
1.5
143
0.03937007874016
147
1.0
171
     3
172
     1
178
     0
271
     1
272
     1
274
     3
283
     0
284
     8
340
11
341
8F
342
8F
  0
DIMSTYLE
105
10A72
330
A
100
AcDbSymbolTableRecord
100
AcDbDimStyleTableRecord
  2
STANDARD-WS-10
 70
     0
 40
7.5
 41
2.5
 42
2.0
 43
3.75
 44
1.25
 73
     0
 74
     0
 77
     1
 78
     8
140
3.75
141
2.0
143
0.0394
147
1.5
171
     4
172
     1
173
     1
176
     7
177
     7
271
     2
178
   256
271
     2
272
     2
273
     8
274
     4
284
     8
340
10A73
341
8F
343
8F
344
8F
  0
ENDTAB
  0
TABLE
  2
BLOCK_RECORD
  5
1
330
0
100
AcDbSymbolTable
 70
    23
  0
BLOCK_RECORD
  5
1F
102
{ACAD_XDICTIONARY
360
969E
102
}
330
1
100
AcDbSymbolTableRecord
100
AcDbBlockTableRecord
  2
*Model_Space
340
22
  0
BLOCK_RECORD
  5
1B
330
1
100
AcDbSymbolTableRecord
100
AcDbBlockTableRecord
  2
*Paper_Space
340
1E
  0
BLOCK_RECORD
  5
8F
330
1
100
AcDbSymbolTableRecord
100
AcDbBlockTableRecord
  2
_Open
340
0
102
{BLKREFS
331
10DDE
331
10DEB
331
10DF8
331
10E05
331
10E23
331
10E3F
331
10E6B
331
10E87
331
10E94
331
10EA1
331
10DDF
331
10DEC
331
10DF9
331
10E06
331
10E24
331
10E40
331
10E6C
331
10E88
331
10E95
331
10EA2
331
10E32
331
10E4F
331
10E5E
331
10E7A
331
10EE8
331
10EF7
331
10F06
331
10E16
331
10E33
331
10E50
331
10E5F
331
10E7B
331
10EE9
331
10EF8
331
10F07
331
10E17
102
}
  0
BLOCK_RECORD
  5
82F2
330
1
100
AcDbSymbolTableRecord
100
AcDbBlockTableRecord
  2
hole-φ16
340
0
102
{BLKREFS
331
10DCE
331
10DCF
331
10DD0
331
10DD1
102
}
  0
BLOCK_RECORD
  5
101F6
102
{ACAD_XDICTIONARY
360
10227
102
}
330
1
100
AcDbSymbolTableRecord
100
AcDbBlockTableRecord
  2
1-HTB513側面短手側
340
0
102
{BLKREFS
331
0
102
}
  0
BLOCK_RECORD
  5
10DD8
330
1
100
AcDbSymbolTableRecord
100
AcDbBlockTableRecord
  2
*D889
340
0
  0
BLOCK_RECORD
  5
10DE5
330
1
100
AcDbSymbolTableRecord
100
AcDbBlockTableRecord
  2
*D890
340
0
  0
BLOCK_RECORD
  5
10DF2
330
1
100
AcDbSymbolTableRecord
100
AcDbBlockTableRecord
  2
*D891
340
0
  0
BLOCK_RECORD
  5
10DFF
330
1
100
AcDbSymbolTableRecord
100
AcDbBlockTableRecord
  2
*D892
340
0
  0
BLOCK_RECORD
  5
10E0D
330
1
100
AcDbSymbolTableRecord
100
AcDbBlockTableRecord
  2
*D893
340
0
  0
BLOCK_RECORD
  5
10E1D
330
1
100
AcDbSymbolTableRecord
100
AcDbBlockTableRecord
  2
*D894
340
0
  0
BLOCK_RECORD
  5
10E2A
330
1
100
AcDbSymbolTableRecord
100
AcDbBlockTableRecord
  2
*D895
340
0
  0
BLOCK_RECORD
  5
10E39
330
1
100
AcDbSymbolTableRecord
100
AcDbBlockTableRecord
  2
*D896
340
0
  0
BLOCK_RECORD
  5
10E47
330
1
100
AcDbSymbolTableRecord
100
AcDbBlockTableRecord
  2
*D897
340
0
  0
BLOCK_RECORD
  5
10E56
330
1
100
AcDbSymbolTableRecord
100
AcDbBlockTableRecord
  2
*D898
340
0
  0
BLOCK_RECORD
  5
10E65
330
1
100
AcDbSymbolTableRecord
100
AcDbBlockTableRecord
  2
*D899
340
0
  0
BLOCK_RECORD
  5
10E72
330
1
100
AcDbSymbolTableRecord
100
AcDbBlockTableRecord
  2
*D900
340
0
  0
BLOCK_RECORD
  5
10E81
330
1
100
AcDbSymbolTableRecord
100
AcDbBlockTableRecord
  2
*D901
340
0
  0
BLOCK_RECORD
  5
10E8E
330
1
100
AcDbSymbolTableRecord
100
AcDbBlockTableRecord
  2
*D902
340
0
  0
BLOCK_RECORD
  5
10E9B
330
1
100
AcDbSymbolTableRecord
100
AcDbBlockTableRecord
  2
*D903
340
0
  0
BLOCK_RECORD
  5
10EE0
330
1
100
AcDbSymbolTableRecord
100
AcDbBlockTableRecord
  2
*D905
340
0
  0
BLOCK_RECORD
  5
10EEF
330
1
100
AcDbSymbolTableRecord
100
AcDbBlockTableRecord
  2
*D906
340
0
  0
BLOCK_RECORD
  5
10EFE
330
1
100
AcDbSymbolTableRecord
100
AcDbBlockTableRecord
  2
*D907
340
0
  0
BLOCK_RECORD
  5
116B4
102
{ACAD_XDICTIONARY
360
116E0
102
}
330
1
100
AcDbSymbolTableRecord
100
AcDbBlockTableRecord
  2
1-HTB513平面図
340
0
102
{BLKREFS
331
0
102
}
  0
BLOCK_RECORD
  5
11753
102
{ACAD_XDICTIONARY
360
11783
102
}
330
1
100
AcDbSymbolTableRecord
100
AcDbBlockTableRecord
  2
1-HTB513側面長手側
340
0
102
{BLKREFS
331
0
102
}
  0
ENDTAB
  0
ENDSEC
  0
SECTION
  2
BLOCKS
  0
BLOCK
  5
20
330
1F
100
AcDbEntity
  8
0
100
AcDbBlockBegin
  2
*Model_Space
 70
     0
 10
0.0
 20
0.0
 30
0.0
  3
*Model_Space
  1

  0
ENDBLK
  5
21
330
1F
100
AcDbEntity
  8
0
100
AcDbBlockEnd
  0
BLOCK
  5
1C
330
1B
100
AcDbEntity
 67
     1
  8
0
100
AcDbBlockBegin
  2
*Paper_Space
 70
     0
 10
0.0
 20
0.0
 30
0.0
  3
*Paper_Space
  1

  0
ENDBLK
  5
1D
330
1B
100
AcDbEntity
 67
     1
  8
0
100
AcDbBlockEnd
  0
BLOCK
  5
93
330
8F
100
AcDbEntity
  8
0
100
AcDbBlockBegin
  2
_Open
 70
     0
 10
0.0
 20
0.0
 30
0.0
  3
_Open
  1

  0
LINE
  5
90
330
8F
100
AcDbEntity
  8
01注記寸法
 62
     0
370
    -2
100
AcDbLine
 10
-1.0
 20
0.1666666666666667
 30
0.0
 11
0.0
 21
0.0
 31
0.0
  0
LINE
  5
91
330
8F
100
AcDbEntity
  8
01注記寸法
 62
     0
370
    -2
100
AcDbLine
 10
-1.0
 20
-0.1666666666666667
 30
0.0
 11
0.0
 21
0.0
 31
0.0
  0
LINE
  5
92
330
8F
100
AcDbEntity
  8
01注記寸法
 62
     0
370
    -2
100
AcDbLine
 10
0.0
 20
0.0
 30
0.0
 11
-1.0
 21
0.0
 31
0.0
  0
ENDBLK
  5
94
330
8F
100
AcDbEntity
  8
0
100
AcDbBlockEnd
  0
BLOCK
  5
82F3
330
82F2
100
AcDbEntity
  8
0
100
AcDbBlockBegin
  2
hole-φ16
 70
     0
 10
0.0
 20
0.0
 30
0.0
  3
hole-φ16
  1

  0
CIRCLE
  5
82F4
330
82F2
100
AcDbEntity
  8
02実線
100
AcDbCircle
 10
0.0
 20
0.0
 30
0.0
 40
8.0
  0
LINE
  5
82F5
330
82F2
100
AcDbEntity
  8
04一点鎖線
  6
CENTER
 48
0.2
100
AcDbLine
 10
0.0
 20
-18.0
 30
0.0
 11
0.0
 21
18.0
 31
0.0
  0
LINE
  5
82F6
330
82F2
100
AcDbEntity
  8
04一点鎖線
  6
CENTER
 48
0.2
100
AcDbLine
 10
-18.0
 20
0.0
 30
0.0
 11
18.0
 21
0.0
 31
0.0
  0
ENDBLK
  5
82F7
330
82F2
100
AcDbEntity
  8
0
100
AcDbBlockEnd
  0
BLOCK
  5
103D3
330
101F6
100
AcDbEntity
  8
0
100
AcDbBlockBegin
  2
1-HTB513側面短手側
 70
     0
 10
0.0
 20
0.0
 30
0.0
  3
1-HTB513側面短手側
  1

  0
LINE
  5
10229
330
101F6
100
AcDbEntity
  8
08非表示
100
AcDbLine
 10
29.99999999999727
 20
42.00000000000091
 30
0.0
 11
29.99999999999682
 21
184.0000000000009
 31
0.0
  0
LINE
  5
1022A
330
101F6
100
AcDbEntity
  8
08非表示
100
AcDbLine
 10
112.9999999999663
 20
42.00000000000273
 30
0.0
 11
112.9999999999723
 21
184.0000000000009
 31
0.0
  0
LINE
  5
1022B
330
101F6
100
AcDbEntity
  8
08非表示
  6
CENTER2
100
AcDbLine
 10
94.24999999999818
 20
12.00000000000273
 30
0.0
 11
161.7499999999982
 21
12.00000000000091
 31
0.0
  0
LINE
  5
1022C
330
101F6
100
AcDbEntity
  8
08非表示
100
AcDbLine
 10
-0.0000000000154614
 20
42.00000000000091
 30
0.0
 11
-0.0000000000045475
 21
687.0000000000009
 31
0.0
  0
LINE
  5
1022D
330
101F6
100
AcDbEntity
  8
08非表示
100
AcDbLine
 10
143.0
 20
42.00000000000091
 30
0.0
 11
142.9999999999959
 21
687.0000000000009
 31
0.0
  0
LINE
  5
1022E
330
101F6
100
AcDbEntity
  8
08非表示
  6
CENTER2
100
AcDbLine
 10
-15.00000000000182
 20
0.0
 30
0.0
 11
44.99999999999864
 21
0.0
 31
0.0
  0
LINE
  5
1022F
330
101F6
100
AcDbEntity
  8
08非表示
  6
CENTER2
100
AcDbLine
 10
-15.000000000005
 20
729.0000000000009
 30
0.0
 11
44.999999999995
 21
729.0000000000009
 31
0.0
  0
LINE
  5
10230
330
101F6
100
AcDbEntity
  8
08非表示
  6
CENTER2
100
AcDbLine
 10
94.24999999999181
 20
716.9999999999991
 30
0.0
 11
161.7499999999918
 21
717.0000000000009
 31
0.0
  0
LINE
  5
10231
330
101F6
100
AcDbEntity
  8
08非表示
100
AcDbLine
 10
29.99999999999682
 20
256.0000000000009
 30
0.0
 11
29.99999999999591
 21
686.9999999999918
 31
0.0
  0
LINE
  5
10232
330
101F6
100
AcDbEntity
  8
08非表示
100
AcDbLine
 10
112.9999999999754
 20
256.0000000000009
 30
0.0
 11
112.9999999999945
 21
686.9999999999927
 31
0.0
  0
ARC
  5
10233
330
101F6
100
AcDbEntity
  8
08非表示
 48
0.5
100
AcDbCircle
 10
6.999999999983629
 20
66.99999999999045
 30
0.0
 40
4.0
100
AcDbArc
 50
90.0
 51
180.0
  0
LINE
  5
10234
330
101F6
100
AcDbEntity
  8
08非表示
 48
0.5
100
AcDbLine
 10
-0.0000000000154614
 20
73.99999999999045
 30
0.0
 11
-0.0000000000154614
 21
43.99999999999045
 31
0.0
  0
ARC
  5
10235
330
101F6
100
AcDbEntity
  8
08非表示
 48
0.5
100
AcDbCircle
 10
27.99999999998454
 20
72.99999999998954
 30
0.0
 40
2.0
100
AcDbArc
 50
270.0
 51
0.0
  0
LINE
  5
10236
330
101F6
100
AcDbEntity
  8
08非表示
 48
0.5
100
AcDbLine
 10
29.99999999998454
 20
73.99999999999045
 30
0.0
 11
29.99999999998454
 21
72.99999999998954
 31
0.0
  0
LINE
  5
10237
330
101F6
100
AcDbEntity
  8
08非表示
 48
0.5
100
AcDbLine
 10
-0.0000000000154614
 20
73.99999999999045
 30
0.0
 11
29.99999999998454
 21
73.99999999999045
 31
0.0
  0
LINE
  5
10238
330
101F6
100
AcDbEntity
  8
08非表示
 48
0.5
100
AcDbLine
 10
6.999999999983629
 20
70.99999999999045
 30
0.0
 11
27.99999999998454
 21
70.99999999999045
 31
0.0
  0
ARC
  5
10239
330
101F6
100
AcDbEntity
  8
08非表示
 48
0.5
100
AcDbCircle
 10
0.9999999999845386
 20
45.99999999999045
 30
0.0
 40
2.0
100
AcDbArc
 50
270.0
 51
0.0
  0
LINE
  5
1023A
330
101F6
100
AcDbEntity
  8
08非表示
 48
0.5
100
AcDbLine
 10
-0.0000000000154614
 20
43.99999999999045
 30
0.0
 11
0.9999999999845386
 21
43.99999999999045
 31
0.0
  0
LINE
  5
1023B
330
101F6
100
AcDbEntity
  8
08非表示
 48
0.5
100
AcDbLine
 10
2.999999999983629
 20
66.99999999999045
 30
0.0
 11
2.999999999983629
 21
45.99999999999045
 31
0.0
  0
ARC
  5
1023C
330
101F6
100
AcDbEntity
  8
08非表示
 48
0.5
100
AcDbCircle
 10
6.999999999983629
 20
662.0000000000114
 30
0.0
 40
4.0
100
AcDbArc
 50
180.0
 51
270.0
  0
LINE
  5
1023D
330
101F6
100
AcDbEntity
  8
08非表示
 48
0.5
100
AcDbLine
 10
-0.0000000000154614
 20
655.0000000000114
 30
0.0
 11
-0.0000000000154614
 21
685.0000000000114
 31
0.0
  0
ARC
  5
1023E
330
101F6
100
AcDbEntity
  8
08非表示
 48
0.5
100
AcDbCircle
 10
27.99999999998454
 20
656.0000000000123
 30
0.0
 40
2.0
100
AcDbArc
 50
0.0
 51
90.0
  0
LINE
  5
1023F
330
101F6
100
AcDbEntity
  8
08非表示
 48
0.5
100
AcDbLine
 10
29.99999999998454
 20
655.0000000000114
 30
0.0
 11
29.99999999998454
 21
656.0000000000123
 31
0.0
  0
LINE
  5
10240
330
101F6
100
AcDbEntity
  8
08非表示
 48
0.5
100
AcDbLine
 10
-0.0000000000154614
 20
655.0000000000114
 30
0.0
 11
29.99999999998454
 21
655.0000000000114
 31
0.0
  0
LINE
  5
10241
330
101F6
100
AcDbEntity
  8
08非表示
 48
0.5
100
AcDbLine
 10
6.999999999983629
 20
658.0000000000114
 30
0.0
 11
27.99999999998454
 21
658.0000000000114
 31
0.0
  0
ARC
  5
10242
330
101F6
100
AcDbEntity
  8
08非表示
 48
0.5
100
AcDbCircle
 10
0.9999999999845386
 20
683.0000000000114
 30
0.0
 40
2.0
100
AcDbArc
 50
0.0
 51
90.0
  0
LINE
  5
10243
330
101F6
100
AcDbEntity
  8
08非表示
 48
0.5
100
AcDbLine
 10
-0.0000000000154614
 20
685.0000000000114
 30
0.0
 11
0.9999999999845386
 21
685.0000000000114
 31
0.0
  0
LINE
  5
10244
330
101F6
100
AcDbEntity
  8
08非表示
 48
0.5
100
AcDbLine
 10
2.999999999983629
 20
662.0000000000114
 30
0.0
 11
2.999999999983629
 21
683.0000000000114
 31
0.0
  0
LINE
  5
10245
330
101F6
100
AcDbEntity
  8
08非表示
100
AcDbLine
 10
55.49999999999545
 20
691.5000000000009
 30
0.0
 11
55.49999999999545
 21
747.0000000000009
 31
0.0
  0
LINE
  5
10246
330
101F6
100
AcDbEntity
  8
08非表示
100
AcDbLine
 10
4.499999999995453
 20
691.5000000000009
 30
0.0
 11
55.49999999999545
 21
691.5000000000009
 31
0.0
  0
LINE
  5
10247
330
101F6
100
AcDbEntity
  8
08非表示
100
AcDbLine
 10
59.99999999999545
 20
691.5000000000009
 30
0.0
 11
59.99999999999545
 21
747.0000000000009
 31
0.0
  0
LINE
  5
10248
330
101F6
100
AcDbEntity
  8
08非表示
100
AcDbLine
 10
-0.0000000000045475
 20
747.0000000000009
 30
0.0
 11
-0.0000000000045475
 21
691.5000000000009
 31
0.0
  0
LINE
  5
10249
330
101F6
100
AcDbEntity
  8
08非表示
100
AcDbLine
 10
4.499999999995453
 20
687.0000000000009
 30
0.0
 11
55.49999999999545
 21
687.0000000000009
 31
0.0
  0
LINE
  5
1024A
330
101F6
100
AcDbEntity
  8
08非表示
100
AcDbLine
 10
13.99999999999545
 20
740.0000000000009
 30
0.0
 11
13.99999999999545
 21
702.0000000000009
 31
0.0
  0
LINE
  5
1024B
330
101F6
100
AcDbEntity
  8
08非表示
100
AcDbLine
 10
25.69999999999527
 20
700.0000000000009
 30
0.0
 11
15.99999999999545
 21
700.0000000000009
 31
0.0
  0
LINE
  5
1024C
330
101F6
100
AcDbEntity
  8
08非表示
100
AcDbLine
 10
25.69999999999527
 20
742.0000000000009
 30
0.0
 11
15.99999999999545
 21
742.0000000000009
 31
0.0
  0
LINE
  5
1024D
330
101F6
100
AcDbEntity
  8
08非表示
100
AcDbLine
 10
4.499999999995453
 20
747.0000000000009
 30
0.0
 11
4.499999999995453
 21
691.5000000000009
 31
0.0
  0
ARC
  5
1024E
330
101F6
100
AcDbEntity
  8
08非表示
100
AcDbCircle
 10
25.69999999999527
 20
702.0000000000009
 30
0.0
 40
2.0
100
AcDbArc
 50
270.0
 51
0.0
  0
ARC
  5
1024F
330
101F6
100
AcDbEntity
  8
08非表示
100
AcDbCircle
 10
15.99999999999545
 20
702.0000000000009
 30
0.0
 40
2.0
100
AcDbArc
 50
180.0
 51
270.0
  0
ARC
  5
10250
330
101F6
100
AcDbEntity
  8
08非表示
100
AcDbCircle
 10
15.99999999999545
 20
740.0000000000009
 30
0.0
 40
2.0
100
AcDbArc
 50
90.0
 51
180.0
  0
ARC
  5
10251
330
101F6
100
AcDbEntity
  8
08非表示
100
AcDbCircle
 10
25.69999999999527
 20
740.0000000000009
 30
0.0
 40
2.0
100
AcDbArc
 50
0.0
 51
90.0
  0
ARC
  5
10252
330
101F6
100
AcDbEntity
  8
08非表示
100
AcDbCircle
 10
4.499999999995453
 20
691.5000000000009
 30
0.0
 40
4.5
100
AcDbArc
 50
180.0
 51
270.0
  0
ARC
  5
10253
330
101F6
100
AcDbEntity
  8
08非表示
100
AcDbCircle
 10
55.49999999999545
 20
691.5000000000009
 30
0.0
 40
4.5
100
AcDbArc
 50
270.0
 51
0.0
  0
LINE
  5
10254
330
101F6
100
AcDbEntity
  8
08非表示
100
AcDbLine
 10
11.99999999999545
 20
692.0000000000009
 30
0.0
 11
11.99999999999545
 21
691.5000000000009
 31
0.0
  0
LINE
  5
10255
330
101F6
100
AcDbEntity
  8
08非表示
100
AcDbLine
 10
4.999999999995453
 20
699.0000000000009
 30
0.0
 11
4.999999999995453
 21
699.0000000000009
 31
0.0
  0
ARC
  5
10256
330
101F6
100
AcDbEntity
  8
08非表示
100
AcDbCircle
 10
3.10294372514727
 20
690.1029437251536
 30
0.0
 40
9.09705627484773
100
AcDbArc
 50
12.03652390106062
 51
77.96347609888348
  0
ARC
  5
10257
330
101F6
100
AcDbEntity
  8
08非表示
100
AcDbCircle
 10
54.99999999999545
 20
692.0000000000009
 30
0.0
 40
5.0
100
AcDbArc
 50
90.0
 51
180.0
  0
LINE
  5
10258
330
101F6
100
AcDbEntity
  8
08非表示
100
AcDbLine
 10
49.99999999999545
 20
692.0000000000009
 30
0.0
 11
49.99999999999545
 21
691.5000000000009
 31
0.0
  0
LINE
  5
10259
330
101F6
100
AcDbEntity
  8
08非表示
100
AcDbLine
 10
-0.0000000000045475
 20
747.0000000000009
 30
0.0
 11
59.99999999999545
 21
747.0000000000009
 31
0.0
  0
LINE
  5
1025A
330
101F6
100
AcDbEntity
  8
08非表示
  6
CENTER2
100
AcDbLine
 10
71.57399999999507
 20
722.003035593606
 30
0.0
 11
43.92599999999493
 21
722.003035593606
 31
0.0
  0
ARC
  5
1025B
330
101F6
100
AcDbEntity
  8
08非表示
100
AcDbCircle
 10
4.999999999995453
 20
704.0000000000009
 30
0.0
 40
5.0
100
AcDbArc
 50
264.2608295227331
 51
270.0
  0
ARC
  5
1025C
330
101F6
100
AcDbEntity
  8
08非表示
100
AcDbCircle
 10
54.99999999999545
 20
702.0000000000009
 30
0.0
 40
5.0
100
AcDbArc
 50
270.0
 51
275.7391704772669
  0
LINE
  5
1025D
330
101F6
100
AcDbEntity
  8
08非表示
  6
HIDDEN
100
AcDbLine
 10
59.99999999999545
 20
710.003035593606
 30
0.0
 11
55.49999999999545
 21
710.003035593606
 31
0.0
  0
LINE
  5
1025E
330
101F6
100
AcDbEntity
  8
08非表示
  6
HIDDEN
100
AcDbLine
 10
59.99999999999545
 20
734.003035593606
 30
0.0
 11
55.49999999999545
 21
734.003035593606
 31
0.0
  0
LINE
  5
1025F
330
101F6
100
AcDbEntity
  8
08非表示
100
AcDbLine
 10
55.49999999999545
 20
687.0000000000009
 30
0.0
 11
59.99999999999545
 21
687.0000000000009
 31
0.0
  0
LINE
  5
10260
330
101F6
100
AcDbEntity
  8
08非表示
100
AcDbLine
 10
-0.0000000000045475
 20
691.5000000000009
 30
0.0
 11
-0.0000000000045475
 21
687.0000000000009
 31
0.0
  0
LINE
  5
10261
330
101F6
100
AcDbEntity
  8
08非表示
100
AcDbLine
 10
4.499999999995453
 20
687.0000000000009
 30
0.0
 11
-0.0000000000045475
 21
687.0000000000009
 31
0.0
  0
LINE
  5
10262
330
101F6
100
AcDbEntity
  8
08非表示
100
AcDbLine
 10
59.99999999999545
 20
691.5000000000009
 30
0.0
 11
59.99999999999545
 21
687.0000000000009
 31
0.0
  0
ARC
  5
10263
330
101F6
100
AcDbEntity
  8
08非表示
100
AcDbCircle
 10
141.9999999999955
 20
706.5000000000009
 30
0.0
 40
1.0
100
AcDbArc
 50
270.0
 51
0.0
  0
LINE
  5
10264
330
101F6
100
AcDbEntity
  8
08非表示
100
AcDbLine
 10
114.7499999999955
 20
691.5
 30
0.0
 11
142.9999999999955
 21
691.5
 31
0.0
  0
LINE
  5
10265
330
101F6
100
AcDbEntity
  8
08非表示
100
AcDbLine
 10
112.4999999999955
 20
687.0
 30
0.0
 11
142.9999999999955
 21
687.0
 31
0.0
  0
LINE
  5
10266
330
101F6
100
AcDbEntity
  8
08非表示
100
AcDbLine
 10
130.9999999999955
 20
704.5000000000009
 30
0.0
 11
130.9999999999955
 21
692.5
 31
0.0
  0
LINE
  5
10267
330
101F6
100
AcDbEntity
  8
08非表示
100
AcDbLine
 10
142.9999999999955
 20
687.0
 30
0.0
 11
142.9999999999955
 21
691.5
 31
0.0
  0
LINE
  5
10268
330
101F6
100
AcDbEntity
  8
08非表示
100
AcDbLine
 10
131.9999999999955
 20
705.5000000000009
 30
0.0
 11
141.9999999999955
 21
705.5000000000009
 31
0.0
  0
ARC
  5
10269
330
101F6
100
AcDbEntity
  8
08非表示
100
AcDbCircle
 10
131.9999999999955
 20
704.5000000000009
 30
0.0
 40
1.0
100
AcDbArc
 50
90.0
 51
180.0
  0
ARC
  5
1026A
330
101F6
100
AcDbEntity
  8
08非表示
100
AcDbCircle
 10
112.4999999999955
 20
691.5
 30
0.0
 40
4.5
100
AcDbArc
 50
180.0
 51
270.0
  0
ARC
  5
1026B
330
101F6
100
AcDbEntity
  8
08非表示
100
AcDbCircle
 10
114.7499999999955
 20
693.75
 30
0.0
 40
2.25
100
AcDbArc
 50
180.0
 51
270.0
  0
LINE
  5
1026C
330
101F6
100
AcDbEntity
  8
08非表示
100
AcDbLine
 10
142.9999999999955
 20
706.5000000000009
 30
0.0
 11
142.9999999999955
 21
732.0000000000009
 31
0.0
  0
LINE
  5
1026D
330
101F6
100
AcDbEntity
  8
08非表示
100
AcDbLine
 10
131.9999999999955
 20
733.0000000000009
 30
0.0
 11
141.9999999999955
 21
733.0000000000009
 31
0.0
  0
ARC
  5
1026E
330
101F6
100
AcDbEntity
  8
08非表示
100
AcDbCircle
 10
141.9999999999955
 20
732.0000000000009
 30
0.0
 40
1.0
100
AcDbArc
 50
0.0
 51
90.0
  0
ARC
  5
1026F
330
101F6
100
AcDbEntity
  8
08非表示
100
AcDbCircle
 10
131.9999999999955
 20
734.0000000000009
 30
0.0
 40
1.0
100
AcDbArc
 50
180.0
 51
270.0
  0
LINE
  5
10270
330
101F6
100
AcDbEntity
  8
08非表示
  6
CENTER2
100
AcDbLine
 10
98.24999999999545
 20
722.0000000000009
 30
0.0
 11
122.2499999999955
 21
722.0000000000009
 31
0.0
  0
LINE
  5
10271
330
101F6
100
AcDbEntity
  8
08非表示
  6
HIDDEN
100
AcDbLine
 10
112.4999999999955
 20
712.0000000000009
 30
0.0
 11
107.9999999999955
 21
712.0000000000009
 31
0.0
  0
LINE
  5
10272
330
101F6
100
AcDbEntity
  8
08非表示
  6
HIDDEN
100
AcDbLine
 10
112.4999999999955
 20
732.0000000000009
 30
0.0
 11
107.9999999999955
 21
732.0000000000009
 31
0.0
  0
ARC
  5
10273
330
101F6
100
AcDbEntity
  8
08非表示
100
AcDbCircle
 10
129.9999999999955
 20
692.5
 30
0.0
 40
1.0
100
AcDbArc
 50
270.0
 51
0.0
  0
LINE
  5
10274
330
101F6
100
AcDbEntity
  8
08非表示
  6
HIDDEN2
100
AcDbLine
 10
112.9999999999955
 20
697.0
 30
0.0
 11
112.4999999999955
 21
697.0
 31
0.0
  0
LINE
  5
10275
330
101F6
100
AcDbEntity
  8
08非表示
  6
HIDDEN2
100
AcDbLine
 10
117.9999999999955
 20
692.0
 30
0.0
 11
117.9999999999955
 21
691.5
 31
0.0
  0
ARC
  5
10276
330
101F6
100
AcDbEntity
  8
08非表示
100
AcDbCircle
 10
112.9999999999955
 20
692.0
 30
0.0
 40
5.0
100
AcDbArc
 50
0.0
 51
90.0
  0
LINE
  5
10277
330
101F6
100
AcDbEntity
  8
08非表示
100
AcDbLine
 10
112.4999999999955
 20
687.0
 30
0.0
 11
107.9999999999955
 21
687.0
 31
0.0
  0
LINE
  5
10278
330
101F6
100
AcDbEntity
  8
08非表示
100
AcDbLine
 10
107.9999999999955
 20
691.5
 30
0.0
 11
107.9999999999955
 21
687.0
 31
0.0
  0
LINE
  5
10279
330
101F6
100
AcDbEntity
  8
08非表示
100
AcDbLine
 10
112.4999999999955
 20
693.75
 30
0.0
 11
112.4999999999955
 21
747.0000000000009
 31
0.0
  0
LINE
  5
1027A
330
101F6
100
AcDbEntity
  8
08非表示
100
AcDbLine
 10
107.9999999999955
 20
691.5
 30
0.0
 11
107.9999999999955
 21
747.0000000000009
 31
0.0
  0
LINE
  5
1027B
330
101F6
100
AcDbEntity
  8
08非表示
100
AcDbLine
 10
107.9999999999955
 20
691.5
 30
0.0
 11
107.9999999999955
 21
747.0000000000009
 31
0.0
  0
LINE
  5
1027C
330
101F6
100
AcDbEntity
  8
08非表示
100
AcDbLine
 10
129.9999999999955
 20
747.0000000000009
 30
0.0
 11
107.9999999999955
 21
747.0000000000009
 31
0.0
  0
LINE
  5
1027D
330
101F6
100
AcDbEntity
  8
08非表示
100
AcDbLine
 10
130.9999999999955
 20
746.0000000000009
 30
0.0
 11
130.9999999999955
 21
734.0000000000009
 31
0.0
  0
ARC
  5
1027E
330
101F6
100
AcDbEntity
  8
08非表示
100
AcDbCircle
 10
129.9999999999955
 20
746.0000000000009
 30
0.0
 40
1.0
100
AcDbArc
 50
0.0
 51
90.0
  0
LINE
  5
1027F
330
101F6
100
AcDbEntity
  8
08非表示
  6
CENTER
100
AcDbLine
 10
15.49999999999545
 20
722.0000000000009
 30
0.0
 11
140.4999999999955
 21
722.0000000000009
 31
0.0
  0
LINE
  5
10280
330
101F6
100
AcDbEntity
  8
08非表示
100
AcDbLine
 10
130.4999999999955
 20
728.0000000000009
 30
0.0
 11
130.4999999999955
 21
716.0000000000009
 31
0.0
  0
LINE
  5
10281
330
101F6
100
AcDbEntity
  8
08非表示
100
AcDbLine
 10
128.4999999999955
 20
714.0000000000009
 30
0.0
 11
128.4999999999955
 21
730.0000000000009
 31
0.0
  0
LINE
  5
10282
330
101F6
100
AcDbEntity
  8
08非表示
100
AcDbLine
 10
130.4999999999955
 20
716.0000000000009
 30
0.0
 11
128.4999999999955
 21
714.0000000000009
 31
0.0
  0
LINE
  5
10283
330
101F6
100
AcDbEntity
  8
08非表示
100
AcDbLine
 10
128.4999999999955
 20
730.0000000000009
 30
0.0
 11
130.4999999999955
 21
728.0000000000009
 31
0.0
  0
LINE
  5
10284
330
101F6
100
AcDbEntity
  8
08非表示
  6
Continuous
100
AcDbLine
 10
59.99999999999545
 20
728.9175000000005
 30
0.0
 11
78.49999999999545
 21
728.9175000000005
 31
0.0
  0
LINE
  5
10285
330
101F6
100
AcDbEntity
  8
08非表示
  6
Continuous
100
AcDbLine
 10
59.99999999999545
 20
715.0825000000013
 30
0.0
 11
78.49999999999545
 21
715.0825000000013
 31
0.0
  0
LINE
  5
10286
330
101F6
100
AcDbEntity
  8
08非表示
100
AcDbLine
 10
59.99999999999545
 20
730.0000000000009
 30
0.0
 11
78.49999999999545
 21
730.0000000000009
 31
0.0
  0
LINE
  5
10287
330
101F6
100
AcDbEntity
  8
08非表示
100
AcDbLine
 10
78.49999999999545
 20
714.0000000000018
 30
0.0
 11
59.99999999999545
 21
714.0000000000018
 31
0.0
  0
LINE
  5
10288
330
101F6
100
AcDbEntity
  8
08非表示
100
AcDbLine
 10
27.69999999999527
 20
708.1530355936056
 30
0.0
 11
27.69999999999527
 21
702.0000000000009
 31
0.0
  0
LINE
  5
10289
330
101F6
100
AcDbEntity
  8
08非表示
100
AcDbLine
 10
27.69999999999527
 20
740.0000000000009
 30
0.0
 11
27.69999999999527
 21
735.8530355936055
 31
0.0
  0
ARC
  5
1028A
330
101F6
100
AcDbEntity
  8
08非表示
100
AcDbCircle
 10
138.3999999999955
 20
742.4000000000005
 30
0.0
 40
2.300000000000001
100
AcDbArc
 50
0.0
 51
90.0
  0
LINE
  5
1028B
330
101F6
100
AcDbEntity
  8
08非表示
100
AcDbLine
 10
130.9999999999955
 20
744.7000000000007
 30
0.0
 11
138.3999999999955
 21
744.7000000000007
 31
0.0
  0
LINE
  5
1028C
330
101F6
100
AcDbEntity
  8
08非表示
100
AcDbLine
 10
140.6999999999955
 20
733.0000000000005
 30
0.0
 11
140.6999999999955
 21
742.4000000000005
 31
0.0
  0
LINE
  5
1028D
330
101F6
100
AcDbEntity
  8
08非表示
100
AcDbLine
 10
142.9999999999955
 20
732.0000000000005
 30
0.0
 11
142.9999999999955
 21
742.4000000000005
 31
0.0
  0
LINE
  5
1028E
330
101F6
100
AcDbEntity
  8
08非表示
100
AcDbLine
 10
129.9999999999955
 20
747.0000000000005
 30
0.0
 11
138.3999999999955
 21
747.0000000000005
 31
0.0
  0
ARC
  5
1028F
330
101F6
100
AcDbEntity
  8
08非表示
100
AcDbCircle
 10
138.3999999999955
 20
742.4000000000005
 30
0.0
 40
4.600000000000002
100
AcDbArc
 50
0.0
 51
90.0
  0
LINE
  5
10290
330
101F6
100
AcDbEntity
  8
08非表示
100
AcDbLine
 10
142.9999999999955
 20
691.5
 30
0.0
 11
142.9999999999955
 21
706.5
 31
0.0
  0
LINE
  5
10291
330
101F6
100
AcDbEntity
  8
08非表示
100
AcDbLine
 10
140.6999999999955
 20
691.5
 30
0.0
 11
140.6999999999955
 21
705.5
 31
0.0
  0
LINE
  5
10292
330
101F6
100
AcDbEntity
  8
08非表示
100
AcDbLine
 10
55.5
 20
-17.99999999999909
 30
0.0
 11
55.5
 21
37.50000000000091
 31
0.0
  0
LINE
  5
10293
330
101F6
100
AcDbEntity
  8
08非表示
100
AcDbLine
 10
60.0
 20
37.50000000000091
 30
0.0
 11
0.0
 21
37.50000000000091
 31
0.0
  0
LINE
  5
10294
330
101F6
100
AcDbEntity
  8
08非表示
100
AcDbLine
 10
4.5
 20
37.50000000000091
 30
0.0
 11
4.5
 21
-17.99999999999909
 31
0.0
  0
LINE
  5
10295
330
101F6
100
AcDbEntity
  8
08非表示
100
AcDbLine
 10
60.0
 20
-17.99999999999909
 30
0.0
 11
60.0
 21
42.00000000000091
 31
0.0
  0
LINE
  5
10296
330
101F6
100
AcDbEntity
  8
08非表示
100
AcDbLine
 10
60.0
 20
42.00000000000091
 30
0.0
 11
0.0
 21
42.00000000000091
 31
0.0
  0
LINE
  5
10297
330
101F6
100
AcDbEntity
  8
08非表示
100
AcDbLine
 10
0.0
 20
42.00000000000091
 30
0.0
 11
0.0
 21
-17.99999999999909
 31
0.0
  0
LINE
  5
10298
330
101F6
100
AcDbEntity
  8
08非表示
100
AcDbLine
 10
0.0
 20
-17.99999999999909
 30
0.0
 11
60.0
 21
-17.99999999999909
 31
0.0
  0
LINE
  5
10299
330
101F6
100
AcDbEntity
  8
08非表示
100
AcDbLine
 10
14.0
 20
-10.99999999999909
 30
0.0
 11
14.0
 21
27.00000000000091
 31
0.0
  0
LINE
  5
1029A
330
101F6
100
AcDbEntity
  8
08非表示
100
AcDbLine
 10
25.69999999999982
 20
29.00000000000091
 30
0.0
 11
16.0
 21
29.00000000000091
 31
0.0
  0
ARC
  5
1029B
330
101F6
100
AcDbEntity
  8
08非表示
100
AcDbCircle
 10
25.69999999999982
 20
27.00000000000091
 30
0.0
 40
2.0
100
AcDbArc
 50
0.0
 51
90.0
  0
ARC
  5
1029C
330
101F6
100
AcDbEntity
  8
08非表示
100
AcDbCircle
 10
16.0
 20
27.00000000000091
 30
0.0
 40
2.0
100
AcDbArc
 50
90.0
 51
180.0
  0
LINE
  5
1029D
330
101F6
100
AcDbEntity
  8
08非表示
100
AcDbLine
 10
25.69999999999982
 20
-12.99999999999909
 30
0.0
 11
16.0
 21
-12.99999999999909
 31
0.0
  0
ARC
  5
1029E
330
101F6
100
AcDbEntity
  8
08非表示
100
AcDbCircle
 10
25.69999999999982
 20
-10.99999999999909
 30
0.0
 40
2.0
100
AcDbArc
 50
270.0
 51
0.0
  0
ARC
  5
1029F
330
101F6
100
AcDbEntity
  8
08非表示
100
AcDbCircle
 10
16.0
 20
-10.99999999999909
 30
0.0
 40
2.0
100
AcDbArc
 50
180.0
 51
270.0
  0
LINE
  5
102A0
330
101F6
100
AcDbEntity
  8
08非表示
  6
HIDDEN
100
AcDbLine
 10
60.0
 20
-4.999999999999091
 30
0.0
 11
55.5
 21
-4.999999999999091
 31
0.0
  0
LINE
  5
102A1
330
101F6
100
AcDbEntity
  8
08非表示
  6
HIDDEN
100
AcDbLine
 10
60.0
 20
19.00000000000091
 30
0.0
 11
55.5
 21
19.00000000000091
 31
0.0
  0
LINE
  5
102A2
330
101F6
100
AcDbEntity
  8
08非表示
100
AcDbLine
 10
12.0
 20
37.00000000000091
 30
0.0
 11
12.0
 21
37.50000000000091
 31
0.0
  0
LINE
  5
102A3
330
101F6
100
AcDbEntity
  8
08非表示
100
AcDbLine
 10
5.0
 20
30.00000000000091
 30
0.0
 11
4.5
 21
30.00000000000091
 31
0.0
  0
ARC
  5
102A4
330
101F6
100
AcDbEntity
  8
08非表示
100
AcDbCircle
 10
3.102943725151817
 20
38.89705627485
 30
0.0
 40
9.097056274847697
100
AcDbArc
 50
282.0365239011207
 51
347.9634760989391
  0
LINE
  5
102A5
330
101F6
100
AcDbEntity
  8
08非表示
100
AcDbLine
 10
50.0
 20
37.00000000000091
 30
0.0
 11
50.0
 21
37.50000000000091
 31
0.0
  0
LINE
  5
102A6
330
101F6
100
AcDbEntity
  8
08非表示
100
AcDbLine
 10
55.0
 20
32.00000000000091
 30
0.0
 11
55.5
 21
32.00000000000091
 31
0.0
  0
ARC
  5
102A7
330
101F6
100
AcDbEntity
  8
08非表示
100
AcDbCircle
 10
55.0
 20
37.00000000000091
 30
0.0
 40
5.0
100
AcDbArc
 50
180.0
 51
270.0
  0
LINE
  5
102A8
330
101F6
100
AcDbEntity
  8
08非表示
  6
CENTER2
100
AcDbLine
 10
71.57399999999961
 20
7.000000000000909
 30
0.0
 11
43.92599999999948
 21
7.000000000000909
 31
0.0
  0
LINE
  5
102A9
330
101F6
100
AcDbEntity
  8
08非表示
100
AcDbLine
 10
143.0
 20
22.50000000000091
 30
0.0
 11
143.0
 21
-2.999999999999091
 31
0.0
  0
LINE
  5
102AA
330
101F6
100
AcDbEntity
  8
08非表示
100
AcDbLine
 10
112.5
 20
35.25000000000091
 30
0.0
 11
112.5
 21
-17.99999999999909
 31
0.0
  0
LINE
  5
102AB
330
101F6
100
AcDbEntity
  8
08非表示
100
AcDbLine
 10
108.0
 20
37.50000000000091
 30
0.0
 11
108.0
 21
-17.99999999999909
 31
0.0
  0
LINE
  5
102AC
330
101F6
100
AcDbEntity
  8
08非表示
100
AcDbLine
 10
108.0
 20
37.50000000000091
 30
0.0
 11
108.0
 21
-17.99999999999909
 31
0.0
  0
LINE
  5
102AD
330
101F6
100
AcDbEntity
  8
08非表示
100
AcDbLine
 10
130.0
 20
-17.99999999999909
 30
0.0
 11
108.0
 21
-17.99999999999909
 31
0.0
  0
LINE
  5
102AE
330
101F6
100
AcDbEntity
  8
08非表示
100
AcDbLine
 10
131.0
 20
-16.99999999999909
 30
0.0
 11
131.0
 21
-4.999999999999091
 31
0.0
  0
LINE
  5
102AF
330
101F6
100
AcDbEntity
  8
08非表示
100
AcDbLine
 10
132.0
 20
-3.999999999999091
 30
0.0
 11
142.0
 21
-3.999999999999091
 31
0.0
  0
ARC
  5
102B0
330
101F6
100
AcDbEntity
  8
08非表示
100
AcDbCircle
 10
142.0
 20
-2.999999999999091
 30
0.0
 40
1.0
100
AcDbArc
 50
270.0
 51
0.0
  0
ARC
  5
102B1
330
101F6
100
AcDbEntity
  8
08非表示
100
AcDbCircle
 10
132.0
 20
-4.999999999999091
 30
0.0
 40
1.0
100
AcDbArc
 50
90.0
 51
180.0
  0
LINE
  5
102B2
330
101F6
100
AcDbEntity
  8
08非表示
  6
HIDDEN
100
AcDbLine
 10
112.5
 20
-2.999999999999091
 30
0.0
 11
108.0
 21
-2.999999999999091
 31
0.0
  0
LINE
  5
102B3
330
101F6
100
AcDbEntity
  8
08非表示
100
AcDbLine
 10
112.5
 20
42.00000000000091
 30
0.0
 11
143.0
 21
42.00000000000091
 31
0.0
  0
LINE
  5
102B4
330
101F6
100
AcDbEntity
  8
08非表示
100
AcDbLine
 10
114.75
 20
37.50000000000091
 30
0.0
 11
143.0
 21
37.50000000000091
 31
0.0
  0
LINE
  5
102B5
330
101F6
100
AcDbEntity
  8
08非表示
100
AcDbLine
 10
131.0
 20
24.50000000000091
 30
0.0
 11
131.0
 21
36.50000000000091
 31
0.0
  0
LINE
  5
102B6
330
101F6
100
AcDbEntity
  8
08非表示
100
AcDbLine
 10
132.0
 20
23.50000000000091
 30
0.0
 11
142.0
 21
23.50000000000091
 31
0.0
  0
ARC
  5
102B7
330
101F6
100
AcDbEntity
  8
08非表示
100
AcDbCircle
 10
142.0
 20
22.50000000000091
 30
0.0
 40
1.0
100
AcDbArc
 50
0.0
 51
90.0
  0
ARC
  5
102B8
330
101F6
100
AcDbEntity
  8
08非表示
100
AcDbCircle
 10
132.0
 20
24.50000000000091
 30
0.0
 40
1.0
100
AcDbArc
 50
180.0
 51
270.0
  0
LINE
  5
102B9
330
101F6
100
AcDbEntity
  8
08非表示
100
AcDbLine
 10
143.0
 20
42.00000000000091
 30
0.0
 11
143.0
 21
37.50000000000091
 31
0.0
  0
LINE
  5
102BA
330
101F6
100
AcDbEntity
  8
08非表示
  6
HIDDEN
100
AcDbLine
 10
112.5
 20
17.00000000000091
 30
0.0
 11
108.0
 21
17.00000000000091
 31
0.0
  0
LINE
  5
102BB
330
101F6
100
AcDbEntity
  8
08非表示
  6
CENTER2
100
AcDbLine
 10
98.25
 20
7.000000000000909
 30
0.0
 11
122.25
 21
7.000000000000909
 31
0.0
  0
ARC
  5
102BC
330
101F6
100
AcDbEntity
  8
08非表示
100
AcDbCircle
 10
112.5
 20
37.50000000000091
 30
0.0
 40
4.5
100
AcDbArc
 50
90.0
 51
180.0
  0
ARC
  5
102BD
330
101F6
100
AcDbEntity
  8
08非表示
100
AcDbCircle
 10
114.75
 20
35.25000000000091
 30
0.0
 40
2.25
100
AcDbArc
 50
90.0
 51
180.0
  0
ARC
  5
102BE
330
101F6
100
AcDbEntity
  8
08非表示
100
AcDbCircle
 10
130.0
 20
-16.99999999999909
 30
0.0
 40
1.0
100
AcDbArc
 50
270.0
 51
0.0
  0
ARC
  5
102BF
330
101F6
100
AcDbEntity
  8
08非表示
100
AcDbCircle
 10
130.0
 20
36.50000000000091
 30
0.0
 40
1.0
100
AcDbArc
 50
0.0
 51
90.0
  0
LINE
  5
102C0
330
101F6
100
AcDbEntity
  8
08非表示
100
AcDbLine
 10
118.0
 20
37.00000000000091
 30
0.0
 11
118.0
 21
37.50000000000091
 31
0.0
  0
LINE
  5
102C1
330
101F6
100
AcDbEntity
  8
08非表示
100
AcDbLine
 10
113.0
 20
32.00000000000091
 30
0.0
 11
112.5
 21
32.00000000000091
 31
0.0
  0
ARC
  5
102C2
330
101F6
100
AcDbEntity
  8
08非表示
100
AcDbCircle
 10
113.0
 20
37.00000000000091
 30
0.0
 40
5.0
100
AcDbArc
 50
270.0
 51
0.0
  0
LINE
  5
102C3
330
101F6
100
AcDbEntity
  8
08非表示
100
AcDbLine
 10
112.5
 20
42.00000000000091
 30
0.0
 11
108.0
 21
42.00000000000091
 31
0.0
  0
LINE
  5
102C4
330
101F6
100
AcDbEntity
  8
08非表示
100
AcDbLine
 10
108.0
 20
37.50000000000091
 30
0.0
 11
108.0
 21
42.00000000000091
 31
0.0
  0
LINE
  5
102C5
330
101F6
100
AcDbEntity
  8
08非表示
100
AcDbLine
 10
27.69999999999982
 20
20.85000000000036
 30
0.0
 11
27.69999999999982
 21
27.00000000000091
 31
0.0
  0
LINE
  5
102C6
330
101F6
100
AcDbEntity
  8
08非表示
100
AcDbLine
 10
27.69999999999982
 20
-10.99999999999909
 30
0.0
 11
27.69999999999982
 21
-6.849999999999454
 31
0.0
  0
LINE
  5
102C7
330
101F6
100
AcDbEntity
  8
08非表示
  6
Continuous
100
AcDbLine
 10
60.0
 20
13.91750000000047
 30
0.0
 11
78.5
 21
13.91750000000047
 31
0.0
  0
LINE
  5
102C8
330
101F6
100
AcDbEntity
  8
08非表示
100
AcDbLine
 10
60.0
 20
15.00000000000091
 30
0.0
 11
78.5
 21
15.00000000000091
 31
0.0
  0
LINE
  5
102C9
330
101F6
100
AcDbEntity
  8
08非表示
  6
Continuous
100
AcDbLine
 10
60.0
 20
0.0825000000013461
 30
0.0
 11
78.5
 21
0.0825000000013461
 31
0.0
  0
LINE
  5
102CA
330
101F6
100
AcDbEntity
  8
08非表示
100
AcDbLine
 10
78.5
 20
-0.9999999999986358
 30
0.0
 11
60.0
 21
-0.999999999998181
 31
0.0
  0
LINE
  5
102CB
330
101F6
100
AcDbEntity
  8
08非表示
100
AcDbLine
 10
130.5
 20
13.00000000000091
 30
0.0
 11
130.5
 21
1.000000000000909
 31
0.0
  0
LINE
  5
102CC
330
101F6
100
AcDbEntity
  8
08非表示
100
AcDbLine
 10
128.5
 20
-0.9999999999990905
 30
0.0
 11
128.5
 21
15.00000000000091
 31
0.0
  0
LINE
  5
102CD
330
101F6
100
AcDbEntity
  8
08非表示
100
AcDbLine
 10
130.5
 20
1.000000000000909
 30
0.0
 11
128.5
 21
-0.9999999999990905
 31
0.0
  0
LINE
  5
102CE
330
101F6
100
AcDbEntity
  8
08非表示
100
AcDbLine
 10
128.5
 20
15.00000000000091
 30
0.0
 11
130.5
 21
13.00000000000091
 31
0.0
  0
LINE
  5
102CF
330
101F6
100
AcDbEntity
  8
08非表示
  6
CENTER
100
AcDbLine
 10
15.49999999999977
 20
7.000000000000909
 30
0.0
 11
140.5
 21
7.000000000000909
 31
0.0
  0
LINE
  5
102D0
330
101F6
100
AcDbEntity
  8
08非表示
100
AcDbLine
 10
140.7
 20
37.50000000000091
 30
0.0
 11
140.7
 21
23.50000000000045
 31
0.0
  0
LINE
  5
102D1
330
101F6
100
AcDbEntity
  8
08非表示
100
AcDbLine
 10
143.0
 20
37.50000000000091
 30
0.0
 11
143.0
 21
22.50000000000045
 31
0.0
  0
LINE
  5
102D2
330
101F6
100
AcDbEntity
  8
08非表示
100
AcDbLine
 10
143.0
 20
-2.999999999999545
 30
0.0
 11
143.0
 21
-13.39999999999964
 31
0.0
  0
ARC
  5
102D3
330
101F6
100
AcDbEntity
  8
08非表示
100
AcDbCircle
 10
138.4000000000001
 20
-13.39999999999964
 30
0.0
 40
4.600000000000002
100
AcDbArc
 50
270.0
 51
0.0
  0
LINE
  5
102D4
330
101F6
100
AcDbEntity
  8
08非表示
100
AcDbLine
 10
130.0
 20
-17.99999999999955
 30
0.0
 11
138.4000000000001
 21
-17.99999999999955
 31
0.0
  0
LINE
  5
102D5
330
101F6
100
AcDbEntity
  8
08非表示
100
AcDbLine
 10
140.7
 20
-3.999999999999545
 30
0.0
 11
140.7
 21
-13.39999999999964
 31
0.0
  0
LINE
  5
102D6
330
101F6
100
AcDbEntity
  8
08非表示
100
AcDbLine
 10
131.0
 20
-15.69999999999982
 30
0.0
 11
138.4000000000001
 21
-15.69999999999982
 31
0.0
  0
ARC
  5
102D7
330
101F6
100
AcDbEntity
  8
08非表示
100
AcDbCircle
 10
138.4000000000001
 20
-13.39999999999964
 30
0.0
 40
2.300000000000001
100
AcDbArc
 50
270.0
 51
0.0
  0
LINE
  5
102D8
330
101F6
100
AcDbEntity
  8
08非表示
100
AcDbLine
 10
23.99999999997158
 20
184.0000000000009
 30
0.0
 11
23.99999999997249
 21
256.0000000000009
 31
0.0
  0
LINE
  5
102D9
330
101F6
100
AcDbEntity
  8
08非表示
100
AcDbLine
 10
37.99999999997158
 20
184.0000000000009
 30
0.0
 11
37.99999999997249
 21
256.0000000000009
 31
0.0
  0
LINE
  5
102DA
330
101F6
100
AcDbEntity
  8
08非表示
  6
CENTER
100
AcDbLine
 10
29.99999999997158
 20
184.0000000000009
 30
0.0
 11
29.99999999997249
 21
256.0000000000009
 31
0.0
  0
LINE
  5
102DB
330
101F6
100
AcDbEntity
  8
08非表示
100
AcDbLine
 10
37.99999999997203
 20
220.0000000000009
 30
0.0
 11
29.99999999997203
 21
220.0000000000009
 31
0.0
  0
LINE
  5
102DC
330
101F6
100
AcDbEntity
  8
08非表示
100
AcDbLine
 10
23.99999999997158
 20
184.0000000000009
 30
0.0
 11
37.99999999997158
 21
184.0000000000009
 31
0.0
  0
LINE
  5
102DD
330
101F6
100
AcDbEntity
  8
08非表示
100
AcDbLine
 10
23.99999999997249
 20
256.0000000000009
 30
0.0
 11
37.99999999997249
 21
256.0000000000009
 31
0.0
  0
LINE
  5
102DE
330
101F6
100
AcDbEntity
  8
08非表示
100
AcDbLine
 10
118.9999999999727
 20
256.0000000000009
 30
0.0
 11
118.9999999999718
 21
184.0000000000009
 31
0.0
  0
LINE
  5
102DF
330
101F6
100
AcDbEntity
  8
08非表示
100
AcDbLine
 10
104.9999999999727
 20
256.0000000000009
 30
0.0
 11
104.9999999999718
 21
184.0000000000009
 31
0.0
  0
LINE
  5
102E0
330
101F6
100
AcDbEntity
  8
08非表示
  6
CENTER
100
AcDbLine
 10
112.9999999999727
 20
256.0000000000009
 30
0.0
 11
112.9999999999718
 21
184.0000000000009
 31
0.0
  0
LINE
  5
102E1
330
101F6
100
AcDbEntity
  8
08非表示
100
AcDbLine
 10
104.9999999999723
 20
220.0000000000009
 30
0.0
 11
112.9999999999723
 21
220.0000000000009
 31
0.0
  0
LINE
  5
102E2
330
101F6
100
AcDbEntity
  8
08非表示
100
AcDbLine
 10
118.9999999999727
 20
256.0000000000009
 30
0.0
 11
104.9999999999727
 21
256.0000000000009
 31
0.0
  0
LINE
  5
102E3
330
101F6
100
AcDbEntity
  8
08非表示
100
AcDbLine
 10
118.9999999999718
 20
184.0000000000009
 30
0.0
 11
104.9999999999718
 21
184.0000000000009
 31
0.0
  0
LINE
  5
102E4
330
101F6
100
AcDbEntity
  8
08非表示
100
AcDbLine
 10
72.99999999997226
 20
255.5000000000009
 30
0.0
 11
72.99999999997226
 21
184.5000000000009
 31
0.0
  0
ARC
  5
102E5
330
101F6
100
AcDbEntity
  8
08非表示
100
AcDbCircle
 10
39.99999999997226
 20
186.5000000000009
 30
0.0
 40
2.0
100
AcDbArc
 50
180.0
 51
270.0
  0
LINE
  5
102E6
330
101F6
100
AcDbEntity
  8
08非表示
100
AcDbLine
 10
72.99999999997226
 20
184.5000000000009
 30
0.0
 11
39.99999999997226
 21
184.5000000000009
 31
0.0
  0
LINE
  5
102E7
330
101F6
100
AcDbEntity
  8
08非表示
100
AcDbLine
 10
37.99999999997226
 20
186.5000000000009
 30
0.0
 11
37.99999999997226
 21
253.5000000000009
 31
0.0
  0
ARC
  5
102E8
330
101F6
100
AcDbEntity
  8
08非表示
100
AcDbCircle
 10
39.99999999997226
 20
253.5000000000009
 30
0.0
 40
2.0
100
AcDbArc
 50
90.0
 51
180.0
  0
LINE
  5
102E9
330
101F6
100
AcDbEntity
  8
08非表示
100
AcDbLine
 10
39.99999999997226
 20
255.5000000000009
 30
0.0
 11
72.99999999997226
 21
255.5000000000009
 31
0.0
  0
LINE
  5
102EA
330
101F6
100
AcDbEntity
  8
08非表示
100
AcDbLine
 10
104.9999999999723
 20
212.5000000000009
 30
0.0
 11
104.9999999999723
 21
227.5000000000009
 31
0.0
  0
ARC
  5
102EB
330
101F6
100
AcDbEntity
  8
08非表示
100
AcDbCircle
 10
102.9999999999723
 20
193.0000000000009
 30
0.0
 40
2.0
100
AcDbArc
 50
270.0
 51
0.0
  0
LINE
  5
102EC
330
101F6
100
AcDbEntity
  8
08非表示
100
AcDbLine
 10
104.9999999999723
 20
212.5000000000009
 30
0.0
 11
104.9999999999723
 21
193.0000000000009
 31
0.0
  0
LINE
  5
102ED
330
101F6
100
AcDbEntity
  8
08非表示
100
AcDbLine
 10
104.9999999999723
 20
247.0000000000009
 30
0.0
 11
104.9999999999723
 21
227.5000000000009
 31
0.0
  0
ARC
  5
102EE
330
101F6
100
AcDbEntity
  8
08非表示
100
AcDbCircle
 10
102.9999999999723
 20
247.0000000000009
 30
0.0
 40
2.0
100
AcDbArc
 50
0.0
 51
90.0
  0
LINE
  5
102EF
330
101F6
100
AcDbEntity
  8
08非表示
100
AcDbLine
 10
72.99999999997226
 20
249.0000000000009
 30
0.0
 11
102.9999999999723
 21
249.0000000000009
 31
0.0
  0
LINE
  5
102F0
330
101F6
100
AcDbEntity
  8
08非表示
100
AcDbLine
 10
102.9999999999723
 20
191.0000000000009
 30
0.0
 11
72.99999999997226
 21
191.0000000000009
 31
0.0
  0
LINE
  5
102F1
330
101F6
100
AcDbEntity
  8
08非表示
100
AcDbLine
 10
45.49999999999704
 20
702.003035593606
 30
0.0
 11
45.49999999999727
 21
742.003035593606
 31
0.0
  0
LINE
  5
102F2
330
101F6
100
AcDbEntity
  8
08非表示
100
AcDbLine
 10
55.49999999999704
 20
702.003035593606
 30
0.0
 11
45.49999999999704
 21
702.003035593606
 31
0.0
  0
LINE
  5
102F3
330
101F6
100
AcDbEntity
  8
08非表示
100
AcDbLine
 10
45.49999999999727
 20
742.003035593606
 30
0.0
 11
55.49999999999727
 21
742.003035593606
 31
0.0
  0
LINE
  5
102F4
330
101F6
100
AcDbEntity
  8
08非表示
100
AcDbLine
 10
55.49999999999704
 20
702.003035593606
 30
0.0
 11
55.49999999999363
 21
742.003035593606
 31
0.0
  0
LINE
  5
102F5
330
101F6
100
AcDbEntity
  8
08非表示
100
AcDbLine
 10
89.79999999999563
 20
696.9999999999991
 30
0.0
 11
89.79999999999563
 21
746.9999999999991
 31
0.0
  0
LINE
  5
102F6
330
101F6
100
AcDbEntity
  8
08非表示
100
AcDbLine
 10
87.49999999999545
 20
696.9999999999991
 30
0.0
 11
87.49999999999545
 21
746.9999999999991
 31
0.0
  0
LINE
  5
102F7
330
101F6
100
AcDbEntity
  8
08非表示
100
AcDbLine
 10
91.99999999999545
 20
746.9999999999991
 30
0.0
 11
91.99999999999545
 21
696.9999999999991
 31
0.0
  0
LINE
  5
102F8
330
101F6
100
AcDbEntity
  8
08非表示
100
AcDbLine
 10
87.49999999999545
 20
696.9999999999991
 30
0.0
 11
91.99999999999545
 21
696.9999999999991
 31
0.0
  0
LINE
  5
102F9
330
101F6
100
AcDbEntity
  8
08非表示
100
AcDbLine
 10
87.49999999999545
 20
746.9999999999991
 30
0.0
 11
91.99999999999545
 21
746.9999999999991
 31
0.0
  0
LINE
  5
102FA
330
101F6
100
AcDbEntity
  8
08非表示
100
AcDbLine
 10
78.49999999999545
 20
697.4999999999991
 30
0.0
 11
78.49999999999545
 21
720.4999999999991
 31
0.0
  0
LINE
  5
102FB
330
101F6
100
AcDbEntity
  8
08非表示
100
AcDbLine
 10
87.49999999999545
 20
746.4999999999991
 30
0.0
 11
87.49999999999545
 21
697.4999999999991
 31
0.0
  0
LINE
  5
102FC
330
101F6
100
AcDbEntity
  8
08非表示
100
AcDbLine
 10
87.49999999999545
 20
697.4999999999991
 30
0.0
 11
78.49999999999545
 21
697.4999999999991
 31
0.0
  0
LINE
  5
102FD
330
101F6
100
AcDbEntity
  8
08非表示
100
AcDbLine
 10
78.49999999999545
 20
746.4999999999991
 30
0.0
 11
87.49999999999545
 21
746.4999999999991
 31
0.0
  0
LINE
  5
102FE
330
101F6
100
AcDbEntity
  8
08非表示
100
AcDbLine
 10
80.49999999999545
 20
720.4999999999991
 30
0.0
 11
80.49999999999545
 21
723.4999999999991
 31
0.0
  0
LINE
  5
102FF
330
101F6
100
AcDbEntity
  8
08非表示
100
AcDbLine
 10
78.49999999999545
 20
723.4999999999991
 30
0.0
 11
80.49999999999545
 21
723.4999999999991
 31
0.0
  0
LINE
  5
10300
330
101F6
100
AcDbEntity
  8
08非表示
100
AcDbLine
 10
78.49999999999545
 20
720.4999999999991
 30
0.0
 11
80.49999999999545
 21
720.4999999999991
 31
0.0
  0
LINE
  5
10301
330
101F6
100
AcDbEntity
  8
08非表示
100
AcDbLine
 10
78.49999999999545
 20
723.4999999999991
 30
0.0
 11
78.49999999999545
 21
746.4999999999991
 31
0.0
  0
LINE
  5
10302
330
101F6
100
AcDbEntity
  8
08非表示
100
AcDbLine
 10
104.9999999999955
 20
707.0000000000009
 30
0.0
 11
104.9999999999955
 21
737.0000000000009
 31
0.0
  0
LINE
  5
10303
330
101F6
100
AcDbEntity
  8
08非表示
100
AcDbLine
 10
105.9999999999955
 20
738.0000000000009
 30
0.0
 11
107.9999999999955
 21
738.0000000000009
 31
0.0
  0
LINE
  5
10304
330
101F6
100
AcDbEntity
  8
08非表示
100
AcDbLine
 10
107.9999999999955
 20
738.0000000000009
 30
0.0
 11
107.9999999999955
 21
706.0000000000009
 31
0.0
  0
LINE
  5
10305
330
101F6
100
AcDbEntity
  8
08非表示
100
AcDbLine
 10
105.9999999999955
 20
706.0000000000009
 30
0.0
 11
107.9999999999955
 21
706.0000000000009
 31
0.0
  0
LINE
  5
10306
330
101F6
100
AcDbEntity
  8
08非表示
100
AcDbLine
 10
105.9999999999955
 20
706.0000000000009
 30
0.0
 11
104.9999999999955
 21
707.0000000000009
 31
0.0
  0
LINE
  5
10307
330
101F6
100
AcDbEntity
  8
08非表示
100
AcDbLine
 10
104.9999999999955
 20
737.0000000000009
 30
0.0
 11
105.9999999999955
 21
738.0000000000009
 31
0.0
  0
LINE
  5
10308
330
101F6
100
AcDbEntity
  8
08非表示
100
AcDbLine
 10
104.9999999999955
 20
735.8500000000008
 30
0.0
 11
104.9999999999955
 21
708.150000000001
 31
0.0
  0
LINE
  5
10309
330
101F6
100
AcDbEntity
  8
08非表示
100
AcDbLine
 10
93.99999999999545
 20
708.1500000000005
 30
0.0
 11
91.99999999999545
 21
710.1500000000005
 31
0.0
  0
LINE
  5
1030A
330
101F6
100
AcDbEntity
  8
08非表示
100
AcDbLine
 10
104.9999999999955
 20
708.150000000001
 30
0.0
 11
93.99999999999545
 21
708.1500000000005
 31
0.0
  0
LINE
  5
1030B
330
101F6
100
AcDbEntity
  8
08非表示
100
AcDbLine
 10
91.99999999999363
 20
726.9999999999995
 30
0.0
 11
91.99999999999545
 21
731.0000000000005
 31
0.0
  0
ARC
  5
1030C
330
101F6
100
AcDbEntity
  8
08非表示
100
AcDbCircle
 10
93.99999999999363
 20
727.0000000000005
 30
0.0
 40
2.0
100
AcDbArc
 50
90.0
 51
180.0
  0
LINE
  5
1030D
330
101F6
100
AcDbEntity
  8
08非表示
100
AcDbLine
 10
91.99999999999545
 20
713.0000000000005
 30
0.0
 11
91.99999999999727
 21
717.0000000000005
 31
0.0
  0
ARC
  5
1030E
330
101F6
100
AcDbEntity
  8
08非表示
100
AcDbCircle
 10
93.99999999999727
 20
717.0000000000014
 30
0.0
 40
2.0
100
AcDbArc
 50
180.0
 51
270.0
  0
ARC
  5
1030F
330
101F6
100
AcDbEntity
  8
08非表示
100
AcDbCircle
 10
93.99999999999545
 20
713.0000000000014
 30
0.0
 40
2.0
100
AcDbArc
 50
90.0
 51
180.0
  0
LINE
  5
10310
330
101F6
100
AcDbEntity
  8
08非表示
100
AcDbLine
 10
91.99999999999545
 20
713.0000000000005
 30
0.0
 11
91.99999999999545
 21
713.0000000000014
 31
0.0
  0
LINE
  5
10311
330
101F6
100
AcDbEntity
  8
08非表示
100
AcDbLine
 10
91.99999999999727
 20
717.0000000000014
 30
0.0
 11
91.99999999999363
 21
727.0
 31
0.0
  0
LINE
  5
10312
330
101F6
100
AcDbEntity
  8
08非表示
100
AcDbLine
 10
91.99999999999545
 20
710.1500000000005
 30
0.0
 11
91.99999999999545
 21
713.0000000000005
 31
0.0
  0
LINE
  5
10313
330
101F6
100
AcDbEntity
  8
08非表示
100
AcDbLine
 10
93.99999999999727
 20
715.0000000000014
 30
0.0
 11
104.9999999999955
 21
715.0000000000009
 31
0.0
  0
ARC
  5
10314
330
101F6
100
AcDbEntity
  8
08非表示
100
AcDbCircle
 10
93.99999999999545
 20
731.0000000000005
 30
0.0
 40
2.0
100
AcDbArc
 50
180.0
 51
270.0
  0
LINE
  5
10315
330
101F6
100
AcDbEntity
  8
08非表示
100
AcDbLine
 10
91.99999999999545
 20
733.8500000000008
 30
0.0
 11
93.99999999999545
 21
735.8500000000008
 31
0.0
  0
LINE
  5
10316
330
101F6
100
AcDbEntity
  8
08非表示
100
AcDbLine
 10
91.99999999999545
 20
731.0000000000005
 30
0.0
 11
91.99999999999545
 21
731.0000000000009
 31
0.0
  0
LINE
  5
10317
330
101F6
100
AcDbEntity
  8
08非表示
100
AcDbLine
 10
93.99999999999363
 20
729.0000000000005
 30
0.0
 11
104.9999999999955
 21
729.0000000000009
 31
0.0
  0
LINE
  5
10318
330
101F6
100
AcDbEntity
  8
08非表示
100
AcDbLine
 10
93.99999999999545
 20
735.8500000000008
 30
0.0
 11
104.9999999999955
 21
735.8500000000008
 31
0.0
  0
LINE
  5
10319
330
101F6
100
AcDbEntity
  8
08非表示
100
AcDbLine
 10
91.99999999999363
 20
731.0000000000009
 30
0.0
 11
91.99999999999545
 21
733.8500000000008
 31
0.0
  0
LINE
  5
1031A
330
101F6
100
AcDbEntity
  8
08非表示
100
AcDbLine
 10
115.4999999999955
 20
708.150000000001
 30
0.0
 11
115.4999999999955
 21
735.8500000000008
 31
0.0
  0
LINE
  5
1031B
330
101F6
100
AcDbEntity
  8
08非表示
100
AcDbLine
 10
126.4999999999955
 20
735.8500000000013
 30
0.0
 11
128.4999999999955
 21
733.8500000000013
 31
0.0
  0
LINE
  5
1031C
330
101F6
100
AcDbEntity
  8
08非表示
100
AcDbLine
 10
115.4999999999955
 20
735.8500000000008
 30
0.0
 11
126.4999999999955
 21
735.8500000000013
 31
0.0
  0
LINE
  5
1031D
330
101F6
100
AcDbEntity
  8
08非表示
100
AcDbLine
 10
128.4999999999973
 20
717.0000000000023
 30
0.0
 11
128.4999999999955
 21
713.0000000000014
 31
0.0
  0
ARC
  5
1031E
330
101F6
100
AcDbEntity
  8
08非表示
100
AcDbCircle
 10
126.4999999999973
 20
717.0000000000014
 30
0.0
 40
2.0
100
AcDbArc
 50
270.0
 51
0.0
  0
LINE
  5
1031F
330
101F6
100
AcDbEntity
  8
08非表示
100
AcDbLine
 10
128.4999999999955
 20
731.0000000000014
 30
0.0
 11
128.4999999999936
 21
727.0000000000014
 31
0.0
  0
ARC
  5
10320
330
101F6
100
AcDbEntity
  8
08非表示
100
AcDbCircle
 10
126.4999999999936
 20
727.0000000000005
 30
0.0
 40
2.0
100
AcDbArc
 50
0.0
 51
90.0
  0
ARC
  5
10321
330
101F6
100
AcDbEntity
  8
08非表示
100
AcDbCircle
 10
126.4999999999955
 20
731.0000000000005
 30
0.0
 40
2.0
100
AcDbArc
 50
270.0
 51
0.0
  0
LINE
  5
10322
330
101F6
100
AcDbEntity
  8
08非表示
100
AcDbLine
 10
128.4999999999955
 20
731.0000000000014
 30
0.0
 11
128.4999999999955
 21
731.0000000000005
 31
0.0
  0
LINE
  5
10323
330
101F6
100
AcDbEntity
  8
08非表示
100
AcDbLine
 10
128.4999999999936
 20
727.0000000000005
 30
0.0
 11
128.4999999999973
 21
717.0000000000018
 31
0.0
  0
LINE
  5
10324
330
101F6
100
AcDbEntity
  8
08非表示
100
AcDbLine
 10
128.4999999999955
 20
733.8500000000013
 30
0.0
 11
128.4999999999955
 21
731.0000000000014
 31
0.0
  0
LINE
  5
10325
330
101F6
100
AcDbEntity
  8
08非表示
100
AcDbLine
 10
126.4999999999936
 20
729.0000000000005
 30
0.0
 11
115.4999999999955
 21
729.0000000000009
 31
0.0
  0
ARC
  5
10326
330
101F6
100
AcDbEntity
  8
08非表示
100
AcDbCircle
 10
126.4999999999955
 20
713.0000000000014
 30
0.0
 40
2.0
100
AcDbArc
 50
0.0
 51
90.0
  0
LINE
  5
10327
330
101F6
100
AcDbEntity
  8
08非表示
100
AcDbLine
 10
128.4999999999955
 20
710.150000000001
 30
0.0
 11
126.4999999999955
 21
708.150000000001
 31
0.0
  0
LINE
  5
10328
330
101F6
100
AcDbEntity
  8
08非表示
100
AcDbLine
 10
128.4999999999955
 20
713.0000000000014
 30
0.0
 11
128.4999999999955
 21
713.0000000000009
 31
0.0
  0
LINE
  5
10329
330
101F6
100
AcDbEntity
  8
08非表示
100
AcDbLine
 10
126.4999999999973
 20
715.0000000000014
 30
0.0
 11
115.4999999999955
 21
715.0000000000009
 31
0.0
  0
LINE
  5
1032A
330
101F6
100
AcDbEntity
  8
08非表示
100
AcDbLine
 10
126.4999999999955
 20
708.150000000001
 30
0.0
 11
115.4999999999955
 21
708.150000000001
 31
0.0
  0
LINE
  5
1032B
330
101F6
100
AcDbEntity
  8
08非表示
100
AcDbLine
 10
128.4999999999973
 20
713.0000000000009
 30
0.0
 11
128.4999999999955
 21
710.150000000001
 31
0.0
  0
LINE
  5
1032C
330
101F6
100
AcDbEntity
  8
08非表示
100
AcDbLine
 10
115.4999999999955
 20
737.0000000000009
 30
0.0
 11
115.4999999999955
 21
707.0000000000009
 31
0.0
  0
LINE
  5
1032D
330
101F6
100
AcDbEntity
  8
08非表示
100
AcDbLine
 10
114.4999999999955
 20
706.0000000000009
 30
0.0
 11
112.4999999999955
 21
706.0000000000009
 31
0.0
  0
LINE
  5
1032E
330
101F6
100
AcDbEntity
  8
08非表示
100
AcDbLine
 10
112.4999999999955
 20
706.0000000000009
 30
0.0
 11
112.4999999999955
 21
738.0000000000009
 31
0.0
  0
LINE
  5
1032F
330
101F6
100
AcDbEntity
  8
08非表示
100
AcDbLine
 10
114.4999999999955
 20
738.0000000000009
 30
0.0
 11
112.4999999999955
 21
738.0000000000009
 31
0.0
  0
LINE
  5
10330
330
101F6
100
AcDbEntity
  8
08非表示
100
AcDbLine
 10
114.4999999999955
 20
738.0000000000009
 30
0.0
 11
115.4999999999955
 21
737.0000000000009
 31
0.0
  0
LINE
  5
10331
330
101F6
100
AcDbEntity
  8
08非表示
100
AcDbLine
 10
115.4999999999955
 20
707.0000000000009
 30
0.0
 11
114.4999999999955
 21
706.0000000000009
 31
0.0
  0
LINE
  5
10332
330
101F6
100
AcDbEntity
  8
08非表示
100
AcDbLine
 10
35.49999999999727
 20
735.8530355935977
 30
0.0
 11
35.49999999999727
 21
708.1530355935979
 31
0.0
  0
LINE
  5
10333
330
101F6
100
AcDbEntity
  8
08非表示
100
AcDbLine
 10
24.49999999999727
 20
708.1530355935975
 30
0.0
 11
22.49999999999727
 21
710.1530355935975
 31
0.0
  0
LINE
  5
10334
330
101F6
100
AcDbEntity
  8
08非表示
100
AcDbLine
 10
35.49999999999727
 20
708.1530355935979
 30
0.0
 11
24.49999999999727
 21
708.1530355935975
 31
0.0
  0
LINE
  5
10335
330
101F6
100
AcDbEntity
  8
08非表示
100
AcDbLine
 10
22.49999999999545
 20
727.0030355935965
 30
0.0
 11
22.49999999999727
 21
731.0030355935974
 31
0.0
  0
ARC
  5
10336
330
101F6
100
AcDbEntity
  8
08非表示
100
AcDbCircle
 10
24.49999999999545
 20
727.0030355935974
 30
0.0
 40
2.0
100
AcDbArc
 50
90.0
 51
180.0
  0
LINE
  5
10337
330
101F6
100
AcDbEntity
  8
08非表示
100
AcDbLine
 10
22.49999999999727
 20
713.0030355935974
 30
0.0
 11
22.49999999999909
 21
717.0030355935974
 31
0.0
  0
ARC
  5
10338
330
101F6
100
AcDbEntity
  8
08非表示
100
AcDbCircle
 10
24.49999999999909
 20
717.0030355935983
 30
0.0
 40
2.0
100
AcDbArc
 50
180.0
 51
270.0
  0
ARC
  5
10339
330
101F6
100
AcDbEntity
  8
08非表示
100
AcDbCircle
 10
24.49999999999727
 20
713.0030355935983
 30
0.0
 40
2.0
100
AcDbArc
 50
90.0
 51
180.0
  0
LINE
  5
1033A
330
101F6
100
AcDbEntity
  8
08非表示
100
AcDbLine
 10
22.49999999999727
 20
713.0030355935974
 30
0.0
 11
22.49999999999727
 21
713.0030355935983
 31
0.0
  0
LINE
  5
1033B
330
101F6
100
AcDbEntity
  8
08非表示
100
AcDbLine
 10
22.49999999999909
 20
717.0030355935983
 30
0.0
 11
22.49999999999545
 21
727.0030355935969
 31
0.0
  0
LINE
  5
1033C
330
101F6
100
AcDbEntity
  8
08非表示
100
AcDbLine
 10
22.49999999999727
 20
710.1530355935975
 30
0.0
 11
22.49999999999727
 21
713.0030355935974
 31
0.0
  0
LINE
  5
1033D
330
101F6
100
AcDbEntity
  8
08非表示
100
AcDbLine
 10
24.49999999999909
 20
715.0030355935983
 30
0.0
 11
35.49999999999727
 21
715.0030355935978
 31
0.0
  0
ARC
  5
1033E
330
101F6
100
AcDbEntity
  8
08非表示
100
AcDbCircle
 10
24.49999999999727
 20
731.0030355935974
 30
0.0
 40
2.0
100
AcDbArc
 50
180.0
 51
270.0
  0
LINE
  5
1033F
330
101F6
100
AcDbEntity
  8
08非表示
100
AcDbLine
 10
22.49999999999727
 20
733.8530355935977
 30
0.0
 11
24.49999999999727
 21
735.8530355935977
 31
0.0
  0
LINE
  5
10340
330
101F6
100
AcDbEntity
  8
08非表示
100
AcDbLine
 10
22.49999999999727
 20
731.0030355935974
 30
0.0
 11
22.49999999999727
 21
731.0030355935978
 31
0.0
  0
LINE
  5
10341
330
101F6
100
AcDbEntity
  8
08非表示
100
AcDbLine
 10
24.49999999999545
 20
729.0030355935974
 30
0.0
 11
35.49999999999727
 21
729.0030355935978
 31
0.0
  0
LINE
  5
10342
330
101F6
100
AcDbEntity
  8
08非表示
100
AcDbLine
 10
24.49999999999727
 20
735.8530355935977
 30
0.0
 11
35.49999999999727
 21
735.8530355935977
 31
0.0
  0
LINE
  5
10343
330
101F6
100
AcDbEntity
  8
08非表示
100
AcDbLine
 10
22.49999999999545
 20
731.0030355935978
 30
0.0
 11
22.49999999999727
 21
733.8530355935977
 31
0.0
  0
LINE
  5
10344
330
101F6
100
AcDbEntity
  8
08非表示
100
AcDbLine
 10
37.49999999999727
 20
708.1530355936043
 30
0.0
 11
35.49999999999727
 21
710.1530355936043
 31
0.0
  0
LINE
  5
10345
330
101F6
100
AcDbEntity
  8
08非表示
100
AcDbLine
 10
45.49999999999727
 20
710.1530355936052
 30
0.0
 11
43.49999999999727
 21
708.1530355936052
 31
0.0
  0
LINE
  5
10346
330
101F6
100
AcDbEntity
  8
08非表示
100
AcDbLine
 10
43.49999999999545
 20
708.1530355936043
 30
0.0
 11
37.49999999999727
 21
708.1530355936043
 31
0.0
  0
LINE
  5
10347
330
101F6
100
AcDbEntity
  8
08非表示
100
AcDbLine
 10
35.49999999999545
 20
727.0030355936037
 30
0.0
 11
35.49999999999727
 21
731.0030355936046
 31
0.0
  0
LINE
  5
10348
330
101F6
100
AcDbEntity
  8
08非表示
100
AcDbLine
 10
35.49999999999727
 20
713.0030355936046
 30
0.0
 11
35.49999999999909
 21
717.0030355936046
 31
0.0
  0
LINE
  5
10349
330
101F6
100
AcDbEntity
  8
08非表示
100
AcDbLine
 10
35.49999999999909
 20
717.0030355936055
 30
0.0
 11
35.49999999999545
 21
727.0030355936046
 31
0.0
  0
LINE
  5
1034A
330
101F6
100
AcDbEntity
  8
08非表示
100
AcDbLine
 10
37.49999999999545
 20
729.0030355936046
 30
0.0
 11
43.49999999999727
 21
729.0030355936046
 31
0.0
  0
ARC
  5
1034B
330
101F6
100
AcDbEntity
  8
08非表示
100
AcDbCircle
 10
37.49999999999545
 20
727.0030355936046
 30
0.0
 40
2.0
100
AcDbArc
 50
90.0
 51
180.0
  0
LINE
  5
1034C
330
101F6
100
AcDbEntity
  8
08非表示
100
AcDbLine
 10
37.49999999999909
 20
715.0030355936055
 30
0.0
 11
43.49999999999727
 21
715.0030355936055
 31
0.0
  0
ARC
  5
1034D
330
101F6
100
AcDbEntity
  8
08非表示
100
AcDbCircle
 10
37.49999999999909
 20
717.0030355936055
 30
0.0
 40
2.0
100
AcDbArc
 50
180.0
 51
270.0
  0
LINE
  5
1034E
330
101F6
100
AcDbEntity
  8
08非表示
100
AcDbLine
 10
35.49999999999727
 20
731.0030355936046
 30
0.0
 11
35.49999999999727
 21
731.0030355936046
 31
0.0
  0
ARC
  5
1034F
330
101F6
100
AcDbEntity
  8
08非表示
100
AcDbCircle
 10
37.49999999999727
 20
731.0030355936046
 30
0.0
 40
2.0
100
AcDbArc
 50
180.0
 51
270.0
  0
LINE
  5
10350
330
101F6
100
AcDbEntity
  8
08非表示
100
AcDbLine
 10
35.49999999999727
 20
713.0030355936046
 30
0.0
 11
35.49999999999727
 21
713.0030355936055
 31
0.0
  0
ARC
  5
10351
330
101F6
100
AcDbEntity
  8
08非表示
100
AcDbCircle
 10
37.49999999999727
 20
713.0030355936055
 30
0.0
 40
2.0
100
AcDbArc
 50
90.0
 51
180.0
  0
LINE
  5
10352
330
101F6
100
AcDbEntity
  8
08非表示
100
AcDbLine
 10
37.49999999999727
 20
735.853035593605
 30
0.0
 11
43.49999999999727
 21
735.853035593605
 31
0.0
  0
LINE
  5
10353
330
101F6
100
AcDbEntity
  8
08非表示
100
AcDbLine
 10
35.49999999999545
 20
731.0030355936046
 30
0.0
 11
35.49999999999727
 21
733.853035593605
 31
0.0
  0
LINE
  5
10354
330
101F6
100
AcDbEntity
  8
08非表示
100
AcDbLine
 10
35.49999999999727
 20
733.853035593605
 30
0.0
 11
37.49999999999727
 21
735.853035593605
 31
0.0
  0
LINE
  5
10355
330
101F6
100
AcDbEntity
  8
08非表示
100
AcDbLine
 10
35.49999999999727
 20
710.1530355936043
 30
0.0
 11
35.49999999999727
 21
713.0030355936046
 31
0.0
  0
LINE
  5
10356
330
101F6
100
AcDbEntity
  8
08非表示
100
AcDbLine
 10
45.49999999999909
 20
713.0030355936046
 30
0.0
 11
45.49999999999727
 21
710.1530355936052
 31
0.0
  0
ARC
  5
10357
330
101F6
100
AcDbEntity
  8
08非表示
100
AcDbCircle
 10
43.49999999999727
 20
713.0030355936055
 30
0.0
 40
2.0
100
AcDbArc
 50
0.0
 51
90.0
  0
LINE
  5
10358
330
101F6
100
AcDbEntity
  8
08非表示
100
AcDbLine
 10
45.49999999999727
 20
713.0030355936055
 30
0.0
 11
45.49999999999727
 21
713.0030355936046
 31
0.0
  0
ARC
  5
10359
330
101F6
100
AcDbEntity
  8
08非表示
100
AcDbCircle
 10
43.49999999999909
 20
717.0030355936055
 30
0.0
 40
2.0
100
AcDbArc
 50
270.0
 51
0.0
  0
LINE
  5
1035A
330
101F6
100
AcDbEntity
  8
08非表示
100
AcDbLine
 10
45.49999999999545
 20
727.0030355936046
 30
0.0
 11
45.49999999999909
 21
717.0030355936065
 31
0.0
  0
LINE
  5
1035B
330
101F6
100
AcDbEntity
  8
08非表示
100
AcDbLine
 10
45.49999999999909
 20
717.0030355936065
 30
0.0
 11
45.49999999999727
 21
713.0030355936055
 31
0.0
  0
LINE
  5
1035C
330
101F6
100
AcDbEntity
  8
08非表示
100
AcDbLine
 10
43.49999999999727
 20
735.853035593605
 30
0.0
 11
45.49999999999727
 21
733.853035593605
 31
0.0
  0
LINE
  5
1035D
330
101F6
100
AcDbEntity
  8
08非表示
100
AcDbLine
 10
45.49999999999727
 20
733.853035593605
 30
0.0
 11
45.49999999999727
 21
731.0030355936055
 31
0.0
  0
ARC
  5
1035E
330
101F6
100
AcDbEntity
  8
08非表示
100
AcDbCircle
 10
43.49999999999727
 20
731.0030355936046
 30
0.0
 40
2.0
100
AcDbArc
 50
270.0
 51
0.0
  0
LINE
  5
1035F
330
101F6
100
AcDbEntity
  8
08非表示
100
AcDbLine
 10
45.49999999999727
 20
731.0030355936055
 30
0.0
 11
45.49999999999727
 21
731.0030355936046
 31
0.0
  0
ARC
  5
10360
330
101F6
100
AcDbEntity
  8
08非表示
100
AcDbCircle
 10
43.49999999999545
 20
727.0030355936046
 30
0.0
 40
2.0
100
AcDbArc
 50
0.0
 51
90.0
  0
LINE
  5
10361
330
101F6
100
AcDbEntity
  8
08非表示
100
AcDbLine
 10
45.49999999999727
 20
731.0030355936055
 30
0.0
 11
45.49999999999545
 21
727.0030355936055
 31
0.0
  0
LINE
  5
10362
330
101F6
100
AcDbEntity
  8
08非表示
100
AcDbLine
 10
45.50000000000159
 20
-12.99999999999909
 30
0.0
 11
45.50000000000182
 21
27.00000000000091
 31
0.0
  0
LINE
  5
10363
330
101F6
100
AcDbEntity
  8
08非表示
100
AcDbLine
 10
55.50000000000159
 20
-12.99999999999909
 30
0.0
 11
45.50000000000159
 21
-12.99999999999909
 31
0.0
  0
LINE
  5
10364
330
101F6
100
AcDbEntity
  8
08非表示
100
AcDbLine
 10
45.50000000000182
 20
27.00000000000091
 30
0.0
 11
55.50000000000182
 21
27.00000000000091
 31
0.0
  0
LINE
  5
10365
330
101F6
100
AcDbEntity
  8
08非表示
100
AcDbLine
 10
55.50000000000159
 20
-12.99999999999909
 30
0.0
 11
55.49999999999818
 21
27.00000000000091
 31
0.0
  0
LINE
  5
10366
330
101F6
100
AcDbEntity
  8
08非表示
100
AcDbLine
 10
89.80000000000018
 20
-18.00000000000091
 30
0.0
 11
89.80000000000018
 21
31.99999999999909
 31
0.0
  0
LINE
  5
10367
330
101F6
100
AcDbEntity
  8
08非表示
100
AcDbLine
 10
87.5
 20
-18.00000000000091
 30
0.0
 11
87.5
 21
31.99999999999909
 31
0.0
  0
LINE
  5
10368
330
101F6
100
AcDbEntity
  8
08非表示
100
AcDbLine
 10
92.0
 20
31.99999999999909
 30
0.0
 11
92.0
 21
-18.00000000000091
 31
0.0
  0
LINE
  5
10369
330
101F6
100
AcDbEntity
  8
08非表示
100
AcDbLine
 10
87.5
 20
-18.00000000000091
 30
0.0
 11
92.0
 21
-18.00000000000091
 31
0.0
  0
LINE
  5
1036A
330
101F6
100
AcDbEntity
  8
08非表示
100
AcDbLine
 10
87.5
 20
31.99999999999909
 30
0.0
 11
92.0
 21
31.99999999999909
 31
0.0
  0
LINE
  5
1036B
330
101F6
100
AcDbEntity
  8
08非表示
100
AcDbLine
 10
78.5
 20
-17.50000000000091
 30
0.0
 11
78.5
 21
5.499999999999091
 31
0.0
  0
LINE
  5
1036C
330
101F6
100
AcDbEntity
  8
08非表示
100
AcDbLine
 10
87.5
 20
31.49999999999909
 30
0.0
 11
87.5
 21
-17.50000000000091
 31
0.0
  0
LINE
  5
1036D
330
101F6
100
AcDbEntity
  8
08非表示
100
AcDbLine
 10
87.5
 20
-17.50000000000091
 30
0.0
 11
78.5
 21
-17.50000000000091
 31
0.0
  0
LINE
  5
1036E
330
101F6
100
AcDbEntity
  8
08非表示
100
AcDbLine
 10
78.5
 20
31.49999999999909
 30
0.0
 11
87.5
 21
31.49999999999909
 31
0.0
  0
LINE
  5
1036F
330
101F6
100
AcDbEntity
  8
08非表示
100
AcDbLine
 10
80.5
 20
5.499999999999091
 30
0.0
 11
80.5
 21
8.49999999999909
 31
0.0
  0
LINE
  5
10370
330
101F6
100
AcDbEntity
  8
08非表示
100
AcDbLine
 10
78.5
 20
8.49999999999909
 30
0.0
 11
80.5
 21
8.49999999999909
 31
0.0
  0
LINE
  5
10371
330
101F6
100
AcDbEntity
  8
08非表示
100
AcDbLine
 10
78.5
 20
5.499999999999091
 30
0.0
 11
80.5
 21
5.499999999999091
 31
0.0
  0
LINE
  5
10372
330
101F6
100
AcDbEntity
  8
08非表示
100
AcDbLine
 10
78.5
 20
8.49999999999909
 30
0.0
 11
78.5
 21
31.49999999999909
 31
0.0
  0
LINE
  5
10373
330
101F6
100
AcDbEntity
  8
08非表示
100
AcDbLine
 10
105.0
 20
20.85000000000082
 30
0.0
 11
105.0
 21
-6.849999999999
 31
0.0
  0
LINE
  5
10374
330
101F6
100
AcDbEntity
  8
08非表示
100
AcDbLine
 10
94.0
 20
-6.849999999999454
 30
0.0
 11
92.0
 21
-4.849999999999454
 31
0.0
  0
LINE
  5
10375
330
101F6
100
AcDbEntity
  8
08非表示
100
AcDbLine
 10
105.0
 20
-6.849999999999
 30
0.0
 11
94.0
 21
-6.849999999999454
 31
0.0
  0
LINE
  5
10376
330
101F6
100
AcDbEntity
  8
08非表示
100
AcDbLine
 10
91.99999999999818
 20
11.99999999999955
 30
0.0
 11
92.0
 21
16.00000000000045
 31
0.0
  0
ARC
  5
10377
330
101F6
100
AcDbEntity
  8
08非表示
100
AcDbCircle
 10
93.99999999999818
 20
12.00000000000045
 30
0.0
 40
2.0
100
AcDbArc
 50
90.0
 51
180.0
  0
LINE
  5
10378
330
101F6
100
AcDbEntity
  8
08非表示
100
AcDbLine
 10
92.0
 20
-1.999999999999545
 30
0.0
 11
92.00000000000182
 21
2.000000000000455
 31
0.0
  0
ARC
  5
10379
330
101F6
100
AcDbEntity
  8
08非表示
100
AcDbCircle
 10
94.00000000000182
 20
2.000000000001364
 30
0.0
 40
2.0
100
AcDbArc
 50
180.0
 51
270.0
  0
ARC
  5
1037A
330
101F6
100
AcDbEntity
  8
08非表示
100
AcDbCircle
 10
94.0
 20
-1.999999999998636
 30
0.0
 40
2.0
100
AcDbArc
 50
90.0
 51
180.0
  0
LINE
  5
1037B
330
101F6
100
AcDbEntity
  8
08非表示
100
AcDbLine
 10
92.0
 20
-1.999999999999545
 30
0.0
 11
92.0
 21
-1.999999999998636
 31
0.0
  0
LINE
  5
1037C
330
101F6
100
AcDbEntity
  8
08非表示
100
AcDbLine
 10
92.00000000000182
 20
2.000000000001364
 30
0.0
 11
91.99999999999818
 21
12.0
 31
0.0
  0
LINE
  5
1037D
330
101F6
100
AcDbEntity
  8
08非表示
100
AcDbLine
 10
92.0
 20
-4.849999999999454
 30
0.0
 11
92.0
 21
-1.999999999999545
 31
0.0
  0
LINE
  5
1037E
330
101F6
100
AcDbEntity
  8
08非表示
100
AcDbLine
 10
94.00000000000182
 20
0.0000000000013642
 30
0.0
 11
105.0
 21
0.0000000000009095
 31
0.0
  0
ARC
  5
1037F
330
101F6
100
AcDbEntity
  8
08非表示
100
AcDbCircle
 10
94.0
 20
16.00000000000045
 30
0.0
 40
2.0
100
AcDbArc
 50
180.0
 51
270.0
  0
LINE
  5
10380
330
101F6
100
AcDbEntity
  8
08非表示
100
AcDbLine
 10
92.0
 20
18.85000000000082
 30
0.0
 11
94.0
 21
20.85000000000082
 31
0.0
  0
LINE
  5
10381
330
101F6
100
AcDbEntity
  8
08非表示
100
AcDbLine
 10
92.0
 20
16.00000000000045
 30
0.0
 11
92.0
 21
16.00000000000091
 31
0.0
  0
LINE
  5
10382
330
101F6
100
AcDbEntity
  8
08非表示
100
AcDbLine
 10
93.99999999999818
 20
14.00000000000045
 30
0.0
 11
105.0
 21
14.00000000000091
 31
0.0
  0
LINE
  5
10383
330
101F6
100
AcDbEntity
  8
08非表示
100
AcDbLine
 10
94.0
 20
20.85000000000082
 30
0.0
 11
105.0
 21
20.85000000000082
 31
0.0
  0
LINE
  5
10384
330
101F6
100
AcDbEntity
  8
08非表示
100
AcDbLine
 10
91.99999999999818
 20
16.00000000000091
 30
0.0
 11
92.0
 21
18.85000000000082
 31
0.0
  0
LINE
  5
10385
330
101F6
100
AcDbEntity
  8
08非表示
100
AcDbLine
 10
105.0
 20
-7.999999999999091
 30
0.0
 11
105.0
 21
22.00000000000091
 31
0.0
  0
LINE
  5
10386
330
101F6
100
AcDbEntity
  8
08非表示
100
AcDbLine
 10
106.0
 20
23.00000000000091
 30
0.0
 11
108.0
 21
23.00000000000091
 31
0.0
  0
LINE
  5
10387
330
101F6
100
AcDbEntity
  8
08非表示
100
AcDbLine
 10
108.0
 20
23.00000000000091
 30
0.0
 11
108.0
 21
-8.99999999999909
 31
0.0
  0
LINE
  5
10388
330
101F6
100
AcDbEntity
  8
08非表示
100
AcDbLine
 10
106.0
 20
-8.99999999999909
 30
0.0
 11
108.0
 21
-8.99999999999909
 31
0.0
  0
LINE
  5
10389
330
101F6
100
AcDbEntity
  8
08非表示
100
AcDbLine
 10
106.0
 20
-8.99999999999909
 30
0.0
 11
105.0
 21
-7.999999999999091
 31
0.0
  0
LINE
  5
1038A
330
101F6
100
AcDbEntity
  8
08非表示
100
AcDbLine
 10
105.0
 20
22.00000000000091
 30
0.0
 11
106.0
 21
23.00000000000091
 31
0.0
  0
LINE
  5
1038B
330
101F6
100
AcDbEntity
  8
08非表示
100
AcDbLine
 10
115.5
 20
22.00000000000091
 30
0.0
 11
115.5
 21
-7.999999999999091
 31
0.0
  0
LINE
  5
1038C
330
101F6
100
AcDbEntity
  8
08非表示
100
AcDbLine
 10
114.5
 20
-8.99999999999909
 30
0.0
 11
112.5
 21
-8.99999999999909
 31
0.0
  0
LINE
  5
1038D
330
101F6
100
AcDbEntity
  8
08非表示
100
AcDbLine
 10
112.5
 20
-8.99999999999909
 30
0.0
 11
112.5
 21
23.00000000000091
 31
0.0
  0
LINE
  5
1038E
330
101F6
100
AcDbEntity
  8
08非表示
100
AcDbLine
 10
114.5
 20
23.00000000000091
 30
0.0
 11
112.5
 21
23.00000000000091
 31
0.0
  0
LINE
  5
1038F
330
101F6
100
AcDbEntity
  8
08非表示
100
AcDbLine
 10
114.5
 20
23.00000000000091
 30
0.0
 11
115.5
 21
22.00000000000091
 31
0.0
  0
LINE
  5
10390
330
101F6
100
AcDbEntity
  8
08非表示
100
AcDbLine
 10
115.5
 20
-7.999999999999091
 30
0.0
 11
114.5
 21
-8.99999999999909
 31
0.0
  0
LINE
  5
10391
330
101F6
100
AcDbEntity
  8
08非表示
100
AcDbLine
 10
115.5
 20
-6.849999999999
 30
0.0
 11
115.5
 21
20.85000000000082
 31
0.0
  0
LINE
  5
10392
330
101F6
100
AcDbEntity
  8
08非表示
100
AcDbLine
 10
126.5
 20
20.85000000000127
 30
0.0
 11
128.5
 21
18.85000000000127
 31
0.0
  0
LINE
  5
10393
330
101F6
100
AcDbEntity
  8
08非表示
100
AcDbLine
 10
115.5
 20
20.85000000000082
 30
0.0
 11
126.5
 21
20.85000000000127
 31
0.0
  0
LINE
  5
10394
330
101F6
100
AcDbEntity
  8
08非表示
100
AcDbLine
 10
128.5000000000018
 20
2.000000000002274
 30
0.0
 11
128.5
 21
-1.999999999998636
 31
0.0
  0
ARC
  5
10395
330
101F6
100
AcDbEntity
  8
08非表示
100
AcDbCircle
 10
126.5000000000018
 20
2.000000000001364
 30
0.0
 40
2.0
100
AcDbArc
 50
270.0
 51
0.0
  0
LINE
  5
10396
330
101F6
100
AcDbEntity
  8
08非表示
100
AcDbLine
 10
128.5
 20
16.00000000000136
 30
0.0
 11
128.4999999999982
 21
12.00000000000136
 31
0.0
  0
ARC
  5
10397
330
101F6
100
AcDbEntity
  8
08非表示
100
AcDbCircle
 10
126.4999999999982
 20
12.00000000000045
 30
0.0
 40
2.0
100
AcDbArc
 50
0.0
 51
90.0
  0
ARC
  5
10398
330
101F6
100
AcDbEntity
  8
08非表示
100
AcDbCircle
 10
126.5
 20
16.00000000000045
 30
0.0
 40
2.0
100
AcDbArc
 50
270.0
 51
0.0
  0
LINE
  5
10399
330
101F6
100
AcDbEntity
  8
08非表示
100
AcDbLine
 10
128.5
 20
16.00000000000136
 30
0.0
 11
128.5
 21
16.00000000000045
 31
0.0
  0
LINE
  5
1039A
330
101F6
100
AcDbEntity
  8
08非表示
100
AcDbLine
 10
128.4999999999982
 20
12.00000000000045
 30
0.0
 11
128.5000000000018
 21
2.000000000001819
 31
0.0
  0
LINE
  5
1039B
330
101F6
100
AcDbEntity
  8
08非表示
100
AcDbLine
 10
128.5
 20
18.85000000000127
 30
0.0
 11
128.5
 21
16.00000000000136
 31
0.0
  0
LINE
  5
1039C
330
101F6
100
AcDbEntity
  8
08非表示
100
AcDbLine
 10
126.4999999999982
 20
14.00000000000045
 30
0.0
 11
115.5
 21
14.00000000000091
 31
0.0
  0
ARC
  5
1039D
330
101F6
100
AcDbEntity
  8
08非表示
100
AcDbCircle
 10
126.5
 20
-1.999999999998636
 30
0.0
 40
2.0
100
AcDbArc
 50
0.0
 51
90.0
  0
LINE
  5
1039E
330
101F6
100
AcDbEntity
  8
08非表示
100
AcDbLine
 10
128.5
 20
-4.849999999999
 30
0.0
 11
126.5
 21
-6.849999999999
 31
0.0
  0
LINE
  5
1039F
330
101F6
100
AcDbEntity
  8
08非表示
100
AcDbLine
 10
128.5
 20
-1.999999999998636
 30
0.0
 11
128.5
 21
-1.999999999999091
 31
0.0
  0
LINE
  5
103A0
330
101F6
100
AcDbEntity
  8
08非表示
100
AcDbLine
 10
126.5000000000018
 20
0.0000000000013642
 30
0.0
 11
115.5
 21
0.0000000000009095
 31
0.0
  0
LINE
  5
103A1
330
101F6
100
AcDbEntity
  8
08非表示
100
AcDbLine
 10
126.5
 20
-6.849999999999
 30
0.0
 11
115.5
 21
-6.849999999999
 31
0.0
  0
LINE
  5
103A2
330
101F6
100
AcDbEntity
  8
08非表示
100
AcDbLine
 10
128.5000000000018
 20
-1.999999999999091
 30
0.0
 11
128.5
 21
-4.849999999999
 31
0.0
  0
LINE
  5
103A3
330
101F6
100
AcDbEntity
  8
08非表示
100
AcDbLine
 10
35.50000000000182
 20
20.84999999999263
 30
0.0
 11
35.50000000000182
 21
-6.850000000007185
 31
0.0
  0
LINE
  5
103A4
330
101F6
100
AcDbEntity
  8
08非表示
100
AcDbLine
 10
24.50000000000182
 20
-6.85000000000764
 30
0.0
 11
22.50000000000182
 21
-4.85000000000764
 31
0.0
  0
LINE
  5
103A5
330
101F6
100
AcDbEntity
  8
08非表示
100
AcDbLine
 10
35.50000000000182
 20
-6.850000000007185
 30
0.0
 11
24.50000000000182
 21
-6.85000000000764
 31
0.0
  0
LINE
  5
103A6
330
101F6
100
AcDbEntity
  8
08非表示
100
AcDbLine
 10
22.5
 20
11.99999999999136
 30
0.0
 11
22.50000000000182
 21
15.99999999999227
 31
0.0
  0
ARC
  5
103A7
330
101F6
100
AcDbEntity
  8
08非表示
100
AcDbCircle
 10
24.5
 20
11.99999999999227
 30
0.0
 40
2.0
100
AcDbArc
 50
90.0
 51
180.0
  0
LINE
  5
103A8
330
101F6
100
AcDbEntity
  8
08非表示
100
AcDbLine
 10
22.50000000000182
 20
-2.000000000007731
 30
0.0
 11
22.50000000000364
 21
1.999999999992269
 31
0.0
  0
ARC
  5
103A9
330
101F6
100
AcDbEntity
  8
08非表示
100
AcDbCircle
 10
24.50000000000364
 20
1.999999999993179
 30
0.0
 40
2.0
100
AcDbArc
 50
180.0
 51
270.0
  0
ARC
  5
103AA
330
101F6
100
AcDbEntity
  8
08非表示
100
AcDbCircle
 10
24.50000000000182
 20
-2.000000000006821
 30
0.0
 40
2.0
100
AcDbArc
 50
90.0
 51
180.0
  0
LINE
  5
103AB
330
101F6
100
AcDbEntity
  8
08非表示
100
AcDbLine
 10
22.50000000000182
 20
-2.000000000007731
 30
0.0
 11
22.50000000000182
 21
-2.000000000006821
 31
0.0
  0
LINE
  5
103AC
330
101F6
100
AcDbEntity
  8
08非表示
100
AcDbLine
 10
22.50000000000364
 20
1.999999999993179
 30
0.0
 11
22.5
 21
11.99999999999181
 31
0.0
  0
LINE
  5
103AD
330
101F6
100
AcDbEntity
  8
08非表示
100
AcDbLine
 10
22.50000000000182
 20
-4.85000000000764
 30
0.0
 11
22.50000000000182
 21
-2.000000000007731
 31
0.0
  0
LINE
  5
103AE
330
101F6
100
AcDbEntity
  8
08非表示
100
AcDbLine
 10
24.50000000000364
 20
-0.0000000000068212
 30
0.0
 11
35.50000000000182
 21
-0.000000000007276
 31
0.0
  0
ARC
  5
103AF
330
101F6
100
AcDbEntity
  8
08非表示
100
AcDbCircle
 10
24.50000000000182
 20
15.99999999999227
 30
0.0
 40
2.0
100
AcDbArc
 50
180.0
 51
270.0
  0
LINE
  5
103B0
330
101F6
100
AcDbEntity
  8
08非表示
100
AcDbLine
 10
22.50000000000182
 20
18.84999999999263
 30
0.0
 11
24.50000000000182
 21
20.84999999999263
 31
0.0
  0
LINE
  5
103B1
330
101F6
100
AcDbEntity
  8
08非表示
100
AcDbLine
 10
22.50000000000182
 20
15.99999999999227
 30
0.0
 11
22.50000000000182
 21
15.99999999999272
 31
0.0
  0
LINE
  5
103B2
330
101F6
100
AcDbEntity
  8
08非表示
100
AcDbLine
 10
24.5
 20
13.99999999999227
 30
0.0
 11
35.50000000000182
 21
13.99999999999272
 31
0.0
  0
LINE
  5
103B3
330
101F6
100
AcDbEntity
  8
08非表示
100
AcDbLine
 10
24.50000000000182
 20
20.84999999999263
 30
0.0
 11
35.50000000000182
 21
20.84999999999263
 31
0.0
  0
LINE
  5
103B4
330
101F6
100
AcDbEntity
  8
08非表示
100
AcDbLine
 10
22.5
 20
15.99999999999272
 30
0.0
 11
22.50000000000182
 21
18.84999999999263
 31
0.0
  0
LINE
  5
103B5
330
101F6
100
AcDbEntity
  8
08非表示
100
AcDbLine
 10
37.50000000000182
 20
-6.850000000000819
 30
0.0
 11
35.50000000000182
 21
-4.850000000000819
 31
0.0
  0
LINE
  5
103B6
330
101F6
100
AcDbEntity
  8
08非表示
100
AcDbLine
 10
45.50000000000182
 20
-4.849999999999909
 30
0.0
 11
43.50000000000182
 21
-6.849999999999909
 31
0.0
  0
LINE
  5
103B7
330
101F6
100
AcDbEntity
  8
08非表示
100
AcDbLine
 10
43.5
 20
-6.850000000000819
 30
0.0
 11
37.50000000000182
 21
-6.850000000000819
 31
0.0
  0
LINE
  5
103B8
330
101F6
100
AcDbEntity
  8
08非表示
100
AcDbLine
 10
35.5
 20
11.99999999999864
 30
0.0
 11
35.50000000000182
 21
15.99999999999955
 31
0.0
  0
LINE
  5
103B9
330
101F6
100
AcDbEntity
  8
08非表示
100
AcDbLine
 10
35.50000000000182
 20
-2.000000000000455
 30
0.0
 11
35.50000000000364
 21
1.999999999999545
 31
0.0
  0
LINE
  5
103BA
330
101F6
100
AcDbEntity
  8
08非表示
100
AcDbLine
 10
35.50000000000364
 20
2.000000000000455
 30
0.0
 11
35.5
 21
11.99999999999955
 31
0.0
  0
LINE
  5
103BB
330
101F6
100
AcDbEntity
  8
08非表示
100
AcDbLine
 10
37.5
 20
13.99999999999955
 30
0.0
 11
43.50000000000182
 21
13.99999999999955
 31
0.0
  0
ARC
  5
103BC
330
101F6
100
AcDbEntity
  8
08非表示
100
AcDbCircle
 10
37.5
 20
11.99999999999955
 30
0.0
 40
2.0
100
AcDbArc
 50
90.0
 51
180.0
  0
LINE
  5
103BD
330
101F6
100
AcDbEntity
  8
08非表示
100
AcDbLine
 10
37.50000000000364
 20
0.0000000000004547
 30
0.0
 11
43.50000000000182
 21
0.0000000000004547
 31
0.0
  0
ARC
  5
103BE
330
101F6
100
AcDbEntity
  8
08非表示
100
AcDbCircle
 10
37.50000000000364
 20
2.000000000000455
 30
0.0
 40
2.0
100
AcDbArc
 50
180.0
 51
270.0
  0
LINE
  5
103BF
330
101F6
100
AcDbEntity
  8
08非表示
100
AcDbLine
 10
35.50000000000182
 20
15.99999999999955
 30
0.0
 11
35.50000000000182
 21
15.99999999999955
 31
0.0
  0
ARC
  5
103C0
330
101F6
100
AcDbEntity
  8
08非表示
100
AcDbCircle
 10
37.50000000000182
 20
15.99999999999955
 30
0.0
 40
2.0
100
AcDbArc
 50
180.0
 51
270.0
  0
LINE
  5
103C1
330
101F6
100
AcDbEntity
  8
08非表示
100
AcDbLine
 10
35.50000000000182
 20
-2.000000000000455
 30
0.0
 11
35.50000000000182
 21
-1.999999999999545
 31
0.0
  0
ARC
  5
103C2
330
101F6
100
AcDbEntity
  8
08非表示
100
AcDbCircle
 10
37.50000000000182
 20
-1.999999999999545
 30
0.0
 40
2.0
100
AcDbArc
 50
90.0
 51
180.0
  0
LINE
  5
103C3
330
101F6
100
AcDbEntity
  8
08非表示
100
AcDbLine
 10
37.50000000000182
 20
20.84999999999991
 30
0.0
 11
43.50000000000182
 21
20.84999999999991
 31
0.0
  0
LINE
  5
103C4
330
101F6
100
AcDbEntity
  8
08非表示
100
AcDbLine
 10
35.5
 20
15.99999999999955
 30
0.0
 11
35.50000000000182
 21
18.84999999999991
 31
0.0
  0
LINE
  5
103C5
330
101F6
100
AcDbEntity
  8
08非表示
100
AcDbLine
 10
35.50000000000182
 20
18.84999999999991
 30
0.0
 11
37.50000000000182
 21
20.84999999999991
 31
0.0
  0
LINE
  5
103C6
330
101F6
100
AcDbEntity
  8
08非表示
100
AcDbLine
 10
35.50000000000182
 20
-4.850000000000819
 30
0.0
 11
35.50000000000182
 21
-2.000000000000455
 31
0.0
  0
LINE
  5
103C7
330
101F6
100
AcDbEntity
  8
08非表示
100
AcDbLine
 10
45.50000000000364
 20
-2.000000000000455
 30
0.0
 11
45.50000000000182
 21
-4.849999999999909
 31
0.0
  0
ARC
  5
103C8
330
101F6
100
AcDbEntity
  8
08非表示
100
AcDbCircle
 10
43.50000000000182
 20
-1.999999999999545
 30
0.0
 40
2.0
100
AcDbArc
 50
0.0
 51
90.0
  0
LINE
  5
103C9
330
101F6
100
AcDbEntity
  8
08非表示
100
AcDbLine
 10
45.50000000000182
 20
-1.999999999999545
 30
0.0
 11
45.50000000000182
 21
-2.000000000000455
 31
0.0
  0
ARC
  5
103CA
330
101F6
100
AcDbEntity
  8
08非表示
100
AcDbCircle
 10
43.50000000000364
 20
2.000000000000455
 30
0.0
 40
2.0
100
AcDbArc
 50
270.0
 51
0.0
  0
LINE
  5
103CB
330
101F6
100
AcDbEntity
  8
08非表示
100
AcDbLine
 10
45.5
 20
11.99999999999955
 30
0.0
 11
45.50000000000364
 21
2.000000000001364
 31
0.0
  0
LINE
  5
103CC
330
101F6
100
AcDbEntity
  8
08非表示
100
AcDbLine
 10
45.50000000000364
 20
2.000000000001364
 30
0.0
 11
45.50000000000182
 21
-1.999999999999545
 31
0.0
  0
LINE
  5
103CD
330
101F6
100
AcDbEntity
  8
08非表示
100
AcDbLine
 10
43.50000000000182
 20
20.84999999999991
 30
0.0
 11
45.50000000000182
 21
18.84999999999991
 31
0.0
  0
LINE
  5
103CE
330
101F6
100
AcDbEntity
  8
08非表示
100
AcDbLine
 10
45.50000000000182
 20
18.84999999999991
 30
0.0
 11
45.50000000000182
 21
16.00000000000045
 31
0.0
  0
ARC
  5
103CF
330
101F6
100
AcDbEntity
  8
08非表示
100
AcDbCircle
 10
43.50000000000182
 20
15.99999999999955
 30
0.0
 40
2.0
100
AcDbArc
 50
270.0
 51
0.0
  0
LINE
  5
103D0
330
101F6
100
AcDbEntity
  8
08非表示
100
AcDbLine
 10
45.50000000000182
 20
16.00000000000045
 30
0.0
 11
45.50000000000182
 21
15.99999999999955
 31
0.0
  0
ARC
  5
103D1
330
101F6
100
AcDbEntity
  8
08非表示
100
AcDbCircle
 10
43.5
 20
11.99999999999955
 30
0.0
 40
2.0
100
AcDbArc
 50
0.0
 51
90.0
  0
LINE
  5
103D2
330
101F6
100
AcDbEntity
  8
08非表示
100
AcDbLine
 10
45.50000000000182
 20
16.00000000000045
 30
0.0
 11
45.5
 21
12.00000000000045
 31
0.0
  0
ENDBLK
  5
103D4
330
101F6
100
AcDbEntity
  8
0
100
AcDbBlockEnd
  0
BLOCK
  5
10DD9
330
10DD8
100
AcDbEntity
  8
0
100
AcDbBlockBegin
  2
*D889
 70
     1
 10
0.0
 20
0.0
 30
0.0
  3
*D889
  1

  0
LINE
  5
10DDB
330
10DD8
100
AcDbEntity
  8
01注記寸法
 62
     0
370
    -2
100
AcDbLine
 10
607.3021942334622
 20
1487.467979872034
 30
0.0
 11
607.3021942334622
 21
1319.445520758224
 31
0.0
  0
LINE
  5
10DDC
330
10DD8
100
AcDbEntity
  8
01注記寸法
 62
     0
370
    -2
100
AcDbLine
 10
1807.30219423346
 20
1487.467979872034
 30
0.0
 11
1807.30219423346
 21
1319.445520758224
 31
0.0
  0
LINE
  5
10DDD
330
10DD8
100
AcDbEntity
  8
01注記寸法
 62
     0
370
    -2
100
AcDbLine
 10
637.3021942334622
 20
1329.445520758224
 30
0.0
 11
1777.30219423346
 21
1329.445520758224
 31
0.0
  0
INSERT
  5
10DDE
330
10DD8
100
AcDbEntity
  8
01注記寸法
 62
     0
370
    -2
100
AcDbBlockReference
  2
_Open
 10
607.3021942334622
 20
1329.445520758224
 30
0.0
 41
30.0
 42
30.0
 43
30.0
 50
180.0
  0
INSERT
  5
10DDF
330
10DD8
100
AcDbEntity
  8
01注記寸法
 62
     0
370
    -2
100
AcDbBlockReference
  2
_Open
 10
1807.30219423346
 20
1329.445520758224
 30
0.0
 41
30.0
 42
30.0
 43
30.0
  0
MTEXT
  5
10DE0
330
10DD8
100
AcDbEntity
  8
01注記寸法
 62
     0
100
AcDbMText
 10
1207.302194233461
 20
1354.445520758224
 30
0.0
 40
30.0
 41
0.0
 71
     5
 72
     1
  1
1200
 73
     1
 44
1.0
  0
POINT
  5
10DE1
330
10DD8
100
AcDbEntity
  8
Defpoints
 62
     0
100
AcDbPoint
 10
607.3021942334622
 20
1502.467979872034
 30
0.0
  0
POINT
  5
10DE2
330
10DD8
100
AcDbEntity
  8
Defpoints
 62
     0
100
AcDbPoint
 10
1807.30219423346
 20
1502.467979872034
 30
0.0
  0
POINT
  5
10DE3
330
10DD8
100
AcDbEntity
  8
Defpoints
 62
     0
100
AcDbPoint
 10
1807.30219423346
 20
1329.445520758224
 30
0.0
  0
ENDBLK
  5
10DDA
330
10DD8
100
AcDbEntity
  8
0
100
AcDbBlockEnd
  0
BLOCK
  5
10DE6
330
10DE5
100
AcDbEntity
  8
0
100
AcDbBlockBegin
  2
*D890
 70
     1
 10
0.0
 20
0.0
 30
0.0
  3
*D890
  1

  0
LINE
  5
10DE8
330
10DE5
100
AcDbEntity
  8
01注記寸法
 62
     0
370
    -2
100
AcDbLine
 10
607.3021942334622
 20
1487.467979872034
 30
0.0
 11
607.3021942334622
 21
1390.949740485745
 31
0.0
  0
LINE
  5
10DE9
330
10DE5
100
AcDbEntity
  8
01注記寸法
 62
     0
370
    -2
100
AcDbLine
 10
733.3021942334608
 20
1482.467979872033
 30
0.0
 11
733.3021942334608
 21
1390.949740485745
 31
0.0
  0
LINE
  5
10DEA
330
10DE5
100
AcDbEntity
  8
01注記寸法
 62
     0
370
    -2
100
AcDbLine
 10
637.3021942334622
 20
1400.949740485745
 30
0.0
 11
703.3021942334608
 21
1400.949740485745
 31
0.0
  0
INSERT
  5
10DEB
330
10DE5
100
AcDbEntity
  8
01注記寸法
 62
     0
370
    -2
100
AcDbBlockReference
  2
_Open
 10
607.3021942334622
 20
1400.949740485745
 30
0.0
 41
30.0
 42
30.0
 43
30.0
 50
180.0
  0
INSERT
  5
10DEC
330
10DE5
100
AcDbEntity
  8
01注記寸法
 62
     0
370
    -2
100
AcDbBlockReference
  2
_Open
 10
733.3021942334608
 20
1400.949740485745
 30
0.0
 41
30.0
 42
30.0
 43
30.0
  0
MTEXT
  5
10DED
330
10DE5
100
AcDbEntity
  8
01注記寸法
 62
     0
100
AcDbMText
 10
670.3021942334615
 20
1425.949740485745
 30
0.0
 40
30.0
 41
0.0
 71
     5
 72
     1
  1
126
 73
     1
 44
1.0
  0
POINT
  5
10DEE
330
10DE5
100
AcDbEntity
  8
Defpoints
 62
     0
100
AcDbPoint
 10
607.3021942334622
 20
1502.467979872034
 30
0.0
  0
POINT
  5
10DEF
330
10DE5
100
AcDbEntity
  8
Defpoints
 62
     0
100
AcDbPoint
 10
733.3021942334608
 20
1497.467979872033
 30
0.0
  0
POINT
  5
10DF0
330
10DE5
100
AcDbEntity
  8
Defpoints
 62
     0
100
AcDbPoint
 10
733.3021942334608
 20
1400.949740485745
 30
0.0
  0
ENDBLK
  5
10DE7
330
10DE5
100
AcDbEntity
  8
0
100
AcDbBlockEnd
  0
BLOCK
  5
10DF3
330
10DF2
100
AcDbEntity
  8
0
100
AcDbBlockBegin
  2
*D891
 70
     1
 10
0.0
 20
0.0
 30
0.0
  3
*D891
  1

  0
LINE
  5
10DF5
330
10DF2
100
AcDbEntity
  8
01注記寸法
 62
     0
370
    -2
100
AcDbLine
 10
733.3021942334608
 20
1482.467979872033
 30
0.0
 11
733.3021942334608
 21
1390.949740485745
 31
0.0
  0
LINE
  5
10DF6
330
10DF2
100
AcDbEntity
  8
01注記寸法
 62
     0
370
    -2
100
AcDbLine
 10
1681.302194233461
 20
1485.467979872033
 30
0.0
 11
1681.302194233461
 21
1390.949740485745
 31
0.0
  0
LINE
  5
10DF7
330
10DF2
100
AcDbEntity
  8
01注記寸法
 62
     0
370
    -2
100
AcDbLine
 10
763.3021942334608
 20
1400.949740485745
 30
0.0
 11
1651.302194233461
 21
1400.949740485745
 31
0.0
  0
INSERT
  5
10DF8
330
10DF2
100
AcDbEntity
  8
01注記寸法
 62
     0
370
    -2
100
AcDbBlockReference
  2
_Open
 10
733.3021942334608
 20
1400.949740485745
 30
0.0
 41
30.0
 42
30.0
 43
30.0
 50
180.0
  0
INSERT
  5
10DF9
330
10DF2
100
AcDbEntity
  8
01注記寸法
 62
     0
370
    -2
100
AcDbBlockReference
  2
_Open
 10
1681.302194233461
 20
1400.949740485745
 30
0.0
 41
30.0
 42
30.0
 43
30.0
  0
MTEXT
  5
10DFA
330
10DF2
100
AcDbEntity
  8
01注記寸法
 62
     0
100
AcDbMText
 10
1207.302194233461
 20
1425.949740485745
 30
0.0
 40
30.0
 41
0.0
 71
     5
 72
     1
  1
948
 73
     1
 44
1.0
  0
POINT
  5
10DFB
330
10DF2
100
AcDbEntity
  8
Defpoints
 62
     0
100
AcDbPoint
 10
733.3021942334608
 20
1497.467979872033
 30
0.0
  0
POINT
  5
10DFC
330
10DF2
100
AcDbEntity
  8
Defpoints
 62
     0
100
AcDbPoint
 10
1681.302194233461
 20
1500.467979872033
 30
0.0
  0
POINT
  5
10DFD
330
10DF2
100
AcDbEntity
  8
Defpoints
 62
     0
100
AcDbPoint
 10
1681.302194233461
 20
1400.949740485745
 30
0.0
  0
ENDBLK
  5
10DF4
330
10DF2
100
AcDbEntity
  8
0
100
AcDbBlockEnd
  0
BLOCK
  5
10E00
330
10DFF
100
AcDbEntity
  8
0
100
AcDbBlockBegin
  2
*D892
 70
     1
 10
0.0
 20
0.0
 30
0.0
  3
*D892
  1

  0
LINE
  5
10E02
330
10DFF
100
AcDbEntity
  8
01注記寸法
 62
     0
370
    -2
100
AcDbLine
 10
1681.302194233461
 20
1485.467979872033
 30
0.0
 11
1681.302194233461
 21
1390.949740485745
 31
0.0
  0
LINE
  5
10E03
330
10DFF
100
AcDbEntity
  8
01注記寸法
 62
     0
370
    -2
100
AcDbLine
 10
1807.30219423346
 20
1487.467979872034
 30
0.0
 11
1807.30219423346
 21
1390.949740485745
 31
0.0
  0
LINE
  5
10E04
330
10DFF
100
AcDbEntity
  8
01注記寸法
 62
     0
370
    -2
100
AcDbLine
 10
1711.302194233461
 20
1400.949740485745
 30
0.0
 11
1777.30219423346
 21
1400.949740485745
 31
0.0
  0
INSERT
  5
10E05
330
10DFF
100
AcDbEntity
  8
01注記寸法
 62
     0
370
    -2
100
AcDbBlockReference
  2
_Open
 10
1681.302194233461
 20
1400.949740485745
 30
0.0
 41
30.0
 42
30.0
 43
30.0
 50
180.0
  0
INSERT
  5
10E06
330
10DFF
100
AcDbEntity
  8
01注記寸法
 62
     0
370
    -2
100
AcDbBlockReference
  2
_Open
 10
1807.30219423346
 20
1400.949740485745
 30
0.0
 41
30.0
 42
30.0
 43
30.0
  0
MTEXT
  5
10E07
330
10DFF
100
AcDbEntity
  8
01注記寸法
 62
     0
100
AcDbMText
 10
1744.302194233461
 20
1425.949740485745
 30
0.0
 40
30.0
 41
0.0
 71
     5
 72
     1
  1
126
 73
     1
 44
1.0
  0
POINT
  5
10E08
330
10DFF
100
AcDbEntity
  8
Defpoints
 62
     0
100
AcDbPoint
 10
1681.302194233461
 20
1500.467979872033
 30
0.0
  0
POINT
  5
10E09
330
10DFF
100
AcDbEntity
  8
Defpoints
 62
     0
100
AcDbPoint
 10
1807.30219423346
 20
1502.467979872034
 30
0.0
  0
POINT
  5
10E0A
330
10DFF
100
AcDbEntity
  8
Defpoints
 62
     0
100
AcDbPoint
 10
1807.30219423346
 20
1400.949740485745
 30
0.0
  0
ENDBLK
  5
10E01
330
10DFF
100
AcDbEntity
  8
0
100
AcDbBlockEnd
  0
BLOCK
  5
10E0E
330
10E0D
100
AcDbEntity
  8
0
100
AcDbBlockBegin
  2
*D893
 70
     1
 10
0.0
 20
0.0
 30
0.0
  3
*D893
  1

  0
LINE
  5
10E10
330
10E0D
100
AcDbEntity
  8
01注記寸法
 62
     0
370
    -2
100
AcDbLine
 10
1817.30219423346
 20
2257.467979872033
 30
0.0
 11
1960.668172009829
 21
2257.467979872033
 31
0.0
  0
LINE
  5
10E11
330
10E0D
100
AcDbEntity
  8
01注記寸法
 62
     0
370
    -2
100
AcDbLine
 10
1714.302194233461
 20
2244.467979872034
 30
0.0
 11
1960.668172009829
 21
2244.467979872034
 31
0.0
  0
LINE
  5
10E12
330
10E0D
100
AcDbEntity
  8
01注記寸法
 62
     0
370
    -2
100
AcDbLine
 10
1950.668172009829
 20
2257.467979872033
 30
0.0
 11
1950.668172009829
 21
2370.347979872033
 31
0.0
  0
LINE
  5
10E13
330
10E0D
100
AcDbEntity
  8
01注記寸法
 62
     0
370
    -2
100
AcDbLine
 10
1950.668172009829
 20
2257.467979872033
 30
0.0
 11
1950.668172009829
 21
2244.467979872034
 31
0.0
  0
LINE
  5
10E14
330
10E0D
100
AcDbEntity
  8
01注記寸法
 62
     0
370
    -2
100
AcDbLine
 10
1950.668172009829
 20
2287.467979872033
 30
0.0
 11
1950.668172009829
 21
2317.467979872033
 31
0.0
  0
LINE
  5
10E15
330
10E0D
100
AcDbEntity
  8
01注記寸法
 62
     0
370
    -2
100
AcDbLine
 10
1950.668172009829
 20
2214.467979872034
 30
0.0
 11
1950.668172009829
 21
2184.467979872034
 31
0.0
  0
INSERT
  5
10E16
330
10E0D
100
AcDbEntity
  8
01注記寸法
 62
     0
370
    -2
100
AcDbBlockReference
  2
_Open
 10
1950.668172009829
 20
2257.467979872033
 30
0.0
 41
30.0
 42
30.0
 43
30.0
 50
270.0
  0
INSERT
  5
10E17
330
10E0D
100
AcDbEntity
  8
01注記寸法
 62
     0
370
    -2
100
AcDbBlockReference
  2
_Open
 10
1950.668172009829
 20
2244.467979872034
 30
0.0
 41
30.0
 42
30.0
 43
30.0
 50
90.0
  0
MTEXT
  5
10E18
330
10E0D
100
AcDbEntity
  8
01注記寸法
 62
     0
100
AcDbMText
 10
1925.668172009829
 20
2343.907979872033
 30
0.0
 40
30.0
 41
0.0
 71
     5
 72
     1
  1
13
 11
0.0
 21
1.0
 31
0.0
 73
     1
 44
1.0
  0
POINT
  5
10E19
330
10E0D
100
AcDbEntity
  8
Defpoints
 62
     0
100
AcDbPoint
 10
1802.30219423346
 20
2257.467979872033
 30
0.0
  0
POINT
  5
10E1A
330
10E0D
100
AcDbEntity
  8
Defpoints
 62
     0
100
AcDbPoint
 10
1699.302194233461
 20
2244.467979872034
 30
0.0
  0
POINT
  5
10E1B
330
10E0D
100
AcDbEntity
  8
Defpoints
 62
     0
100
AcDbPoint
 10
1950.668172009829
 20
2244.467979872034
 30
0.0
  0
ENDBLK
  5
10E0F
330
10E0D
100
AcDbEntity
  8
0
100
AcDbBlockEnd
  0
BLOCK
  5
10E1E
330
10E1D
100
AcDbEntity
  8
0
100
AcDbBlockBegin
  2
*D894
 70
     1
 10
0.0
 20
0.0
 30
0.0
  3
*D894
  1

  0
LINE
  5
10E20
330
10E1D
100
AcDbEntity
  8
01注記寸法
 62
     0
370
    -2
100
AcDbLine
 10
1714.302194233461
 20
2244.467979872034
 30
0.0
 11
1960.668172009829
 21
2244.467979872034
 31
0.0
  0
LINE
  5
10E21
330
10E1D
100
AcDbEntity
  8
01注記寸法
 62
     0
370
    -2
100
AcDbLine
 10
1714.302194233461
 20
1515.467979872033
 30
0.0
 11
1960.668172009829
 21
1515.467979872033
 31
0.0
  0
LINE
  5
10E22
330
10E1D
100
AcDbEntity
  8
01注記寸法
 62
     0
370
    -2
100
AcDbLine
 10
1950.668172009829
 20
2214.467979872034
 30
0.0
 11
1950.668172009829
 21
1545.467979872033
 31
0.0
  0
INSERT
  5
10E23
330
10E1D
100
AcDbEntity
  8
01注記寸法
 62
     0
370
    -2
100
AcDbBlockReference
  2
_Open
 10
1950.668172009829
 20
2244.467979872034
 30
0.0
 41
30.0
 42
30.0
 43
30.0
 50
90.0
  0
INSERT
  5
10E24
330
10E1D
100
AcDbEntity
  8
01注記寸法
 62
     0
370
    -2
100
AcDbBlockReference
  2
_Open
 10
1950.668172009829
 20
1515.467979872033
 30
0.0
 41
30.0
 42
30.0
 43
30.0
 50
270.0
  0
MTEXT
  5
10E25
330
10E1D
100
AcDbEntity
  8
01注記寸法
 62
     0
100
AcDbMText
 10
1925.668172009829
 20
1879.967979872033
 30
0.0
 40
30.0
 41
0.0
 71
     5
 72
     1
  1
729
 11
0.0
 21
1.0
 31
0.0
 73
     1
 44
1.0
  0
POINT
  5
10E26
330
10E1D
100
AcDbEntity
  8
Defpoints
 62
     0
100
AcDbPoint
 10
1699.302194233461
 20
2244.467979872034
 30
0.0
  0
POINT
  5
10E27
330
10E1D
100
AcDbEntity
  8
Defpoints
 62
     0
100
AcDbPoint
 10
1699.302194233461
 20
1515.467979872033
 30
0.0
  0
POINT
  5
10E28
330
10E1D
100
AcDbEntity
  8
Defpoints
 62
     0
100
AcDbPoint
 10
1950.668172009829
 20
1515.467979872033
 30
0.0
  0
ENDBLK
  5
10E1F
330
10E1D
100
AcDbEntity
  8
0
100
AcDbBlockEnd
  0
BLOCK
  5
10E2B
330
10E2A
100
AcDbEntity
  8
0
100
AcDbBlockBegin
  2
*D895
 70
     1
 10
0.0
 20
0.0
 30
0.0
  3
*D895
  1

  0
LINE
  5
10E2D
330
10E2A
100
AcDbEntity
  8
01注記寸法
 62
     0
370
    -2
100
AcDbLine
 10
1714.302194233461
 20
1515.467979872033
 30
0.0
 11
1960.668172009829
 21
1515.467979872033
 31
0.0
  0
LINE
  5
10E2E
330
10E2A
100
AcDbEntity
  8
01注記寸法
 62
     0
370
    -2
100
AcDbLine
 10
1822.30219423346
 20
1502.467979872034
 30
0.0
 11
1960.668172009829
 21
1502.467979872034
 31
0.0
  0
LINE
  5
10E2F
330
10E2A
100
AcDbEntity
  8
01注記寸法
 62
     0
370
    -2
100
AcDbLine
 10
1950.668172009829
 20
1472.467979872034
 30
0.0
 11
1950.668172009829
 21
1389.587979872034
 31
0.0
  0
LINE
  5
10E30
330
10E2A
100
AcDbEntity
  8
01注記寸法
 62
     0
370
    -2
100
AcDbLine
 10
1950.668172009829
 20
1515.467979872033
 30
0.0
 11
1950.668172009829
 21
1502.467979872034
 31
0.0
  0
LINE
  5
10E31
330
10E2A
100
AcDbEntity
  8
01注記寸法
 62
     0
370
    -2
100
AcDbLine
 10
1950.668172009829
 20
1545.467979872033
 30
0.0
 11
1950.668172009829
 21
1575.467979872033
 31
0.0
  0
INSERT
  5
10E32
330
10E2A
100
AcDbEntity
  8
01注記寸法
 62
     0
370
    -2
100
AcDbBlockReference
  2
_Open
 10
1950.668172009829
 20
1515.467979872033
 30
0.0
 41
30.0
 42
30.0
 43
30.0
 50
270.0
  0
INSERT
  5
10E33
330
10E2A
100
AcDbEntity
  8
01注記寸法
 62
     0
370
    -2
100
AcDbBlockReference
  2
_Open
 10
1950.668172009829
 20
1502.467979872034
 30
0.0
 41
30.0
 42
30.0
 43
30.0
 50
90.0
  0
MTEXT
  5
10E34
330
10E2A
100
AcDbEntity
  8
01注記寸法
 62
     0
100
AcDbMText
 10
1925.668172009829
 20
1416.027979872034
 30
0.0
 40
30.0
 41
0.0
 71
     5
 72
     1
  1
13
 11
0.0
 21
1.0
 31
0.0
 73
     1
 44
1.0
  0
POINT
  5
10E35
330
10E2A
100
AcDbEntity
  8
Defpoints
 62
     0
100
AcDbPoint
 10
1699.302194233461
 20
1515.467979872033
 30
0.0
  0
POINT
  5
10E36
330
10E2A
100
AcDbEntity
  8
Defpoints
 62
     0
100
AcDbPoint
 10
1807.30219423346
 20
1502.467979872034
 30
0.0
  0
POINT
  5
10E37
330
10E2A
100
AcDbEntity
  8
Defpoints
 62
     0
100
AcDbPoint
 10
1950.668172009829
 20
1502.467979872034
 30
0.0
  0
ENDBLK
  5
10E2C
330
10E2A
100
AcDbEntity
  8
0
100
AcDbBlockEnd
  0
BLOCK
  5
10E3A
330
10E39
100
AcDbEntity
  8
0
100
AcDbBlockBegin
  2
*D896
 70
     1
 10
0.0
 20
0.0
 30
0.0
  3
*D896
  1

  0
LINE
  5
10E3C
330
10E39
100
AcDbEntity
  8
01注記寸法
 62
     0
370
    -2
100
AcDbLine
 10
1817.30219423346
 20
2257.467979872033
 30
0.0
 11
2041.481419061364
 21
2257.467979872033
 31
0.0
  0
LINE
  5
10E3D
330
10E39
100
AcDbEntity
  8
01注記寸法
 62
     0
370
    -2
100
AcDbLine
 10
1822.30219423346
 20
1502.467979872034
 30
0.0
 11
2041.481419061364
 21
1502.467979872034
 31
0.0
  0
LINE
  5
10E3E
330
10E39
100
AcDbEntity
  8
01注記寸法
 62
     0
370
    -2
100
AcDbLine
 10
2031.481419061364
 20
2227.467979872033
 30
0.0
 11
2031.481419061364
 21
1532.467979872034
 31
0.0
  0
INSERT
  5
10E3F
330
10E39
100
AcDbEntity
  8
01注記寸法
 62
     0
370
    -2
100
AcDbBlockReference
  2
_Open
 10
2031.481419061364
 20
2257.467979872033
 30
0.0
 41
30.0
 42
30.0
 43
30.0
 50
90.0
  0
INSERT
  5
10E40
330
10E39
100
AcDbEntity
  8
01注記寸法
 62
     0
370
    -2
100
AcDbBlockReference
  2
_Open
 10
2031.481419061364
 20
1502.467979872034
 30
0.0
 41
30.0
 42
30.0
 43
30.0
 50
270.0
  0
MTEXT
  5
10E41
330
10E39
100
AcDbEntity
  8
01注記寸法
 62
     0
100
AcDbMText
 10
2006.481419061364
 20
1879.967979872034
 30
0.0
 40
30.0
 41
0.0
 71
     5
 72
     1
  1
755
 11
0.0
 21
1.0
 31
0.0
 73
     1
 44
1.0
  0
POINT
  5
10E42
330
10E39
100
AcDbEntity
  8
Defpoints
 62
     0
100
AcDbPoint
 10
1802.30219423346
 20
2257.467979872033
 30
0.0
  0
POINT
  5
10E43
330
10E39
100
AcDbEntity
  8
Defpoints
 62
     0
100
AcDbPoint
 10
1807.30219423346
 20
1502.467979872034
 30
0.0
  0
POINT
  5
10E44
330
10E39
100
AcDbEntity
  8
Defpoints
 62
     0
100
AcDbPoint
 10
2031.481419061364
 20
1502.467979872034
 30
0.0
  0
ENDBLK
  5
10E3B
330
10E39
100
AcDbEntity
  8
0
100
AcDbBlockEnd
  0
BLOCK
  5
10E48
330
10E47
100
AcDbEntity
  8
0
100
AcDbBlockBegin
  2
*D897
 70
     1
 10
0.0
 20
0.0
 30
0.0
  3
*D897
  1

  0
LINE
  5
10E4A
330
10E47
100
AcDbEntity
  8
01注記寸法
 62
     0
370
    -2
100
AcDbLine
 10
592.3021942334622
 20
1034.029057199511
 30
0.0
 11
513.7614425378606
 21
1034.029057199511
 31
0.0
  0
LINE
  5
10E4B
330
10E47
100
AcDbEntity
  8
01注記寸法
 62
     0
370
    -2
100
AcDbLine
 10
657.3021942334622
 20
1019.029057199511
 30
0.0
 11
513.7614425378606
 21
1019.029057199511
 31
0.0
  0
LINE
  5
10E4C
330
10E47
100
AcDbEntity
  8
01注記寸法
 62
     0
370
    -2
100
AcDbLine
 10
523.7614425378606
 20
989.0290571995113
 30
0.0
 11
523.7614425378606
 21
906.1490571995112
 31
0.0
  0
LINE
  5
10E4D
330
10E47
100
AcDbEntity
  8
01注記寸法
 62
     0
370
    -2
100
AcDbLine
 10
523.7614425378606
 20
1034.029057199511
 30
0.0
 11
523.7614425378606
 21
1019.029057199511
 31
0.0
  0
LINE
  5
10E4E
330
10E47
100
AcDbEntity
  8
01注記寸法
 62
     0
370
    -2
100
AcDbLine
 10
523.7614425378606
 20
1064.029057199511
 30
0.0
 11
523.7614425378606
 21
1094.029057199511
 31
0.0
  0
INSERT
  5
10E4F
330
10E47
100
AcDbEntity
  8
01注記寸法
 62
     0
370
    -2
100
AcDbBlockReference
  2
_Open
 10
523.7614425378606
 20
1034.029057199511
 30
0.0
 41
30.0
 42
30.0
 43
30.0
 50
270.0
  0
INSERT
  5
10E50
330
10E47
100
AcDbEntity
  8
01注記寸法
 62
     0
370
    -2
100
AcDbBlockReference
  2
_Open
 10
523.7614425378606
 20
1019.029057199511
 30
0.0
 41
30.0
 42
30.0
 43
30.0
 50
90.0
  0
MTEXT
  5
10E51
330
10E47
100
AcDbEntity
  8
01注記寸法
 62
     0
100
AcDbMText
 10
498.7614425378606
 20
932.5890571995112
 30
0.0
 40
30.0
 41
0.0
 71
     5
 72
     1
  1
15
 11
0.0
 21
1.0
 31
0.0
 73
     1
 44
1.0
  0
POINT
  5
10E52
330
10E47
100
AcDbEntity
  8
Defpoints
 62
     0
100
AcDbPoint
 10
607.3021942334622
 20
1034.029057199511
 30
0.0
  0
POINT
  5
10E53
330
10E47
100
AcDbEntity
  8
Defpoints
 62
     0
100
AcDbPoint
 10
672.3021942334622
 20
1019.029057199511
 30
0.0
  0
POINT
  5
10E54
330
10E47
100
AcDbEntity
  8
Defpoints
 62
     0
100
AcDbPoint
 10
523.7614425378606
 20
1019.029057199511
 30
0.0
  0
ENDBLK
  5
10E49
330
10E47
100
AcDbEntity
  8
0
100
AcDbBlockEnd
  0
BLOCK
  5
10E57
330
10E56
100
AcDbEntity
  8
0
100
AcDbBlockBegin
  2
*D898
 70
     1
 10
0.0
 20
0.0
 30
0.0
  3
*D898
  1

  0
LINE
  5
10E59
330
10E56
100
AcDbEntity
  8
01注記寸法
 62
     0
370
    -2
100
AcDbLine
 10
607.3021942334622
 20
1019.029057199511
 30
0.0
 11
607.3021942334622
 21
858.8117330843054
 31
0.0
  0
LINE
  5
10E5A
330
10E56
100
AcDbEntity
  8
01注記寸法
 62
     0
370
    -2
100
AcDbLine
 10
672.3021942334622
 20
1004.029057199511
 30
0.0
 11
672.3021942334622
 21
858.8117330843054
 31
0.0
  0
LINE
  5
10E5B
330
10E56
100
AcDbEntity
  8
01注記寸法
 62
     0
370
    -2
100
AcDbLine
 10
607.3021942334622
 20
868.8117330843054
 30
0.0
 11
672.3021942334622
 21
868.8117330843054
 31
0.0
  0
LINE
  5
10E5C
330
10E56
100
AcDbEntity
  8
01注記寸法
 62
     0
370
    -2
100
AcDbLine
 10
577.3021942334622
 20
868.8117330843054
 30
0.0
 11
547.3021942334622
 21
868.8117330843054
 31
0.0
  0
LINE
  5
10E5D
330
10E56
100
AcDbEntity
  8
01注記寸法
 62
     0
370
    -2
100
AcDbLine
 10
702.3021942334622
 20
868.8117330843054
 30
0.0
 11
732.3021942334622
 21
868.8117330843054
 31
0.0
  0
INSERT
  5
10E5E
330
10E56
100
AcDbEntity
  8
01注記寸法
 62
     0
370
    -2
100
AcDbBlockReference
  2
_Open
 10
607.3021942334622
 20
868.8117330843054
 30
0.0
 41
30.0
 42
30.0
 43
30.0
  0
INSERT
  5
10E5F
330
10E56
100
AcDbEntity
  8
01注記寸法
 62
     0
370
    -2
100
AcDbBlockReference
  2
_Open
 10
672.3021942334622
 20
868.8117330843054
 30
0.0
 41
30.0
 42
30.0
 43
30.0
 50
180.0
  0
MTEXT
  5
10E60
330
10E56
100
AcDbEntity
  8
01注記寸法
 62
     0
100
AcDbMText
 10
639.8021942334622
 20
893.8117330843054
 30
0.0
 40
30.0
 41
0.0
 71
     5
 72
     1
  1
65
 73
     1
 44
1.0
  0
POINT
  5
10E61
330
10E56
100
AcDbEntity
  8
Defpoints
 62
     0
100
AcDbPoint
 10
607.3021942334622
 20
1034.029057199511
 30
0.0
  0
POINT
  5
10E62
330
10E56
100
AcDbEntity
  8
Defpoints
 62
     0
100
AcDbPoint
 10
672.3021942334622
 20
1019.029057199511
 30
0.0
  0
POINT
  5
10E63
330
10E56
100
AcDbEntity
  8
Defpoints
 62
     0
100
AcDbPoint
 10
672.3021942334622
 20
868.8117330843054
 30
0.0
  0
ENDBLK
  5
10E58
330
10E56
100
AcDbEntity
  8
0
100
AcDbBlockEnd
  0
BLOCK
  5
10E66
330
10E65
100
AcDbEntity
  8
0
100
AcDbBlockBegin
  2
*D899
 70
     1
 10
0.0
 20
0.0
 30
0.0
  3
*D899
  1

  0
LINE
  5
10E68
330
10E65
100
AcDbEntity
  8
01注記寸法
 62
     0
370
    -2
100
AcDbLine
 10
672.3021942334622
 20
1004.029057199511
 30
0.0
 11
672.3021942334622
 21
858.8117330843054
 31
0.0
  0
LINE
  5
10E69
330
10E65
100
AcDbEntity
  8
01注記寸法
 62
     0
370
    -2
100
AcDbLine
 10
1742.302194233459
 20
979.0290571995113
 30
0.0
 11
1742.302194233459
 21
858.8117330843054
 31
0.0
  0
LINE
  5
10E6A
330
10E65
100
AcDbEntity
  8
01注記寸法
 62
     0
370
    -2
100
AcDbLine
 10
702.3021942334622
 20
868.8117330843054
 30
0.0
 11
1712.302194233459
 21
868.8117330843054
 31
0.0
  0
INSERT
  5
10E6B
330
10E65
100
AcDbEntity
  8
01注記寸法
 62
     0
370
    -2
100
AcDbBlockReference
  2
_Open
 10
672.3021942334622
 20
868.8117330843054
 30
0.0
 41
30.0
 42
30.0
 43
30.0
 50
180.0
  0
INSERT
  5
10E6C
330
10E65
100
AcDbEntity
  8
01注記寸法
 62
     0
370
    -2
100
AcDbBlockReference
  2
_Open
 10
1742.302194233459
 20
868.8117330843054
 30
0.0
 41
30.0
 42
30.0
 43
30.0
  0
MTEXT
  5
10E6D
330
10E65
100
AcDbEntity
  8
01注記寸法
 62
     0
100
AcDbMText
 10
1207.30219423346
 20
893.8117330843054
 30
0.0
 40
30.0
 41
0.0
 71
     5
 72
     1
  1
1070
 73
     1
 44
1.0
  0
POINT
  5
10E6E
330
10E65
100
AcDbEntity
  8
Defpoints
 62
     0
100
AcDbPoint
 10
672.3021942334622
 20
1019.029057199511
 30
0.0
  0
POINT
  5
10E6F
330
10E65
100
AcDbEntity
  8
Defpoints
 62
     0
100
AcDbPoint
 10
1742.302194233459
 20
994.0290571995113
 30
0.0
  0
POINT
  5
10E70
330
10E65
100
AcDbEntity
  8
Defpoints
 62
     0
100
AcDbPoint
 10
1742.302194233459
 20
868.8117330843054
 30
0.0
  0
ENDBLK
  5
10E67
330
10E65
100
AcDbEntity
  8
0
100
AcDbBlockEnd
  0
BLOCK
  5
10E73
330
10E72
100
AcDbEntity
  8
0
100
AcDbBlockBegin
  2
*D900
 70
     1
 10
0.0
 20
0.0
 30
0.0
  3
*D900
  1

  0
LINE
  5
10E75
330
10E72
100
AcDbEntity
  8
01注記寸法
 62
     0
370
    -2
100
AcDbLine
 10
1742.302194233459
 20
979.0290571995113
 30
0.0
 11
1742.302194233459
 21
858.8117330843054
 31
0.0
  0
LINE
  5
10E76
330
10E72
100
AcDbEntity
  8
01注記寸法
 62
     0
370
    -2
100
AcDbLine
 10
1807.302194233459
 20
1019.029057199511
 30
0.0
 11
1807.302194233459
 21
858.8117330843054
 31
0.0
  0
LINE
  5
10E77
330
10E72
100
AcDbEntity
  8
01注記寸法
 62
     0
370
    -2
100
AcDbLine
 10
1742.302194233459
 20
868.8117330843054
 30
0.0
 11
1807.302194233459
 21
868.8117330843054
 31
0.0
  0
LINE
  5
10E78
330
10E72
100
AcDbEntity
  8
01注記寸法
 62
     0
370
    -2
100
AcDbLine
 10
1712.302194233459
 20
868.8117330843054
 30
0.0
 11
1682.302194233459
 21
868.8117330843054
 31
0.0
  0
LINE
  5
10E79
330
10E72
100
AcDbEntity
  8
01注記寸法
 62
     0
370
    -2
100
AcDbLine
 10
1837.302194233459
 20
868.8117330843054
 30
0.0
 11
1867.302194233459
 21
868.8117330843054
 31
0.0
  0
INSERT
  5
10E7A
330
10E72
100
AcDbEntity
  8
01注記寸法
 62
     0
370
    -2
100
AcDbBlockReference
  2
_Open
 10
1742.302194233459
 20
868.8117330843054
 30
0.0
 41
30.0
 42
30.0
 43
30.0
  0
INSERT
  5
10E7B
330
10E72
100
AcDbEntity
  8
01注記寸法
 62
     0
370
    -2
100
AcDbBlockReference
  2
_Open
 10
1807.302194233459
 20
868.8117330843054
 30
0.0
 41
30.0
 42
30.0
 43
30.0
 50
180.0
  0
MTEXT
  5
10E7C
330
10E72
100
AcDbEntity
  8
01注記寸法
 62
     0
100
AcDbMText
 10
1774.802194233459
 20
893.8117330843054
 30
0.0
 40
30.0
 41
0.0
 71
     5
 72
     1
  1
65
 73
     1
 44
1.0
  0
POINT
  5
10E7D
330
10E72
100
AcDbEntity
  8
Defpoints
 62
     0
100
AcDbPoint
 10
1742.302194233459
 20
994.0290571995113
 30
0.0
  0
POINT
  5
10E7E
330
10E72
100
AcDbEntity
  8
Defpoints
 62
     0
100
AcDbPoint
 10
1807.302194233459
 20
1034.029057199511
 30
0.0
  0
POINT
  5
10E7F
330
10E72
100
AcDbEntity
  8
Defpoints
 62
     0
100
AcDbPoint
 10
1807.302194233459
 20
868.8117330843054
 30
0.0
  0
ENDBLK
  5
10E74
330
10E72
100
AcDbEntity
  8
0
100
AcDbBlockEnd
  0
BLOCK
  5
10E82
330
10E81
100
AcDbEntity
  8
0
100
AcDbBlockBegin
  2
*D901
 70
     1
 10
0.0
 20
0.0
 30
0.0
  3
*D901
  1

  0
LINE
  5
10E84
330
10E81
100
AcDbEntity
  8
01注記寸法
 62
     0
370
    -2
100
AcDbLine
 10
2398.109947455372
 20
2257.467979872033
 30
0.0
 11
2587.462881723658
 21
2257.467979872033
 31
0.0
  0
LINE
  5
10E85
330
10E81
100
AcDbEntity
  8
01注記寸法
 62
     0
370
    -2
100
AcDbLine
 10
2411.609947455372
 20
2160.467979872032
 30
0.0
 11
2587.462881723658
 21
2160.467979872032
 31
0.0
  0
LINE
  5
10E86
330
10E81
100
AcDbEntity
  8
01注記寸法
 62
     0
370
    -2
100
AcDbLine
 10
2577.462881723658
 20
2227.467979872033
 30
0.0
 11
2577.462881723658
 21
2190.467979872032
 31
0.0
  0
INSERT
  5
10E87
330
10E81
100
AcDbEntity
  8
01注記寸法
 62
     0
370
    -2
100
AcDbBlockReference
  2
_Open
 10
2577.462881723658
 20
2257.467979872033
 30
0.0
 41
30.0
 42
30.0
 43
30.0
 50
90.0
  0
INSERT
  5
10E88
330
10E81
100
AcDbEntity
  8
01注記寸法
 62
     0
370
    -2
100
AcDbBlockReference
  2
_Open
 10
2577.462881723658
 20
2160.467979872032
 30
0.0
 41
30.0
 42
30.0
 43
30.0
 50
270.0
  0
MTEXT
  5
10E89
330
10E81
100
AcDbEntity
  8
01注記寸法
 62
     0
100
AcDbMText
 10
2552.462881723658
 20
2208.967979872032
 30
0.0
 40
30.0
 41
0.0
 71
     5
 72
     1
  1
97
 11
0.0
 21
1.0
 31
0.0
 73
     1
 44
1.0
  0
POINT
  5
10E8A
330
10E81
100
AcDbEntity
  8
Defpoints
 62
     0
100
AcDbPoint
 10
2383.109947455372
 20
2257.467979872033
 30
0.0
  0
POINT
  5
10E8B
330
10E81
100
AcDbEntity
  8
Defpoints
 62
     0
100
AcDbPoint
 10
2396.609947455372
 20
2160.467979872032
 30
0.0
  0
POINT
  5
10E8C
330
10E81
100
AcDbEntity
  8
Defpoints
 62
     0
100
AcDbPoint
 10
2577.462881723658
 20
2160.467979872032
 30
0.0
  0
ENDBLK
  5
10E83
330
10E81
100
AcDbEntity
  8
0
100
AcDbBlockEnd
  0
BLOCK
  5
10E8F
330
10E8E
100
AcDbEntity
  8
0
100
AcDbBlockBegin
  2
*D902
 70
     1
 10
0.0
 20
0.0
 30
0.0
  3
*D902
  1

  0
LINE
  5
10E91
330
10E8E
100
AcDbEntity
  8
01注記寸法
 62
     0
370
    -2
100
AcDbLine
 10
2411.609947455372
 20
2160.467979872032
 30
0.0
 11
2587.462881723658
 21
2160.467979872032
 31
0.0
  0
LINE
  5
10E92
330
10E8E
100
AcDbEntity
  8
01注記寸法
 62
     0
370
    -2
100
AcDbLine
 10
2411.609947455372
 20
1599.467979872035
 30
0.0
 11
2587.462881723658
 21
1599.467979872035
 31
0.0
  0
LINE
  5
10E93
330
10E8E
100
AcDbEntity
  8
01注記寸法
 62
     0
370
    -2
100
AcDbLine
 10
2577.462881723658
 20
2130.467979872032
 30
0.0
 11
2577.462881723658
 21
1629.467979872035
 31
0.0
  0
INSERT
  5
10E94
330
10E8E
100
AcDbEntity
  8
01注記寸法
 62
     0
370
    -2
100
AcDbBlockReference
  2
_Open
 10
2577.462881723658
 20
2160.467979872032
 30
0.0
 41
30.0
 42
30.0
 43
30.0
 50
90.0
  0
INSERT
  5
10E95
330
10E8E
100
AcDbEntity
  8
01注記寸法
 62
     0
370
    -2
100
AcDbBlockReference
  2
_Open
 10
2577.462881723658
 20
1599.467979872035
 30
0.0
 41
30.0
 42
30.0
 43
30.0
 50
270.0
  0
MTEXT
  5
10E96
330
10E8E
100
AcDbEntity
  8
01注記寸法
 62
     0
100
AcDbMText
 10
2552.462881723658
 20
1879.967979872033
 30
0.0
 40
30.0
 41
0.0
 71
     5
 72
     1
  1
561
 11
0.0
 21
1.0
 31
0.0
 73
     1
 44
1.0
  0
POINT
  5
10E97
330
10E8E
100
AcDbEntity
  8
Defpoints
 62
     0
100
AcDbPoint
 10
2396.609947455372
 20
2160.467979872032
 30
0.0
  0
POINT
  5
10E98
330
10E8E
100
AcDbEntity
  8
Defpoints
 62
     0
100
AcDbPoint
 10
2396.609947455372
 20
1599.467979872035
 30
0.0
  0
POINT
  5
10E99
330
10E8E
100
AcDbEntity
  8
Defpoints
 62
     0
100
AcDbPoint
 10
2577.462881723658
 20
1599.467979872035
 30
0.0
  0
ENDBLK
  5
10E90
330
10E8E
100
AcDbEntity
  8
0
100
AcDbBlockEnd
  0
BLOCK
  5
10E9C
330
10E9B
100
AcDbEntity
  8
0
100
AcDbBlockBegin
  2
*D903
 70
     1
 10
0.0
 20
0.0
 30
0.0
  3
*D903
  1

  0
LINE
  5
10E9E
330
10E9B
100
AcDbEntity
  8
01注記寸法
 62
     0
370
    -2
100
AcDbLine
 10
2411.609947455372
 20
1599.467979872035
 30
0.0
 11
2587.462881723658
 21
1599.467979872035
 31
0.0
  0
LINE
  5
10E9F
330
10E9B
100
AcDbEntity
  8
01注記寸法
 62
     0
370
    -2
100
AcDbLine
 10
2398.109947455372
 20
1502.467979872034
 30
0.0
 11
2587.462881723658
 21
1502.467979872034
 31
0.0
  0
LINE
  5
10EA0
330
10E9B
100
AcDbEntity
  8
01注記寸法
 62
     0
370
    -2
100
AcDbLine
 10
2577.462881723658
 20
1569.467979872035
 30
0.0
 11
2577.462881723658
 21
1532.467979872034
 31
0.0
  0
INSERT
  5
10EA1
330
10E9B
100
AcDbEntity
  8
01注記寸法
 62
     0
370
    -2
100
AcDbBlockReference
  2
_Open
 10
2577.462881723658
 20
1599.467979872035
 30
0.0
 41
30.0
 42
30.0
 43
30.0
 50
90.0
  0
INSERT
  5
10EA2
330
10E9B
100
AcDbEntity
  8
01注記寸法
 62
     0
370
    -2
100
AcDbBlockReference
  2
_Open
 10
2577.462881723658
 20
1502.467979872034
 30
0.0
 41
30.0
 42
30.0
 43
30.0
 50
270.0
  0
MTEXT
  5
10EA3
330
10E9B
100
AcDbEntity
  8
01注記寸法
 62
     0
100
AcDbMText
 10
2552.462881723658
 20
1550.967979872034
 30
0.0
 40
30.0
 41
0.0
 71
     5
 72
     1
  1
97
 11
0.0
 21
1.0
 31
0.0
 73
     1
 44
1.0
  0
POINT
  5
10EA4
330
10E9B
100
AcDbEntity
  8
Defpoints
 62
     0
100
AcDbPoint
 10
2396.609947455372
 20
1599.467979872035
 30
0.0
  0
POINT
  5
10EA5
330
10E9B
100
AcDbEntity
  8
Defpoints
 62
     0
100
AcDbPoint
 10
2383.109947455372
 20
1502.467979872034
 30
0.0
  0
POINT
  5
10EA6
330
10E9B
100
AcDbEntity
  8
Defpoints
 62
     0
100
AcDbPoint
 10
2577.462881723658
 20
1502.467979872034
 30
0.0
  0
ENDBLK
  5
10E9D
330
10E9B
100
AcDbEntity
  8
0
100
AcDbBlockEnd
  0
BLOCK
  5
10EE1
330
10EE0
100
AcDbEntity
  8
0
100
AcDbBlockBegin
  2
*D905
 70
     1
 10
0.0
 20
0.0
 30
0.0
  3
*D905
  1

  0
LINE
  5
10EE3
330
10EE0
100
AcDbEntity
  8
01注記寸法
 62
     0
370
    -2
100
AcDbLine
 10
2381.609947455372
 20
2272.467979872033
 30
0.0
 11
2381.609947455372
 21
2338.786318286003
 31
0.0
  0
LINE
  5
10EE4
330
10EE0
100
AcDbEntity
  8
01注記寸法
 62
     0
370
    -2
100
AcDbLine
 10
2383.109947455372
 20
2272.467979872033
 30
0.0
 11
2383.109947455372
 21
2338.786318286003
 31
0.0
  0
LINE
  5
10EE5
330
10EE0
100
AcDbEntity
  8
01注記寸法
 62
     0
370
    -2
100
AcDbLine
 10
2413.109947455372
 20
2328.786318286003
 30
0.0
 11
2515.489947455372
 21
2328.786318286003
 31
0.0
  0
LINE
  5
10EE6
330
10EE0
100
AcDbEntity
  8
01注記寸法
 62
     0
370
    -2
100
AcDbLine
 10
2381.609947455372
 20
2328.786318286003
 30
0.0
 11
2383.109947455372
 21
2328.786318286003
 31
0.0
  0
LINE
  5
10EE7
330
10EE0
100
AcDbEntity
  8
01注記寸法
 62
     0
370
    -2
100
AcDbLine
 10
2351.609947455372
 20
2328.786318286003
 30
0.0
 11
2321.609947455372
 21
2328.786318286003
 31
0.0
  0
INSERT
  5
10EE8
330
10EE0
100
AcDbEntity
  8
01注記寸法
 62
     0
370
    -2
100
AcDbBlockReference
  2
_Open
 10
2381.609947455372
 20
2328.786318286003
 30
0.0
 41
30.0
 42
30.0
 43
30.0
  0
INSERT
  5
10EE9
330
10EE0
100
AcDbEntity
  8
01注記寸法
 62
     0
370
    -2
100
AcDbBlockReference
  2
_Open
 10
2383.109947455372
 20
2328.786318286003
 30
0.0
 41
30.0
 42
30.0
 43
30.0
 50
180.0
  0
MTEXT
  5
10EEA
330
10EE0
100
AcDbEntity
  8
01注記寸法
 62
     0
100
AcDbMText
 10
2479.299947455372
 20
2353.786318286003
 30
0.0
 40
30.0
 41
0.0
 71
     5
 72
     1
  1
1.5
 73
     1
 44
1.0
  0
POINT
  5
10EEB
330
10EE0
100
AcDbEntity
  8
Defpoints
 62
     0
100
AcDbPoint
 10
2381.609947455372
 20
2257.467979872033
 30
0.0
  0
POINT
  5
10EEC
330
10EE0
100
AcDbEntity
  8
Defpoints
 62
     0
100
AcDbPoint
 10
2383.109947455372
 20
2257.467979872033
 30
0.0
  0
POINT
  5
10EED
330
10EE0
100
AcDbEntity
  8
Defpoints
 62
     0
100
AcDbPoint
 10
2383.109947455372
 20
2328.786318286003
 30
0.0
  0
ENDBLK
  5
10EE2
330
10EE0
100
AcDbEntity
  8
0
100
AcDbBlockEnd
  0
BLOCK
  5
10EF0
330
10EEF
100
AcDbEntity
  8
0
100
AcDbBlockBegin
  2
*D906
 70
     1
 10
0.0
 20
0.0
 30
0.0
  3
*D906
  1

  0
LINE
  5
10EF2
330
10EEF
100
AcDbEntity
  8
01注記寸法
 62
     0
370
    -2
100
AcDbLine
 10
1822.302194233459
 20
1034.029057199511
 30
0.0
 11
1944.248039297471
 21
1034.029057199511
 31
0.0
  0
LINE
  5
10EF3
330
10EEF
100
AcDbEntity
  8
01注記寸法
 62
     0
370
    -2
100
AcDbLine
 10
1757.302194233459
 20
994.0290571995113
 30
0.0
 11
1944.248039297471
 21
994.0290571995113
 31
0.0
  0
LINE
  5
10EF4
330
10EEF
100
AcDbEntity
  8
01注記寸法
 62
     0
370
    -2
100
AcDbLine
 10
1934.248039297471
 20
964.0290571995113
 30
0.0
 11
1934.248039297471
 21
877.7890571995115
 31
0.0
  0
LINE
  5
10EF5
330
10EEF
100
AcDbEntity
  8
01注記寸法
 62
     0
370
    -2
100
AcDbLine
 10
1934.248039297471
 20
1034.029057199511
 30
0.0
 11
1934.248039297471
 21
994.0290571995113
 31
0.0
  0
LINE
  5
10EF6
330
10EEF
100
AcDbEntity
  8
01注記寸法
 62
     0
370
    -2
100
AcDbLine
 10
1934.248039297471
 20
1064.029057199511
 30
0.0
 11
1934.248039297471
 21
1094.029057199511
 31
0.0
  0
INSERT
  5
10EF7
330
10EEF
100
AcDbEntity
  8
01注記寸法
 62
     0
370
    -2
100
AcDbBlockReference
  2
_Open
 10
1934.248039297471
 20
1034.029057199511
 30
0.0
 41
30.0
 42
30.0
 43
30.0
 50
270.0
  0
INSERT
  5
10EF8
330
10EEF
100
AcDbEntity
  8
01注記寸法
 62
     0
370
    -2
100
AcDbBlockReference
  2
_Open
 10
1934.248039297471
 20
994.0290571995113
 30
0.0
 41
30.0
 42
30.0
 43
30.0
 50
90.0
  0
MTEXT
  5
10EF9
330
10EEF
100
AcDbEntity
  8
01注記寸法
 62
     0
100
AcDbMText
 10
1909.248039297471
 20
905.9090571995114
 30
0.0
 40
30.0
 41
0.0
 71
     5
 72
     1
  1
40
 11
0.0
 21
1.0
 31
0.0
 73
     1
 44
1.0
  0
POINT
  5
10EFA
330
10EEF
100
AcDbEntity
  8
Defpoints
 62
     0
100
AcDbPoint
 10
1807.302194233459
 20
1034.029057199511
 30
0.0
  0
POINT
  5
10EFB
330
10EEF
100
AcDbEntity
  8
Defpoints
 62
     0
100
AcDbPoint
 10
1742.302194233459
 20
994.0290571995113
 30
0.0
  0
POINT
  5
10EFC
330
10EEF
100
AcDbEntity
  8
Defpoints
 62
     0
100
AcDbPoint
 10
1934.248039297471
 20
994.0290571995113
 30
0.0
  0
ENDBLK
  5
10EF1
330
10EEF
100
AcDbEntity
  8
0
100
AcDbBlockEnd
  0
BLOCK
  5
10EFF
330
10EFE
100
AcDbEntity
  8
0
100
AcDbBlockBegin
  2
*D907
 70
     1
 10
0.0
 20
0.0
 30
0.0
  3
*D907
  1

  0
LINE
  5
10F01
330
10EFE
100
AcDbEntity
  8
01注記寸法
 62
     0
370
    -2
100
AcDbLine
 10
1740.802194233459
 20
1864.967979872033
 30
0.0
 11
1740.802194233459
 21
1744.227401701245
 31
0.0
  0
LINE
  5
10F02
330
10EFE
100
AcDbEntity
  8
01注記寸法
 62
     0
370
    -2
100
AcDbLine
 10
1718.802194233459
 20
1827.679494143731
 30
0.0
 11
1718.802194233459
 21
1744.227401701245
 31
0.0
  0
LINE
  5
10F03
330
10EFE
100
AcDbEntity
  8
01注記寸法
 62
     0
370
    -2
100
AcDbLine
 10
1688.802194233459
 20
1754.227401701245
 30
0.0
 11
1568.452194233459
 21
1754.227401701245
 31
0.0
  0
LINE
  5
10F04
330
10EFE
100
AcDbEntity
  8
01注記寸法
 62
     0
370
    -2
100
AcDbLine
 10
1740.802194233459
 20
1754.227401701245
 30
0.0
 11
1718.802194233459
 21
1754.227401701245
 31
0.0
  0
LINE
  5
10F05
330
10EFE
100
AcDbEntity
  8
01注記寸法
 62
     0
370
    -2
100
AcDbLine
 10
1770.802194233459
 20
1754.227401701245
 30
0.0
 11
1800.802194233459
 21
1754.227401701245
 31
0.0
  0
INSERT
  5
10F06
330
10EFE
100
AcDbEntity
  8
01注記寸法
 62
     0
370
    -2
100
AcDbBlockReference
  2
_Open
 10
1740.802194233459
 20
1754.227401701245
 30
0.0
 41
30.0
 42
30.0
 43
30.0
 50
180.0
  0
INSERT
  5
10F07
330
10EFE
100
AcDbEntity
  8
01注記寸法
 62
     0
370
    -2
100
AcDbBlockReference
  2
_Open
 10
1718.802194233459
 20
1754.227401701245
 30
0.0
 41
30.0
 42
30.0
 43
30.0
  0
MTEXT
  5
10F08
330
10EFE
100
AcDbEntity
  8
01注記寸法
 62
     0
100
AcDbMText
 10
1613.627194233459
 20
1779.227401701245
 30
0.0
 40
30.0
 41
0.0
 71
     5
 72
     1
  1
≒22
 73
     1
 44
1.0
  0
POINT
  5
10F09
330
10EFE
100
AcDbEntity
  8
Defpoints
 62
     0
100
AcDbPoint
 10
1740.802194233459
 20
1879.967979872033
 30
0.0
  0
POINT
  5
10F0A
330
10EFE
100
AcDbEntity
  8
Defpoints
 62
     0
100
AcDbPoint
 10
1718.802194233459
 20
1842.679494143731
 30
0.0
  0
POINT
  5
10F0B
330
10EFE
100
AcDbEntity
  8
Defpoints
 62
     0
100
AcDbPoint
 10
1718.802194233459
 20
1754.227401701245
 30
0.0
  0
ENDBLK
  5
10F00
330
10EFE
100
AcDbEntity
  8
0
100
AcDbBlockEnd
  0
BLOCK
  5
11750
330
116B4
100
AcDbEntity
  8
0
100
AcDbBlockBegin
  2
1-HTB513平面図
 70
     0
 10
0.0
 20
0.0
 30
0.0
  3
1-HTB513平面図
  1

  0
LINE
  5
116E2
330
116B4
100
AcDbEntity
  8
08非表示
100
AcDbLine
 10
1019.000000000011
 20
17.99999999999454
 30
0.0
 11
-70.99999999996726
 21
18.00000000001819
 31
0.0
  0
LINE
  5
116E3
330
116B4
100
AcDbEntity
  8
08非表示
100
AcDbLine
 10
1019.000000000009
 20
-42.00000000000182
 30
0.0
 11
-70.99999999996908
 21
-41.99999999998363
 31
0.0
  0
LINE
  5
116E4
330
116B4
100
AcDbEntity
  8
08非表示
100
AcDbLine
 10
-130.9999999999945
 20
-686.9999999999814
 30
0.0
 11
-130.9999999999654
 21
-41.99999999997999
 31
0.0
  0
LINE
  5
116E5
330
116B4
100
AcDbEntity
  8
08非表示
100
AcDbLine
 10
-70.9999999999909
 20
-686.9999999999823
 30
0.0
 11
-130.9999999999945
 21
-686.9999999999814
 31
0.0
  0
LINE
  5
116E6
330
116B4
100
AcDbEntity
  8
08非表示
100
AcDbLine
 10
-70.99999999999454
 20
-746.9999999999832
 30
0.0
 11
-70.99999999999272
 21
-686.9999999999832
 31
0.0
  0
LINE
  5
116E7
330
116B4
100
AcDbEntity
  8
08非表示
100
AcDbLine
 10
-70.99999999996726
 20
18.00000000001637
 30
0.0
 11
-70.99999999996908
 21
-41.99999999998363
 31
0.0
  0
LINE
  5
116E8
330
116B4
100
AcDbEntity
  8
08非表示
100
AcDbLine
 10
-70.99999999996726
 20
-41.99999999998363
 30
0.0
 11
-130.9999999999691
 21
-41.99999999997999
 31
0.0
  0
LINE
  5
116E9
330
116B4
100
AcDbEntity
  8
08非表示
 48
0.5
100
AcDbLine
 10
22.5
 20
0.0
 30
0.0
 11
-22.5
 21
0.0
 31
0.0
  0
LINE
  5
116EA
330
116B4
100
AcDbEntity
  8
08非表示
 48
0.5
100
AcDbLine
 10
0.0
 20
-22.5
 30
0.0
 11
0.0
 21
22.5
 31
0.0
  0
CIRCLE
  5
116EB
330
116B4
100
AcDbEntity
  8
08非表示
100
AcDbCircle
 10
0.0
 20
0.0
 30
0.0
 40
8.0
  0
LINE
  5
116EC
330
116B4
100
AcDbEntity
  8
08非表示
100
AcDbLine
 10
1079.000000000013
 20
-42.0
 30
0.0
 11
1079.000000000011
 21
-687.0000000000014
 31
0.0
  0
LINE
  5
116ED
330
116B4
100
AcDbEntity
  8
08非表示
100
AcDbLine
 10
-70.99999999999454
 20
-746.9999999999777
 30
0.0
 11
1019.000000000005
 21
-746.9999999999995
 31
0.0
  0
LINE
  5
116EE
330
116B4
100
AcDbEntity
  8
08非表示
100
AcDbLine
 10
-70.9999999999909
 20
-686.9999999999777
 30
0.0
 11
1019.000000000005
 21
-686.9999999999995
 31
0.0
  0
LINE
  5
116EF
330
116B4
100
AcDbEntity
  8
08非表示
100
AcDbLine
 10
1019.000000000002
 20
-686.9999999999995
 30
0.0
 11
1079.000000000005
 21
-687.0000000000014
 31
0.0
  0
LINE
  5
116F0
330
116B4
100
AcDbEntity
  8
08非表示
100
AcDbLine
 10
1019.000000000005
 20
-746.9999999999995
 30
0.0
 11
1019.000000000005
 21
-686.9999999999995
 31
0.0
  0
LINE
  5
116F1
330
116B4
100
AcDbEntity
  8
08非表示
100
AcDbLine
 10
1019.000000000011
 20
18.0
 30
0.0
 11
1019.000000000011
 21
-42.0
 31
0.0
  0
LINE
  5
116F2
330
116B4
100
AcDbEntity
  8
08非表示
100
AcDbLine
 10
1019.000000000009
 20
-42.0
 30
0.0
 11
1079.000000000011
 21
-42.0
 31
0.0
  0
LINE
  5
116F3
330
116B4
100
AcDbEntity
  8
08非表示
 48
0.5
100
AcDbLine
 10
925.50000000004
 20
0.0
 30
0.0
 11
970.50000000004
 21
0.0
 31
0.0
  0
LINE
  5
116F4
330
116B4
100
AcDbEntity
  8
08非表示
 48
0.5
100
AcDbLine
 10
948.00000000004
 20
-22.5
 30
0.0
 11
948.00000000004
 21
22.5
 31
0.0
  0
CIRCLE
  5
116F5
330
116B4
100
AcDbEntity
  8
08非表示
100
AcDbCircle
 10
948.00000000004
 20
0.0
 30
0.0
 40
8.0
  0
LINE
  5
116F6
330
116B4
100
AcDbEntity
  8
08非表示
 48
0.5
100
AcDbLine
 10
22.5
 20
-728.9999999999613
 30
0.0
 11
-22.5
 21
-728.9999999999613
 31
0.0
  0
LINE
  5
116F7
330
116B4
100
AcDbEntity
  8
08非表示
 48
0.5
100
AcDbLine
 10
0.0
 20
-706.4999999999613
 30
0.0
 11
0.0
 21
-751.4999999999613
 31
0.0
  0
CIRCLE
  5
116F8
330
116B4
100
AcDbEntity
  8
08非表示
100
AcDbCircle
 10
0.0
 20
-728.9999999999613
 30
0.0
 40
8.0
  0
CIRCLE
  5
116F9
330
116B4
100
AcDbEntity
  8
08非表示
100
AcDbCircle
 10
948.00000000004
 20
-728.9999999999613
 30
0.0
 40
8.0
  0
LINE
  5
116FA
330
116B4
100
AcDbEntity
  8
08非表示
 48
0.5
100
AcDbLine
 10
948.00000000004
 20
-706.4999999999613
 30
0.0
 11
948.00000000004
 21
-751.4999999999613
 31
0.0
  0
LINE
  5
116FB
330
116B4
100
AcDbEntity
  8
08非表示
 48
0.5
100
AcDbLine
 10
925.50000000004
 20
-728.9999999999613
 30
0.0
 11
970.50000000004
 21
-728.9999999999613
 31
0.0
  0
LINE
  5
116FC
330
116B4
100
AcDbEntity
  8
08非表示
100
AcDbLine
 10
-70.9999999999909
 20
-686.9999999999832
 30
0.0
 11
-70.99999999999272
 21
-42.00000000001819
 31
0.0
  0
LINE
  5
116FD
330
116B4
100
AcDbEntity
  8
08非表示
100
AcDbLine
 10
1019.000000000009
 20
-42.00000000001819
 30
0.0
 11
1019.000000000005
 21
-686.9999999999832
 31
0.0
  0
LINE
  5
116FE
330
116B4
100
AcDbEntity
  8
08非表示
100
AcDbLine
 10
1019.000000000009
 20
-43.99999999998181
 30
0.0
 11
-70.9999999999909
 21
-43.99999999998181
 31
0.0
  0
LINE
  5
116FF
330
116B4
100
AcDbEntity
  8
08非表示
100
AcDbLine
 10
1019.000000000009
 20
-73.99999999998181
 30
0.0
 11
-70.9999999999909
 21
-73.99999999998181
 31
0.0
  0
LINE
  5
11700
330
116B4
100
AcDbEntity
  8
08非表示
100
AcDbLine
 10
1019.000000000005
 20
-654.9999999999777
 30
0.0
 11
-70.9999999999909
 21
-654.9999999999777
 31
0.0
  0
LINE
  5
11701
330
116B4
100
AcDbEntity
  8
08非表示
100
AcDbLine
 10
1019.000000000005
 20
-684.9999999999777
 30
0.0
 11
-70.9999999999909
 21
-684.9999999999777
 31
0.0
  0
LINE
  5
11702
330
116B4
100
AcDbEntity
  8
08非表示
100
AcDbLine
 10
1019.000000000009
 20
-70.79999999998199
 30
0.0
 11
-70.9999999999909
 21
-70.79999999998199
 31
0.0
  0
LINE
  5
11703
330
116B4
100
AcDbEntity
  8
08非表示
100
AcDbLine
 10
1019.000000000005
 20
-658.1999999999775
 30
0.0
 11
-70.9999999999909
 21
-658.1999999999775
 31
0.0
  0
LINE
  5
11704
330
116B4
100
AcDbEntity
  8
08非表示
100
AcDbLine
 10
-130.9999999999927
 20
-686.9999999999832
 30
0.0
 11
-75.49999999999272
 21
-686.9999999999832
 31
0.0
  0
LINE
  5
11705
330
116B4
100
AcDbEntity
  8
08非表示
100
AcDbLine
 10
-70.99999999999272
 20
-691.4999999999832
 30
0.0
 11
-70.99999999999272
 21
-746.9999999999832
 31
0.0
  0
LINE
  5
11706
330
116B4
100
AcDbEntity
  8
08非表示
100
AcDbLine
 10
-80.49999999999272
 20
-746.9999999999832
 30
0.0
 11
-115.9999999999927
 21
-746.9999999999832
 31
0.0
  0
LINE
  5
11707
330
116B4
100
AcDbEntity
  8
08非表示
100
AcDbLine
 10
-130.9999999999927
 20
-731.9999999999832
 30
0.0
 11
-130.9999999999927
 21
-686.9999999999832
 31
0.0
  0
LINE
  5
11708
330
116B4
100
AcDbEntity
  8
08非表示
100
AcDbLine
 10
-75.49999999999272
 20
-691.4999999999832
 30
0.0
 11
-75.49999999999272
 21
-746.9999999999832
 31
0.0
  0
LINE
  5
11709
330
116B4
100
AcDbEntity
  8
08非表示
100
AcDbLine
 10
-82.99999999999272
 20
-686.9999999999832
 30
0.0
 11
-82.99999999999272
 21
-691.4999999999832
 31
0.0
  0
ARC
  5
1170A
330
116B4
100
AcDbEntity
  8
08非表示
100
AcDbCircle
 10
-75.49999999999272
 20
-691.4999999999832
 30
0.0
 40
4.5
100
AcDbArc
 50
0.0
 51
90.0
  0
LINE
  5
1170B
330
116B4
100
AcDbEntity
  8
08非表示
100
AcDbLine
 10
-70.99999999999272
 20
-746.9999999999832
 30
0.0
 11
-75.49999999999272
 21
-746.9999999999832
 31
0.0
  0
ARC
  5
1170C
330
116B4
100
AcDbEntity
  8
08非表示
100
AcDbCircle
 10
-115.9999999999927
 20
-731.9999999999832
 30
0.0
 40
15.0
100
AcDbArc
 50
180.0
 51
270.0
  0
LINE
  5
1170D
330
116B4
100
AcDbEntity
  8
08非表示
100
AcDbLine
 10
-82.99999999999272
 20
-691.4999999999832
 30
0.0
 11
-82.99999999999272
 21
-693.9999999999832
 31
0.0
  0
ARC
  5
1170E
330
116B4
100
AcDbEntity
  8
08非表示
100
AcDbCircle
 10
-80.49999999999272
 20
-741.9999999999832
 30
0.0
 40
5.0
100
AcDbArc
 50
270.0
 51
0.0
  0
ARC
  5
1170F
330
116B4
100
AcDbEntity
  8
08非表示
100
AcDbCircle
 10
-77.99999999999272
 20
-693.9999999999832
 30
0.0
 40
5.0
100
AcDbArc
 50
180.0
 51
270.0
  0
LINE
  5
11710
330
116B4
100
AcDbEntity
  8
08非表示
100
AcDbLine
 10
-75.49999999999272
 20
-691.4999999999832
 30
0.0
 11
-82.99999999999272
 21
-691.4999999999832
 31
0.0
  0
LINE
  5
11711
330
116B4
100
AcDbEntity
  8
08非表示
100
AcDbLine
 10
-70.99999999999272
 20
-698.9999999999832
 30
0.0
 11
-77.99999999999272
 21
-698.9999999999832
 31
0.0
  0
LINE
  5
11712
330
116B4
100
AcDbEntity
  8
08非表示
100
AcDbLine
 10
-75.49999999999272
 20
-746.9999999999832
 30
0.0
 11
-75.44999999999254
 21
-746.9999999999832
 31
0.0
  0
LINE
  5
11713
330
116B4
100
AcDbEntity
  8
08非表示
100
AcDbLine
 10
-70.99999999999272
 20
-691.4999999999832
 30
0.0
 11
-70.99999999999272
 21
-686.9999999999832
 31
0.0
  0
LINE
  5
11714
330
116B4
100
AcDbEntity
  8
08非表示
100
AcDbLine
 10
-75.49999999999272
 20
-686.9999999999832
 30
0.0
 11
-70.99999999999272
 21
-686.9999999999832
 31
0.0
  0
LINE
  5
11715
330
116B4
100
AcDbEntity
  8
08非表示
100
AcDbLine
 10
-130.9999999999927
 20
-42.00000000001819
 30
0.0
 11
-75.49999999999272
 21
-42.00000000001819
 31
0.0
  0
LINE
  5
11716
330
116B4
100
AcDbEntity
  8
08非表示
100
AcDbLine
 10
-70.99999999999272
 20
-37.50000000001819
 30
0.0
 11
-70.99999999999272
 21
17.99999999998181
 31
0.0
  0
LINE
  5
11717
330
116B4
100
AcDbEntity
  8
08非表示
100
AcDbLine
 10
-80.49999999999272
 20
17.99999999998181
 30
0.0
 11
-115.9999999999927
 21
17.99999999998181
 31
0.0
  0
LINE
  5
11718
330
116B4
100
AcDbEntity
  8
08非表示
100
AcDbLine
 10
-130.9999999999927
 20
2.99999999998181
 30
0.0
 11
-130.9999999999927
 21
-42.00000000001819
 31
0.0
  0
LINE
  5
11719
330
116B4
100
AcDbEntity
  8
08非表示
100
AcDbLine
 10
-75.49999999999272
 20
-37.50000000001819
 30
0.0
 11
-75.49999999999272
 21
17.99999999998181
 31
0.0
  0
LINE
  5
1171A
330
116B4
100
AcDbEntity
  8
08非表示
100
AcDbLine
 10
-82.99999999999272
 20
-42.00000000001819
 30
0.0
 11
-82.99999999999272
 21
-37.50000000001819
 31
0.0
  0
ARC
  5
1171B
330
116B4
100
AcDbEntity
  8
08非表示
100
AcDbCircle
 10
-75.49999999999272
 20
-37.50000000001819
 30
0.0
 40
4.5
100
AcDbArc
 50
270.0
 51
0.0
  0
LINE
  5
1171C
330
116B4
100
AcDbEntity
  8
08非表示
100
AcDbLine
 10
-70.99999999999272
 20
17.99999999998181
 30
0.0
 11
-75.49999999999272
 21
17.99999999998181
 31
0.0
  0
ARC
  5
1171D
330
116B4
100
AcDbEntity
  8
08非表示
100
AcDbCircle
 10
-115.9999999999927
 20
2.99999999998181
 30
0.0
 40
15.0
100
AcDbArc
 50
90.0
 51
180.0
  0
LINE
  5
1171E
330
116B4
100
AcDbEntity
  8
08非表示
100
AcDbLine
 10
-82.99999999999272
 20
-37.50000000001819
 30
0.0
 11
-82.99999999999272
 21
-35.00000000001819
 31
0.0
  0
ARC
  5
1171F
330
116B4
100
AcDbEntity
  8
08非表示
100
AcDbCircle
 10
-80.49999999999272
 20
12.99999999998181
 30
0.0
 40
5.0
100
AcDbArc
 50
0.0
 51
90.0
  0
ARC
  5
11720
330
116B4
100
AcDbEntity
  8
08非表示
100
AcDbCircle
 10
-77.99999999999272
 20
-35.00000000001819
 30
0.0
 40
5.0
100
AcDbArc
 50
90.0
 51
180.0
  0
LINE
  5
11721
330
116B4
100
AcDbEntity
  8
08非表示
100
AcDbLine
 10
-75.49999999999272
 20
-37.50000000001819
 30
0.0
 11
-82.99999999999272
 21
-37.50000000001819
 31
0.0
  0
LINE
  5
11722
330
116B4
100
AcDbEntity
  8
08非表示
100
AcDbLine
 10
-70.99999999999272
 20
-30.00000000001819
 30
0.0
 11
-77.99999999999272
 21
-30.00000000001819
 31
0.0
  0
LINE
  5
11723
330
116B4
100
AcDbEntity
  8
08非表示
100
AcDbLine
 10
-75.49999999999272
 20
17.99999999998181
 30
0.0
 11
-75.44999999999254
 21
17.99999999998181
 31
0.0
  0
LINE
  5
11724
330
116B4
100
AcDbEntity
  8
08非表示
100
AcDbLine
 10
-70.99999999999272
 20
-37.50000000001819
 30
0.0
 11
-70.99999999999272
 21
-42.00000000001819
 31
0.0
  0
LINE
  5
11725
330
116B4
100
AcDbEntity
  8
08非表示
100
AcDbLine
 10
-75.49999999999272
 20
-42.00000000001819
 30
0.0
 11
-70.99999999999272
 21
-42.00000000001819
 31
0.0
  0
LINE
  5
11726
330
116B4
100
AcDbEntity
  8
08非表示
100
AcDbLine
 10
1079.000000000007
 20
-42.00000000001819
 30
0.0
 11
1023.500000000007
 21
-42.00000000001819
 31
0.0
  0
LINE
  5
11727
330
116B4
100
AcDbEntity
  8
08非表示
100
AcDbLine
 10
1019.000000000007
 20
-37.50000000001819
 30
0.0
 11
1019.000000000007
 21
17.99999999998181
 31
0.0
  0
LINE
  5
11728
330
116B4
100
AcDbEntity
  8
08非表示
100
AcDbLine
 10
1028.500000000007
 20
17.99999999998181
 30
0.0
 11
1064.000000000007
 21
17.99999999998181
 31
0.0
  0
LINE
  5
11729
330
116B4
100
AcDbEntity
  8
08非表示
100
AcDbLine
 10
1079.000000000007
 20
2.99999999998181
 30
0.0
 11
1079.000000000007
 21
-42.00000000001819
 31
0.0
  0
LINE
  5
1172A
330
116B4
100
AcDbEntity
  8
08非表示
100
AcDbLine
 10
1023.500000000007
 20
-37.50000000001819
 30
0.0
 11
1023.500000000007
 21
17.99999999998181
 31
0.0
  0
LINE
  5
1172B
330
116B4
100
AcDbEntity
  8
08非表示
100
AcDbLine
 10
1031.000000000007
 20
-42.00000000001819
 30
0.0
 11
1031.000000000007
 21
-37.50000000001819
 31
0.0
  0
ARC
  5
1172C
330
116B4
100
AcDbEntity
  8
08非表示
100
AcDbCircle
 10
1023.500000000007
 20
-37.50000000001819
 30
0.0
 40
4.5
100
AcDbArc
 50
180.0
 51
270.0
  0
LINE
  5
1172D
330
116B4
100
AcDbEntity
  8
08非表示
100
AcDbLine
 10
1019.000000000007
 20
17.99999999998181
 30
0.0
 11
1023.500000000007
 21
17.99999999998181
 31
0.0
  0
ARC
  5
1172E
330
116B4
100
AcDbEntity
  8
08非表示
100
AcDbCircle
 10
1064.000000000007
 20
2.99999999998181
 30
0.0
 40
15.0
100
AcDbArc
 50
0.0
 51
90.0
  0
LINE
  5
1172F
330
116B4
100
AcDbEntity
  8
08非表示
100
AcDbLine
 10
1031.000000000007
 20
-37.50000000001819
 30
0.0
 11
1031.000000000007
 21
-35.00000000001819
 31
0.0
  0
ARC
  5
11730
330
116B4
100
AcDbEntity
  8
08非表示
100
AcDbCircle
 10
1028.500000000007
 20
12.99999999998181
 30
0.0
 40
5.0
100
AcDbArc
 50
90.0
 51
180.0
  0
ARC
  5
11731
330
116B4
100
AcDbEntity
  8
08非表示
100
AcDbCircle
 10
1026.000000000007
 20
-35.00000000001819
 30
0.0
 40
5.0
100
AcDbArc
 50
0.0
 51
90.0
  0
LINE
  5
11732
330
116B4
100
AcDbEntity
  8
08非表示
100
AcDbLine
 10
1023.500000000007
 20
-37.50000000001819
 30
0.0
 11
1031.000000000007
 21
-37.50000000001819
 31
0.0
  0
LINE
  5
11733
330
116B4
100
AcDbEntity
  8
08非表示
100
AcDbLine
 10
1019.000000000007
 20
-30.00000000001819
 30
0.0
 11
1026.000000000007
 21
-30.00000000001819
 31
0.0
  0
LINE
  5
11734
330
116B4
100
AcDbEntity
  8
08非表示
100
AcDbLine
 10
1023.500000000007
 20
17.99999999998181
 30
0.0
 11
1023.450000000007
 21
17.99999999998181
 31
0.0
  0
LINE
  5
11735
330
116B4
100
AcDbEntity
  8
08非表示
100
AcDbLine
 10
1019.000000000007
 20
-37.50000000001819
 30
0.0
 11
1019.000000000007
 21
-42.00000000001819
 31
0.0
  0
LINE
  5
11736
330
116B4
100
AcDbEntity
  8
08非表示
100
AcDbLine
 10
1023.500000000007
 20
-42.00000000001819
 30
0.0
 11
1019.000000000007
 21
-42.00000000001819
 31
0.0
  0
LINE
  5
11737
330
116B4
100
AcDbEntity
  8
08非表示
100
AcDbLine
 10
1079.000000000007
 20
-686.9999999999832
 30
0.0
 11
1023.500000000007
 21
-686.9999999999832
 31
0.0
  0
LINE
  5
11738
330
116B4
100
AcDbEntity
  8
08非表示
100
AcDbLine
 10
1019.000000000007
 20
-691.4999999999832
 30
0.0
 11
1019.000000000007
 21
-746.9999999999832
 31
0.0
  0
LINE
  5
11739
330
116B4
100
AcDbEntity
  8
08非表示
100
AcDbLine
 10
1028.500000000007
 20
-746.9999999999832
 30
0.0
 11
1064.000000000007
 21
-746.9999999999832
 31
0.0
  0
LINE
  5
1173A
330
116B4
100
AcDbEntity
  8
08非表示
100
AcDbLine
 10
1079.000000000007
 20
-731.9999999999832
 30
0.0
 11
1079.000000000007
 21
-686.9999999999832
 31
0.0
  0
LINE
  5
1173B
330
116B4
100
AcDbEntity
  8
08非表示
100
AcDbLine
 10
1023.500000000007
 20
-691.4999999999832
 30
0.0
 11
1023.500000000007
 21
-746.9999999999832
 31
0.0
  0
LINE
  5
1173C
330
116B4
100
AcDbEntity
  8
08非表示
100
AcDbLine
 10
1031.000000000007
 20
-686.9999999999832
 30
0.0
 11
1031.000000000007
 21
-691.4999999999832
 31
0.0
  0
ARC
  5
1173D
330
116B4
100
AcDbEntity
  8
08非表示
100
AcDbCircle
 10
1023.500000000007
 20
-691.4999999999832
 30
0.0
 40
4.5
100
AcDbArc
 50
90.0
 51
180.0
  0
LINE
  5
1173E
330
116B4
100
AcDbEntity
  8
08非表示
100
AcDbLine
 10
1019.000000000007
 20
-746.9999999999832
 30
0.0
 11
1023.500000000007
 21
-746.9999999999832
 31
0.0
  0
ARC
  5
1173F
330
116B4
100
AcDbEntity
  8
08非表示
100
AcDbCircle
 10
1064.000000000007
 20
-731.9999999999832
 30
0.0
 40
15.0
100
AcDbArc
 50
270.0
 51
0.0
  0
LINE
  5
11740
330
116B4
100
AcDbEntity
  8
08非表示
100
AcDbLine
 10
1031.000000000007
 20
-691.4999999999832
 30
0.0
 11
1031.000000000007
 21
-693.9999999999832
 31
0.0
  0
ARC
  5
11741
330
116B4
100
AcDbEntity
  8
08非表示
100
AcDbCircle
 10
1028.500000000007
 20
-741.9999999999832
 30
0.0
 40
5.0
100
AcDbArc
 50
180.0
 51
270.0
  0
ARC
  5
11742
330
116B4
100
AcDbEntity
  8
08非表示
100
AcDbCircle
 10
1026.000000000007
 20
-693.9999999999832
 30
0.0
 40
5.0
100
AcDbArc
 50
270.0
 51
0.0
  0
LINE
  5
11743
330
116B4
100
AcDbEntity
  8
08非表示
100
AcDbLine
 10
1023.500000000007
 20
-691.4999999999832
 30
0.0
 11
1031.000000000007
 21
-691.4999999999832
 31
0.0
  0
LINE
  5
11744
330
116B4
100
AcDbEntity
  8
08非表示
100
AcDbLine
 10
1019.000000000007
 20
-698.9999999999832
 30
0.0
 11
1026.000000000007
 21
-698.9999999999832
 31
0.0
  0
LINE
  5
11745
330
116B4
100
AcDbEntity
  8
08非表示
100
AcDbLine
 10
1023.500000000007
 20
-746.9999999999832
 30
0.0
 11
1023.450000000007
 21
-746.9999999999832
 31
0.0
  0
LINE
  5
11746
330
116B4
100
AcDbEntity
  8
08非表示
100
AcDbLine
 10
1019.000000000007
 20
-691.4999999999832
 30
0.0
 11
1019.000000000007
 21
-686.9999999999832
 31
0.0
  0
LINE
  5
11747
330
116B4
100
AcDbEntity
  8
08非表示
100
AcDbLine
 10
1023.500000000007
 20
-686.9999999999832
 30
0.0
 11
1019.000000000007
 21
-686.9999999999832
 31
0.0
  0
LINE
  5
11748
330
116B4
100
AcDbEntity
  8
08非表示
100
AcDbLine
 10
-130.9999999999927
 20
-731.9999999999832
 30
0.0
 11
-130.9999999999927
 21
-746.9999999999832
 31
0.0
  0
LINE
  5
11749
330
116B4
100
AcDbEntity
  8
08非表示
100
AcDbLine
 10
-130.9999999999927
 20
-746.9999999999832
 30
0.0
 11
-115.9999999999927
 21
-746.9999999999832
 31
0.0
  0
LINE
  5
1174A
330
116B4
100
AcDbEntity
  8
08非表示
100
AcDbLine
 10
-130.9999999999927
 20
2.99999999998181
 30
0.0
 11
-130.9999999999927
 21
17.99999999998181
 31
0.0
  0
LINE
  5
1174B
330
116B4
100
AcDbEntity
  8
08非表示
100
AcDbLine
 10
-130.9999999999927
 20
17.99999999998181
 30
0.0
 11
-115.9999999999927
 21
17.99999999998181
 31
0.0
  0
LINE
  5
1174C
330
116B4
100
AcDbEntity
  8
08非表示
100
AcDbLine
 10
1079.000000000007
 20
2.99999999998181
 30
0.0
 11
1079.000000000007
 21
17.99999999998181
 31
0.0
  0
LINE
  5
1174D
330
116B4
100
AcDbEntity
  8
08非表示
100
AcDbLine
 10
1079.000000000007
 20
17.99999999998181
 30
0.0
 11
1064.000000000007
 21
17.99999999998181
 31
0.0
  0
LINE
  5
1174E
330
116B4
100
AcDbEntity
  8
08非表示
100
AcDbLine
 10
1079.000000000007
 20
-731.9999999999832
 30
0.0
 11
1079.000000000007
 21
-746.9999999999832
 31
0.0
  0
LINE
  5
1174F
330
116B4
100
AcDbEntity
  8
08非表示
100
AcDbLine
 10
1079.000000000007
 20
-746.9999999999832
 30
0.0
 11
1064.000000000007
 21
-746.9999999999832
 31
0.0
  0
ENDBLK
  5
11751
330
116B4
100
AcDbEntity
  8
0
100
AcDbBlockEnd
  0
BLOCK
  5
1195B
330
11753
100
AcDbEntity
  8
0
100
AcDbBlockBegin
  2
1-HTB513側面長手側
 70
     0
 10
0.0
 20
0.0
 30
0.0
  3
1-HTB513側面長手側
  1

  0
LINE
  5
11785
330
11753
100
AcDbEntity
  8
08非表示
100
AcDbLine
 10
1019.000000000005
 20
-143.0000000000077
 30
0.0
 11
-70.99999999998909
 21
-143.0000000000005
 31
0.0
  0
LINE
  5
11786
330
11753
100
AcDbEntity
  8
08非表示
 48
0.5
100
AcDbLine
 10
-30.99999999998727
 20
-94.24999999999864
 30
0.0
 11
-30.99999999999091
 21
-161.7499999999986
 31
0.0
  0
LINE
  5
11787
330
11753
100
AcDbEntity
  8
08非表示
 48
0.5
100
AcDbLine
 10
0.0
 20
9.999999999999545
 30
0.0
 11
0.0
 21
-40.00000000000318
 31
0.0
  0
LINE
  5
11788
330
11753
100
AcDbEntity
  8
08非表示
100
AcDbLine
 10
135.0000000000109
 20
-113.0000000000023
 30
0.0
 11
773.0000000000055
 21
-113.0000000000041
 31
0.0
  0
LINE
  5
11789
330
11753
100
AcDbEntity
  8
08非表示
100
AcDbLine
 10
135.0000000000109
 20
-30.00000000001137
 30
0.0
 11
773.0000000000055
 21
-30.00000000000773
 31
0.0
  0
LINE
  5
1178A
330
11753
100
AcDbEntity
  8
08非表示
100
AcDbLine
 10
-70.99999999998727
 20
0.0000000000004547
 30
0.0
 11
1019.000000000004
 21
-0.0000000000068212
 31
0.0
  0
LINE
  5
1178B
330
11753
100
AcDbEntity
  8
08非表示
 48
0.5
100
AcDbLine
 10
979.0000000000018
 20
-94.250000000005
 30
0.0
 11
979.0000000000055
 21
-161.750000000005
 31
0.0
  0
LINE
  5
1178C
330
11753
100
AcDbEntity
  8
08非表示
 48
0.5
100
AcDbLine
 10
948.00000000004
 20
9.99999999999227
 30
0.0
 11
948.0000000000382
 21
-40.00000000000955
 31
0.0
  0
LINE
  5
1178D
330
11753
100
AcDbEntity
  8
08非表示
100
AcDbLine
 10
1019.000000000004
 20
-30.00000000000773
 30
0.0
 11
1019.000000000004
 21
-0.0000000000077307
 31
0.0
  0
LINE
  5
1178E
330
11753
100
AcDbEntity
  8
08非表示
100
AcDbLine
 10
1019.000000000005
 20
-113.0000000000059
 30
0.0
 11
1019.000000000005
 21
-143.0000000000077
 31
0.0
  0
LINE
  5
1178F
330
11753
100
AcDbEntity
  8
08非表示
100
AcDbLine
 10
-70.99999999998727
 20
-30.00000000000045
 30
0.0
 11
-70.99999999998727
 21
-0.0000000000004547
 31
0.0
  0
LINE
  5
11790
330
11753
100
AcDbEntity
  8
08非表示
100
AcDbLine
 10
-70.99999999998909
 20
-112.9999999999995
 30
0.0
 11
-70.99999999998909
 21
-143.0000000000005
 31
0.0
  0
LINE
  5
11791
330
11753
100
AcDbEntity
  8
08非表示
100
AcDbLine
 10
845.0000000000055
 20
-30.00000000000955
 30
0.0
 11
1019.000000000004
 21
-30.00000000000773
 31
0.0
  0
LINE
  5
11792
330
11753
100
AcDbEntity
  8
08非表示
100
AcDbLine
 10
845.0000000000055
 20
-113.0000000000041
 30
0.0
 11
1019.000000000005
 21
-113.0000000000059
 31
0.0
  0
LINE
  5
11793
330
11753
100
AcDbEntity
  8
08非表示
100
AcDbLine
 10
-70.99999999998727
 20
-30.00000000000045
 30
0.0
 11
-70.99999999998727
 21
-0.0000000000004547
 31
0.0
  0
LINE
  5
11794
330
11753
100
AcDbEntity
  8
08非表示
100
AcDbLine
 10
-70.99999999998909
 20
-112.9999999999995
 30
0.0
 11
-70.99999999998909
 21
-143.0000000000005
 31
0.0
  0
LINE
  5
11795
330
11753
100
AcDbEntity
  8
08非表示
100
AcDbLine
 10
-70.99999999998909
 20
-113.0000000000005
 30
0.0
 11
-70.99999999998909
 21
-143.0000000000005
 31
0.0
  0
LINE
  5
11796
330
11753
100
AcDbEntity
  8
08非表示
  6
HIDDEN2
 48
0.5
100
AcDbLine
 10
489.0000000000382
 20
-27.49999999996226
 30
0.0
 11
494.0000000000382
 21
-27.49999999996226
 31
0.0
  0
ARC
  5
11797
330
11753
100
AcDbEntity
  8
08非表示
100
AcDbCircle
 10
435.0000000000091
 20
-3.499999999962256
 30
0.0
 40
1.0
100
AcDbArc
 50
90.0
 51
180.0
  0
LINE
  5
11798
330
11753
100
AcDbEntity
  8
08非表示
100
AcDbLine
 10
434.0000000000091
 20
-26.49999999996226
 30
0.0
 11
434.0000000000091
 21
-3.499999999962256
 31
0.0
  0
LINE
  5
11799
330
11753
100
AcDbEntity
  8
08非表示
100
AcDbLine
 10
435.0000000000091
 20
-2.499999999962256
 30
0.0
 11
513.0000000000091
 21
-2.499999999962256
 31
0.0
  0
ARC
  5
1179A
330
11753
100
AcDbEntity
  8
08非表示
100
AcDbCircle
 10
513.0000000000091
 20
-3.499999999962256
 30
0.0
 40
1.0
100
AcDbArc
 50
0.0
 51
90.0
  0
ARC
  5
1179B
330
11753
100
AcDbEntity
  8
08非表示
100
AcDbCircle
 10
513.0000000000091
 20
-26.49999999996226
 30
0.0
 40
1.0
100
AcDbArc
 50
270.0
 51
0.0
  0
LINE
  5
1179C
330
11753
100
AcDbEntity
  8
08非表示
100
AcDbLine
 10
514.0000000000091
 20
-3.499999999962256
 30
0.0
 11
514.0000000000091
 21
-26.49999999996226
 31
0.0
  0
LINE
  5
1179D
330
11753
100
AcDbEntity
  8
08非表示
100
AcDbLine
 10
513.0000000000091
 20
-27.49999999996226
 30
0.0
 11
435.0000000000091
 21
-27.49999999996226
 31
0.0
  0
LINE
  5
1179E
330
11753
100
AcDbEntity
  8
08非表示
100
AcDbLine
 10
519.0000000000091
 20
0.000000000037744
 30
0.0
 11
519.0000000000091
 21
-29.99999999996226
 31
0.0
  0
LINE
  5
1179F
330
11753
100
AcDbEntity
  8
08非表示
100
AcDbLine
 10
519.0000000000091
 20
-26.99999999996226
 30
0.0
 11
519.0000000000091
 21
-2.999999999962256
 31
0.0
  0
LINE
  5
117A0
330
11753
100
AcDbEntity
  8
08非表示
100
AcDbLine
 10
614.0000000000091
 20
-26.99999999996226
 30
0.0
 11
519.0000000000091
 21
-26.99999999996226
 31
0.0
  0
LINE
  5
117A1
330
11753
100
AcDbEntity
  8
08非表示
100
AcDbLine
 10
519.0000000000091
 20
-2.999999999962256
 30
0.0
 11
614.0000000000091
 21
-2.999999999962256
 31
0.0
  0
LINE
  5
117A2
330
11753
100
AcDbEntity
  8
08非表示
100
AcDbLine
 10
614.0000000000091
 20
-2.999999999962256
 30
0.0
 11
614.0000000000091
 21
-26.99999999996226
 31
0.0
  0
LINE
  5
117A3
330
11753
100
AcDbEntity
  8
08非表示
100
AcDbLine
 10
939.0000000000036
 20
-26.50000000000773
 30
0.0
 11
939.0000000000036
 21
-3.500000000007731
 31
0.0
  0
ARC
  5
117A4
330
11753
100
AcDbEntity
  8
08非表示
100
AcDbCircle
 10
940.0000000000036
 20
-26.50000000000773
 30
0.0
 40
1.0
100
AcDbArc
 50
180.0
 51
270.0
  0
ARC
  5
117A5
330
11753
100
AcDbEntity
  8
08非表示
100
AcDbCircle
 10
940.0000000000036
 20
-3.500000000007731
 30
0.0
 40
1.0
100
AcDbArc
 50
90.0
 51
180.0
  0
LINE
  5
117A6
330
11753
100
AcDbEntity
  8
08非表示
100
AcDbLine
 10
1014.000000000004
 20
-0.0000000000077307
 30
0.0
 11
1014.000000000004
 21
-30.00000000000773
 31
0.0
  0
LINE
  5
117A7
330
11753
100
AcDbEntity
  8
08非表示
100
AcDbLine
 10
1014.000000000004
 20
-3.500000000007731
 30
0.0
 11
1014.000000000004
 21
-26.50000000000773
 31
0.0
  0
ARC
  5
117A8
330
11753
100
AcDbEntity
  8
08非表示
100
AcDbCircle
 10
1013.000000000004
 20
-26.50000000000773
 30
0.0
 40
1.0
100
AcDbArc
 50
270.0
 51
0.0
  0
LINE
  5
117A9
330
11753
100
AcDbEntity
  8
08非表示
100
AcDbLine
 10
1013.000000000004
 20
-27.50000000000773
 30
0.0
 11
940.0000000000036
 21
-27.50000000000773
 31
0.0
  0
ARC
  5
117AA
330
11753
100
AcDbEntity
  8
08非表示
100
AcDbCircle
 10
1013.000000000004
 20
-3.500000000007731
 30
0.0
 40
1.0
100
AcDbArc
 50
0.0
 51
90.0
  0
LINE
  5
117AB
330
11753
100
AcDbEntity
  8
08非表示
100
AcDbLine
 10
940.0000000000036
 20
-2.500000000007731
 30
0.0
 11
1013.000000000004
 21
-2.500000000007731
 31
0.0
  0
LINE
  5
117AC
330
11753
100
AcDbEntity
  8
08非表示
100
AcDbLine
 10
1019.000000000004
 20
-113.0000000000077
 30
0.0
 11
1019.000000000004
 21
-143.0000000000077
 31
0.0
  0
LINE
  5
117AD
330
11753
100
AcDbEntity
  8
08非表示
100
AcDbLine
 10
-70.99999999998909
 20
-113.0000000000059
 30
0.0
 11
-70.99999999998909
 21
-143.0000000000077
 31
0.0
  0
LINE
  5
117AE
330
11753
100
AcDbEntity
  8
08非表示
100
AcDbLine
 10
-70.99999999998909
 20
-113.0000000000077
 30
0.0
 11
-70.99999999998909
 21
-143.0000000000077
 31
0.0
  0
LINE
  5
117AF
330
11753
100
AcDbEntity
  8
08非表示
100
AcDbLine
 10
-70.99999999999272
 20
-29.99999999999318
 30
0.0
 11
-70.99999999999272
 21
0.0000000000077307
 31
0.0
  0
LINE
  5
117B0
330
11753
100
AcDbEntity
  8
08非表示
100
AcDbLine
 10
474.0000000000091
 20
-0.0000000000031832
 30
0.0
 11
474.0000000000091
 21
-30.00000000001046
 31
0.0
  0
LINE
  5
117B1
330
11753
100
AcDbEntity
  8
08非表示
100
AcDbLine
 10
63.00000000001091
 20
-30.00000000000773
 30
0.0
 11
-70.99999999999272
 21
-29.99999999999318
 31
0.0
  0
LINE
  5
117B2
330
11753
100
AcDbEntity
  8
08非表示
100
AcDbLine
 10
63.00000000001091
 20
-113.0000000000023
 30
0.0
 11
-70.99999999998909
 21
-113.0000000000077
 31
0.0
  0
LINE
  5
117B3
330
11753
100
AcDbEntity
  8
08非表示
100
AcDbLine
 10
-70.99999999998909
 20
-113.0000000000077
 30
0.0
 11
-56.50592694245461
 21
-113.0000000000023
 31
0.0
  0
LINE
  5
117B4
330
11753
100
AcDbEntity
  8
08非表示
100
AcDbLine
 10
1023.500000000004
 20
-55.50000000000773
 30
0.0
 11
1079.000000000004
 21
-55.50000000000773
 31
0.0
  0
LINE
  5
117B5
330
11753
100
AcDbEntity
  8
08非表示
100
AcDbLine
 10
1023.500000000004
 20
-4.500000000007731
 30
0.0
 11
1023.500000000004
 21
-55.50000000000773
 31
0.0
  0
LINE
  5
117B6
330
11753
100
AcDbEntity
  8
08非表示
100
AcDbLine
 10
1023.500000000004
 20
-60.00000000000773
 30
0.0
 11
1079.000000000004
 21
-60.00000000000773
 31
0.0
  0
LINE
  5
117B7
330
11753
100
AcDbEntity
  8
08非表示
100
AcDbLine
 10
1079.000000000004
 20
-0.0000000000077307
 30
0.0
 11
1023.500000000004
 21
-0.0000000000077307
 31
0.0
  0
LINE
  5
117B8
330
11753
100
AcDbEntity
  8
08非表示
100
AcDbLine
 10
1019.000000000004
 20
-4.500000000007731
 30
0.0
 11
1019.000000000004
 21
-55.50000000000773
 31
0.0
  0
LINE
  5
117B9
330
11753
100
AcDbEntity
  8
08非表示
100
AcDbLine
 10
1072.000000000004
 20
-14.00000000000773
 30
0.0
 11
1034.000000000004
 21
-14.00000000000773
 31
0.0
  0
LINE
  5
117BA
330
11753
100
AcDbEntity
  8
08非表示
100
AcDbLine
 10
1032.000000000004
 20
-25.70000000000755
 30
0.0
 11
1032.000000000004
 21
-16.00000000000773
 31
0.0
  0
LINE
  5
117BB
330
11753
100
AcDbEntity
  8
08非表示
100
AcDbLine
 10
1074.000000000004
 20
-25.70000000000755
 30
0.0
 11
1074.000000000004
 21
-16.00000000000773
 31
0.0
  0
LINE
  5
117BC
330
11753
100
AcDbEntity
  8
08非表示
100
AcDbLine
 10
1079.000000000004
 20
-4.500000000007731
 30
0.0
 11
1023.500000000004
 21
-4.500000000007731
 31
0.0
  0
ARC
  5
117BD
330
11753
100
AcDbEntity
  8
08非表示
100
AcDbCircle
 10
1034.000000000004
 20
-25.70000000000755
 30
0.0
 40
2.0
100
AcDbArc
 50
180.0
 51
270.0
  0
ARC
  5
117BE
330
11753
100
AcDbEntity
  8
08非表示
100
AcDbCircle
 10
1034.000000000004
 20
-16.00000000000773
 30
0.0
 40
2.0
100
AcDbArc
 50
90.0
 51
180.0
  0
ARC
  5
117BF
330
11753
100
AcDbEntity
  8
08非表示
100
AcDbCircle
 10
1072.000000000004
 20
-16.00000000000773
 30
0.0
 40
2.0
100
AcDbArc
 50
0.0
 51
90.0
  0
ARC
  5
117C0
330
11753
100
AcDbEntity
  8
08非表示
100
AcDbCircle
 10
1072.000000000004
 20
-25.70000000000755
 30
0.0
 40
2.0
100
AcDbArc
 50
270.0
 51
0.0
  0
ARC
  5
117C1
330
11753
100
AcDbEntity
  8
08非表示
100
AcDbCircle
 10
1023.500000000004
 20
-4.500000000007731
 30
0.0
 40
4.5
100
AcDbArc
 50
90.0
 51
180.0
  0
ARC
  5
117C2
330
11753
100
AcDbEntity
  8
08非表示
100
AcDbCircle
 10
1023.500000000004
 20
-55.50000000000773
 30
0.0
 40
4.5
100
AcDbArc
 50
180.0
 51
270.0
  0
LINE
  5
117C3
330
11753
100
AcDbEntity
  8
08非表示
100
AcDbLine
 10
1024.000000000004
 20
-12.00000000000773
 30
0.0
 11
1023.500000000004
 21
-12.00000000000773
 31
0.0
  0
LINE
  5
117C4
330
11753
100
AcDbEntity
  8
08非表示
100
AcDbLine
 10
1031.000000000004
 20
-5.000000000007731
 30
0.0
 11
1031.000000000004
 21
-5.000000000007731
 31
0.0
  0
ARC
  5
117C5
330
11753
100
AcDbEntity
  8
08非表示
100
AcDbCircle
 10
1022.102943725156
 20
-3.102943725159548
 30
0.0
 40
9.09705627484773
100
AcDbArc
 50
282.0365239010608
 51
347.9634760988835
  0
ARC
  5
117C6
330
11753
100
AcDbEntity
  8
08非表示
100
AcDbCircle
 10
1024.000000000004
 20
-55.00000000000773
 30
0.0
 40
5.0
100
AcDbArc
 50
0.0
 51
90.0
  0
LINE
  5
117C7
330
11753
100
AcDbEntity
  8
08非表示
100
AcDbLine
 10
1024.000000000004
 20
-50.00000000000773
 30
0.0
 11
1023.500000000004
 21
-50.00000000000773
 31
0.0
  0
LINE
  5
117C8
330
11753
100
AcDbEntity
  8
08非表示
100
AcDbLine
 10
1079.000000000004
 20
-0.0000000000077307
 30
0.0
 11
1079.000000000004
 21
-60.00000000000773
 31
0.0
  0
LINE
  5
117C9
330
11753
100
AcDbEntity
  8
08非表示
  6
CENTER2
100
AcDbLine
 10
1054.003035593609
 20
-71.57400000000735
 30
0.0
 11
1054.003035593609
 21
-43.92600000000721
 31
0.0
  0
ARC
  5
117CA
330
11753
100
AcDbEntity
  8
08非表示
100
AcDbCircle
 10
1036.000000000004
 20
-5.000000000007731
 30
0.0
 40
5.0
100
AcDbArc
 50
174.2608295227331
 51
180.0
  0
ARC
  5
117CB
330
11753
100
AcDbEntity
  8
08非表示
100
AcDbCircle
 10
1034.000000000004
 20
-55.00000000000773
 30
0.0
 40
5.0
100
AcDbArc
 50
180.0
 51
185.7391704772669
  0
LINE
  5
117CC
330
11753
100
AcDbEntity
  8
08非表示
  6
HIDDEN
100
AcDbLine
 10
1042.003035593609
 20
-60.00000000000773
 30
0.0
 11
1042.003035593609
 21
-55.50000000000773
 31
0.0
  0
LINE
  5
117CD
330
11753
100
AcDbEntity
  8
08非表示
  6
HIDDEN
100
AcDbLine
 10
1066.003035593609
 20
-60.00000000000773
 30
0.0
 11
1066.003035593609
 21
-55.50000000000773
 31
0.0
  0
LINE
  5
117CE
330
11753
100
AcDbEntity
  8
08非表示
100
AcDbLine
 10
1019.000000000004
 20
-55.50000000000773
 30
0.0
 11
1019.000000000004
 21
-60.00000000000773
 31
0.0
  0
LINE
  5
117CF
330
11753
100
AcDbEntity
  8
08非表示
100
AcDbLine
 10
1023.500000000004
 20
-0.0000000000077307
 30
0.0
 11
1019.000000000004
 21
-0.0000000000077307
 31
0.0
  0
LINE
  5
117D0
330
11753
100
AcDbEntity
  8
08非表示
100
AcDbLine
 10
1019.000000000004
 20
-4.500000000007731
 30
0.0
 11
1019.000000000004
 21
-0.0000000000077307
 31
0.0
  0
LINE
  5
117D1
330
11753
100
AcDbEntity
  8
08非表示
100
AcDbLine
 10
1023.500000000004
 20
-60.00000000000773
 30
0.0
 11
1019.000000000004
 21
-60.00000000000773
 31
0.0
  0
ARC
  5
117D2
330
11753
100
AcDbEntity
  8
08非表示
100
AcDbCircle
 10
1038.500000000004
 20
-142.0000000000077
 30
0.0
 40
1.0
100
AcDbArc
 50
180.0
 51
270.0
  0
LINE
  5
117D3
330
11753
100
AcDbEntity
  8
08非表示
100
AcDbLine
 10
1023.500000000003
 20
-114.7500000000077
 30
0.0
 11
1023.500000000003
 21
-143.0000000000077
 31
0.0
  0
LINE
  5
117D4
330
11753
100
AcDbEntity
  8
08非表示
100
AcDbLine
 10
1019.000000000003
 20
-112.5000000000077
 30
0.0
 11
1019.000000000003
 21
-143.0000000000077
 31
0.0
  0
LINE
  5
117D5
330
11753
100
AcDbEntity
  8
08非表示
100
AcDbLine
 10
1036.500000000004
 20
-131.0000000000077
 30
0.0
 11
1024.500000000003
 21
-131.0000000000077
 31
0.0
  0
LINE
  5
117D6
330
11753
100
AcDbEntity
  8
08非表示
100
AcDbLine
 10
1019.000000000003
 20
-143.0000000000077
 30
0.0
 11
1023.500000000003
 21
-143.0000000000077
 31
0.0
  0
LINE
  5
117D7
330
11753
100
AcDbEntity
  8
08非表示
100
AcDbLine
 10
1037.500000000004
 20
-132.0000000000077
 30
0.0
 11
1037.500000000004
 21
-142.0000000000077
 31
0.0
  0
ARC
  5
117D8
330
11753
100
AcDbEntity
  8
08非表示
100
AcDbCircle
 10
1036.500000000004
 20
-132.0000000000077
 30
0.0
 40
1.0
100
AcDbArc
 50
0.0
 51
90.0
  0
ARC
  5
117D9
330
11753
100
AcDbEntity
  8
08非表示
100
AcDbCircle
 10
1023.500000000003
 20
-112.5000000000077
 30
0.0
 40
4.5
100
AcDbArc
 50
90.0
 51
180.0
  0
ARC
  5
117DA
330
11753
100
AcDbEntity
  8
08非表示
100
AcDbCircle
 10
1025.750000000003
 20
-114.7500000000077
 30
0.0
 40
2.25
100
AcDbArc
 50
90.0
 51
180.0
  0
LINE
  5
117DB
330
11753
100
AcDbEntity
  8
08非表示
100
AcDbLine
 10
1038.500000000004
 20
-143.0000000000077
 30
0.0
 11
1064.000000000004
 21
-143.0000000000077
 31
0.0
  0
LINE
  5
117DC
330
11753
100
AcDbEntity
  8
08非表示
100
AcDbLine
 10
1065.000000000004
 20
-132.0000000000077
 30
0.0
 11
1065.000000000004
 21
-142.0000000000077
 31
0.0
  0
ARC
  5
117DD
330
11753
100
AcDbEntity
  8
08非表示
100
AcDbCircle
 10
1064.000000000004
 20
-142.0000000000077
 30
0.0
 40
1.0
100
AcDbArc
 50
270.0
 51
0.0
  0
ARC
  5
117DE
330
11753
100
AcDbEntity
  8
08非表示
100
AcDbCircle
 10
1066.000000000004
 20
-132.0000000000077
 30
0.0
 40
1.0
100
AcDbArc
 50
90.0
 51
180.0
  0
LINE
  5
117DF
330
11753
100
AcDbEntity
  8
08非表示
  6
CENTER2
100
AcDbLine
 10
1054.000000000004
 20
-98.25000000000773
 30
0.0
 11
1054.000000000004
 21
-122.2500000000077
 31
0.0
  0
LINE
  5
117E0
330
11753
100
AcDbEntity
  8
08非表示
  6
HIDDEN
100
AcDbLine
 10
1044.000000000004
 20
-112.5000000000077
 30
0.0
 11
1044.000000000004
 21
-108.0000000000077
 31
0.0
  0
LINE
  5
117E1
330
11753
100
AcDbEntity
  8
08非表示
  6
HIDDEN
100
AcDbLine
 10
1064.000000000004
 20
-112.5000000000077
 30
0.0
 11
1064.000000000004
 21
-108.0000000000077
 31
0.0
  0
ARC
  5
117E2
330
11753
100
AcDbEntity
  8
08非表示
100
AcDbCircle
 10
1024.500000000003
 20
-130.0000000000077
 30
0.0
 40
1.0
100
AcDbArc
 50
180.0
 51
270.0
  0
LINE
  5
117E3
330
11753
100
AcDbEntity
  8
08非表示
  6
HIDDEN2
100
AcDbLine
 10
1029.000000000003
 20
-113.0000000000077
 30
0.0
 11
1029.000000000003
 21
-112.5000000000077
 31
0.0
  0
LINE
  5
117E4
330
11753
100
AcDbEntity
  8
08非表示
  6
HIDDEN2
100
AcDbLine
 10
1024.000000000003
 20
-118.0000000000077
 30
0.0
 11
1023.500000000003
 21
-118.0000000000077
 31
0.0
  0
ARC
  5
117E5
330
11753
100
AcDbEntity
  8
08非表示
100
AcDbCircle
 10
1024.000000000003
 20
-113.0000000000077
 30
0.0
 40
5.0
100
AcDbArc
 50
270.0
 51
0.0
  0
LINE
  5
117E6
330
11753
100
AcDbEntity
  8
08非表示
100
AcDbLine
 10
1019.000000000003
 20
-112.5000000000077
 30
0.0
 11
1019.000000000003
 21
-108.0000000000077
 31
0.0
  0
LINE
  5
117E7
330
11753
100
AcDbEntity
  8
08非表示
100
AcDbLine
 10
1023.500000000003
 20
-108.0000000000077
 30
0.0
 11
1019.000000000003
 21
-108.0000000000077
 31
0.0
  0
LINE
  5
117E8
330
11753
100
AcDbEntity
  8
08非表示
100
AcDbLine
 10
1025.750000000003
 20
-112.5000000000077
 30
0.0
 11
1079.000000000004
 21
-112.5000000000077
 31
0.0
  0
LINE
  5
117E9
330
11753
100
AcDbEntity
  8
08非表示
100
AcDbLine
 10
1023.500000000003
 20
-108.0000000000077
 30
0.0
 11
1079.000000000004
 21
-108.0000000000077
 31
0.0
  0
LINE
  5
117EA
330
11753
100
AcDbEntity
  8
08非表示
100
AcDbLine
 10
1023.500000000003
 20
-108.0000000000077
 30
0.0
 11
1079.000000000004
 21
-108.0000000000077
 31
0.0
  0
LINE
  5
117EB
330
11753
100
AcDbEntity
  8
08非表示
100
AcDbLine
 10
1079.000000000004
 20
-130.0000000000077
 30
0.0
 11
1079.000000000004
 21
-108.0000000000077
 31
0.0
  0
LINE
  5
117EC
330
11753
100
AcDbEntity
  8
08非表示
100
AcDbLine
 10
1078.000000000004
 20
-131.0000000000077
 30
0.0
 11
1066.000000000004
 21
-131.0000000000077
 31
0.0
  0
ARC
  5
117ED
330
11753
100
AcDbEntity
  8
08非表示
100
AcDbCircle
 10
1078.000000000004
 20
-130.0000000000077
 30
0.0
 40
1.0
100
AcDbArc
 50
270.0
 51
0.0
  0
LINE
  5
117EE
330
11753
100
AcDbEntity
  8
08非表示
  6
CENTER
100
AcDbLine
 10
1054.000000000004
 20
-15.50000000000773
 30
0.0
 11
1054.000000000004
 21
-140.5000000000077
 31
0.0
  0
LINE
  5
117EF
330
11753
100
AcDbEntity
  8
08非表示
100
AcDbLine
 10
1060.000000000004
 20
-130.5000000000077
 30
0.0
 11
1048.000000000004
 21
-130.5000000000077
 31
0.0
  0
LINE
  5
117F0
330
11753
100
AcDbEntity
  8
08非表示
100
AcDbLine
 10
1046.000000000004
 20
-128.5000000000077
 30
0.0
 11
1062.000000000004
 21
-128.5000000000077
 31
0.0
  0
LINE
  5
117F1
330
11753
100
AcDbEntity
  8
08非表示
100
AcDbLine
 10
1048.000000000004
 20
-130.5000000000077
 30
0.0
 11
1046.000000000004
 21
-128.5000000000077
 31
0.0
  0
LINE
  5
117F2
330
11753
100
AcDbEntity
  8
08非表示
100
AcDbLine
 10
1062.000000000004
 20
-128.5000000000077
 30
0.0
 11
1060.000000000004
 21
-130.5000000000077
 31
0.0
  0
LINE
  5
117F3
330
11753
100
AcDbEntity
  8
08非表示
  6
Continuous
100
AcDbLine
 10
1060.917500000003
 20
-60.00000000000773
 30
0.0
 11
1060.917500000003
 21
-78.50000000000773
 31
0.0
  0
LINE
  5
117F4
330
11753
100
AcDbEntity
  8
08非表示
  6
Continuous
100
AcDbLine
 10
1047.082500000004
 20
-60.00000000000773
 30
0.0
 11
1047.082500000004
 21
-78.50000000000773
 31
0.0
  0
LINE
  5
117F5
330
11753
100
AcDbEntity
  8
08非表示
100
AcDbLine
 10
1062.000000000004
 20
-60.00000000000773
 30
0.0
 11
1062.000000000004
 21
-78.50000000000773
 31
0.0
  0
LINE
  5
117F6
330
11753
100
AcDbEntity
  8
08非表示
100
AcDbLine
 10
1046.000000000005
 20
-78.50000000000773
 30
0.0
 11
1046.000000000005
 21
-60.00000000000773
 31
0.0
  0
LINE
  5
117F7
330
11753
100
AcDbEntity
  8
08非表示
100
AcDbLine
 10
1040.153035593608
 20
-27.70000000000755
 30
0.0
 11
1034.000000000004
 21
-27.70000000000755
 31
0.0
  0
LINE
  5
117F8
330
11753
100
AcDbEntity
  8
08非表示
100
AcDbLine
 10
1072.000000000004
 20
-27.70000000000755
 30
0.0
 11
1067.853035593608
 21
-27.70000000000755
 31
0.0
  0
ARC
  5
117F9
330
11753
100
AcDbEntity
  8
08非表示
100
AcDbCircle
 10
1074.400000000003
 20
-138.4000000000077
 30
0.0
 40
2.300000000000001
100
AcDbArc
 50
270.0
 51
0.0
  0
LINE
  5
117FA
330
11753
100
AcDbEntity
  8
08非表示
100
AcDbLine
 10
1076.700000000003
 20
-131.0000000000077
 30
0.0
 11
1076.700000000003
 21
-138.4000000000077
 31
0.0
  0
LINE
  5
117FB
330
11753
100
AcDbEntity
  8
08非表示
100
AcDbLine
 10
1065.000000000003
 20
-140.7000000000078
 30
0.0
 11
1074.400000000003
 21
-140.7000000000078
 31
0.0
  0
LINE
  5
117FC
330
11753
100
AcDbEntity
  8
08非表示
100
AcDbLine
 10
1064.000000000003
 20
-143.0000000000077
 30
0.0
 11
1074.400000000003
 21
-143.0000000000077
 31
0.0
  0
LINE
  5
117FD
330
11753
100
AcDbEntity
  8
08非表示
100
AcDbLine
 10
1079.000000000003
 20
-130.0000000000077
 30
0.0
 11
1079.000000000003
 21
-138.4000000000077
 31
0.0
  0
ARC
  5
117FE
330
11753
100
AcDbEntity
  8
08非表示
100
AcDbCircle
 10
1074.400000000003
 20
-138.4000000000077
 30
0.0
 40
4.600000000000002
100
AcDbArc
 50
270.0
 51
0.0
  0
LINE
  5
117FF
330
11753
100
AcDbEntity
  8
08非表示
100
AcDbLine
 10
1023.500000000003
 20
-143.0000000000077
 30
0.0
 11
1038.500000000003
 21
-143.0000000000077
 31
0.0
  0
LINE
  5
11800
330
11753
100
AcDbEntity
  8
08非表示
100
AcDbLine
 10
1023.500000000003
 20
-140.7000000000078
 30
0.0
 11
1037.500000000003
 21
-140.7000000000078
 31
0.0
  0
LINE
  5
11801
330
11753
100
AcDbEntity
  8
08非表示
100
AcDbLine
 10
-130.9999999999927
 20
-55.49999999999227
 30
0.0
 11
-75.49999999999272
 21
-55.49999999999227
 31
0.0
  0
LINE
  5
11802
330
11753
100
AcDbEntity
  8
08非表示
100
AcDbLine
 10
-75.49999999999272
 20
-59.99999999999227
 30
0.0
 11
-75.49999999999272
 21
0.0000000000077307
 31
0.0
  0
LINE
  5
11803
330
11753
100
AcDbEntity
  8
08非表示
100
AcDbLine
 10
-75.49999999999272
 20
-4.499999999992269
 30
0.0
 11
-130.9999999999927
 21
-4.499999999992269
 31
0.0
  0
LINE
  5
11804
330
11753
100
AcDbEntity
  8
08非表示
100
AcDbLine
 10
-130.9999999999927
 20
-59.99999999999227
 30
0.0
 11
-70.99999999999272
 21
-59.99999999999227
 31
0.0
  0
LINE
  5
11805
330
11753
100
AcDbEntity
  8
08非表示
100
AcDbLine
 10
-70.99999999999272
 20
-59.99999999999227
 30
0.0
 11
-70.99999999999272
 21
0.0000000000077307
 31
0.0
  0
LINE
  5
11806
330
11753
100
AcDbEntity
  8
08非表示
100
AcDbLine
 10
-70.99999999999272
 20
0.0000000000077307
 30
0.0
 11
-130.9999999999927
 21
0.0000000000077307
 31
0.0
  0
LINE
  5
11807
330
11753
100
AcDbEntity
  8
08非表示
100
AcDbLine
 10
-130.9999999999927
 20
0.0000000000077307
 30
0.0
 11
-130.9999999999927
 21
-59.99999999999227
 31
0.0
  0
LINE
  5
11808
330
11753
100
AcDbEntity
  8
08非表示
100
AcDbLine
 10
-123.9999999999927
 20
-13.99999999999227
 30
0.0
 11
-85.99999999999272
 21
-13.99999999999227
 31
0.0
  0
LINE
  5
11809
330
11753
100
AcDbEntity
  8
08非表示
100
AcDbLine
 10
-83.99999999999272
 20
-25.69999999999209
 30
0.0
 11
-83.99999999999272
 21
-15.99999999999227
 31
0.0
  0
ARC
  5
1180A
330
11753
100
AcDbEntity
  8
08非表示
100
AcDbCircle
 10
-85.99999999999272
 20
-25.69999999999209
 30
0.0
 40
2.0
100
AcDbArc
 50
270.0
 51
0.0
  0
ARC
  5
1180B
330
11753
100
AcDbEntity
  8
08非表示
100
AcDbCircle
 10
-85.99999999999272
 20
-15.99999999999227
 30
0.0
 40
2.0
100
AcDbArc
 50
0.0
 51
90.0
  0
LINE
  5
1180C
330
11753
100
AcDbEntity
  8
08非表示
100
AcDbLine
 10
-125.9999999999927
 20
-25.69999999999209
 30
0.0
 11
-125.9999999999927
 21
-15.99999999999227
 31
0.0
  0
ARC
  5
1180D
330
11753
100
AcDbEntity
  8
08非表示
100
AcDbCircle
 10
-123.9999999999927
 20
-25.69999999999209
 30
0.0
 40
2.0
100
AcDbArc
 50
180.0
 51
270.0
  0
ARC
  5
1180E
330
11753
100
AcDbEntity
  8
08非表示
100
AcDbCircle
 10
-123.9999999999927
 20
-15.99999999999227
 30
0.0
 40
2.0
100
AcDbArc
 50
90.0
 51
180.0
  0
LINE
  5
1180F
330
11753
100
AcDbEntity
  8
08非表示
  6
HIDDEN
100
AcDbLine
 10
-117.9999999999927
 20
-59.99999999999227
 30
0.0
 11
-117.9999999999927
 21
-55.49999999999227
 31
0.0
  0
LINE
  5
11810
330
11753
100
AcDbEntity
  8
08非表示
  6
HIDDEN
100
AcDbLine
 10
-93.99999999999272
 20
-59.99999999999227
 30
0.0
 11
-93.99999999999272
 21
-55.49999999999227
 31
0.0
  0
LINE
  5
11811
330
11753
100
AcDbEntity
  8
08非表示
100
AcDbLine
 10
-75.99999999999272
 20
-11.99999999999227
 30
0.0
 11
-75.49999999999272
 21
-11.99999999999227
 31
0.0
  0
LINE
  5
11812
330
11753
100
AcDbEntity
  8
08非表示
100
AcDbLine
 10
-82.99999999999272
 20
-4.999999999992269
 30
0.0
 11
-82.99999999999272
 21
-4.499999999992269
 31
0.0
  0
ARC
  5
11813
330
11753
100
AcDbEntity
  8
08非表示
100
AcDbCircle
 10
-74.10294372514363
 20
-3.102943725144087
 30
0.0
 40
9.097056274847697
100
AcDbArc
 50
192.0365239011203
 51
257.9634760989392
  0
LINE
  5
11814
330
11753
100
AcDbEntity
  8
08非表示
100
AcDbLine
 10
-75.99999999999272
 20
-49.99999999999227
 30
0.0
 11
-75.49999999999272
 21
-49.99999999999227
 31
0.0
  0
LINE
  5
11815
330
11753
100
AcDbEntity
  8
08非表示
100
AcDbLine
 10
-80.99999999999272
 20
-54.99999999999227
 30
0.0
 11
-80.99999999999272
 21
-55.49999999999227
 31
0.0
  0
ARC
  5
11816
330
11753
100
AcDbEntity
  8
08非表示
100
AcDbCircle
 10
-75.99999999999272
 20
-54.99999999999227
 30
0.0
 40
5.0
100
AcDbArc
 50
90.0
 51
180.0
  0
LINE
  5
11817
330
11753
100
AcDbEntity
  8
08非表示
  6
CENTER2
100
AcDbLine
 10
-105.9999999999927
 20
-71.57399999999188
 30
0.0
 11
-105.9999999999927
 21
-43.92599999999175
 31
0.0
  0
LINE
  5
11818
330
11753
100
AcDbEntity
  8
08非表示
100
AcDbLine
 10
-90.49999999999272
 20
-142.9999999999923
 30
0.0
 11
-115.9999999999927
 21
-142.9999999999923
 31
0.0
  0
LINE
  5
11819
330
11753
100
AcDbEntity
  8
08非表示
100
AcDbLine
 10
-77.74999999999272
 20
-112.4999999999923
 30
0.0
 11
-130.9999999999927
 21
-112.4999999999923
 31
0.0
  0
LINE
  5
1181A
330
11753
100
AcDbEntity
  8
08非表示
100
AcDbLine
 10
-75.49999999999272
 20
-107.9999999999923
 30
0.0
 11
-130.9999999999927
 21
-107.9999999999923
 31
0.0
  0
LINE
  5
1181B
330
11753
100
AcDbEntity
  8
08非表示
100
AcDbLine
 10
-75.49999999999272
 20
-107.9999999999923
 30
0.0
 11
-130.9999999999927
 21
-107.9999999999923
 31
0.0
  0
LINE
  5
1181C
330
11753
100
AcDbEntity
  8
08非表示
100
AcDbLine
 10
-130.9999999999927
 20
-129.9999999999923
 30
0.0
 11
-130.9999999999927
 21
-107.9999999999923
 31
0.0
  0
LINE
  5
1181D
330
11753
100
AcDbEntity
  8
08非表示
100
AcDbLine
 10
-129.9999999999927
 20
-130.9999999999923
 30
0.0
 11
-117.9999999999927
 21
-130.9999999999923
 31
0.0
  0
LINE
  5
1181E
330
11753
100
AcDbEntity
  8
08非表示
100
AcDbLine
 10
-116.9999999999927
 20
-131.9999999999923
 30
0.0
 11
-116.9999999999927
 21
-141.9999999999923
 31
0.0
  0
ARC
  5
1181F
330
11753
100
AcDbEntity
  8
08非表示
100
AcDbCircle
 10
-115.9999999999927
 20
-141.9999999999923
 30
0.0
 40
1.0
100
AcDbArc
 50
180.0
 51
270.0
  0
ARC
  5
11820
330
11753
100
AcDbEntity
  8
08非表示
100
AcDbCircle
 10
-117.9999999999927
 20
-131.9999999999923
 30
0.0
 40
1.0
100
AcDbArc
 50
0.0
 51
90.0
  0
LINE
  5
11821
330
11753
100
AcDbEntity
  8
08非表示
  6
HIDDEN
100
AcDbLine
 10
-115.9999999999927
 20
-112.4999999999923
 30
0.0
 11
-115.9999999999927
 21
-107.9999999999923
 31
0.0
  0
LINE
  5
11822
330
11753
100
AcDbEntity
  8
08非表示
100
AcDbLine
 10
-70.99999999999272
 20
-112.4999999999923
 30
0.0
 11
-70.99999999999272
 21
-142.9999999999923
 31
0.0
  0
LINE
  5
11823
330
11753
100
AcDbEntity
  8
08非表示
100
AcDbLine
 10
-75.49999999999272
 20
-114.7499999999923
 30
0.0
 11
-75.49999999999272
 21
-142.9999999999923
 31
0.0
  0
LINE
  5
11824
330
11753
100
AcDbEntity
  8
08非表示
100
AcDbLine
 10
-88.49999999999272
 20
-130.9999999999923
 30
0.0
 11
-76.49999999999272
 21
-130.9999999999923
 31
0.0
  0
LINE
  5
11825
330
11753
100
AcDbEntity
  8
08非表示
100
AcDbLine
 10
-89.49999999999272
 20
-131.9999999999923
 30
0.0
 11
-89.49999999999272
 21
-141.9999999999923
 31
0.0
  0
ARC
  5
11826
330
11753
100
AcDbEntity
  8
08非表示
100
AcDbCircle
 10
-90.49999999999272
 20
-141.9999999999923
 30
0.0
 40
1.0
100
AcDbArc
 50
270.0
 51
0.0
  0
ARC
  5
11827
330
11753
100
AcDbEntity
  8
08非表示
100
AcDbCircle
 10
-88.49999999999272
 20
-131.9999999999923
 30
0.0
 40
1.0
100
AcDbArc
 50
90.0
 51
180.0
  0
LINE
  5
11828
330
11753
100
AcDbEntity
  8
08非表示
100
AcDbLine
 10
-70.99999999999272
 20
-142.9999999999923
 30
0.0
 11
-75.49999999999272
 21
-142.9999999999923
 31
0.0
  0
LINE
  5
11829
330
11753
100
AcDbEntity
  8
08非表示
  6
HIDDEN
100
AcDbLine
 10
-95.99999999999272
 20
-112.4999999999923
 30
0.0
 11
-95.99999999999272
 21
-107.9999999999923
 31
0.0
  0
LINE
  5
1182A
330
11753
100
AcDbEntity
  8
08非表示
  6
CENTER2
100
AcDbLine
 10
-105.9999999999927
 20
-98.24999999999227
 30
0.0
 11
-105.9999999999927
 21
-122.2499999999923
 31
0.0
  0
ARC
  5
1182B
330
11753
100
AcDbEntity
  8
08非表示
100
AcDbCircle
 10
-75.49999999999272
 20
-112.4999999999923
 30
0.0
 40
4.5
100
AcDbArc
 50
0.0
 51
90.0
  0
ARC
  5
1182C
330
11753
100
AcDbEntity
  8
08非表示
100
AcDbCircle
 10
-77.74999999999272
 20
-114.7499999999923
 30
0.0
 40
2.25
100
AcDbArc
 50
0.0
 51
90.0
  0
ARC
  5
1182D
330
11753
100
AcDbEntity
  8
08非表示
100
AcDbCircle
 10
-129.9999999999927
 20
-129.9999999999923
 30
0.0
 40
1.0
100
AcDbArc
 50
180.0
 51
270.0
  0
ARC
  5
1182E
330
11753
100
AcDbEntity
  8
08非表示
100
AcDbCircle
 10
-76.49999999999272
 20
-129.9999999999923
 30
0.0
 40
1.0
100
AcDbArc
 50
270.0
 51
0.0
  0
LINE
  5
1182F
330
11753
100
AcDbEntity
  8
08非表示
100
AcDbLine
 10
-75.99999999999272
 20
-117.9999999999923
 30
0.0
 11
-75.49999999999272
 21
-117.9999999999923
 31
0.0
  0
LINE
  5
11830
330
11753
100
AcDbEntity
  8
08非表示
100
AcDbLine
 10
-80.99999999999272
 20
-112.9999999999923
 30
0.0
 11
-80.99999999999272
 21
-112.4999999999923
 31
0.0
  0
ARC
  5
11831
330
11753
100
AcDbEntity
  8
08非表示
100
AcDbCircle
 10
-75.99999999999272
 20
-112.9999999999923
 30
0.0
 40
5.0
100
AcDbArc
 50
180.0
 51
270.0
  0
LINE
  5
11832
330
11753
100
AcDbEntity
  8
08非表示
100
AcDbLine
 10
-70.99999999999272
 20
-112.4999999999923
 30
0.0
 11
-70.99999999999272
 21
-107.9999999999923
 31
0.0
  0
LINE
  5
11833
330
11753
100
AcDbEntity
  8
08非表示
100
AcDbLine
 10
-75.49999999999272
 20
-107.9999999999923
 30
0.0
 11
-70.99999999999272
 21
-107.9999999999923
 31
0.0
  0
LINE
  5
11834
330
11753
100
AcDbEntity
  8
08非表示
100
AcDbLine
 10
-92.14999999999327
 20
-27.69999999999209
 30
0.0
 11
-85.99999999999272
 21
-27.69999999999209
 31
0.0
  0
LINE
  5
11835
330
11753
100
AcDbEntity
  8
08非表示
100
AcDbLine
 10
-123.9999999999927
 20
-27.69999999999209
 30
0.0
 11
-119.8499999999931
 21
-27.69999999999209
 31
0.0
  0
LINE
  5
11836
330
11753
100
AcDbEntity
  8
08非表示
  6
Continuous
100
AcDbLine
 10
-99.08249999999316
 20
-59.99999999999227
 30
0.0
 11
-99.08249999999316
 21
-78.49999999999227
 31
0.0
  0
LINE
  5
11837
330
11753
100
AcDbEntity
  8
08非表示
100
AcDbLine
 10
-97.99999999999272
 20
-59.99999999999227
 30
0.0
 11
-97.99999999999272
 21
-78.49999999999227
 31
0.0
  0
LINE
  5
11838
330
11753
100
AcDbEntity
  8
08非表示
  6
Continuous
100
AcDbLine
 10
-112.9174999999923
 20
-59.99999999999227
 30
0.0
 11
-112.9174999999923
 21
-78.49999999999227
 31
0.0
  0
LINE
  5
11839
330
11753
100
AcDbEntity
  8
08非表示
100
AcDbLine
 10
-113.9999999999923
 20
-78.49999999999227
 30
0.0
 11
-113.9999999999918
 21
-59.99999999999227
 31
0.0
  0
LINE
  5
1183A
330
11753
100
AcDbEntity
  8
08非表示
100
AcDbLine
 10
-99.99999999999272
 20
-130.4999999999923
 30
0.0
 11
-111.9999999999927
 21
-130.4999999999923
 31
0.0
  0
LINE
  5
1183B
330
11753
100
AcDbEntity
  8
08非表示
100
AcDbLine
 10
-113.9999999999927
 20
-128.4999999999923
 30
0.0
 11
-97.99999999999272
 21
-128.4999999999923
 31
0.0
  0
LINE
  5
1183C
330
11753
100
AcDbEntity
  8
08非表示
100
AcDbLine
 10
-111.9999999999927
 20
-130.4999999999923
 30
0.0
 11
-113.9999999999927
 21
-128.4999999999923
 31
0.0
  0
LINE
  5
1183D
330
11753
100
AcDbEntity
  8
08非表示
100
AcDbLine
 10
-97.99999999999272
 20
-128.4999999999923
 30
0.0
 11
-99.99999999999272
 21
-130.4999999999923
 31
0.0
  0
LINE
  5
1183E
330
11753
100
AcDbEntity
  8
08非表示
  6
CENTER
100
AcDbLine
 10
-105.9999999999927
 20
-15.49999999999216
 30
0.0
 11
-105.9999999999927
 21
-140.4999999999923
 31
0.0
  0
LINE
  5
1183F
330
11753
100
AcDbEntity
  8
08非表示
100
AcDbLine
 10
-75.49999999999272
 20
-140.6999999999923
 30
0.0
 11
-89.49999999999318
 21
-140.6999999999923
 31
0.0
  0
LINE
  5
11840
330
11753
100
AcDbEntity
  8
08非表示
100
AcDbLine
 10
-75.49999999999272
 20
-142.9999999999923
 30
0.0
 11
-90.49999999999318
 21
-142.9999999999923
 31
0.0
  0
LINE
  5
11841
330
11753
100
AcDbEntity
  8
08非表示
100
AcDbLine
 10
-115.9999999999932
 20
-142.9999999999923
 30
0.0
 11
-126.3999999999933
 21
-142.9999999999923
 31
0.0
  0
ARC
  5
11842
330
11753
100
AcDbEntity
  8
08非表示
100
AcDbCircle
 10
-126.3999999999933
 20
-138.3999999999922
 30
0.0
 40
4.600000000000002
100
AcDbArc
 50
180.0
 51
270.0
  0
LINE
  5
11843
330
11753
100
AcDbEntity
  8
08非表示
100
AcDbLine
 10
-130.9999999999932
 20
-129.9999999999923
 30
0.0
 11
-130.9999999999932
 21
-138.3999999999922
 31
0.0
  0
LINE
  5
11844
330
11753
100
AcDbEntity
  8
08非表示
100
AcDbLine
 10
-116.9999999999932
 20
-140.6999999999923
 30
0.0
 11
-126.3999999999933
 21
-140.6999999999923
 31
0.0
  0
LINE
  5
11845
330
11753
100
AcDbEntity
  8
08非表示
100
AcDbLine
 10
-128.6999999999935
 20
-130.9999999999923
 30
0.0
 11
-128.6999999999935
 21
-138.3999999999922
 31
0.0
  0
ARC
  5
11846
330
11753
100
AcDbEntity
  8
08非表示
100
AcDbCircle
 10
-126.3999999999933
 20
-138.3999999999922
 30
0.0
 40
2.300000000000001
100
AcDbArc
 50
180.0
 51
270.0
  0
LINE
  5
11847
330
11753
100
AcDbEntity
  8
08非表示
100
AcDbLine
 10
773.0000000000055
 20
-24.00000000000887
 30
0.0
 11
845.0000000000055
 21
-24.00000000000978
 31
0.0
  0
LINE
  5
11848
330
11753
100
AcDbEntity
  8
08非表示
100
AcDbLine
 10
773.0000000000055
 20
-38.00000000000887
 30
0.0
 11
845.0000000000055
 21
-38.00000000000978
 31
0.0
  0
LINE
  5
11849
330
11753
100
AcDbEntity
  8
08非表示
  6
CENTER
100
AcDbLine
 10
773.0000000000055
 20
-30.00000000000887
 30
0.0
 11
845.0000000000055
 21
-30.00000000000978
 31
0.0
  0
LINE
  5
1184A
330
11753
100
AcDbEntity
  8
08非表示
100
AcDbLine
 10
809.0000000000055
 20
-38.00000000000932
 30
0.0
 11
809.0000000000055
 21
-30.00000000000932
 31
0.0
  0
LINE
  5
1184B
330
11753
100
AcDbEntity
  8
08非表示
100
AcDbLine
 10
773.0000000000055
 20
-24.00000000000887
 30
0.0
 11
773.0000000000055
 21
-38.00000000000887
 31
0.0
  0
LINE
  5
1184C
330
11753
100
AcDbEntity
  8
08非表示
100
AcDbLine
 10
845.0000000000055
 20
-24.00000000000978
 30
0.0
 11
845.0000000000055
 21
-38.00000000000978
 31
0.0
  0
LINE
  5
1184D
330
11753
100
AcDbEntity
  8
08非表示
100
AcDbLine
 10
845.0000000000055
 20
-119.00000000001
 30
0.0
 11
773.0000000000055
 21
-119.0000000000091
 31
0.0
  0
LINE
  5
1184E
330
11753
100
AcDbEntity
  8
08非表示
100
AcDbLine
 10
845.0000000000055
 20
-105.00000000001
 30
0.0
 11
773.0000000000055
 21
-105.0000000000091
 31
0.0
  0
LINE
  5
1184F
330
11753
100
AcDbEntity
  8
08非表示
  6
CENTER
100
AcDbLine
 10
845.0000000000055
 20
-113.00000000001
 30
0.0
 11
773.0000000000055
 21
-113.0000000000091
 31
0.0
  0
LINE
  5
11850
330
11753
100
AcDbEntity
  8
08非表示
100
AcDbLine
 10
809.0000000000055
 20
-105.0000000000095
 30
0.0
 11
809.0000000000055
 21
-113.0000000000095
 31
0.0
  0
LINE
  5
11851
330
11753
100
AcDbEntity
  8
08非表示
100
AcDbLine
 10
845.0000000000055
 20
-119.00000000001
 30
0.0
 11
845.0000000000055
 21
-105.00000000001
 31
0.0
  0
LINE
  5
11852
330
11753
100
AcDbEntity
  8
08非表示
100
AcDbLine
 10
773.0000000000055
 20
-119.0000000000091
 30
0.0
 11
773.0000000000055
 21
-105.0000000000091
 31
0.0
  0
LINE
  5
11853
330
11753
100
AcDbEntity
  8
08非表示
100
AcDbLine
 10
844.5000000000055
 20
-73.00000000000955
 30
0.0
 11
773.5000000000055
 21
-73.00000000000955
 31
0.0
  0
ARC
  5
11854
330
11753
100
AcDbEntity
  8
08非表示
100
AcDbCircle
 10
775.5000000000055
 20
-40.00000000000955
 30
0.0
 40
2.0
100
AcDbArc
 50
90.0
 51
180.0
  0
LINE
  5
11855
330
11753
100
AcDbEntity
  8
08非表示
100
AcDbLine
 10
773.5000000000055
 20
-73.00000000000955
 30
0.0
 11
773.5000000000055
 21
-40.00000000000955
 31
0.0
  0
LINE
  5
11856
330
11753
100
AcDbEntity
  8
08非表示
100
AcDbLine
 10
775.5000000000055
 20
-38.00000000000955
 30
0.0
 11
842.5000000000055
 21
-38.00000000000955
 31
0.0
  0
ARC
  5
11857
330
11753
100
AcDbEntity
  8
08非表示
100
AcDbCircle
 10
842.5000000000055
 20
-40.00000000000955
 30
0.0
 40
2.0
100
AcDbArc
 50
0.0
 51
90.0
  0
LINE
  5
11858
330
11753
100
AcDbEntity
  8
08非表示
100
AcDbLine
 10
844.5000000000055
 20
-40.00000000000955
 30
0.0
 11
844.5000000000055
 21
-73.00000000000955
 31
0.0
  0
LINE
  5
11859
330
11753
100
AcDbEntity
  8
08非表示
100
AcDbLine
 10
801.5000000000055
 20
-105.0000000000095
 30
0.0
 11
816.5000000000055
 21
-105.0000000000095
 31
0.0
  0
ARC
  5
1185A
330
11753
100
AcDbEntity
  8
08非表示
100
AcDbCircle
 10
782.0000000000055
 20
-103.0000000000095
 30
0.0
 40
2.0
100
AcDbArc
 50
180.0
 51
270.0
  0
LINE
  5
1185B
330
11753
100
AcDbEntity
  8
08非表示
100
AcDbLine
 10
801.5000000000055
 20
-105.0000000000095
 30
0.0
 11
782.0000000000055
 21
-105.0000000000095
 31
0.0
  0
LINE
  5
1185C
330
11753
100
AcDbEntity
  8
08非表示
100
AcDbLine
 10
836.0000000000055
 20
-105.0000000000095
 30
0.0
 11
816.5000000000055
 21
-105.0000000000095
 31
0.0
  0
ARC
  5
1185D
330
11753
100
AcDbEntity
  8
08非表示
100
AcDbCircle
 10
836.0000000000055
 20
-103.0000000000095
 30
0.0
 40
2.0
100
AcDbArc
 50
270.0
 51
0.0
  0
LINE
  5
1185E
330
11753
100
AcDbEntity
  8
08非表示
100
AcDbLine
 10
838.0000000000055
 20
-73.00000000000955
 30
0.0
 11
838.0000000000055
 21
-103.0000000000095
 31
0.0
  0
LINE
  5
1185F
330
11753
100
AcDbEntity
  8
08非表示
100
AcDbLine
 10
780.0000000000055
 20
-103.0000000000095
 30
0.0
 11
780.0000000000055
 21
-73.00000000000955
 31
0.0
  0
LINE
  5
11860
330
11753
100
AcDbEntity
  8
08非表示
100
AcDbLine
 10
63.00000000001091
 20
-24.00000000000796
 30
0.0
 11
135.0000000000109
 21
-24.00000000000887
 31
0.0
  0
LINE
  5
11861
330
11753
100
AcDbEntity
  8
08非表示
100
AcDbLine
 10
63.00000000001091
 20
-38.00000000000796
 30
0.0
 11
135.0000000000109
 21
-38.00000000000887
 31
0.0
  0
LINE
  5
11862
330
11753
100
AcDbEntity
  8
08非表示
  6
CENTER
100
AcDbLine
 10
63.00000000001091
 20
-30.00000000000796
 30
0.0
 11
135.0000000000109
 21
-30.00000000000887
 31
0.0
  0
LINE
  5
11863
330
11753
100
AcDbEntity
  8
08非表示
100
AcDbLine
 10
99.00000000001091
 20
-38.00000000000841
 30
0.0
 11
99.00000000001091
 21
-30.00000000000841
 31
0.0
  0
LINE
  5
11864
330
11753
100
AcDbEntity
  8
08非表示
100
AcDbLine
 10
63.00000000001091
 20
-24.00000000000796
 30
0.0
 11
63.00000000001091
 21
-38.00000000000796
 31
0.0
  0
LINE
  5
11865
330
11753
100
AcDbEntity
  8
08非表示
100
AcDbLine
 10
135.0000000000109
 20
-24.00000000000887
 30
0.0
 11
135.0000000000109
 21
-38.00000000000887
 31
0.0
  0
LINE
  5
11866
330
11753
100
AcDbEntity
  8
08非表示
100
AcDbLine
 10
135.0000000000109
 20
-119.0000000000091
 30
0.0
 11
63.00000000001091
 21
-119.0000000000082
 31
0.0
  0
LINE
  5
11867
330
11753
100
AcDbEntity
  8
08非表示
100
AcDbLine
 10
135.0000000000109
 20
-105.0000000000091
 30
0.0
 11
63.00000000001091
 21
-105.0000000000082
 31
0.0
  0
LINE
  5
11868
330
11753
100
AcDbEntity
  8
08非表示
  6
CENTER
100
AcDbLine
 10
135.0000000000109
 20
-113.0000000000091
 30
0.0
 11
63.00000000001091
 21
-113.0000000000082
 31
0.0
  0
LINE
  5
11869
330
11753
100
AcDbEntity
  8
08非表示
100
AcDbLine
 10
99.00000000001091
 20
-105.0000000000086
 30
0.0
 11
99.00000000001091
 21
-113.0000000000086
 31
0.0
  0
LINE
  5
1186A
330
11753
100
AcDbEntity
  8
08非表示
100
AcDbLine
 10
135.0000000000109
 20
-119.0000000000091
 30
0.0
 11
135.0000000000109
 21
-105.0000000000091
 31
0.0
  0
LINE
  5
1186B
330
11753
100
AcDbEntity
  8
08非表示
100
AcDbLine
 10
63.00000000001091
 20
-119.0000000000082
 30
0.0
 11
63.00000000001091
 21
-105.0000000000082
 31
0.0
  0
LINE
  5
1186C
330
11753
100
AcDbEntity
  8
08非表示
100
AcDbLine
 10
134.5000000000109
 20
-73.00000000000864
 30
0.0
 11
63.50000000001091
 21
-73.00000000000864
 31
0.0
  0
ARC
  5
1186D
330
11753
100
AcDbEntity
  8
08非表示
100
AcDbCircle
 10
65.50000000001091
 20
-40.00000000000864
 30
0.0
 40
2.0
100
AcDbArc
 50
90.0
 51
180.0
  0
LINE
  5
1186E
330
11753
100
AcDbEntity
  8
08非表示
100
AcDbLine
 10
63.50000000001091
 20
-73.00000000000864
 30
0.0
 11
63.50000000001091
 21
-40.00000000000864
 31
0.0
  0
LINE
  5
1186F
330
11753
100
AcDbEntity
  8
08非表示
100
AcDbLine
 10
65.50000000001091
 20
-38.00000000000864
 30
0.0
 11
132.5000000000109
 21
-38.00000000000864
 31
0.0
  0
ARC
  5
11870
330
11753
100
AcDbEntity
  8
08非表示
100
AcDbCircle
 10
132.5000000000109
 20
-40.00000000000864
 30
0.0
 40
2.0
100
AcDbArc
 50
0.0
 51
90.0
  0
LINE
  5
11871
330
11753
100
AcDbEntity
  8
08非表示
100
AcDbLine
 10
134.5000000000109
 20
-40.00000000000864
 30
0.0
 11
134.5000000000109
 21
-73.00000000000864
 31
0.0
  0
LINE
  5
11872
330
11753
100
AcDbEntity
  8
08非表示
100
AcDbLine
 10
91.50000000001091
 20
-105.0000000000086
 30
0.0
 11
106.5000000000109
 21
-105.0000000000086
 31
0.0
  0
ARC
  5
11873
330
11753
100
AcDbEntity
  8
08非表示
100
AcDbCircle
 10
72.00000000001091
 20
-103.0000000000086
 30
0.0
 40
2.0
100
AcDbArc
 50
180.0
 51
270.0
  0
LINE
  5
11874
330
11753
100
AcDbEntity
  8
08非表示
100
AcDbLine
 10
91.50000000001091
 20
-105.0000000000086
 30
0.0
 11
72.00000000001091
 21
-105.0000000000086
 31
0.0
  0
LINE
  5
11875
330
11753
100
AcDbEntity
  8
08非表示
100
AcDbLine
 10
126.0000000000109
 20
-105.0000000000086
 30
0.0
 11
106.5000000000109
 21
-105.0000000000086
 31
0.0
  0
ARC
  5
11876
330
11753
100
AcDbEntity
  8
08非表示
100
AcDbCircle
 10
126.0000000000109
 20
-103.0000000000086
 30
0.0
 40
2.0
100
AcDbArc
 50
270.0
 51
0.0
  0
LINE
  5
11877
330
11753
100
AcDbEntity
  8
08非表示
100
AcDbLine
 10
128.0000000000109
 20
-73.00000000000864
 30
0.0
 11
128.0000000000109
 21
-103.0000000000086
 31
0.0
  0
LINE
  5
11878
330
11753
100
AcDbEntity
  8
08非表示
100
AcDbLine
 10
70.00000000001091
 20
-103.0000000000086
 30
0.0
 11
70.00000000001091
 21
-73.00000000000864
 31
0.0
  0
LINE
  5
11879
330
11753
100
AcDbEntity
  8
08非表示
100
AcDbLine
 10
1034.003035593609
 20
-45.50000000000944
 30
0.0
 11
1074.003035593609
 21
-45.50000000000944
 31
0.0
  0
LINE
  5
1187A
330
11753
100
AcDbEntity
  8
08非表示
100
AcDbLine
 10
1034.003035593609
 20
-55.50000000000944
 30
0.0
 11
1034.003035593609
 21
-45.50000000000944
 31
0.0
  0
LINE
  5
1187B
330
11753
100
AcDbEntity
  8
08非表示
100
AcDbLine
 10
1074.003035593609
 20
-45.50000000000944
 30
0.0
 11
1074.003035593609
 21
-55.50000000000944
 31
0.0
  0
LINE
  5
1187C
330
11753
100
AcDbEntity
  8
08非表示
100
AcDbLine
 10
1034.003035593609
 20
-55.50000000000944
 30
0.0
 11
1074.003035593609
 21
-55.50000000000591
 31
0.0
  0
LINE
  5
1187D
330
11753
100
AcDbEntity
  8
08非表示
100
AcDbLine
 10
1029.000000000002
 20
-89.80000000000791
 30
0.0
 11
1079.000000000002
 21
-89.80000000000791
 31
0.0
  0
LINE
  5
1187E
330
11753
100
AcDbEntity
  8
08非表示
100
AcDbLine
 10
1029.000000000002
 20
-87.50000000000773
 30
0.0
 11
1079.000000000002
 21
-87.50000000000773
 31
0.0
  0
LINE
  5
1187F
330
11753
100
AcDbEntity
  8
08非表示
100
AcDbLine
 10
1079.000000000002
 20
-92.00000000000773
 30
0.0
 11
1029.000000000002
 21
-92.00000000000773
 31
0.0
  0
LINE
  5
11880
330
11753
100
AcDbEntity
  8
08非表示
100
AcDbLine
 10
1029.000000000002
 20
-87.50000000000773
 30
0.0
 11
1029.000000000002
 21
-92.00000000000773
 31
0.0
  0
LINE
  5
11881
330
11753
100
AcDbEntity
  8
08非表示
100
AcDbLine
 10
1079.000000000002
 20
-87.50000000000773
 30
0.0
 11
1079.000000000002
 21
-92.00000000000773
 31
0.0
  0
LINE
  5
11882
330
11753
100
AcDbEntity
  8
08非表示
100
AcDbLine
 10
1029.500000000002
 20
-78.50000000000773
 30
0.0
 11
1052.500000000002
 21
-78.50000000000773
 31
0.0
  0
LINE
  5
11883
330
11753
100
AcDbEntity
  8
08非表示
100
AcDbLine
 10
1078.500000000002
 20
-87.50000000000773
 30
0.0
 11
1029.500000000002
 21
-87.50000000000773
 31
0.0
  0
LINE
  5
11884
330
11753
100
AcDbEntity
  8
08非表示
100
AcDbLine
 10
1029.500000000002
 20
-87.50000000000773
 30
0.0
 11
1029.500000000002
 21
-78.50000000000773
 31
0.0
  0
LINE
  5
11885
330
11753
100
AcDbEntity
  8
08非表示
100
AcDbLine
 10
1078.500000000002
 20
-78.50000000000773
 30
0.0
 11
1078.500000000002
 21
-87.50000000000773
 31
0.0
  0
LINE
  5
11886
330
11753
100
AcDbEntity
  8
08非表示
100
AcDbLine
 10
1052.500000000002
 20
-80.50000000000773
 30
0.0
 11
1055.500000000002
 21
-80.50000000000773
 31
0.0
  0
LINE
  5
11887
330
11753
100
AcDbEntity
  8
08非表示
100
AcDbLine
 10
1055.500000000002
 20
-78.50000000000773
 30
0.0
 11
1055.500000000002
 21
-80.50000000000773
 31
0.0
  0
LINE
  5
11888
330
11753
100
AcDbEntity
  8
08非表示
100
AcDbLine
 10
1052.500000000002
 20
-78.50000000000773
 30
0.0
 11
1052.500000000002
 21
-80.50000000000773
 31
0.0
  0
LINE
  5
11889
330
11753
100
AcDbEntity
  8
08非表示
100
AcDbLine
 10
1055.500000000002
 20
-78.50000000000773
 30
0.0
 11
1078.500000000002
 21
-78.50000000000773
 31
0.0
  0
LINE
  5
1188A
330
11753
100
AcDbEntity
  8
08非表示
100
AcDbLine
 10
1039.000000000004
 20
-105.0000000000077
 30
0.0
 11
1069.000000000004
 21
-105.0000000000077
 31
0.0
  0
LINE
  5
1188B
330
11753
100
AcDbEntity
  8
08非表示
100
AcDbLine
 10
1070.000000000004
 20
-106.0000000000077
 30
0.0
 11
1070.000000000004
 21
-108.0000000000077
 31
0.0
  0
LINE
  5
1188C
330
11753
100
AcDbEntity
  8
08非表示
100
AcDbLine
 10
1070.000000000004
 20
-108.0000000000077
 30
0.0
 11
1038.000000000004
 21
-108.0000000000077
 31
0.0
  0
LINE
  5
1188D
330
11753
100
AcDbEntity
  8
08非表示
100
AcDbLine
 10
1038.000000000004
 20
-106.0000000000077
 30
0.0
 11
1038.000000000004
 21
-108.0000000000077
 31
0.0
  0
LINE
  5
1188E
330
11753
100
AcDbEntity
  8
08非表示
100
AcDbLine
 10
1038.000000000004
 20
-106.0000000000077
 30
0.0
 11
1039.000000000004
 21
-105.0000000000077
 31
0.0
  0
LINE
  5
1188F
330
11753
100
AcDbEntity
  8
08非表示
100
AcDbLine
 10
1069.000000000004
 20
-105.0000000000077
 30
0.0
 11
1070.000000000004
 21
-106.0000000000077
 31
0.0
  0
LINE
  5
11890
330
11753
100
AcDbEntity
  8
08非表示
100
AcDbLine
 10
1067.850000000004
 20
-105.0000000000077
 30
0.0
 11
1040.150000000004
 21
-105.0000000000077
 31
0.0
  0
LINE
  5
11891
330
11753
100
AcDbEntity
  8
08非表示
100
AcDbLine
 10
1040.150000000003
 20
-94.00000000000773
 30
0.0
 11
1042.150000000003
 21
-92.00000000000773
 31
0.0
  0
LINE
  5
11892
330
11753
100
AcDbEntity
  8
08非表示
100
AcDbLine
 10
1040.150000000004
 20
-105.0000000000077
 30
0.0
 11
1040.150000000003
 21
-94.00000000000773
 31
0.0
  0
LINE
  5
11893
330
11753
100
AcDbEntity
  8
08非表示
100
AcDbLine
 10
1059.000000000002
 20
-92.00000000000591
 30
0.0
 11
1063.000000000003
 21
-92.00000000000773
 31
0.0
  0
ARC
  5
11894
330
11753
100
AcDbEntity
  8
08非表示
100
AcDbCircle
 10
1059.000000000003
 20
-94.00000000000591
 30
0.0
 40
2.0
100
AcDbArc
 50
0.0
 51
90.0
  0
LINE
  5
11895
330
11753
100
AcDbEntity
  8
08非表示
100
AcDbLine
 10
1045.000000000003
 20
-92.00000000000773
 30
0.0
 11
1049.000000000003
 21
-92.00000000000955
 31
0.0
  0
ARC
  5
11896
330
11753
100
AcDbEntity
  8
08非表示
100
AcDbCircle
 10
1049.000000000004
 20
-94.00000000000955
 30
0.0
 40
2.0
100
AcDbArc
 50
90.0
 51
180.0
  0
ARC
  5
11897
330
11753
100
AcDbEntity
  8
08非表示
100
AcDbCircle
 10
1045.000000000004
 20
-94.00000000000773
 30
0.0
 40
2.0
100
AcDbArc
 50
0.0
 51
90.0
  0
LINE
  5
11898
330
11753
100
AcDbEntity
  8
08非表示
100
AcDbLine
 10
1045.000000000003
 20
-92.00000000000773
 30
0.0
 11
1045.000000000004
 21
-92.00000000000773
 31
0.0
  0
LINE
  5
11899
330
11753
100
AcDbEntity
  8
08非表示
100
AcDbLine
 10
1049.000000000004
 20
-92.00000000000955
 30
0.0
 11
1059.000000000003
 21
-92.00000000000591
 31
0.0
  0
LINE
  5
1189A
330
11753
100
AcDbEntity
  8
08非表示
100
AcDbLine
 10
1042.150000000003
 20
-92.00000000000773
 30
0.0
 11
1045.000000000003
 21
-92.00000000000773
 31
0.0
  0
LINE
  5
1189B
330
11753
100
AcDbEntity
  8
08非表示
100
AcDbLine
 10
1047.000000000004
 20
-94.00000000000955
 30
0.0
 11
1047.000000000004
 21
-105.0000000000077
 31
0.0
  0
ARC
  5
1189C
330
11753
100
AcDbEntity
  8
08非表示
100
AcDbCircle
 10
1063.000000000003
 20
-94.00000000000773
 30
0.0
 40
2.0
100
AcDbArc
 50
90.0
 51
180.0
  0
LINE
  5
1189D
330
11753
100
AcDbEntity
  8
08非表示
100
AcDbLine
 10
1065.850000000004
 20
-92.00000000000773
 30
0.0
 11
1067.850000000004
 21
-94.00000000000773
 31
0.0
  0
LINE
  5
1189E
330
11753
100
AcDbEntity
  8
08非表示
100
AcDbLine
 10
1063.000000000003
 20
-92.00000000000773
 30
0.0
 11
1063.000000000004
 21
-92.00000000000773
 31
0.0
  0
LINE
  5
1189F
330
11753
100
AcDbEntity
  8
08非表示
100
AcDbLine
 10
1061.000000000003
 20
-94.00000000000591
 30
0.0
 11
1061.000000000004
 21
-105.0000000000077
 31
0.0
  0
LINE
  5
118A0
330
11753
100
AcDbEntity
  8
08非表示
100
AcDbLine
 10
1067.850000000004
 20
-94.00000000000773
 30
0.0
 11
1067.850000000004
 21
-105.0000000000077
 31
0.0
  0
LINE
  5
118A1
330
11753
100
AcDbEntity
  8
08非表示
100
AcDbLine
 10
1063.000000000004
 20
-92.00000000000591
 30
0.0
 11
1065.850000000004
 21
-92.00000000000773
 31
0.0
  0
LINE
  5
118A2
330
11753
100
AcDbEntity
  8
08非表示
100
AcDbLine
 10
1040.150000000004
 20
-115.5000000000077
 30
0.0
 11
1067.850000000004
 21
-115.5000000000077
 31
0.0
  0
LINE
  5
118A3
330
11753
100
AcDbEntity
  8
08非表示
100
AcDbLine
 10
1067.850000000004
 20
-126.5000000000077
 30
0.0
 11
1065.850000000004
 21
-128.5000000000077
 31
0.0
  0
LINE
  5
118A4
330
11753
100
AcDbEntity
  8
08非表示
100
AcDbLine
 10
1067.850000000004
 20
-115.5000000000077
 30
0.0
 11
1067.850000000004
 21
-126.5000000000077
 31
0.0
  0
LINE
  5
118A5
330
11753
100
AcDbEntity
  8
08非表示
100
AcDbLine
 10
1049.000000000005
 20
-128.5000000000095
 30
0.0
 11
1045.000000000004
 21
-128.5000000000077
 31
0.0
  0
ARC
  5
118A6
330
11753
100
AcDbEntity
  8
08非表示
100
AcDbCircle
 10
1049.000000000004
 20
-126.5000000000095
 30
0.0
 40
2.0
100
AcDbArc
 50
180.0
 51
270.0
  0
LINE
  5
118A7
330
11753
100
AcDbEntity
  8
08非表示
100
AcDbLine
 10
1063.000000000004
 20
-128.5000000000077
 30
0.0
 11
1059.000000000004
 21
-128.5000000000059
 31
0.0
  0
ARC
  5
118A8
330
11753
100
AcDbEntity
  8
08非表示
100
AcDbCircle
 10
1059.000000000003
 20
-126.5000000000059
 30
0.0
 40
2.0
100
AcDbArc
 50
270.0
 51
0.0
  0
ARC
  5
118A9
330
11753
100
AcDbEntity
  8
08非表示
100
AcDbCircle
 10
1063.000000000003
 20
-126.5000000000077
 30
0.0
 40
2.0
100
AcDbArc
 50
180.0
 51
270.0
  0
LINE
  5
118AA
330
11753
100
AcDbEntity
  8
08非表示
100
AcDbLine
 10
1063.000000000004
 20
-128.5000000000077
 30
0.0
 11
1063.000000000003
 21
-128.5000000000077
 31
0.0
  0
LINE
  5
118AB
330
11753
100
AcDbEntity
  8
08非表示
100
AcDbLine
 10
1059.000000000003
 20
-128.5000000000059
 30
0.0
 11
1049.000000000005
 21
-128.5000000000095
 31
0.0
  0
LINE
  5
118AC
330
11753
100
AcDbEntity
  8
08非表示
100
AcDbLine
 10
1065.850000000004
 20
-128.5000000000077
 30
0.0
 11
1063.000000000004
 21
-128.5000000000077
 31
0.0
  0
LINE
  5
118AD
330
11753
100
AcDbEntity
  8
08非表示
100
AcDbLine
 10
1061.000000000003
 20
-126.5000000000059
 30
0.0
 11
1061.000000000004
 21
-115.5000000000077
 31
0.0
  0
ARC
  5
118AE
330
11753
100
AcDbEntity
  8
08非表示
100
AcDbCircle
 10
1045.000000000004
 20
-126.5000000000077
 30
0.0
 40
2.0
100
AcDbArc
 50
270.0
 51
0.0
  0
LINE
  5
118AF
330
11753
100
AcDbEntity
  8
08非表示
100
AcDbLine
 10
1042.150000000004
 20
-128.5000000000077
 30
0.0
 11
1040.150000000004
 21
-126.5000000000077
 31
0.0
  0
LINE
  5
118B0
330
11753
100
AcDbEntity
  8
08非表示
100
AcDbLine
 10
1045.000000000004
 20
-128.5000000000077
 30
0.0
 11
1045.000000000004
 21
-128.5000000000077
 31
0.0
  0
LINE
  5
118B1
330
11753
100
AcDbEntity
  8
08非表示
100
AcDbLine
 10
1047.000000000004
 20
-126.5000000000095
 30
0.0
 11
1047.000000000004
 21
-115.5000000000077
 31
0.0
  0
LINE
  5
118B2
330
11753
100
AcDbEntity
  8
08非表示
100
AcDbLine
 10
1040.150000000004
 20
-126.5000000000077
 30
0.0
 11
1040.150000000004
 21
-115.5000000000077
 31
0.0
  0
LINE
  5
118B3
330
11753
100
AcDbEntity
  8
08非表示
100
AcDbLine
 10
1045.000000000004
 20
-128.5000000000095
 30
0.0
 11
1042.150000000004
 21
-128.5000000000077
 31
0.0
  0
LINE
  5
118B4
330
11753
100
AcDbEntity
  8
08非表示
100
AcDbLine
 10
1069.000000000004
 20
-115.5000000000077
 30
0.0
 11
1039.000000000004
 21
-115.5000000000077
 31
0.0
  0
LINE
  5
118B5
330
11753
100
AcDbEntity
  8
08非表示
100
AcDbLine
 10
1038.000000000004
 20
-114.5000000000077
 30
0.0
 11
1038.000000000004
 21
-112.5000000000077
 31
0.0
  0
LINE
  5
118B6
330
11753
100
AcDbEntity
  8
08非表示
100
AcDbLine
 10
1038.000000000004
 20
-112.5000000000077
 30
0.0
 11
1070.000000000004
 21
-112.5000000000077
 31
0.0
  0
LINE
  5
118B7
330
11753
100
AcDbEntity
  8
08非表示
100
AcDbLine
 10
1070.000000000004
 20
-114.5000000000077
 30
0.0
 11
1070.000000000004
 21
-112.5000000000077
 31
0.0
  0
LINE
  5
118B8
330
11753
100
AcDbEntity
  8
08非表示
100
AcDbLine
 10
1070.000000000004
 20
-114.5000000000077
 30
0.0
 11
1069.000000000004
 21
-115.5000000000077
 31
0.0
  0
LINE
  5
118B9
330
11753
100
AcDbEntity
  8
08非表示
100
AcDbLine
 10
1039.000000000004
 20
-115.5000000000077
 30
0.0
 11
1038.000000000004
 21
-114.5000000000077
 31
0.0
  0
LINE
  5
118BA
330
11753
100
AcDbEntity
  8
08非表示
100
AcDbLine
 10
1067.8530355936
 20
-35.50000000000966
 30
0.0
 11
1040.153035593601
 21
-35.50000000000966
 31
0.0
  0
LINE
  5
118BB
330
11753
100
AcDbEntity
  8
08非表示
100
AcDbLine
 10
1040.1530355936
 20
-24.50000000000966
 30
0.0
 11
1042.1530355936
 21
-22.50000000000966
 31
0.0
  0
LINE
  5
118BC
330
11753
100
AcDbEntity
  8
08非表示
100
AcDbLine
 10
1040.153035593601
 20
-35.50000000000966
 30
0.0
 11
1040.1530355936
 21
-24.50000000000966
 31
0.0
  0
LINE
  5
118BD
330
11753
100
AcDbEntity
  8
08非表示
100
AcDbLine
 10
1059.003035593599
 20
-22.50000000000784
 30
0.0
 11
1063.0030355936
 21
-22.50000000000966
 31
0.0
  0
ARC
  5
118BE
330
11753
100
AcDbEntity
  8
08非表示
100
AcDbCircle
 10
1059.0030355936
 20
-24.50000000000784
 30
0.0
 40
2.0
100
AcDbArc
 50
0.0
 51
90.0
  0
LINE
  5
118BF
330
11753
100
AcDbEntity
  8
08非表示
100
AcDbLine
 10
1045.0030355936
 20
-22.50000000000966
 30
0.0
 11
1049.0030355936
 21
-22.50000000001148
 31
0.0
  0
ARC
  5
118C0
330
11753
100
AcDbEntity
  8
08非表示
100
AcDbCircle
 10
1049.003035593601
 20
-24.50000000001148
 30
0.0
 40
2.0
100
AcDbArc
 50
90.0
 51
180.0
  0
ARC
  5
118C1
330
11753
100
AcDbEntity
  8
08非表示
100
AcDbCircle
 10
1045.003035593601
 20
-24.50000000000966
 30
0.0
 40
2.0
100
AcDbArc
 50
0.0
 51
90.0
  0
LINE
  5
118C2
330
11753
100
AcDbEntity
  8
08非表示
100
AcDbLine
 10
1045.0030355936
 20
-22.50000000000966
 30
0.0
 11
1045.003035593601
 21
-22.50000000000966
 31
0.0
  0
LINE
  5
118C3
330
11753
100
AcDbEntity
  8
08非表示
100
AcDbLine
 10
1049.003035593601
 20
-22.50000000001148
 30
0.0
 11
1059.0030355936
 21
-22.50000000000784
 31
0.0
  0
LINE
  5
118C4
330
11753
100
AcDbEntity
  8
08非表示
100
AcDbLine
 10
1042.1530355936
 20
-22.50000000000966
 30
0.0
 11
1045.0030355936
 21
-22.50000000000966
 31
0.0
  0
LINE
  5
118C5
330
11753
100
AcDbEntity
  8
08非表示
100
AcDbLine
 10
1047.003035593601
 20
-24.50000000001148
 30
0.0
 11
1047.003035593601
 21
-35.50000000000966
 31
0.0
  0
ARC
  5
118C6
330
11753
100
AcDbEntity
  8
08非表示
100
AcDbCircle
 10
1063.0030355936
 20
-24.50000000000966
 30
0.0
 40
2.0
100
AcDbArc
 50
90.0
 51
180.0
  0
LINE
  5
118C7
330
11753
100
AcDbEntity
  8
08非表示
100
AcDbLine
 10
1065.8530355936
 20
-22.50000000000966
 30
0.0
 11
1067.8530355936
 21
-24.50000000000966
 31
0.0
  0
LINE
  5
118C8
330
11753
100
AcDbEntity
  8
08非表示
100
AcDbLine
 10
1063.0030355936
 20
-22.50000000000966
 30
0.0
 11
1063.003035593601
 21
-22.50000000000966
 31
0.0
  0
LINE
  5
118C9
330
11753
100
AcDbEntity
  8
08非表示
100
AcDbLine
 10
1061.0030355936
 20
-24.50000000000784
 30
0.0
 11
1061.003035593601
 21
-35.50000000000966
 31
0.0
  0
LINE
  5
118CA
330
11753
100
AcDbEntity
  8
08非表示
100
AcDbLine
 10
1067.8530355936
 20
-24.50000000000966
 30
0.0
 11
1067.8530355936
 21
-35.50000000000966
 31
0.0
  0
LINE
  5
118CB
330
11753
100
AcDbEntity
  8
08非表示
100
AcDbLine
 10
1063.003035593601
 20
-22.50000000000784
 30
0.0
 11
1065.8530355936
 21
-22.50000000000966
 31
0.0
  0
LINE
  5
118CC
330
11753
100
AcDbEntity
  8
08非表示
100
AcDbLine
 10
1040.153035593607
 20
-37.50000000000966
 30
0.0
 11
1042.153035593607
 21
-35.50000000000966
 31
0.0
  0
LINE
  5
118CD
330
11753
100
AcDbEntity
  8
08非表示
100
AcDbLine
 10
1042.153035593608
 20
-45.50000000000966
 30
0.0
 11
1040.153035593608
 21
-43.50000000000966
 31
0.0
  0
LINE
  5
118CE
330
11753
100
AcDbEntity
  8
08非表示
100
AcDbLine
 10
1040.153035593607
 20
-43.50000000000784
 30
0.0
 11
1040.153035593607
 21
-37.50000000000966
 31
0.0
  0
LINE
  5
118CF
330
11753
100
AcDbEntity
  8
08非表示
100
AcDbLine
 10
1059.003035593606
 20
-35.50000000000784
 30
0.0
 11
1063.003035593607
 21
-35.50000000000966
 31
0.0
  0
LINE
  5
118D0
330
11753
100
AcDbEntity
  8
08非表示
100
AcDbLine
 10
1045.003035593607
 20
-35.50000000000966
 30
0.0
 11
1049.003035593607
 21
-35.50000000001148
 31
0.0
  0
LINE
  5
118D1
330
11753
100
AcDbEntity
  8
08非表示
100
AcDbLine
 10
1049.003035593608
 20
-35.50000000001148
 30
0.0
 11
1059.003035593607
 21
-35.50000000000784
 31
0.0
  0
LINE
  5
118D2
330
11753
100
AcDbEntity
  8
08非表示
100
AcDbLine
 10
1061.003035593607
 20
-37.50000000000784
 30
0.0
 11
1061.003035593607
 21
-43.50000000000966
 31
0.0
  0
ARC
  5
118D3
330
11753
100
AcDbEntity
  8
08非表示
100
AcDbCircle
 10
1059.003035593607
 20
-37.50000000000784
 30
0.0
 40
2.0
100
AcDbArc
 50
0.0
 51
90.0
  0
LINE
  5
118D4
330
11753
100
AcDbEntity
  8
08非表示
100
AcDbLine
 10
1047.003035593608
 20
-37.50000000001148
 30
0.0
 11
1047.003035593608
 21
-43.50000000000966
 31
0.0
  0
ARC
  5
118D5
330
11753
100
AcDbEntity
  8
08非表示
100
AcDbCircle
 10
1049.003035593608
 20
-37.50000000001148
 30
0.0
 40
2.0
100
AcDbArc
 50
90.0
 51
180.0
  0
LINE
  5
118D6
330
11753
100
AcDbEntity
  8
08非表示
100
AcDbLine
 10
1063.003035593607
 20
-35.50000000000966
 30
0.0
 11
1063.003035593607
 21
-35.50000000000966
 31
0.0
  0
ARC
  5
118D7
330
11753
100
AcDbEntity
  8
08非表示
100
AcDbCircle
 10
1063.003035593607
 20
-37.50000000000966
 30
0.0
 40
2.0
100
AcDbArc
 50
90.0
 51
180.0
  0
LINE
  5
118D8
330
11753
100
AcDbEntity
  8
08非表示
100
AcDbLine
 10
1045.003035593607
 20
-35.50000000000966
 30
0.0
 11
1045.003035593608
 21
-35.50000000000966
 31
0.0
  0
ARC
  5
118D9
330
11753
100
AcDbEntity
  8
08非表示
100
AcDbCircle
 10
1045.003035593608
 20
-37.50000000000966
 30
0.0
 40
2.0
100
AcDbArc
 50
0.0
 51
90.0
  0
LINE
  5
118DA
330
11753
100
AcDbEntity
  8
08非表示
100
AcDbLine
 10
1067.853035593608
 20
-37.50000000000966
 30
0.0
 11
1067.853035593608
 21
-43.50000000000966
 31
0.0
  0
LINE
  5
118DB
330
11753
100
AcDbEntity
  8
08非表示
100
AcDbLine
 10
1063.003035593607
 20
-35.50000000000784
 30
0.0
 11
1065.853035593608
 21
-35.50000000000966
 31
0.0
  0
LINE
  5
118DC
330
11753
100
AcDbEntity
  8
08非表示
100
AcDbLine
 10
1065.853035593608
 20
-35.50000000000966
 30
0.0
 11
1067.853035593608
 21
-37.50000000000966
 31
0.0
  0
LINE
  5
118DD
330
11753
100
AcDbEntity
  8
08非表示
100
AcDbLine
 10
1042.153035593607
 20
-35.50000000000966
 30
0.0
 11
1045.003035593607
 21
-35.50000000000966
 31
0.0
  0
LINE
  5
118DE
330
11753
100
AcDbEntity
  8
08非表示
100
AcDbLine
 10
1045.003035593607
 20
-45.50000000001148
 30
0.0
 11
1042.153035593608
 21
-45.50000000000966
 31
0.0
  0
ARC
  5
118DF
330
11753
100
AcDbEntity
  8
08非表示
100
AcDbCircle
 10
1045.003035593608
 20
-43.50000000000966
 30
0.0
 40
2.0
100
AcDbArc
 50
270.0
 51
0.0
  0
LINE
  5
118E0
330
11753
100
AcDbEntity
  8
08非表示
100
AcDbLine
 10
1045.003035593608
 20
-45.50000000000966
 30
0.0
 11
1045.003035593607
 21
-45.50000000000966
 31
0.0
  0
ARC
  5
118E1
330
11753
100
AcDbEntity
  8
08非表示
100
AcDbCircle
 10
1049.003035593608
 20
-43.50000000001148
 30
0.0
 40
2.0
100
AcDbArc
 50
180.0
 51
270.0
  0
LINE
  5
118E2
330
11753
100
AcDbEntity
  8
08非表示
100
AcDbLine
 10
1059.003035593607
 20
-45.50000000000784
 30
0.0
 11
1049.003035593609
 21
-45.50000000001148
 31
0.0
  0
LINE
  5
118E3
330
11753
100
AcDbEntity
  8
08非表示
100
AcDbLine
 10
1049.003035593609
 20
-45.50000000001148
 30
0.0
 11
1045.003035593608
 21
-45.50000000000966
 31
0.0
  0
LINE
  5
118E4
330
11753
100
AcDbEntity
  8
08非表示
100
AcDbLine
 10
1067.853035593608
 20
-43.50000000000966
 30
0.0
 11
1065.853035593608
 21
-45.50000000000966
 31
0.0
  0
LINE
  5
118E5
330
11753
100
AcDbEntity
  8
08非表示
100
AcDbLine
 10
1065.853035593608
 20
-45.50000000000966
 30
0.0
 11
1063.003035593608
 21
-45.50000000000966
 31
0.0
  0
ARC
  5
118E6
330
11753
100
AcDbEntity
  8
08非表示
100
AcDbCircle
 10
1063.003035593607
 20
-43.50000000000966
 30
0.0
 40
2.0
100
AcDbArc
 50
180.0
 51
270.0
  0
LINE
  5
118E7
330
11753
100
AcDbEntity
  8
08非表示
100
AcDbLine
 10
1063.003035593608
 20
-45.50000000000966
 30
0.0
 11
1063.003035593607
 21
-45.50000000000966
 31
0.0
  0
ARC
  5
118E8
330
11753
100
AcDbEntity
  8
08非表示
100
AcDbCircle
 10
1059.003035593607
 20
-43.50000000000784
 30
0.0
 40
2.0
100
AcDbArc
 50
270.0
 51
0.0
  0
LINE
  5
118E9
330
11753
100
AcDbEntity
  8
08非表示
100
AcDbLine
 10
1063.003035593608
 20
-45.50000000000966
 30
0.0
 11
1059.003035593608
 21
-45.50000000000784
 31
0.0
  0
LINE
  5
118EA
330
11753
100
AcDbEntity
  8
08非表示
100
AcDbLine
 10
-125.9999999999927
 20
-45.49999999999397
 30
0.0
 11
-85.99999999999272
 21
-45.49999999999397
 31
0.0
  0
LINE
  5
118EB
330
11753
100
AcDbEntity
  8
08非表示
100
AcDbLine
 10
-125.9999999999927
 20
-55.49999999999397
 30
0.0
 11
-125.9999999999927
 21
-45.49999999999397
 31
0.0
  0
LINE
  5
118EC
330
11753
100
AcDbEntity
  8
08非表示
100
AcDbLine
 10
-85.99999999999272
 20
-45.49999999999397
 30
0.0
 11
-85.99999999999272
 21
-55.49999999999397
 31
0.0
  0
LINE
  5
118ED
330
11753
100
AcDbEntity
  8
08非表示
100
AcDbLine
 10
-125.9999999999927
 20
-55.49999999999397
 30
0.0
 11
-85.99999999999272
 21
-55.49999999999045
 31
0.0
  0
LINE
  5
118EE
330
11753
100
AcDbEntity
  8
08非表示
100
AcDbLine
 10
-130.9999999999945
 20
-89.79999999999245
 30
0.0
 11
-80.99999999999454
 21
-89.79999999999245
 31
0.0
  0
LINE
  5
118EF
330
11753
100
AcDbEntity
  8
08非表示
100
AcDbLine
 10
-130.9999999999945
 20
-87.49999999999227
 30
0.0
 11
-80.99999999999454
 21
-87.49999999999227
 31
0.0
  0
LINE
  5
118F0
330
11753
100
AcDbEntity
  8
08非表示
100
AcDbLine
 10
-80.99999999999454
 20
-91.99999999999227
 30
0.0
 11
-130.9999999999945
 21
-91.99999999999227
 31
0.0
  0
LINE
  5
118F1
330
11753
100
AcDbEntity
  8
08非表示
100
AcDbLine
 10
-130.9999999999945
 20
-87.49999999999227
 30
0.0
 11
-130.9999999999945
 21
-91.99999999999227
 31
0.0
  0
LINE
  5
118F2
330
11753
100
AcDbEntity
  8
08非表示
100
AcDbLine
 10
-80.99999999999454
 20
-87.49999999999227
 30
0.0
 11
-80.99999999999454
 21
-91.99999999999227
 31
0.0
  0
LINE
  5
118F3
330
11753
100
AcDbEntity
  8
08非表示
100
AcDbLine
 10
-130.4999999999945
 20
-78.49999999999227
 30
0.0
 11
-107.4999999999945
 21
-78.49999999999227
 31
0.0
  0
LINE
  5
118F4
330
11753
100
AcDbEntity
  8
08非表示
100
AcDbLine
 10
-81.49999999999454
 20
-87.49999999999227
 30
0.0
 11
-130.4999999999945
 21
-87.49999999999227
 31
0.0
  0
LINE
  5
118F5
330
11753
100
AcDbEntity
  8
08非表示
100
AcDbLine
 10
-130.4999999999945
 20
-87.49999999999227
 30
0.0
 11
-130.4999999999945
 21
-78.49999999999227
 31
0.0
  0
LINE
  5
118F6
330
11753
100
AcDbEntity
  8
08非表示
100
AcDbLine
 10
-81.49999999999454
 20
-78.49999999999227
 30
0.0
 11
-81.49999999999454
 21
-87.49999999999227
 31
0.0
  0
LINE
  5
118F7
330
11753
100
AcDbEntity
  8
08非表示
100
AcDbLine
 10
-107.4999999999945
 20
-80.49999999999227
 30
0.0
 11
-104.4999999999945
 21
-80.49999999999227
 31
0.0
  0
LINE
  5
118F8
330
11753
100
AcDbEntity
  8
08非表示
100
AcDbLine
 10
-104.4999999999945
 20
-78.49999999999227
 30
0.0
 11
-104.4999999999945
 21
-80.49999999999227
 31
0.0
  0
LINE
  5
118F9
330
11753
100
AcDbEntity
  8
08非表示
100
AcDbLine
 10
-107.4999999999945
 20
-78.49999999999227
 30
0.0
 11
-107.4999999999945
 21
-80.49999999999227
 31
0.0
  0
LINE
  5
118FA
330
11753
100
AcDbEntity
  8
08非表示
100
AcDbLine
 10
-104.4999999999945
 20
-78.49999999999227
 30
0.0
 11
-81.49999999999454
 21
-78.49999999999227
 31
0.0
  0
LINE
  5
118FB
330
11753
100
AcDbEntity
  8
08非表示
100
AcDbLine
 10
-92.14999999999281
 20
-104.9999999999923
 30
0.0
 11
-119.8499999999926
 21
-104.9999999999923
 31
0.0
  0
LINE
  5
118FC
330
11753
100
AcDbEntity
  8
08非表示
100
AcDbLine
 10
-119.8499999999931
 20
-93.99999999999227
 30
0.0
 11
-117.8499999999931
 21
-91.99999999999227
 31
0.0
  0
LINE
  5
118FD
330
11753
100
AcDbEntity
  8
08非表示
100
AcDbLine
 10
-119.8499999999926
 20
-104.9999999999923
 30
0.0
 11
-119.8499999999931
 21
-93.99999999999227
 31
0.0
  0
LINE
  5
118FE
330
11753
100
AcDbEntity
  8
08非表示
100
AcDbLine
 10
-100.9999999999941
 20
-91.99999999999045
 30
0.0
 11
-96.99999999999318
 21
-91.99999999999227
 31
0.0
  0
ARC
  5
118FF
330
11753
100
AcDbEntity
  8
08非表示
100
AcDbCircle
 10
-100.9999999999932
 20
-93.99999999999045
 30
0.0
 40
2.0
100
AcDbArc
 50
0.0
 51
90.0
  0
LINE
  5
11900
330
11753
100
AcDbEntity
  8
08非表示
100
AcDbLine
 10
-114.9999999999932
 20
-91.99999999999227
 30
0.0
 11
-110.9999999999932
 21
-91.99999999999409
 31
0.0
  0
ARC
  5
11901
330
11753
100
AcDbEntity
  8
08非表示
100
AcDbCircle
 10
-110.9999999999923
 20
-93.99999999999409
 30
0.0
 40
2.0
100
AcDbArc
 50
90.0
 51
180.0
  0
ARC
  5
11902
330
11753
100
AcDbEntity
  8
08非表示
100
AcDbCircle
 10
-114.9999999999923
 20
-93.99999999999227
 30
0.0
 40
2.0
100
AcDbArc
 50
0.0
 51
90.0
  0
LINE
  5
11903
330
11753
100
AcDbEntity
  8
08非表示
100
AcDbLine
 10
-114.9999999999932
 20
-91.99999999999227
 30
0.0
 11
-114.9999999999923
 21
-91.99999999999227
 31
0.0
  0
LINE
  5
11904
330
11753
100
AcDbEntity
  8
08非表示
100
AcDbLine
 10
-110.9999999999923
 20
-91.99999999999409
 30
0.0
 11
-100.9999999999936
 21
-91.99999999999045
 31
0.0
  0
LINE
  5
11905
330
11753
100
AcDbEntity
  8
08非表示
100
AcDbLine
 10
-117.8499999999931
 20
-91.99999999999227
 30
0.0
 11
-114.9999999999932
 21
-91.99999999999227
 31
0.0
  0
LINE
  5
11906
330
11753
100
AcDbEntity
  8
08非表示
100
AcDbLine
 10
-112.9999999999923
 20
-93.99999999999409
 30
0.0
 11
-112.9999999999927
 21
-104.9999999999923
 31
0.0
  0
ARC
  5
11907
330
11753
100
AcDbEntity
  8
08非表示
100
AcDbCircle
 10
-96.99999999999318
 20
-93.99999999999227
 30
0.0
 40
2.0
100
AcDbArc
 50
90.0
 51
180.0
  0
LINE
  5
11908
330
11753
100
AcDbEntity
  8
08非表示
100
AcDbLine
 10
-94.14999999999281
 20
-91.99999999999227
 30
0.0
 11
-92.14999999999281
 21
-93.99999999999227
 31
0.0
  0
LINE
  5
11909
330
11753
100
AcDbEntity
  8
08非表示
100
AcDbLine
 10
-96.99999999999318
 20
-91.99999999999227
 30
0.0
 11
-96.99999999999272
 21
-91.99999999999227
 31
0.0
  0
LINE
  5
1190A
330
11753
100
AcDbEntity
  8
08非表示
100
AcDbLine
 10
-98.99999999999318
 20
-93.99999999999045
 30
0.0
 11
-98.99999999999272
 21
-104.9999999999923
 31
0.0
  0
LINE
  5
1190B
330
11753
100
AcDbEntity
  8
08非表示
100
AcDbLine
 10
-92.14999999999281
 20
-93.99999999999227
 30
0.0
 11
-92.14999999999281
 21
-104.9999999999923
 31
0.0
  0
LINE
  5
1190C
330
11753
100
AcDbEntity
  8
08非表示
100
AcDbLine
 10
-96.99999999999272
 20
-91.99999999999045
 30
0.0
 11
-94.14999999999281
 21
-91.99999999999227
 31
0.0
  0
LINE
  5
1190D
330
11753
100
AcDbEntity
  8
08非表示
100
AcDbLine
 10
-120.9999999999927
 20
-104.9999999999923
 30
0.0
 11
-90.99999999999272
 21
-104.9999999999923
 31
0.0
  0
LINE
  5
1190E
330
11753
100
AcDbEntity
  8
08非表示
100
AcDbLine
 10
-89.99999999999272
 20
-105.9999999999923
 30
0.0
 11
-89.99999999999272
 21
-107.9999999999923
 31
0.0
  0
LINE
  5
1190F
330
11753
100
AcDbEntity
  8
08非表示
100
AcDbLine
 10
-89.99999999999272
 20
-107.9999999999923
 30
0.0
 11
-121.9999999999927
 21
-107.9999999999923
 31
0.0
  0
LINE
  5
11910
330
11753
100
AcDbEntity
  8
08非表示
100
AcDbLine
 10
-121.9999999999927
 20
-105.9999999999923
 30
0.0
 11
-121.9999999999927
 21
-107.9999999999923
 31
0.0
  0
LINE
  5
11911
330
11753
100
AcDbEntity
  8
08非表示
100
AcDbLine
 10
-121.9999999999927
 20
-105.9999999999923
 30
0.0
 11
-120.9999999999927
 21
-104.9999999999923
 31
0.0
  0
LINE
  5
11912
330
11753
100
AcDbEntity
  8
08非表示
100
AcDbLine
 10
-90.99999999999272
 20
-104.9999999999923
 30
0.0
 11
-89.99999999999272
 21
-105.9999999999923
 31
0.0
  0
LINE
  5
11913
330
11753
100
AcDbEntity
  8
08非表示
100
AcDbLine
 10
-90.99999999999272
 20
-115.4999999999923
 30
0.0
 11
-120.9999999999927
 21
-115.4999999999923
 31
0.0
  0
LINE
  5
11914
330
11753
100
AcDbEntity
  8
08非表示
100
AcDbLine
 10
-121.9999999999927
 20
-114.4999999999923
 30
0.0
 11
-121.9999999999927
 21
-112.4999999999923
 31
0.0
  0
LINE
  5
11915
330
11753
100
AcDbEntity
  8
08非表示
100
AcDbLine
 10
-121.9999999999927
 20
-112.4999999999923
 30
0.0
 11
-89.99999999999272
 21
-112.4999999999923
 31
0.0
  0
LINE
  5
11916
330
11753
100
AcDbEntity
  8
08非表示
100
AcDbLine
 10
-89.99999999999272
 20
-114.4999999999923
 30
0.0
 11
-89.99999999999272
 21
-112.4999999999923
 31
0.0
  0
LINE
  5
11917
330
11753
100
AcDbEntity
  8
08非表示
100
AcDbLine
 10
-89.99999999999272
 20
-114.4999999999923
 30
0.0
 11
-90.99999999999272
 21
-115.4999999999923
 31
0.0
  0
LINE
  5
11918
330
11753
100
AcDbEntity
  8
08非表示
100
AcDbLine
 10
-120.9999999999927
 20
-115.4999999999923
 30
0.0
 11
-121.9999999999927
 21
-114.4999999999923
 31
0.0
  0
LINE
  5
11919
330
11753
100
AcDbEntity
  8
08非表示
100
AcDbLine
 10
-119.8499999999926
 20
-115.4999999999923
 30
0.0
 11
-92.14999999999281
 21
-115.4999999999923
 31
0.0
  0
LINE
  5
1191A
330
11753
100
AcDbEntity
  8
08非表示
100
AcDbLine
 10
-92.14999999999236
 20
-126.4999999999923
 30
0.0
 11
-94.14999999999236
 21
-128.4999999999923
 31
0.0
  0
LINE
  5
1191B
330
11753
100
AcDbEntity
  8
08非表示
100
AcDbLine
 10
-92.14999999999281
 20
-115.4999999999923
 30
0.0
 11
-92.14999999999236
 21
-126.4999999999923
 31
0.0
  0
LINE
  5
1191C
330
11753
100
AcDbEntity
  8
08非表示
100
AcDbLine
 10
-110.9999999999914
 20
-128.4999999999941
 30
0.0
 11
-114.9999999999923
 21
-128.4999999999923
 31
0.0
  0
ARC
  5
1191D
330
11753
100
AcDbEntity
  8
08非表示
100
AcDbCircle
 10
-110.9999999999923
 20
-126.4999999999941
 30
0.0
 40
2.0
100
AcDbArc
 50
180.0
 51
270.0
  0
LINE
  5
1191E
330
11753
100
AcDbEntity
  8
08非表示
100
AcDbLine
 10
-96.99999999999227
 20
-128.4999999999923
 30
0.0
 11
-100.9999999999923
 21
-128.4999999999905
 31
0.0
  0
ARC
  5
1191F
330
11753
100
AcDbEntity
  8
08非表示
100
AcDbCircle
 10
-100.9999999999932
 20
-126.4999999999905
 30
0.0
 40
2.0
100
AcDbArc
 50
270.0
 51
0.0
  0
ARC
  5
11920
330
11753
100
AcDbEntity
  8
08非表示
100
AcDbCircle
 10
-96.99999999999318
 20
-126.4999999999923
 30
0.0
 40
2.0
100
AcDbArc
 50
180.0
 51
270.0
  0
LINE
  5
11921
330
11753
100
AcDbEntity
  8
08非表示
100
AcDbLine
 10
-96.99999999999227
 20
-128.4999999999923
 30
0.0
 11
-96.99999999999318
 21
-128.4999999999923
 31
0.0
  0
LINE
  5
11922
330
11753
100
AcDbEntity
  8
08非表示
100
AcDbLine
 10
-100.9999999999932
 20
-128.4999999999905
 30
0.0
 11
-110.9999999999918
 21
-128.4999999999941
 31
0.0
  0
LINE
  5
11923
330
11753
100
AcDbEntity
  8
08非表示
100
AcDbLine
 10
-94.14999999999236
 20
-128.4999999999923
 30
0.0
 11
-96.99999999999227
 21
-128.4999999999923
 31
0.0
  0
LINE
  5
11924
330
11753
100
AcDbEntity
  8
08非表示
100
AcDbLine
 10
-98.99999999999318
 20
-126.4999999999905
 30
0.0
 11
-98.99999999999272
 21
-115.4999999999923
 31
0.0
  0
ARC
  5
11925
330
11753
100
AcDbEntity
  8
08非表示
100
AcDbCircle
 10
-114.9999999999923
 20
-126.4999999999923
 30
0.0
 40
2.0
100
AcDbArc
 50
270.0
 51
0.0
  0
LINE
  5
11926
330
11753
100
AcDbEntity
  8
08非表示
100
AcDbLine
 10
-117.8499999999926
 20
-128.4999999999923
 30
0.0
 11
-119.8499999999926
 21
-126.4999999999923
 31
0.0
  0
LINE
  5
11927
330
11753
100
AcDbEntity
  8
08非表示
100
AcDbLine
 10
-114.9999999999923
 20
-128.4999999999923
 30
0.0
 11
-114.9999999999927
 21
-128.4999999999923
 31
0.0
  0
LINE
  5
11928
330
11753
100
AcDbEntity
  8
08非表示
100
AcDbLine
 10
-112.9999999999923
 20
-126.4999999999941
 30
0.0
 11
-112.9999999999927
 21
-115.4999999999923
 31
0.0
  0
LINE
  5
11929
330
11753
100
AcDbEntity
  8
08非表示
100
AcDbLine
 10
-119.8499999999926
 20
-126.4999999999923
 30
0.0
 11
-119.8499999999926
 21
-115.4999999999923
 31
0.0
  0
LINE
  5
1192A
330
11753
100
AcDbEntity
  8
08非表示
100
AcDbLine
 10
-114.9999999999927
 20
-128.4999999999941
 30
0.0
 11
-117.8499999999926
 21
-128.4999999999923
 31
0.0
  0
LINE
  5
1192B
330
11753
100
AcDbEntity
  8
08非表示
100
AcDbLine
 10
-92.150000000001
 20
-35.4999999999942
 30
0.0
 11
-119.8500000000008
 21
-35.4999999999942
 31
0.0
  0
LINE
  5
1192C
330
11753
100
AcDbEntity
  8
08非表示
100
AcDbLine
 10
-119.8500000000013
 20
-24.4999999999942
 30
0.0
 11
-117.8500000000013
 21
-22.4999999999942
 31
0.0
  0
LINE
  5
1192D
330
11753
100
AcDbEntity
  8
08非表示
100
AcDbLine
 10
-119.8500000000008
 20
-35.4999999999942
 30
0.0
 11
-119.8500000000013
 21
-24.4999999999942
 31
0.0
  0
LINE
  5
1192E
330
11753
100
AcDbEntity
  8
08非表示
100
AcDbLine
 10
-101.0000000000023
 20
-22.49999999999238
 30
0.0
 11
-97.00000000000136
 21
-22.4999999999942
 31
0.0
  0
ARC
  5
1192F
330
11753
100
AcDbEntity
  8
08非表示
100
AcDbCircle
 10
-101.0000000000014
 20
-24.49999999999238
 30
0.0
 40
2.0
100
AcDbArc
 50
0.0
 51
90.0
  0
LINE
  5
11930
330
11753
100
AcDbEntity
  8
08非表示
100
AcDbLine
 10
-115.0000000000014
 20
-22.4999999999942
 30
0.0
 11
-111.0000000000014
 21
-22.49999999999602
 31
0.0
  0
ARC
  5
11931
330
11753
100
AcDbEntity
  8
08非表示
100
AcDbCircle
 10
-111.0000000000005
 20
-24.49999999999602
 30
0.0
 40
2.0
100
AcDbArc
 50
90.0
 51
180.0
  0
ARC
  5
11932
330
11753
100
AcDbEntity
  8
08非表示
100
AcDbCircle
 10
-115.0000000000005
 20
-24.4999999999942
 30
0.0
 40
2.0
100
AcDbArc
 50
0.0
 51
90.0
  0
LINE
  5
11933
330
11753
100
AcDbEntity
  8
08非表示
100
AcDbLine
 10
-115.0000000000014
 20
-22.4999999999942
 30
0.0
 11
-115.0000000000005
 21
-22.4999999999942
 31
0.0
  0
LINE
  5
11934
330
11753
100
AcDbEntity
  8
08非表示
100
AcDbLine
 10
-111.0000000000005
 20
-22.49999999999602
 30
0.0
 11
-101.0000000000018
 21
-22.49999999999238
 31
0.0
  0
LINE
  5
11935
330
11753
100
AcDbEntity
  8
08非表示
100
AcDbLine
 10
-117.8500000000013
 20
-22.4999999999942
 30
0.0
 11
-115.0000000000014
 21
-22.4999999999942
 31
0.0
  0
LINE
  5
11936
330
11753
100
AcDbEntity
  8
08非表示
100
AcDbLine
 10
-113.0000000000005
 20
-24.49999999999602
 30
0.0
 11
-113.0000000000009
 21
-35.4999999999942
 31
0.0
  0
ARC
  5
11937
330
11753
100
AcDbEntity
  8
08非表示
100
AcDbCircle
 10
-97.00000000000136
 20
-24.4999999999942
 30
0.0
 40
2.0
100
AcDbArc
 50
90.0
 51
180.0
  0
LINE
  5
11938
330
11753
100
AcDbEntity
  8
08非表示
100
AcDbLine
 10
-94.150000000001
 20
-22.4999999999942
 30
0.0
 11
-92.150000000001
 21
-24.4999999999942
 31
0.0
  0
LINE
  5
11939
330
11753
100
AcDbEntity
  8
08非表示
100
AcDbLine
 10
-97.00000000000136
 20
-22.4999999999942
 30
0.0
 11
-97.00000000000091
 21
-22.4999999999942
 31
0.0
  0
LINE
  5
1193A
330
11753
100
AcDbEntity
  8
08非表示
100
AcDbLine
 10
-99.00000000000136
 20
-24.49999999999238
 30
0.0
 11
-99.00000000000091
 21
-35.4999999999942
 31
0.0
  0
LINE
  5
1193B
330
11753
100
AcDbEntity
  8
08非表示
100
AcDbLine
 10
-92.150000000001
 20
-24.4999999999942
 30
0.0
 11
-92.150000000001
 21
-35.4999999999942
 31
0.0
  0
LINE
  5
1193C
330
11753
100
AcDbEntity
  8
08非表示
100
AcDbLine
 10
-97.00000000000091
 20
-22.49999999999238
 30
0.0
 11
-94.150000000001
 21
-22.4999999999942
 31
0.0
  0
LINE
  5
1193D
330
11753
100
AcDbEntity
  8
08非表示
100
AcDbLine
 10
-119.8499999999945
 20
-37.4999999999942
 30
0.0
 11
-117.8499999999945
 21
-35.4999999999942
 31
0.0
  0
LINE
  5
1193E
330
11753
100
AcDbEntity
  8
08非表示
100
AcDbLine
 10
-117.8499999999935
 20
-45.4999999999942
 30
0.0
 11
-119.8499999999935
 21
-43.4999999999942
 31
0.0
  0
LINE
  5
1193F
330
11753
100
AcDbEntity
  8
08非表示
100
AcDbLine
 10
-119.8499999999945
 20
-43.49999999999238
 30
0.0
 11
-119.8499999999945
 21
-37.4999999999942
 31
0.0
  0
LINE
  5
11940
330
11753
100
AcDbEntity
  8
08非表示
100
AcDbLine
 10
-100.999999999995
 20
-35.49999999999238
 30
0.0
 11
-96.99999999999409
 21
-35.4999999999942
 31
0.0
  0
LINE
  5
11941
330
11753
100
AcDbEntity
  8
08非表示
100
AcDbLine
 10
-114.9999999999941
 20
-35.4999999999942
 30
0.0
 11
-110.9999999999941
 21
-35.49999999999602
 31
0.0
  0
LINE
  5
11942
330
11753
100
AcDbEntity
  8
08非表示
100
AcDbLine
 10
-110.9999999999932
 20
-35.49999999999602
 30
0.0
 11
-100.9999999999941
 21
-35.49999999999238
 31
0.0
  0
LINE
  5
11943
330
11753
100
AcDbEntity
  8
08非表示
100
AcDbLine
 10
-98.99999999999409
 20
-37.49999999999238
 30
0.0
 11
-98.99999999999409
 21
-43.4999999999942
 31
0.0
  0
ARC
  5
11944
330
11753
100
AcDbEntity
  8
08非表示
100
AcDbCircle
 10
-100.9999999999941
 20
-37.49999999999238
 30
0.0
 40
2.0
100
AcDbArc
 50
0.0
 51
90.0
  0
LINE
  5
11945
330
11753
100
AcDbEntity
  8
08非表示
100
AcDbLine
 10
-112.9999999999932
 20
-37.49999999999602
 30
0.0
 11
-112.9999999999932
 21
-43.4999999999942
 31
0.0
  0
ARC
  5
11946
330
11753
100
AcDbEntity
  8
08非表示
100
AcDbCircle
 10
-110.9999999999932
 20
-37.49999999999602
 30
0.0
 40
2.0
100
AcDbArc
 50
90.0
 51
180.0
  0
LINE
  5
11947
330
11753
100
AcDbEntity
  8
08非表示
100
AcDbLine
 10
-96.99999999999409
 20
-35.4999999999942
 30
0.0
 11
-96.99999999999409
 21
-35.4999999999942
 31
0.0
  0
ARC
  5
11948
330
11753
100
AcDbEntity
  8
08非表示
100
AcDbCircle
 10
-96.99999999999409
 20
-37.4999999999942
 30
0.0
 40
2.0
100
AcDbArc
 50
90.0
 51
180.0
  0
LINE
  5
11949
330
11753
100
AcDbEntity
  8
08非表示
100
AcDbLine
 10
-114.9999999999941
 20
-35.4999999999942
 30
0.0
 11
-114.9999999999932
 21
-35.4999999999942
 31
0.0
  0
ARC
  5
1194A
330
11753
100
AcDbEntity
  8
08非表示
100
AcDbCircle
 10
-114.9999999999932
 20
-37.4999999999942
 30
0.0
 40
2.0
100
AcDbArc
 50
0.0
 51
90.0
  0
LINE
  5
1194B
330
11753
100
AcDbEntity
  8
08非表示
100
AcDbLine
 10
-92.14999999999372
 20
-37.4999999999942
 30
0.0
 11
-92.14999999999372
 21
-43.4999999999942
 31
0.0
  0
LINE
  5
1194C
330
11753
100
AcDbEntity
  8
08非表示
100
AcDbLine
 10
-96.99999999999409
 20
-35.49999999999238
 30
0.0
 11
-94.14999999999372
 21
-35.4999999999942
 31
0.0
  0
LINE
  5
1194D
330
11753
100
AcDbEntity
  8
08非表示
100
AcDbLine
 10
-94.14999999999372
 20
-35.4999999999942
 30
0.0
 11
-92.14999999999372
 21
-37.4999999999942
 31
0.0
  0
LINE
  5
1194E
330
11753
100
AcDbEntity
  8
08非表示
100
AcDbLine
 10
-117.8499999999945
 20
-35.4999999999942
 30
0.0
 11
-114.9999999999941
 21
-35.4999999999942
 31
0.0
  0
LINE
  5
1194F
330
11753
100
AcDbEntity
  8
08非表示
100
AcDbLine
 10
-114.9999999999941
 20
-45.49999999999602
 30
0.0
 11
-117.8499999999935
 21
-45.4999999999942
 31
0.0
  0
ARC
  5
11950
330
11753
100
AcDbEntity
  8
08非表示
100
AcDbCircle
 10
-114.9999999999932
 20
-43.4999999999942
 30
0.0
 40
2.0
100
AcDbArc
 50
270.0
 51
0.0
  0
LINE
  5
11951
330
11753
100
AcDbEntity
  8
08非表示
100
AcDbLine
 10
-114.9999999999932
 20
-45.4999999999942
 30
0.0
 11
-114.9999999999941
 21
-45.4999999999942
 31
0.0
  0
ARC
  5
11952
330
11753
100
AcDbEntity
  8
08非表示
100
AcDbCircle
 10
-110.9999999999932
 20
-43.49999999999602
 30
0.0
 40
2.0
100
AcDbArc
 50
180.0
 51
270.0
  0
LINE
  5
11953
330
11753
100
AcDbEntity
  8
08非表示
100
AcDbLine
 10
-100.9999999999941
 20
-45.49999999999238
 30
0.0
 11
-110.9999999999923
 21
-45.49999999999602
 31
0.0
  0
LINE
  5
11954
330
11753
100
AcDbEntity
  8
08非表示
100
AcDbLine
 10
-110.9999999999923
 20
-45.49999999999602
 30
0.0
 11
-114.9999999999932
 21
-45.4999999999942
 31
0.0
  0
LINE
  5
11955
330
11753
100
AcDbEntity
  8
08非表示
100
AcDbLine
 10
-92.14999999999372
 20
-43.4999999999942
 30
0.0
 11
-94.14999999999372
 21
-45.4999999999942
 31
0.0
  0
LINE
  5
11956
330
11753
100
AcDbEntity
  8
08非表示
100
AcDbLine
 10
-94.14999999999372
 20
-45.4999999999942
 30
0.0
 11
-96.99999999999318
 21
-45.4999999999942
 31
0.0
  0
ARC
  5
11957
330
11753
100
AcDbEntity
  8
08非表示
100
AcDbCircle
 10
-96.99999999999409
 20
-43.4999999999942
 30
0.0
 40
2.0
100
AcDbArc
 50
180.0
 51
270.0
  0
LINE
  5
11958
330
11753
100
AcDbEntity
  8
08非表示
100
AcDbLine
 10
-96.99999999999318
 20
-45.4999999999942
 30
0.0
 11
-96.99999999999409
 21
-45.4999999999942
 31
0.0
  0
ARC
  5
11959
330
11753
100
AcDbEntity
  8
08非表示
100
AcDbCircle
 10
-100.9999999999941
 20
-43.49999999999238
 30
0.0
 40
2.0
100
AcDbArc
 50
270.0
 51
0.0
  0
LINE
  5
1195A
330
11753
100
AcDbEntity
  8
08非表示
100
AcDbLine
 10
-96.99999999999318
 20
-45.4999999999942
 30
0.0
 11
-100.9999999999932
 21
-45.49999999999238
 31
0.0
  0
ENDBLK
  5
1195C
330
11753
100
AcDbEntity
  8
0
100
AcDbBlockEnd
  0
ENDSEC
  0
SECTION
  2
ENTITIES
  0
LWPOLYLINE
  5
10A36
330
1F
100
AcDbEntity
  8
02実線
100
AcDbPolyline
 90
        8
 70
     1
 43
0.0
 10
607.3021942334622
 20
2252.467979872033
 10
607.3021942334622
 20
1507.467979872034
 10
612.3021942334622
 20
1502.467979872034
 10
1802.30219423346
 20
1502.467979872034
 10
1807.30219423346
 20
1507.467979872034
 10
1807.30219423346
 20
2252.467979872033
 10
1802.30219423346
 20
2257.467979872033
 10
612.3021942334622
 20
2257.467979872033
  0
LWPOLYLINE
  5
10A38
330
1F
100
AcDbEntity
  8
03破線
100
AcDbPolyline
 90
        4
 70
     1
 43
0.0
 10
672.3021942334622
 20
2160.467979872032
 10
672.3021942334622
 20
1599.467979872035
 10
1742.302194233459
 20
1599.467979872035
 10
1742.302194233459
 20
2160.467979872032
  0
LWPOLYLINE
  5
10A39
330
1F
100
AcDbEntity
  8
02実線
100
AcDbPolyline
 90
        4
 70
     1
 43
0.0
 10
673.8021942334622
 20
2158.967979872032
 10
673.8021942334622
 20
1600.967979872035
 10
1740.802194233459
 20
1600.967979872035
 10
1740.802194233459
 20
2158.967979872032
  0
LWPOLYLINE
  5
10A3E
330
1F
100
AcDbEntity
  8
02実線
100
AcDbPolyline
 90
        4
 70
     1
 43
0.0
 10
607.3021942334622
 20
1035.529057199511
 10
607.3021942334622
 20
1034.029057199511
 10
1807.302194233459
 20
1034.029057199511
 10
1807.302194233459
 20
1035.529057199511
  0
LINE
  5
10A43
330
1F
100
AcDbEntity
  8
02実線
100
AcDbLine
 10
672.3021942334622
 20
1034.029057199511
 30
0.0
 11
672.3021942334622
 21
1019.029057199511
 31
0.0
  0
LINE
  5
10A44
330
1F
100
AcDbEntity
  8
02実線
100
AcDbLine
 10
672.3021942334622
 20
1019.029057199511
 30
0.0
 11
1742.302194233459
 21
994.0290571995113
 31
0.0
  0
LINE
  5
10A45
330
1F
100
AcDbEntity
  8
02実線
100
AcDbLine
 10
1742.302194233459
 20
994.0290571995113
 30
0.0
 11
1742.302194233459
 21
1034.029057199511
 31
0.0
  0
LINE
  5
10A46
330
1F
100
AcDbEntity
  8
03破線
100
AcDbLine
 10
673.8021942334622
 20
1034.029057199511
 30
0.0
 11
673.8021942334622
 21
1020.483475182167
 31
0.0
  0
LINE
  5
10A47
330
1F
100
AcDbEntity
  8
03破線
100
AcDbLine
 10
673.8021942334622
 20
1020.483475182167
 30
0.0
 11
1740.802194233459
 21
995.5760677747598
 31
0.0
  0
LINE
  5
10A48
330
1F
100
AcDbEntity
  8
03破線
100
AcDbLine
 10
1740.802194233459
 20
995.5760677747598
 30
0.0
 11
1740.802194233459
 21
1034.029057199511
 31
0.0
  0
CIRCLE
  5
10D4B
330
1F
100
AcDbEntity
  8
02実線
100
AcDbCircle
 10
1718.802194233459
 20
1879.967979872034
 30
0.0
 40
11.0
  0
LINE
  5
10D6A
330
1F
100
AcDbEntity
  8
02実線
100
AcDbLine
 10
673.8021942334622
 20
2158.967979872032
 30
0.0
 11
1708.437369641179
 21
1883.65178377171
 31
0.0
  0
LINE
  5
10D6B
330
1F
100
AcDbEntity
  8
02実線
100
AcDbLine
 10
1708.437369641179
 20
1876.284175972357
 30
0.0
 11
673.8021942334622
 21
1600.967979872035
 31
0.0
  0
LINE
  5
10D8C
330
1F
100
AcDbEntity
  8
02実線
100
AcDbLine
 10
1701.802194233459
 20
974.3491934276931
 30
0.0
 11
1735.802194233459
 21
974.3491934276931
 31
0.0
  0
LINE
  5
10D8D
330
1F
100
AcDbEntity
  8
02実線
100
AcDbLine
 10
1701.802194233459
 20
974.3491934276931
 30
0.0
 11
1705.328733847628
 21
954.3491934276931
 31
0.0
  0
LINE
  5
10D8E
330
1F
100
AcDbEntity
  8
02実線
100
AcDbLine
 10
1735.802194233459
 20
974.3491934276931
 30
0.0
 11
1732.275654619289
 21
954.3491934276931
 31
0.0
  0
LWPOLYLINE
  5
10D8F
330
1F
100
AcDbEntity
  8
02実線
100
AcDbPolyline
 90
        2
 70
     0
 43
0.0
 10
1705.328733847628
 20
954.3491934276931
 10
1732.275654619289
 20
954.3491934276931
  0
LINE
  5
10D90
330
1F
100
AcDbEntity
  8
03破線
  6
HIDDEN2
 48
0.2
100
AcDbLine
 10
1732.802194233459
 20
974.3491934276931
 30
0.0
 11
1732.802194233459
 21
994.3491934276931
 31
0.0
  0
LINE
  5
10D91
330
1F
100
AcDbEntity
  8
03破線
  6
HIDDEN2
 48
0.2
100
AcDbLine
 10
1704.802194233459
 20
994.3491934276931
 30
0.0
 11
1704.802194233459
 21
974.3491934276931
 31
0.0
  0
LINE
  5
10D92
330
1F
100
AcDbEntity
  8
02実線
100
AcDbLine
 10
1704.711733164637
 20
974.8622236426818
 30
0.0
 11
1708.238272778807
 21
954.8622236426818
 31
0.0
  0
LINE
  5
10D93
330
1F
100
AcDbEntity
  8
02実線
100
AcDbLine
 10
1732.89265530228
 20
974.8622236426818
 30
0.0
 11
1729.36611568811
 21
954.8622236426818
 31
0.0
  0
LINE
  5
10D94
330
1F
100
AcDbEntity
  8
02実線
100
AcDbLine
 10
1735.802194233459
 20
974.3491934276931
 30
0.0
 11
1735.802194233459
 21
994.3491934276931
 31
0.0
  0
LINE
  5
10D95
330
1F
100
AcDbEntity
  8
02実線
100
AcDbLine
 10
1701.802194233459
 20
994.3491934276931
 30
0.0
 11
1701.802194233459
 21
974.3491934276931
 31
0.0
  0
LINE
  5
10D96
330
1F
100
AcDbEntity
  8
04一点鎖線
  6
CENTER
 48
3.0
100
AcDbLine
 10
1718.802194233459
 20
1014.444130218139
 30
0.0
 11
1718.802194233459
 21
941.252715401055
 31
0.0
  0
LINE
  5
10DB3
330
1F
100
AcDbEntity
  8
02実線
100
AcDbLine
 10
2381.609947455372
 20
1502.467979872034
 30
0.0
 11
2381.609947455372
 21
2257.467979872033
 31
0.0
  0
LINE
  5
10DB4
330
1F
100
AcDbEntity
  8
02実線
100
AcDbLine
 10
2383.109947455372
 20
1502.467979872034
 30
0.0
 11
2383.109947455372
 21
2257.467979872033
 31
0.0
  0
LINE
  5
10DB5
330
1F
100
AcDbEntity
  8
02実線
100
AcDbLine
 10
2381.609947455372
 20
1502.467979872034
 30
0.0
 11
2383.109947455372
 21
1502.467979872034
 31
0.0
  0
LINE
  5
10DB6
330
1F
100
AcDbEntity
  8
04一点鎖線
100
AcDbLine
 10
2395.609947455372
 20
1515.467979872033
 30
0.0
 11
2367.609947455372
 21
1515.467979872033
 31
0.0
  0
LINE
  5
10DB7
330
1F
100
AcDbEntity
  8
02実線
100
AcDbLine
 10
2431.609947455372
 20
1862.967979872034
 30
0.0
 11
2431.609947455372
 21
1896.967979872034
 31
0.0
  0
LWPOLYLINE
  5
10DB8
330
1F
100
AcDbEntity
  8
02実線
100
AcDbPolyline
 90
        2
 70
     0
 43
0.0
 10
2451.609947455372
 20
1866.494519486203
 10
2451.609947455372
 20
1893.441440257864
  0
LINE
  5
10DB9
330
1F
100
AcDbEntity
  8
02実線
100
AcDbLine
 10
2431.609947455372
 20
1862.967979872034
 30
0.0
 11
2451.609947455372
 21
1866.494519486203
 31
0.0
  0
LINE
  5
10DBA
330
1F
100
AcDbEntity
  8
02実線
100
AcDbLine
 10
2431.096917240383
 20
1865.877518803213
 30
0.0
 11
2451.096917240383
 21
1869.404058417382
 31
0.0
  0
LINE
  5
10DBB
330
1F
100
AcDbEntity
  8
03破線
 48
0.2
100
AcDbLine
 10
2410.587416086668
 20
1865.967979872034
 30
0.0
 11
2431.609947455372
 21
1865.967979872034
 31
0.0
  0
LINE
  5
10DBC
330
1F
100
AcDbEntity
  8
02実線
100
AcDbLine
 10
2431.609947455372
 20
1896.967979872034
 30
0.0
 11
2451.609947455372
 21
1893.441440257864
 31
0.0
  0
LINE
  5
10DBD
330
1F
100
AcDbEntity
  8
02実線
100
AcDbLine
 10
2431.096917240383
 20
1894.058440940855
 30
0.0
 11
2451.096917240383
 21
1890.531901326686
 31
0.0
  0
LINE
  5
10DBE
330
1F
100
AcDbEntity
  8
03破線
 48
0.2
100
AcDbLine
 10
2431.609947455372
 20
1893.967979872034
 30
0.0
 11
2410.573583819008
 21
1893.967979872034
 31
0.0
  0
LINE
  5
10DBF
330
1F
100
AcDbEntity
  8
02実線
100
AcDbLine
 10
2381.609947455372
 20
2257.467979872033
 30
0.0
 11
2383.109947455372
 21
2257.467979872033
 31
0.0
  0
LINE
  5
10DC0
330
1F
100
AcDbEntity
  8
04一点鎖線
100
AcDbLine
 10
2395.609947455372
 20
2244.467979872034
 30
0.0
 11
2367.609947455372
 21
2244.467979872034
 31
0.0
  0
LINE
  5
10DC1
330
1F
100
AcDbEntity
  8
02実線
100
AcDbLine
 10
2431.609947455372
 20
1896.967979872034
 30
0.0
 11
2410.351505896931
 21
1896.967979872034
 31
0.0
  0
LINE
  5
10DC2
330
1F
100
AcDbEntity
  8
02実線
100
AcDbLine
 10
2410.365226313369
 20
1862.967979872034
 30
0.0
 11
2431.609947455372
 21
1862.967979872034
 31
0.0
  0
LINE
  5
10DC3
330
1F
100
AcDbEntity
  8
02実線
100
AcDbLine
 10
2383.109947455372
 20
2160.467979872032
 30
0.0
 11
2396.609947455372
 21
2160.467979872032
 31
0.0
  0
LINE
  5
10DC4
330
1F
100
AcDbEntity
  8
02実線
100
AcDbLine
 10
2396.609947455372
 20
2160.467979872032
 30
0.0
 11
2411.617122768434
 21
1879.871050204356
 31
0.0
  0
LINE
  5
10DC5
330
1F
100
AcDbEntity
  8
02実線
  6
HIDDEN
 48
5.0
100
AcDbLine
 10
2383.109947455372
 20
2158.967979872032
 30
0.0
 11
2395.167263697012
 21
2158.967979872032
 31
0.0
  0
LINE
  5
10DC6
330
1F
100
AcDbEntity
  8
02実線
100
AcDbLine
 10
2396.609947455372
 20
1599.467979872035
 30
0.0
 11
2411.617122768434
 21
1880.064909539712
 31
0.0
  0
LINE
  5
10DC7
330
1F
100
AcDbEntity
  8
02実線
100
AcDbLine
 10
2383.109947455372
 20
1599.467979872035
 30
0.0
 11
2396.609947455372
 21
1599.467979872035
 31
0.0
  0
LINE
  5
10DC8
330
1F
100
AcDbEntity
  8
02実線
  6
HIDDEN
 48
5.0
100
AcDbLine
 10
2383.109947455372
 20
1600.967979872035
 30
0.0
 11
2395.167263697012
 21
1600.967979872035
 31
0.0
  0
LINE
  5
10DC9
330
1F
100
AcDbEntity
  8
03破線
100
AcDbLine
 10
2395.117641470318
 20
2160.31624705761
 30
0.0
 11
2410.12481678338
 21
1879.719317389935
 31
0.0
  0
LINE
  5
10DCA
330
1F
100
AcDbEntity
  8
03破線
100
AcDbLine
 10
2395.117641470318
 20
1599.619712686456
 30
0.0
 11
2410.12481678338
 21
1880.216642354133
 31
0.0
  0
LINE
  5
10DCB
330
1F
100
AcDbEntity
  8
04一点鎖線
  6
CENTER
 48
3.0
100
AcDbLine
 10
2356.609947455372
 20
1879.967979872034
 30
0.0
 11
2476.609947455372
 21
1879.967979872034
 31
0.0
  0
INSERT
  5
10DCE
330
1F
100
AcDbEntity
  8
02実線
100
AcDbBlockReference
  2
hole-φ16
 10
733.3021942334608
 20
1515.467979872033
 30
0.0
  0
INSERT
  5
10DCF
330
1F
100
AcDbEntity
  8
02実線
100
AcDbBlockReference
  2
hole-φ16
 10
1681.302194233461
 20
1515.467979872033
 30
0.0
  0
INSERT
  5
10DD0
330
1F
100
AcDbEntity
  8
02実線
100
AcDbBlockReference
  2
hole-φ16
 10
733.3021942334613
 20
2244.467979872034
 30
0.0
  0
INSERT
  5
10DD1
330
1F
100
AcDbEntity
  8
02実線
100
AcDbBlockReference
  2
hole-φ16
 10
1681.302194233461
 20
2244.467979872034
 30
0.0
  0
LINE
  5
10DD3
330
1F
100
AcDbEntity
  8
04一点鎖線
100
AcDbLine
 10
733.3021942334613
 20
1048.141347162031
 30
0.0
 11
733.3021942334613
 21
1022.916767236991
 31
0.0
  0
LINE
  5
10DD4
330
1F
100
AcDbEntity
  8
04一点鎖線
100
AcDbLine
 10
1681.302194233461
 20
1048.141347162031
 30
0.0
 11
1681.302194233461
 21
1022.916767236991
 31
0.0
  0
LINE
  5
10E0B
330
1F
100
AcDbEntity
  8
04一点鎖線
100
AcDbLine
 10
1718.802194233459
 20
1917.256465600336
 30
0.0
 11
1718.802194233459
 21
1842.679494143731
 31
0.0
  0
VIEWPORT
  5
9F0D
330
1B
100
AcDbEntity
 67
     1
  8
0
100
AcDbViewport
 10
202.5
 20
128.5
 30
0.0
 40
486.0
 41
308.4
 68
     1
 69
     1
 12
202.5
 22
128.5
 13
0.0
 23
0.0
 14
0.5
 24
0.5
 15
0.0
 25
0.0
 16
0.0
 26
0.0
 36
1.0
 17
0.0
 27
0.0
 37
0.0
 42
50.0
 43
0.0
 44
0.0
 45
308.4
 50
0.0
 51
0.0
 72
   100
 90
   557152
  1

281
     0
 71
     1
 74
     0
110
0.0
120
0.0
130
0.0
111
1.0
121
0.0
131
0.0
112
0.0
122
1.0
132
0.0
 79
     0
146
0.0
  0
VIEWPORT
  5
9F0E
330
1B
100
AcDbEntity
 67
     1
  8
0
100
AcDbViewport
 10
202.5
 20
128.5
 30
0.0
 40
324.0
 41
205.6
 68
     2
 69
     2
 12
-3224.9849078482
 22
3553.815758143106
 13
0.0
 23
0.0
 14
0.5
 24
0.5
 15
0.0
 25
0.0
 16
0.0
 26
0.0
 36
1.0
 17
0.0
 27
0.0
 37
0.0
 42
50.0
 43
0.0
 44
0.0
 45
10712.16027781073
 50
0.0
 51
0.0
 72
   100
 90
   557152
  1

281
     0
 71
     1
 74
     0
110
0.0
120
0.0
130
0.0
111
1.0
121
0.0
131
0.0
112
0.0
122
1.0
132
0.0
 79
     0
146
0.0
  0
ENDSEC
  0
SECTION
  2
OBJECTS
  0
DICTIONARY
  5
C
330
0
100
AcDbDictionary
281
     1
  3
ACAD_GROUP
350
D
  3
ACAD_IMAGE_VARS
350
6A88
  3
ACAD_LAYOUT
350
1A
  3
ACAD_MLINESTYLE
350
17
  3
ACAD_PLOTSETTINGS
350
19
  3
ACAD_PLOTSTYLENAME
350
E
  3
ACAD_SCALELIST
350
6A4E
  3
AcadDim
350
813A
  3
AcDbVariableDictionary
350
79E
  3
AEC_DISP_REPS
350
F0B5
  3
AEC_DISPLAY_PROPS_DEFAULTS
350
F0B7
  3
AEC_VARS
350
F0B3
  3
APPDATA
350
6A87
  3
DWGPROPS
350
11AE4
  0
DICTIONARY
  5
7A6F
330
2
100
AcDbDictionary
280
     1
281
     1
  3
ACAD_LAYERSTATES
360
7A70
  3
ACLYDICTIONARY
360
A16A
  0
DICTIONARY
  5
969E
330
1F
100
AcDbDictionary
280
     1
281
     1
  3
ACAD_SORTENTS
360
969F
  0
DICTIONARY
  5
10227
330
101F6
100
AcDbDictionary
280
     1
281
     1
  3
ACAD_SORTENTS
360
10228
  0
DICTIONARY
  5
116E0
330
116B4
100
AcDbDictionary
280
     1
281
     1
  3
ACAD_SORTENTS
360
116E1
  0
DICTIONARY
  5
11783
330
11753
100
AcDbDictionary
280
     1
281
     1
  3
ACAD_SORTENTS
360
11784
  0
DICTIONARY
  5
D
102
{ACAD_REACTORS
330
C
102
}
330
C
100
AcDbDictionary
281
     1
  3
*A1
350
D317
  3
*A2
350
D31A
  3
*A3
350
D31D
  3
*A4
350
D320
  3
*A5
350
D323
  3
*A6
350
11AC1
  0
RASTERVARIABLES
  5
6A88
102
{ACAD_REACTORS
330
C
102
}
330
C
100
AcDbRasterVariables
 90
        0
 70
     1
 71
     1
 72
     1
  0
DICTIONARY
  5
1A
102
{ACAD_REACTORS
330
C
102
}
330
C
100
AcDbDictionary
281
     1
  3
Layout1
350
1E
  3
Model
350
22
  0
DICTIONARY
  5
17
102
{ACAD_REACTORS
330
C
102
}
330
C
100
AcDbDictionary
281
     1
  3
Standard
350
18
  0
DICTIONARY
  5
19
102
{ACAD_REACTORS
330
C
102
}
330
C
100
AcDbDictionary
281
     1
  0
ACDBDICTIONARYWDFLT
  5
E
102
{ACAD_REACTORS
330
C
102
}
330
C
100
AcDbDictionary
281
     1
  3
Normal
350
F
100
AcDbDictionaryWithDefault
340
F
  0
DICTIONARY
  5
6A4E
102
{ACAD_REACTORS
330
C
102
}
330
C
100
AcDbDictionary
281
     1
  3
A0
350
6A4F
  3
A1
350
6A50
  3
A2
350
6A51
  3
A3
350
6A52
  3
A4
350
6A53
  3
A5
350
6A54
  3
A6
350
6A55
  3
A7
350
6A56
  3
A8
350
6A57
  3
A9
350
6A58
  3
B0
350
6A59
  3
B1
350
6A5A
  3
B2
350
6A5B
  3
B3
350
6A5C
  3
B4
350
6A5D
  3
B5
350
6A5E
  3
B6
350
6A5F
  3
B7
350
6A60
  3
B8
350
6A61
  3
B9
350
6A62
  3
C0
350
6A63
  3
C1
350
6A64
  3
C2
350
6A65
  3
C3
350
6A66
  3
C4
350
6A67
  3
C5
350
6A68
  3
C6
350
6A69
  3
C7
350
6A6A
  3
C8
350
6A6B
  3
C9
350
6A6C
  3
D0
350
6A6D
  3
D1
350
6A6E
  3
D2
350
6A6F
  0
XRECORD
  5
813A
102
{ACAD_REACTORS
330
C
102
}
330
C
100
AcDbXrecord
280
     1
340
0
 72
     0
 71
     0
 70
     0
 69
     0
 68
     1
 67
     3
 66
     0
 65
     0
 64
     0
 63
     3
 62
     1
 61
     0
 60
     0
 40
0.0
  0
DICTIONARY
  5
79E
102
{ACAD_REACTORS
330
C
102
}
330
C
100
AcDbDictionary
281
     1
  3
DIMASSOC
350
79F
  3
SORTENTS
350
264F
  0
DICTIONARY
  5
F0B5
102
{ACAD_REACTORS
330
C
102
}
330
C
100
AcDbDictionary
281
     1
  3
AecDbDispRep2dSection
350
F0B6
  3
AecDbDispRepAnchor
350
F0F0
  3
AecDbDispRepAnchorEntToNode
350
F0F1
  3
AecDbDispRepClipVolModel
350
F0BD
  3
AecDbDispRepClipVolPlan
350
F0BF
  3
AecDbDispRepClipVolResSubDiv
350
F0C2
  3
AecDbDispRepClipVolResult
350
F0C1
  3
AecDbDispRepDisplayTheme
350
F0C4
  3
AecDbDispRepEditInPlaceProfile
350
F0F5
  3
AecDbDispRepEntRef
350
F0C6
  3
AecDbDispRepLayoutCurve
350
F0C8
  3
AecDbDispRepLayoutGrid2d
350
F0CA
  3
AecDbDispRepLayoutGrid3d
350
F0CC
  3
AecDbDispRepMaskBlockRef
350
F0CE
  3
AecDbDispRepMaskBlockRefRcp
350
F0D0
  3
AecDbDispRepMassElemModel
350
F0D2
  3
AecDbDispRepMassElemPlan100
350
F0D8
  3
AecDbDispRepMassElemPlan50
350
F0D6
  3
AecDbDispRepMassElemRcp
350
F0DA
  3
AecDbDispRepMassElemSchem
350
F0D4
  3
AecDbDispRepMassGroupModel
350
F0DC
  3
AecDbDispRepMassGroupPlan
350
F0DE
  3
AecDbDispRepMassGroupPlan100
350
F0E2
  3
AecDbDispRepMassGroupPlan50
350
F0E0
  3
AecDbDispRepMassGroupRcp
350
F0E4
  3
AecDbDispRepMaterial
350
F0F3
  3
AecDbDispRepMvBlockRef
350
F0E6
  3
AecDbDispRepMvBlockRefModel
350
F0E7
  3
AecDbDispRepMvBlockRefPlan100
350
F0E8
  3
AecDbDispRepMvBlockRefPlan50
350
F0E9
  3
AecDbDispRepPolygonModel
350
F0EA
  3
AecDbDispRepPolygonTrueColour
350
F0EC
  3
AecDbDispRepSlice
350
F0EE
  0
DICTIONARY
  5
F0B7
102
{ACAD_REACTORS
330
C
102
}
330
C
100
AcDbDictionary
281
     1
  3
*A1
350
F0B8
  3
*A10
350
F0CF
  3
*A11
350
F0D1
  3
*A12
350
F0D3
  3
*A13
350
F0D5
  3
*A14
350
F0D7
  3
*A15
350
F0D9
  3
*A16
350
F0DB
  3
*A17
350
F0DD
  3
*A18
350
F0DF
  3
*A19
350
F0E1
  3
*A2
350
F0BE
  3
*A20
350
F0E3
  3
*A21
350
F0E5
  3
*A22
350
F0EB
  3
*A23
350
F0ED
  3
*A24
350
F0EF
  3
*A25
350
F0F2
  3
*A26
350
F0F4
  3
*A27
350
F0F6
  3
*A3
350
F0C0
  3
*A4
350
F0C3
  3
*A5
350
F0C5
  3
*A6
350
F0C7
  3
*A7
350
F0C9
  3
*A8
350
F0CB
  3
*A9
350
F0CD
  0
DICTIONARY
  5
F0B3
102
{ACAD_REACTORS
330
C
102
}
330
C
100
AcDbDictionary
281
     1
  3
AEC_VARS_DWG_SETUP
350
F0B4
  0
DICTIONARY
  5
6A87
102
{ACAD_REACTORS
330
C
102
}
330
C
100
AcDbDictionary
281
     1
  0
XRECORD
  5
11AE4
102
{ACAD_REACTORS
330
C
102
}
330
C
100
AcDbXrecord
280
     1
  1
DWGPROPS COOKIE
  2

  3

  4

  6

  7

  8
Sales
  9

300
=
301
=
302
=
303
=
304
=
305
=
306
=
307
=
308
=
309
=
 40
0.0
 41
2455859.030048461
 42
2459031.219347106
  1

 90
        0
  0
DICTIONARY
  5
7A70
102
{ACAD_REACTORS
330
7A6F
102
}
330
7A6F
100
AcDbDictionary
281
     1
  0
DICTIONARY
  5
A16A
102
{ACAD_REACTORS
330
7A6F
102
}
330
7A6F
100
AcDbDictionary
281
     1
1001
ACAD
1000
<All
  0
SORTENTSTABLE
  5
969F
102
{ACAD_REACTORS
330
969E
102
}
330
969E
100
AcDbSortentsTable
330
1F
331
0
  5
11AC0
331
0
  5
C1FD
331
0
  5
11ABF
331
0
  5
11A9C
331
0
  5
11A9B
331
0
  5
C1FE
331
0
  5
C1FF
331
0
  5
11A9A
331
0
  5
C200
331
0
  5
C201
331
0
  5
C202
331
0
  5
C1C2
331
0
  5
C1C6
331
0
  5
C1C7
331
0
  5
11A99
331
0
  5
C209
331
0
  5
C1CC
331
0
  5
C20D
331
0
  5
C20E
331
0
  5
C1CD
331
0
  5
C1CE
331
0
  5
11A98
331
0
  5
11A97
331
0
  5
C20F
331
0
  5
C210
331
0
  5
C211
331
0
  5
C212
331
0
  5
C213
331
0
  5
C215
331
0
  5
C21A
331
0
  5
C21B
331
0
  5
C21C
331
0
  5
C21D
331
0
  5
C21E
331
0
  5
C220
331
0
  5
C225
331
0
  5
C226
331
0
  5
C227
331
0
  5
11A65
331
0
  5
11A64
331
0
  5
C228
331
0
  5
C229
331
0
  5
C22B
331
0
  5
C230
331
0
  5
C231
331
0
  5
C232
331
0
  5
C233
331
0
  5
C234
331
0
  5
C236
331
0
  5
C23B
331
0
  5
C23C
331
0
  5
C23D
331
0
  5
C23E
331
0
  5
C23F
331
0
  5
C240
331
0
  5
C241
331
0
  5
C242
331
0
  5
C243
331
0
  5
11A63
331
0
  5
11A62
331
0
  5
C244
331
0
  5
C245
331
0
  5
C246
331
0
  5
C247
331
0
  5
C24C
331
0
  5
C24D
331
0
  5
C24F
331
0
  5
C250
331
0
  5
C251
331
0
  5
C252
331
0
  5
C253
331
0
  5
C1CF
331
0
  5
C254
331
0
  5
C279
331
0
  5
C27A
331
0
  5
C27D
331
0
  5
C27E
331
0
  5
C1D0
331
0
  5
C27F
331
0
  5
C280
331
0
  5
C281
331
0
  5
C282
331
0
  5
C283
331
0
  5
C1D1
331
0
  5
11A61
331
0
  5
11A60
331
0
  5
11A5F
331
0
  5
11A5E
331
0
  5
C284
331
0
  5
C2A4
331
0
  5
C1D2
331
0
  5
C1D3
331
0
  5
C1D4
331
0
  5
C1D5
331
0
  5
C2A5
331
0
  5
C2A6
331
0
  5
C1D6
331
0
  5
C2C1
331
0
  5
C1D7
331
0
  5
C1D8
331
0
  5
C2C2
331
0
  5
C1D9
331
0
  5
11A5D
331
0
  5
C2C3
331
0
  5
C2C4
331
0
  5
C2C5
331
0
  5
C2C6
331
0
  5
C2C7
331
0
  5
C2C8
331
0
  5
C2C9
331
0
  5
C2CA
331
0
  5
C2CB
331
0
  5
C2CF
331
0
  5
C2D0
331
0
  5
C2D1
331
0
  5
C2D2
331
0
  5
C2D3
331
0
  5
C2D4
331
0
  5
C1DA
331
0
  5
C1DB
331
0
  5
11A5C
331
0
  5
11A5B
331
0
  5
C2D5
331
0
  5
11A5A
331
0
  5
11A59
331
0
  5
C1DC
331
0
  5
C2D6
331
0
  5
C1DD
331
0
  5
C1DE
331
0
  5
11A58
331
0
  5
11A57
331
0
  5
11A56
331
0
  5
C2D7
331
0
  5
C1DF
331
0
  5
11A55
331
0
  5
C2D8
331
0
  5
C1E0
331
0
  5
C2D9
331
0
  5
C2DA
331
0
  5
C1E1
331
0
  5
C2DB
331
0
  5
C1E2
331
0
  5
C1E3
331
0
  5
C1E4
331
0
  5
C2DD
331
0
  5
11A54
331
0
  5
11A19
331
0
  5
C2DE
331
0
  5
C1E5
331
0
  5
C1E6
331
0
  5
C1E7
331
0
  5
C1E8
331
0
  5
C1E9
331
0
  5
C2DF
331
0
  5
C2EB
331
0
  5
C2FB
331
0
  5
C2FC
331
0
  5
C312
331
0
  5
C313
331
0
  5
C314
331
0
  5
C315
331
0
  5
C316
331
0
  5
C378
331
0
  5
C37B
331
0
  5
C37C
331
0
  5
C394
331
0
  5
C395
331
0
  5
C807
331
0
  5
C9CF
331
0
  5
C9D0
331
0
  5
C9D1
331
0
  5
C9D2
331
0
  5
C9D3
331
0
  5
C9D4
331
0
  5
C9D5
331
0
  5
C9D6
331
0
  5
C9D7
331
0
  5
C9D8
331
0
  5
C9D9
331
0
  5
C9DA
331
0
  5
C9DB
331
0
  5
C9DC
331
0
  5
C9DD
331
0
  5
C9DE
331
0
  5
C9DF
331
0
  5
C9E0
331
0
  5
C9E1
331
0
  5
C9E2
331
0
  5
C9E3
331
0
  5
C9E4
331
0
  5
C9E5
331
0
  5
C9E6
331
0
  5
C9E7
331
0
  5
C9E8
331
0
  5
C9E9
331
0
  5
C9EA
331
0
  5
C9EB
331
0
  5
C9EC
331
0
  5
C9ED
331
0
  5
C9EE
331
0
  5
C9EF
331
0
  5
C9F0
331
0
  5
C9F1
331
0
  5
C9F2
331
0
  5
C9F3
331
0
  5
C9F4
331
0
  5
C9F5
331
0
  5
C9F6
331
0
  5
C9F7
331
0
  5
C9F8
331
0
  5
C9F9
331
0
  5
C9FA
331
0
  5
C9FB
331
0
  5
C9FC
331
0
  5
C9FD
331
0
  5
C9FE
331
0
  5
C9FF
331
0
  5
CA00
331
0
  5
CA01
331
0
  5
CA02
331
0
  5
CA03
331
0
  5
CA04
331
0
  5
CA05
331
0
  5
CA06
331
0
  5
CA07
331
0
  5
CA08
331
0
  5
CA09
331
0
  5
CA0A
331
0
  5
CA0B
331
0
  5
CA0C
331
0
  5
CA0D
331
0
  5
CA0E
331
0
  5
CA0F
331
0
  5
CA10
331
0
  5
CA11
331
0
  5
CA12
331
0
  5
CA13
331
0
  5
CA14
331
0
  5
CA15
331
0
  5
CA16
331
0
  5
CA17
331
0
  5
CA18
331
0
  5
CA19
331
0
  5
CA1A
331
0
  5
CA1B
331
0
  5
CA1C
331
0
  5
CA1D
331
0
  5
CA1E
331
0
  5
CA1F
331
0
  5
CA20
331
0
  5
CA21
331
0
  5
CA22
331
0
  5
CA23
331
0
  5
CA24
331
0
  5
CA25
331
0
  5
CA26
331
0
  5
CA27
331
0
  5
CA28
331
0
  5
CA29
331
0
  5
CA2A
331
0
  5
CA2B
331
0
  5
CA2C
331
0
  5
CA2D
331
0
  5
CA2E
331
0
  5
CA2F
331
0
  5
CA30
331
0
  5
CA31
331
0
  5
CA32
331
0
  5
CA33
331
0
  5
CA34
331
0
  5
CA35
331
0
  5
CA36
331
0
  5
CA37
331
0
  5
CA38
331
0
  5
CA39
331
0
  5
CA3A
331
0
  5
CA3B
331
0
  5
CA3C
331
0
  5
CA3D
331
0
  5
CA3E
331
0
  5
CA3F
331
0
  5
CA40
331
0
  5
CA41
331
0
  5
CA42
331
0
  5
CA43
331
0
  5
CA44
331
0
  5
CA45
331
0
  5
CA46
331
0
  5
CA47
331
0
  5
CA48
331
0
  5
CA49
331
0
  5
CA4A
331
0
  5
CA4B
331
0
  5
CA4C
331
0
  5
CA4D
331
0
  5
CA4E
331
0
  5
CA4F
331
0
  5
CA50
331
0
  5
CA51
331
0
  5
CA52
331
0
  5
CA53
331
0
  5
CA54
331
0
  5
CA55
331
0
  5
CA56
331
0
  5
CA57
331
0
  5
CA58
331
0
  5
CA59
331
0
  5
CA5A
331
0
  5
CA5B
331
0
  5
CA5C
331
0
  5
CA5D
331
0
  5
CA5E
331
0
  5
CA5F
331
0
  5
CA60
331
0
  5
CA61
331
0
  5
CA62
331
0
  5
CA63
331
0
  5
CA64
331
0
  5
CA65
331
0
  5
CA66
331
0
  5
CA67
331
0
  5
CA68
331
0
  5
CA69
331
0
  5
C1EA
331
0
  5
CA6A
331
0
  5
CA6B
331
0
  5
CA6C
331
0
  5
CA6D
331
0
  5
CA6E
331
0
  5
CA6F
331
0
  5
CA71
331
0
  5
CA73
331
0
  5
11A18
331
0
  5
11A17
331
0
  5
C1EB
331
0
  5
CA74
331
0
  5
C1EC
331
0
  5
CA75
331
0
  5
CA76
331
0
  5
CA77
331
0
  5
CA78
331
0
  5
C1ED
331
0
  5
C1EE
331
0
  5
C1EF
331
0
  5
C1F1
331
0
  5
C1F2
331
0
  5
C1F3
331
0
  5
11A16
331
0
  5
11A15
331
0
  5
11A14
331
0
  5
11A13
331
0
  5
C1F4
331
0
  5
C1F5
331
0
  5
CA79
331
10A36
  5
CA7A
331
10A38
  5
CA7B
331
10A39
  5
CA7C
331
10A3E
  5
CA7D
331
10A43
  5
CB33
331
10A44
  5
CB36
331
10A45
  5
D297
331
10A46
  5
D2DD
331
10A47
  5
D2DE
331
10A48
  5
D2E4
331
0
  5
D316
331
10D4B
  5
D318
331
10D6A
  5
D319
331
10D6B
  5
D31B
331
10D8C
  5
D31C
331
10D8D
  5
D31E
331
10D8E
  5
D31F
331
10D8F
  5
D321
331
10D90
  5
D322
331
10D91
  5
EDDB
331
10D92
  5
EDDC
331
10D93
  5
EDDD
331
10D94
  5
EDDE
331
10D95
  5
EDED
331
10D96
  5
EDEF
331
10DB3
  5
103D5
331
10DB4
  5
10A36
331
10DB5
  5
10A38
331
10DB6
  5
10A39
331
10DB7
  5
10A3E
331
10DB8
  5
10A43
331
10DB9
  5
10A44
331
10DBA
  5
10A45
331
10DBB
  5
10A46
331
10DBC
  5
10A47
331
10DBD
  5
10A48
331
10DBE
  5
10D48
331
10DBF
  5
10D4B
331
10DC0
  5
10D6A
331
10DC1
  5
10D6B
331
10DC2
  5
10D8C
331
10DC3
  5
10D8D
331
10DC4
  5
10D8E
331
10DC5
  5
10D8F
331
10DC6
  5
10D90
331
10DC7
  5
10D91
331
10DC8
  5
10D92
331
10DC9
  5
10D93
331
10DCA
  5
10D94
331
10DCB
  5
10D95
331
10DCE
  5
10D96
331
10DCF
  5
10DB3
331
10DD0
  5
10DB4
331
10DD1
  5
10DB5
331
10DD3
  5
10DB6
331
10DD4
  5
10DB7
331
0
  5
10DB8
331
0
  5
10DB9
331
0
  5
10DBA
331
0
  5
10DBB
331
10E0B
  5
10DBC
331
0
  5
10DBD
331
0
  5
10DBE
331
0
  5
10DBF
331
0
  5
10DC0
331
0
  5
10DC1
331
0
  5
10DC2
331
0
  5
10DC3
331
0
  5
10DC4
331
0
  5
10DC5
331
0
  5
10DC6
331
0
  5
10DC7
331
0
  5
10DC8
331
0
  5
10DC9
331
0
  5
10DCA
331
0
  5
10DCB
331
0
  5
10DCE
331
0
  5
10DCF
331
0
  5
10DD0
331
0
  5
10DD1
331
0
  5
10DD3
331
0
  5
10DD4
331
0
  5
10DD7
331
0
  5
10DE4
331
0
  5
C1F6
331
0
  5
10DF1
331
0
  5
10DFE
331
0
  5
10E0B
331
0
  5
10E0C
331
0
  5
10E1C
331
0
  5
10E29
331
0
  5
10E38
331
0
  5
10E46
331
0
  5
10E55
331
0
  5
10E64
331
0
  5
10E71
331
0
  5
10E80
331
0
  5
10E8D
331
0
  5
10E9A
331
0
  5
10ED9
331
0
  5
10EDA
331
0
  5
10EDB
331
0
  5
10EDC
331
0
  5
10EDD
331
0
  5
10EDE
331
0
  5
10EDF
331
0
  5
10EEE
331
0
  5
10EFD
331
0
  5
10F0C
331
0
  5
10F0D
331
0
  5
10F0E
331
0
  5
10F0F
331
0
  5
1195D
331
0
  5
1195E
331
0
  5
11A05
331
0
  5
11A06
331
0
  5
11A07
331
0
  5
C1F7
331
0
  5
C1F8
331
0
  5
C1F9
331
0
  5
C1FA
331
0
  5
11A08
331
0
  5
C1FB
331
0
  5
11A09
331
0
  5
C1FC
331
0
  5
11A0A
331
0
  5
11A0B
331
0
  5
11A0C
331
0
  5
11A0D
331
0
  5
11A0E
331
0
  5
11A0F
331
0
  5
11A10
331
0
  5
11A11
331
0
  5
11A12
  0
SORTENTSTABLE
  5
10228
102
{ACAD_REACTORS
330
10227
102
}
330
10227
100
AcDbSortentsTable
330
101F6
  0
SORTENTSTABLE
  5
116E1
102
{ACAD_REACTORS
330
116E0
102
}
330
116E0
100
AcDbSortentsTable
330
116B4
  0
SORTENTSTABLE
  5
11784
102
{ACAD_REACTORS
330
11783
102
}
330
11783
100
AcDbSortentsTable
330
11753
  0
GROUP
  5
D317
102
{ACAD_REACTORS
330
D
102
}
330
D
100
AcDbGroup
300

 70
     1
 71
     1
  0
GROUP
  5
D31A
102
{ACAD_REACTORS
330
D
102
}
330
D
100
AcDbGroup
300

 70
     1
 71
     1
  0
GROUP
  5
D31D
102
{ACAD_REACTORS
330
D
102
}
330
D
100
AcDbGroup
300

 70
     1
 71
     1
  0
GROUP
  5
D320
102
{ACAD_REACTORS
330
D
102
}
330
D
100
AcDbGroup
300

 70
     1
 71
     1
  0
GROUP
  5
D323
102
{ACAD_REACTORS
330
D
102
}
330
D
100
AcDbGroup
300

 70
     1
 71
     1
  0
GROUP
  5
11AC1
102
{ACAD_REACTORS
330
D
102
}
330
D
100
AcDbGroup
300

 70
     1
 71
     1
  0
LAYOUT
  5
1E
102
{ACAD_REACTORS
330
1A
102
}
330
1A
100
AcDbPlotSettings
  1

  2
none_device
  4
ISO_A3_(420.00_x_297.00_MM)
  6

 40
7.5
 41
20.0
 42
7.5
 43
20.0
 44
420.0
 45
297.0
 46
0.0
 47
0.0
 48
0.0
 49
0.0
140
0.0
141
0.0
142
1.0
143
1.0
 70
   688
 72
     1
 73
     0
 74
     5
  7

 75
    16
147
1.0
148
0.0
149
0.0
100
AcDbLayout
  1
Layout1
 70
     1
 71
     1
 10
0.0
 20
0.0
 11
412.5
 21
277.0
 12
0.0
 22
0.0
 32
0.0
 14
1.000000000000000E+20
 24
1.000000000000000E+20
 34
1.000000000000000E+20
 15
-1.000000000000000E+20
 25
-1.000000000000000E+20
 35
-1.000000000000000E+20
146
0.0
 13
0.0
 23
0.0
 33
0.0
 16
1.0
 26
0.0
 36
0.0
 17
0.0
 27
1.0
 37
0.0
 76
     0
330
1B
331
9F0D
  0
LAYOUT
  5
22
102
{ACAD_REACTORS
330
1A
102
}
330
1A
100
AcDbPlotSettings
  1

  2
none_device
  4
A3
  6

 40
3.174999952316284
 41
3.174999952316284
 42
3.17498779296875
 43
3.17498779296875
 44
297.0318298339844
 45
420.1583251953125
 46
-3.16
 47
-3.1
 48
-90.0
 49
-90.0
140
329.9999999999998
141
207.0
142
1.0
143
1.0
 70
 11940
 72
     1
 73
     1
 74
     4
  7
monochrome.ctb
 75
     0
147
1.0
148
90.0
149
90.0
100
AcDbLayout
  1
Model
 70
     1
 71
     0
 10
0.0
 20
0.0
 11
4200.0
 21
2970.0
 12
0.0
 22
0.0
 32
0.0
 14
607.3021942334622
 24
941.252715401055
 34
0.0
 15
2476.609947455372
 25
2262.467979872034
 35
0.0
146
0.0
 13
0.0
 23
0.0
 33
0.0
 16
1.0
 26
0.0
 36
0.0
 17
0.0
 27
1.0
 37
0.0
 76
     0
330
1F
331
7A57
  0
MLINESTYLE
  5
18
102
{ACAD_REACTORS
330
17
102
}
330
17
100
AcDbMlineStyle
  2
STANDARD
 70
     0
  3

 62
   256
 51
90.0
 52
90.0
 71
     2
 49
0.5
 62
   256
  6
BYLAYER
 49
-0.5
 62
   256
  6
BYLAYER
  0
ACDBPLACEHOLDER
  5
F
102
{ACAD_REACTORS
330
E
102
}
330
E
  0
SCALE
  5
6A4F
102
{ACAD_REACTORS
330
6A4E
102
}
330
6A4E
100
AcDbScale
 70
     0
300
1:1
140
1.0
141
1.0
290
     1
  0
SCALE
  5
6A50
102
{ACAD_REACTORS
330
6A4E
102
}
330
6A4E
100
AcDbScale
 70
     0
300
1:2
140
1.0
141
2.0
290
     0
  0
SCALE
  5
6A51
102
{ACAD_REACTORS
330
6A4E
102
}
330
6A4E
100
AcDbScale
 70
     0
300
1:4
140
1.0
141
4.0
290
     0
  0
SCALE
  5
6A52
102
{ACAD_REACTORS
330
6A4E
102
}
330
6A4E
100
AcDbScale
 70
     0
300
1:5
140
1.0
141
5.0
290
     0
  0
SCALE
  5
6A53
102
{ACAD_REACTORS
330
6A4E
102
}
330
6A4E
100
AcDbScale
 70
     0
300
1:8
140
1.0
141
8.0
290
     0
  0
SCALE
  5
6A54
102
{ACAD_REACTORS
330
6A4E
102
}
330
6A4E
100
AcDbScale
 70
     0
300
1:10
140
1.0
141
10.0
290
     0
  0
SCALE
  5
6A55
102
{ACAD_REACTORS
330
6A4E
102
}
330
6A4E
100
AcDbScale
 70
     0
300
1:16
140
1.0
141
16.0
290
     0
  0
SCALE
  5
6A56
102
{ACAD_REACTORS
330
6A4E
102
}
330
6A4E
100
AcDbScale
 70
     0
300
1:20
140
1.0
141
20.0
290
     0
  0
SCALE
  5
6A57
102
{ACAD_REACTORS
330
6A4E
102
}
330
6A4E
100
AcDbScale
 70
     0
300
1:30
140
1.0
141
30.0
290
     0
  0
SCALE
  5
6A58
102
{ACAD_REACTORS
330
6A4E
102
}
330
6A4E
100
AcDbScale
 70
     0
300
1:40
140
1.0
141
40.0
290
     0
  0
SCALE
  5
6A59
102
{ACAD_REACTORS
330
6A4E
102
}
330
6A4E
100
AcDbScale
 70
     0
300
1:50
140
1.0
141
50.0
290
     0
  0
SCALE
  5
6A5A
102
{ACAD_REACTORS
330
6A4E
102
}
330
6A4E
100
AcDbScale
 70
     0
300
1:100
140
1.0
141
100.0
290
     0
  0
SCALE
  5
6A5B
102
{ACAD_REACTORS
330
6A4E
102
}
330
6A4E
100
AcDbScale
 70
     0
300
2:1
140
2.0
141
1.0
290
     0
  0
SCALE
  5
6A5C
102
{ACAD_REACTORS
330
6A4E
102
}
330
6A4E
100
AcDbScale
 70
     0
300
4:1
140
4.0
141
1.0
290
     0
  0
SCALE
  5
6A5D
102
{ACAD_REACTORS
330
6A4E
102
}
330
6A4E
100
AcDbScale
 70
     0
300
8:1
140
8.0
141
1.0
290
     0
  0
SCALE
  5
6A5E
102
{ACAD_REACTORS
330
6A4E
102
}
330
6A4E
100
AcDbScale
 70
     0
300
10:1
140
10.0
141
1.0
290
     0
  0
SCALE
  5
6A5F
102
{ACAD_REACTORS
330
6A4E
102
}
330
6A4E
100
AcDbScale
 70
     0
300
100:1
140
100.0
141
1.0
290
     0
  0
SCALE
  5
6A60
102
{ACAD_REACTORS
330
6A4E
102
}
330
6A4E
100
AcDbScale
 70
     0
300
1/128" = 1'-0"
140
0.0078125
141
12.0
290
     0
  0
SCALE
  5
6A61
102
{ACAD_REACTORS
330
6A4E
102
}
330
6A4E
100
AcDbScale
 70
     0
300
1/64" = 1'-0"
140
0.015625
141
12.0
290
     0
  0
SCALE
  5
6A62
102
{ACAD_REACTORS
330
6A4E
102
}
330
6A4E
100
AcDbScale
 70
     0
300
1/32" = 1'-0"
140
0.03125
141
12.0
290
     0
  0
SCALE
  5
6A63
102
{ACAD_REACTORS
330
6A4E
102
}
330
6A4E
100
AcDbScale
 70
     0
300
1/16" = 1'-0"
140
0.0625
141
12.0
290
     0
  0
SCALE
  5
6A64
102
{ACAD_REACTORS
330
6A4E
102
}
330
6A4E
100
AcDbScale
 70
     0
300
3/32" = 1'-0"
140
0.09375
141
12.0
290
     0
  0
SCALE
  5
6A65
102
{ACAD_REACTORS
330
6A4E
102
}
330
6A4E
100
AcDbScale
 70
     0
300
1/8" = 1'-0"
140
0.125
141
12.0
290
     0
  0
SCALE
  5
6A66
102
{ACAD_REACTORS
330
6A4E
102
}
330
6A4E
100
AcDbScale
 70
     0
300
3/16" = 1'-0"
140
0.1875
141
12.0
290
     0
  0
SCALE
  5
6A67
102
{ACAD_REACTORS
330
6A4E
102
}
330
6A4E
100
AcDbScale
 70
     0
300
1/4" = 1'-0"
140
0.25
141
12.0
290
     0
  0
SCALE
  5
6A68
102
{ACAD_REACTORS
330
6A4E
102
}
330
6A4E
100
AcDbScale
 70
     0
300
3/8" = 1'-0"
140
0.375
141
12.0
290
     0
  0
SCALE
  5
6A69
102
{ACAD_REACTORS
330
6A4E
102
}
330
6A4E
100
AcDbScale
 70
     0
300
1/2" = 1'-0"
140
0.5
141
12.0
290
     0
  0
SCALE
  5
6A6A
102
{ACAD_REACTORS
330
6A4E
102
}
330
6A4E
100
AcDbScale
 70
     0
300
3/4" = 1'-0"
140
0.75
141
12.0
290
     0
  0
SCALE
  5
6A6B
102
{ACAD_REACTORS
330
6A4E
102
}
330
6A4E
100
AcDbScale
 70
     0
300
1" = 1'-0"
140
1.0
141
12.0
290
     0
  0
SCALE
  5
6A6C
102
{ACAD_REACTORS
330
6A4E
102
}
330
6A4E
100
AcDbScale
 70
     0
300
1-1/2" = 1'-0"
140
1.5
141
12.0
290
     0
  0
SCALE
  5
6A6D
102
{ACAD_REACTORS
330
6A4E
102
}
330
6A4E
100
AcDbScale
 70
     0
300
3" = 1'-0"
140
3.0
141
12.0
290
     0
  0
SCALE
  5
6A6E
102
{ACAD_REACTORS
330
6A4E
102
}
330
6A4E
100
AcDbScale
 70
     0
300
6" = 1'-0"
140
6.0
141
12.0
290
     0
  0
SCALE
  5
6A6F
102
{ACAD_REACTORS
330
6A4E
102
}
330
6A4E
100
AcDbScale
 70
     0
300
1'-0" = 1'-0"
140
12.0
141
12.0
290
     0
  0
DICTIONARYVAR
  5
79F
102
{ACAD_REACTORS
330
79E
102
}
330
79E
100
DictionaryVariables
280
     0
  1
1
  0
DICTIONARYVAR
  5
264F
102
{ACAD_REACTORS
330
79E
102
}
330
79E
100
DictionaryVariables
280
     0
  1
96
  0
ACAD_PROXY_OBJECT
  5
F0B4
102
{ACAD_REACTORS
330
F0B3
102
}
330
F0B3
100
AcDbProxyObject
 90
      499
 91
      511
 95
   262177
 70
     0
 93
     1856
310
5434D15054000541505428FC812095550000000000000B08000000000000008200000000000001807E8F2048F205000200001204000000000000581F8000000000000B0807EC3FA6DEBC0E99F8000000000001C07FE8FCC02A4224E2520CA600E2005C008C00E8005C008321803A80170023003A0017002089800620064006
310
001202DA008C2080248020801000140019001A801B00100021803780360037803900148010001000100010002080220019001A801B0021082008600820088008200A4008600900087A08032803180260030803C803280390029803A003200170032003B80338049C09
330
0
 94
        0
  0
ENDSEC
  0
EOF
