  0
SECTION
  2
HEADER
  9
$ACADVER
  1
AC1015
  9
$ACADMAINTVER
 70
     6
  9
$DWGCODEPAGE
  3
ANSI_932
  9
$INSBASE
 10
0.0
 20
0.0
 30
0.0
  9
$EXTMIN
 10
412.3021942334622
 20
941.252715401055
 30
0.0
  9
$EXTMAX
 10
2671.609947455372
 20
2262.467979872034
 30
0.0
  9
$LIMMIN
 10
0.0
 20
0.0
  9
$LIMMAX
 10
4200.0
 20
2970.0
  9
$ORTHOMODE
 70
     1
  9
$REGENMODE
 70
     1
  9
$FILLMODE
 70
     1
  9
$QTEXTMODE
 70
     0
  9
$MIRRTEXT
 70
     1
  9
$LTSCALE
 40
3.0
  9
$ATTMODE
 70
     1
  9
$TEXTSIZE
 40
30.0
  9
$TRACEWID
 40
1.0
  9
$TEXTSTYLE
  7
Standard
  9
$CLAYER
  8
01注記寸法
  9
$CELTYPE
  6
ByLayer
  9
$CECOLOR
 62
   256
  9
$CELTSCALE
 40
1.0
  9
$DISPSILH
 70
     0
  9
$DIMSCALE
 40
10.0
  9
$DIMASZ
 40
3.0
  9
$DIMEXO
 40
1.5
  9
$DIMDLI
 40
10.0
  9
$DIMRND
 40
0.0
  9
$DIMDLE
 40
0.0
  9
$DIMEXE
 40
1.0
  9
$DIMTP
 40
0.0
  9
$DIMTM
 40
0.0
  9
$DIMTXT
 40
3.0
  9
$DIMCEN
 40
1.5
  9
$DIMTSZ
 40
0.0
  9
$DIMTOL
 70
     0
  9
$DIMLIM
 70
     0
  9
$DIMTIH
 70
     0
  9
$DIMTOH
 70
     0
  9
$DIMSE1
 70
     0
  9
$DIMSE2
 70
     0
  9
$DIMTAD
 70
     1
  9
$DIMZIN
 70
     8
  9
$DIMBLK
  1
Open
  9
$DIMASO
 70
     1
  9
$DIMSHO
 70
     1
  9
$DIMPOST
  1

  9
$DIMAPOST
  1

  9
$DIMALT
 70
     0
  9
$DIMALTD
 70
     3
  9
$DIMALTF
 40
0.03937007874016
  9
$DIMLFAC
 40
1.0
  9
$DIMTOFL
 70
     1
  9
$DIMTVP
 40
0.0
  9
$DIMTIX
 70
     0
  9
$DIMSOXD
 70
     0
  9
$DIMSAH
 70
     0
  9
$DIMBLK1
  1

  9
$DIMBLK2
  1

  9
$DIMSTYLE
  2
NEMY-10
  9
$DIMCLRD
 70
     0
  9
$DIMCLRE
 70
     0
  9
$DIMCLRT
 70
     0
  9
$DIMTFAC
 40
1.0
  9
$DIMGAP
 40
1.0
  9
$DIMJUST
 70
     0
  9
$DIMSD1
 70
     0
  9
$DIMSD2
 70
     0
  9
$DIMTOLJ
 70
     0
  9
$DIMTZIN
 70
     8
  9
$DIMALTZ
 70
     0
  9
$DIMALTTZ
 70
     0
  9
$DIMUPT
 70
     0
  9
$DIMDEC
 70
     1
  9
$DIMTDEC
 70
     1
  9
$DIMALTU
 70
     2
  9
$DIMALTTD
 70
     3
  9
$DIMTXSTY
  7
Standard
  9
$DIMAUNIT
 70
     0
  9
$DIMADEC
 70
     0
  9
$DIMALTRND
 40
0.0
  9
$DIMAZIN
 70
     0
  9
$DIMDSEP
 70
    46
  9
$DIMATFIT
 70
     3
  9
$DIMFRAC
 70
     0
  9
$DIMLDRBLK
  1
Open
  9
$DIMLUNIT
 70
     2
  9
$DIMLWD
 70
    -2
  9
$DIMLWE
 70
    -2
  9
$DIMTMOVE
 70
     0
  9
$LUNITS
 70
     2
  9
$LUPREC
 70
     4
  9
$SKETCHINC
 40
1.0
  9
$FILLETRAD
 40
15.0
  9
$AUNITS
 70
     0
  9
$AUPREC
 70
     0
  9
$MENU
  1
.
  9
$ELEVATION
 40
0.0
  9
$PELEVATION
 40
0.0
  9
$THICKNESS
 40
0.0
  9
$LIMCHECK
 70
     0
  9
$CHAMFERA
 40
5.0
  9
$CHAMFERB
 40
5.0
  9
$CHAMFERC
 40
20.0
  9
$CHAMFERD
 40
0.0
  9
$SKPOLY
 70
     0
  9
$TDCREATE
 40
2455859.405048461
  9
$TDUCREATE
 40
2455859.030048461
  9
$TDUPDATE
 40
2459031.596172141
  9
$TDUUPDATE
 40
2459031.221172141
  9
$TDINDWG
 40
0.9463187269
  9
$TDUSRTIMER
 40
0.0012436227
  9
$USRTIMER
 70
     1
  9
$ANGBASE
 50
0.0
  9
$ANGDIR
 70
     0
  9
$PDMODE
 70
     0
  9
$PDSIZE
 40
0.0
  9
$PLINEWID
 40
0.0
  9
$SPLFRAME
 70
     0
  9
$SPLINETYPE
 70
     6
  9
$SPLINESEGS
 70
     8
  9
$HANDSEED
  5
11B19
  9
$SURFTAB1
 70
     6
  9
$SURFTAB2
 70
     6
  9
$SURFTYPE
 70
     6
  9
$SURFU
 70
     6
  9
$SURFV
 70
     6
  9
$UCSBASE
  2

  9
$UCSNAME
  2

  9
$UCSORG
 10
0.0
 20
0.0
 30
0.0
  9
$UCSXDIR
 10
1.0
 20
0.0
 30
0.0
  9
$UCSYDIR
 10
0.0
 20
1.0
 30
0.0
  9
$UCSORTHOREF
  2

  9
$UCSORTHOVIEW
 70
     0
  9
$UCSORGTOP
 10
0.0
 20
0.0
 30
0.0
  9
$UCSORGBOTTOM
 10
0.0
 20
0.0
 30
0.0
  9
$UCSORGLEFT
 10
0.0
 20
0.0
 30
0.0
  9
$UCSORGRIGHT
 10
0.0
 20
0.0
 30
0.0
  9
$UCSORGFRONT
 10
0.0
 20
0.0
 30
0.0
  9
$UCSORGBACK
 10
0.0
 20
0.0
 30
0.0
  9
$PUCSBASE
  2

  9
$PUCSNAME
  2

  9
$PUCSORG
 10
0.0
 20
0.0
 30
0.0
  9
$PUCSXDIR
 10
1.0
 20
0.0
 30
0.0
  9
$PUCSYDIR
 10
0.0
 20
1.0
 30
0.0
  9
$PUCSORTHOREF
  2

  9
$PUCSORTHOVIEW
 70
     0
  9
$PUCSORGTOP
 10
0.0
 20
0.0
 30
0.0
  9
$PUCSORGBOTTOM
 10
0.0
 20
0.0
 30
0.0
  9
$PUCSORGLEFT
 10
0.0
 20
0.0
 30
0.0
  9
$PUCSORGRIGHT
 10
0.0
 20
0.0
 30
0.0
  9
$PUCSORGFRONT
 10
0.0
 20
0.0
 30
0.0
  9
$PUCSORGBACK
 10
0.0
 20
0.0
 30
0.0
  9
$USERI1
 70
     0
  9
$USERI2
 70
     0
  9
$USERI3
 70
     0
  9
$USERI4
 70
     0
  9
$USERI5
 70
     0
  9
$USERR1
 40
0.0
  9
$USERR2
 40
0.0
  9
$USERR3
 40
0.0
  9
$USERR4
 40
0.0
  9
$USERR5
 40
0.0
  9
$WORLDVIEW
 70
     1
  9
$SHADEDGE
 70
     3
  9
$SHADEDIF
 70
    70
  9
$TILEMODE
 70
     1
  9
$MAXACTVP
 70
    64
  9
$PINSBASE
 10
0.0
 20
0.0
 30
0.0
  9
$PLIMCHECK
 70
     0
  9
$PEXTMIN
 10
1.000000000000000E+20
 20
1.000000000000000E+20
 30
1.000000000000000E+20
  9
$PEXTMAX
 10
-1.000000000000000E+20
 20
-1.000000000000000E+20
 30
-1.000000000000000E+20
  9
$PLIMMIN
 10
-7.5
 20
-20.0
  9
$PLIMMAX
 10
412.5
 20
277.0
  9
$UNITMODE
 70
     0
  9
$VISRETAIN
 70
     1
  9
$PLINEGEN
 70
     0
  9
$PSLTSCALE
 70
     1
  9
$TREEDEPTH
 70
  3020
  9
$CMLSTYLE
  2
Standard
  9
$CMLJUST
 70
     0
  9
$CMLSCALE
 40
20.0
  9
$PROXYGRAPHICS
 70
     1
  9
$MEASUREMENT
 70
     1
  9
$CELWEIGHT
370
    -1
  9
$ENDCAPS
280
     0
  9
$JOINSTYLE
280
     0
  9
$LWDISPLAY
290
     0
  9
$INSUNITS
 70
     4
  9
$HYPERLINKBASE
  1

  9
$STYLESHEET
  1
monochrome.ctb
  9
$XEDIT
290
     1
  9
$CEPSNTYPE
380
     0
  9
$PSTYLEMODE
290
     1
  9
$FINGERPRINTGUID
  2
{FDEAD578-A652-11D2-9A35-0060089B3A3F}
  9
$VERSIONGUID
  2
{11DB8456-EC16-47A0-BA21-BBDA07550E8A}
  9
$EXTNAMES
290
     1
  9
$PSVPSCALE
 40
0.0
  9
$OLESTARTUP
290
     0
  0
ENDSEC
  0
SECTION
  2
CLASSES
  0
CLASS
  1
ACDBDICTIONARYWDFLT
  2
AcDbDictionaryWithDefault
  3
ObjectDBX Classes
 90
        0
280
     0
281
     0
  0
CLASS
  1
ACDBPLACEHOLDER
  2
AcDbPlaceHolder
  3
ObjectDBX Classes
 90
        0
280
     0
281
     0
  0
CLASS
  1
LAYOUT
  2
AcDbLayout
  3
ObjectDBX Classes
 90
        0
280
     0
281
     0
  0
CLASS
  1
DICTIONARYVAR
  2
AcDbDictionaryVar
  3
ObjectDBX Classes
 90
        0
280
     0
281
     0
  0
CLASS
  1
SCALE
  2
AcDbScale
  3
ObjectDBX Classes
 90
     1153
280
     0
281
     0
  0
CLASS
  1
MATERIAL
  2
AcDbMaterial
  3
ObjectDBX Classes
 90
     1153
280
     0
281
     0
  0
CLASS
  1
VISUALSTYLE
  2
AcDbVisualStyle
  3
ObjectDBX Classes
 90
     4095
280
     0
281
     0
  0
CLASS
  1
TABLESTYLE
  2
AcDbTableStyle
  3
ObjectDBX Classes
 90
     4095
280
     0
281
     0
  0
CLASS
  1
RASTERVARIABLES
  2
AcDbRasterVariables
  3
ISM
 90
        0
280
     0
281
     0
  0
CLASS
  1
SORTENTSTABLE
  2
AcDbSortentsTable
  3
ObjectDBX Classes
 90
        0
280
     0
281
     0
  0
CLASS
  1
SUN
  2
AcDbSun
  3
SCENEOE
 90
     1153
280
     0
281
     0
  0
CLASS
  1
AEC_VARS_DWG_SETUP
  2
AecDbVarsDwgSetup
  3
AecBase60
 90
      129
280
     0
281
     0
  0
CLASS
  1
AEC_DISP_REP_2D_SECTION
  2
AecDbDispRep2dSection
  3
AecBase60
 90
      129
280
     0
281
     0
  0
CLASS
  1
AEC_DISP_PROPS_2D_SECTION
  2
AecDbDispProps2dSection
  3
AecBase60
 90
      129
280
     0
281
     0
  0
CLASS
  1
AEC_DISP_REP_CLIP_VOLUME_MODEL
  2
AecDbDispRepClipVolModel
  3
AecBase60
 90
      129
280
     0
281
     0
  0
CLASS
  1
AEC_DISP_PROPS_CLIP_VOLUME
  2
AecDbDispPropsClipVol
  3
AecBase60
 90
      129
280
     0
281
     0
  0
CLASS
  1
AEC_DISP_REP_CLIP_VOLUME_PLAN
  2
AecDbDispRepClipVolPlan
  3
AecBase60
 90
      129
280
     0
281
     0
  0
CLASS
  1
AEC_DISP_REP_CLIP_VOLUME_RESULT
  2
AecDbDispRepClipVolResult
  3
AecBase60
 90
      129
280
     0
281
     0
  0
CLASS
  1
AEC_DISP_REP_CLIP_VOLUME_RESULT_SUBDIV
  2
AecDbDispRepClipVolResSubDiv
  3
AecBase60
 90
      129
280
     0
281
     0
  0
CLASS
  1
AEC_DISP_PROPS_CLIP_VOLUME_RESULT
  2
AecDbDispPropsClipVolResSubDiv
  3
AecBase60
 90
      129
280
     0
281
     0
  0
CLASS
  1
AEC_DISP_REP_DISPLAYTHEME
  2
AecDbDispRepDisplayTheme
  3
AecBase60
 90
      129
280
     0
281
     0
  0
CLASS
  1
AEC_DISP_PROPS_DISPLAYTHEME
  2
AecDbDispPropsDisplayTheme
  3
AecBase60
 90
      129
280
     0
281
     0
  0
CLASS
  1
AEC_DISP_REP_ENT_REF
  2
AecDbDispRepEntRef
  3
AecBase60
 90
      129
280
     0
281
     0
  0
CLASS
  1
AEC_DISP_PROPS_ENT_REF
  2
AecDbDispPropsEntRef
  3
AecBase60
 90
      129
280
     0
281
     0
  0
CLASS
  1
AEC_DISP_REP_LAYOUT_CURVE
  2
AecDbDispRepLayoutCurve
  3
AecBase60
 90
      129
280
     0
281
     0
  0
CLASS
  1
AEC_DISP_PROPS_LAYOUT_CURVE
  2
AecDbDispPropsLayoutCurve
  3
AecBase60
 90
      129
280
     0
281
     0
  0
CLASS
  1
AEC_DISP_REP_LAYOUT_GRID2D
  2
AecDbDispRepLayoutGrid2d
  3
AecBase60
 90
      129
280
     0
281
     0
  0
CLASS
  1
AEC_DISP_PROPS_LAYOUT_GRID2D
  2
AecDbDispPropsLayoutGrid2d
  3
AecBase60
 90
      129
280
     0
281
     0
  0
CLASS
  1
AEC_DISP_REP_LAYOUT_GRID3D
  2
AecDbDispRepLayoutGrid3d
  3
AecBase60
 90
      129
280
     0
281
     0
  0
CLASS
  1
AEC_DISP_PROPS_LAYOUT_GRID3D
  2
AecDbDispPropsLayoutGrid3d
  3
AecBase60
 90
      129
280
     0
281
     0
  0
CLASS
  1
AEC_DISP_REP_MASKBLOCK_REF
  2
AecDbDispRepMaskBlockRef
  3
AecBase60
 90
      129
280
     0
281
     0
  0
CLASS
  1
AEC_DISP_PROPS_MASKBLOCK
  2
AecDbDispPropsMaskBlock
  3
AecBase60
 90
      129
280
     0
281
     0
  0
CLASS
  1
AEC_DISP_REP_MASKBLOCK_REF_RCP
  2
AecDbDispRepMaskBlockRefRcp
  3
AecArchBase60
 90
      129
280
     0
281
     0
  0
CLASS
  1
AEC_DISP_REP_MASS_ELEM_MODEL
  2
AecDbDispRepMassElemModel
  3
AecBase60
 90
      129
280
     0
281
     0
  0
CLASS
  1
AEC_DISP_PROPS_MASS_ELEM_MODEL
  2
AecDbDispPropsMassElem
  3
AecBase60
 90
      129
280
     0
281
     0
  0
CLASS
  1
AEC_DISP_REP_MASS_ELEM_SCHEM
  2
AecDbDispRepMassElemSchem
  3
AecBase60
 90
      129
280
     0
281
     0
  0
CLASS
  1
AEC_DISPREPAECDBDISPREPMASSELEMPLAN50
  2
AecDbDispRepMassElemPlan50
  3
AecArchDACHBase60
 90
      129
280
     0
281
     0
  0
CLASS
  1
AEC_DISPROPSMASSELEMPLANCOMMON
  2
AecDbDispPropsMassElemPlanCommon
  3
AecArchDACHBase60
 90
      129
280
     0
281
     0
  0
CLASS
  1
AEC_DISPREPAECDBDISPREPMASSELEMPLAN100
  2
AecDbDispRepMassElemPlan100
  3
AecArchDACHBase60
 90
      129
280
     0
281
     0
  0
CLASS
  1
AEC_DISP_REP_MASS_ELEM_RCP
  2
AecDbDispRepMassElemRcp
  3
AecArchBase60
 90
      129
280
     0
281
     0
  0
CLASS
  1
AEC_DISP_REP_MASS_GROUP_MODEL
  2
AecDbDispRepMassGroupModel
  3
AecBase60
 90
      129
280
     0
281
     0
  0
CLASS
  1
AEC_DISP_PROPS_MASS_GROUP
  2
AecDbDispPropsMassGroup
  3
AecBase60
 90
      129
280
     0
281
     0
  0
CLASS
  1
AEC_DISP_REP_MASS_GROUP_PLAN
  2
AecDbDispRepMassGroupPlan
  3
AecBase60
 90
      129
280
     0
281
     0
  0
CLASS
  1
AEC_DISPREPAECDBDISPREPMASSGROUPPLAN50
  2
AecDbDispRepMassGroupPlan50
  3
AecArchDACHBase60
 90
      129
280
     0
281
     0
  0
CLASS
  1
AEC_DISPROPSMASSGROUPPLANCOMMON
  2
AecDbDispPropsMassGroupPlanCommon
  3
AecArchDACHBase60
 90
      129
280
     0
281
     0
  0
CLASS
  1
AEC_DISPREPAECDBDISPREPMASSGROUPPLAN100
  2
AecDbDispRepMassGroupPlan100
  3
AecArchDACHBase60
 90
      129
280
     0
281
     0
  0
CLASS
  1
AEC_DISP_REP_MASS_GROUP_RCP
  2
AecDbDispRepMassGroupRcp
  3
AecArchBase60
 90
      129
280
     0
281
     0
  0
CLASS
  1
AEC_DISP_REP_MVBLOCK_REF
  2
AecDbDispRepMvBlockRef
  3
AecBase60
 90
      129
280
     0
281
     0
  0
CLASS
  1
AEC_DISP_REP_MVBLOCK_REF_MODEL
  2
AecDbDispRepMvBlockRefModel
  3
AecBase60
 90
      129
280
     0
281
     0
  0
CLASS
  1
AEC_AECDBDISPREPMVBLOCKREFPLAN100
  2
AecDbDispRepMvBlockRefPlan100
  3
AecBase60
 90
      129
280
     0
281
     0
  0
CLASS
  1
AEC_AECDBDISPREPMVBLOCKREFPLAN50
  2
AecDbDispRepMvBlockRefPlan50
  3
AecBase60
 90
      129
280
     0
281
     0
  0
CLASS
  1
AEC_DISP_REP_POLYGON_MODEL
  2
AecDbDispRepPolygonModel
  3
AecBase60
 90
      129
280
     0
281
     0
  0
CLASS
  1
AEC_DISP_PROPS_POLYGON_MODEL
  2
AecDbDispPropsPolygonModel
  3
AecBase60
 90
      129
280
     0
281
     0
  0
CLASS
  1
AEC_DISP_REP_POLYGON_TRUECOLOUR
  2
AecDbDispRepPolygonTrueColour
  3
AecBase60
 90
      129
280
     0
281
     0
  0
CLASS
  1
AEC_DISP_PROPS_POLYGON_TRUECOLOUR
  2
AecDbDispPropsPolygonTrueColour
  3
AecBase60
 90
      129
280
     0
281
     0
  0
CLASS
  1
AEC_DISP_REP_SLICE
  2
AecDbDispRepSlice
  3
AecBase60
 90
      129
280
     0
281
     0
  0
CLASS
  1
AEC_DISP_PROPS_SLICE
  2
AecDbDispPropsSlice
  3
AecBase60
 90
      129
280
     0
281
     0
  0
CLASS
  1
AEC_DISP_REP_ANCHOR
  2
AecDbDispRepAnchor
  3
AecBase60
 90
      129
280
     0
281
     0
  0
CLASS
  1
AEC_DISP_REP_ANCHOR_ENT_TO_NODE
  2
AecDbDispRepAnchorEntToNode
  3
AecBase60
 90
      129
280
     0
281
     0
  0
CLASS
  1
AEC_DISP_PROPS_ENT
  2
AecDbDispPropsEnt
  3
AecBase60
 90
      129
280
     0
281
     0
  0
CLASS
  1
AEC_DISP_REP_MATERIAL
  2
AecDbDispRepMaterial
  3
AecBase60
 90
      129
280
     0
281
     0
  0
CLASS
  1
AEC_DISP_PROPS_MATERIAL
  2
AecDbDispPropsMaterial
  3
AecBase60
 90
      129
280
     0
281
     0
  0
CLASS
  1
AEC_DISP_REP_EDITINPLACEPROFILE
  2
AecDbDispRepEditInPlaceProfile
  3
AecBase60
 90
      129
280
     0
281
     0
  0
CLASS
  1
AEC_DISP_PROPS_EDITINPLACEPROFILE_MODEL
  2
AecDbDispPropsEditInPlaceProfile
  3
AecBase60
 90
      129
280
     0
281
     0
  0
CLASS
  1
MLEADERSTYLE
  2
AcDbMLeaderStyle
  3
ACDB_MLEADERSTYLE_CLASS
 90
     4095
280
     0
281
     0
  0
ENDSEC
  0
SECTION
  2
TABLES
  0
TABLE
  2
VPORT
  5
8
330
0
100
AcDbSymbolTable
 70
     1
  0
VPORT
  5
7A57
330
8
100
AcDbSymbolTableRecord
100
AcDbViewportTableRecord
  2
*Active
 70
     0
 10
0.0
 20
0.0
 11
1.0
 21
1.0
 12
1526.713732853055
 22
1631.173947134175
 13
0.0
 23
0.0
 14
10.0
 24
10.0
 15
10.0
 25
10.0
 16
0.0
 26
0.0
 36
1.0
 17
0.0
 27
0.0
 37
0.0
 40
3010.767629584085
 41
1.410216718266254
 42
50.0
 43
0.0
 44
0.0
 50
0.0
 51
0.0
 71
    16
 72
   100
 73
     1
 74
     2
 75
     0
 76
     0
 77
     0
 78
     0
281
     0
 65
     1
110
0.0
120
0.0
130
0.0
111
1.0
121
0.0
131
0.0
112
0.0
122
1.0
132
0.0
 79
     0
146
0.0
  0
ENDTAB
  0
TABLE
  2
LTYPE
  5
5
330
0
100
AcDbSymbolTable
 70
     6
  0
LTYPE
  5
14
330
5
100
AcDbSymbolTableRecord
100
AcDbLinetypeTableRecord
  2
ByBlock
 70
     0
  3

 72
    65
 73
     0
 40
0.0
  0
LTYPE
  5
15
330
5
100
AcDbSymbolTableRecord
100
AcDbLinetypeTableRecord
  2
ByLayer
 70
     0
  3

 72
    65
 73
     0
 40
0.0
  0
LTYPE
  5
16
330
5
100
AcDbSymbolTableRecord
100
AcDbLinetypeTableRecord
  2
Continuous
 70
     0
  3
Solid line
 72
    65
 73
     0
 40
0.0
  0
LTYPE
  5
BA
330
5
100
AcDbSymbolTableRecord
100
AcDbLinetypeTableRecord
  2
HIDDEN
 70
     0
  3
Hidden __ __ __ __ __ __ __ __ __ __ __ __ __ _
 72
    65
 73
     2
 40
9.524999999999999
 49
6.35
 74
     0
 49
-3.175
 74
     0
  0
LTYPE
  5
BB
330
5
100
AcDbSymbolTableRecord
100
AcDbLinetypeTableRecord
  2
PHANTOM
 70
     0
  3
Phantom ______  __  __  ______  __  __  ______
 72
    65
 73
     6
 40
63.5
 49
31.75
 74
     0
 49
-6.35
 74
     0
 49
6.35
 74
     0
 49
-6.35
 74
     0
 49
6.35
 74
     0
 49
-6.35
 74
     0
  0
LTYPE
  5
BC
330
5
100
AcDbSymbolTableRecord
100
AcDbLinetypeTableRecord
  2
CENTER
 70
     0
  3
Center ____ _ ____ _ ____ _ ____ _ ____ _ ____
 72
    65
 73
     4
 40
50.8
 49
31.75
 74
     0
 49
-6.35
 74
     0
 49
6.35
 74
     0
 49
-6.35
 74
     0
  0
LTYPE
  5
47C
330
5
100
AcDbSymbolTableRecord
100
AcDbLinetypeTableRecord
  2
DOT
 70
     0
  3
Dot . . . . . . . . . . . . . . . . . . . . . .
 72
    65
 73
     2
 40
6.35
 49
0.0
 74
     0
 49
-6.35
 74
     0
  0
LTYPE
  5
A954
330
5
100
AcDbSymbolTableRecord
100
AcDbLinetypeTableRecord
  2
HIDDEN2
 70
     0
  3
Hidden (.5x) _ _ _ _ _ _ _ _ _ _ _ _ _ _ _ _ _
 72
    65
 73
     2
 40
4.762499999999999
 49
3.175
 74
     0
 49
-1.5875
 74
     0
  0
ENDTAB
  0
TABLE
  2
LAYER
  5
2
102
{ACAD_XDICTIONARY
360
7A6F
102
}
330
0
100
AcDbSymbolTable
 70
    15
  0
LAYER
  5
10
330
2
100
AcDbSymbolTableRecord
100
AcDbLayerTableRecord
  2
0
 70
     0
 62
     7
  6
Continuous
370
    -3
390
F
  0
LAYER
  5
45
330
2
100
AcDbSymbolTableRecord
100
AcDbLayerTableRecord
  2
01注記寸法
 70
     0
 62
     7
  6
Continuous
370
     9
390
F
  0
LAYER
  5
46
330
2
100
AcDbSymbolTableRecord
100
AcDbLayerTableRecord
  2
02実線
 70
     0
 62
     2
  6
Continuous
370
    15
390
F
  0
LAYER
  5
5F
330
2
100
AcDbSymbolTableRecord
100
AcDbLayerTableRecord
  2
Defpoints
 70
     0
 62
     7
  6
Continuous
290
     0
370
    -3
390
F
  0
LAYER
  5
7E52
330
2
100
AcDbSymbolTableRecord
100
AcDbLayerTableRecord
  2
03破線
 70
     0
 62
     3
  6
HIDDEN
370
     9
390
F
  0
LAYER
  5
7E55
330
2
100
AcDbSymbolTableRecord
100
AcDbLayerTableRecord
  2
04一点鎖線
 70
     0
 62
    70
  6
CENTER
370
     9
390
F
  0
LAYER
  5
7E58
330
2
100
AcDbSymbolTableRecord
100
AcDbLayerTableRecord
  2
05二点鎖線
 70
     0
 62
   110
  6
PHANTOM
370
     9
390
F
  0
LAYER
  5
7E5B
330
2
100
AcDbSymbolTableRecord
100
AcDbLayerTableRecord
  2
06点線
 70
     0
 62
    96
  6
DOT
370
     9
390
F
  0
LAYER
  5
7E5E
330
2
100
AcDbSymbolTableRecord
100
AcDbLayerTableRecord
  2
07その他
 70
     0
 62
     6
  6
Continuous
370
     5
390
F
  0
LAYER
  5
7E60
330
2
100
AcDbSymbolTableRecord
100
AcDbLayerTableRecord
  2
08非表示
 70
     0
 62
     4
  6
Continuous
290
     0
370
     0
390
F
  0
LAYER
  5
7E62
330
2
100
AcDbSymbolTableRecord
100
AcDbLayerTableRecord
  2
09図枠
 70
     0
 62
     1
  6
Continuous
370
    30
390
F
  0
LAYER
  5
835A
330
2
100
AcDbSymbolTableRecord
100
AcDbLayerTableRecord
  2
10副資材
 70
     0
 62
    51
  6
Continuous
290
     0
370
    -3
390
F
1001
AcAecLayerStandard
1000

1000

  0
LAYER
  5
8CAC
330
2
100
AcDbSymbolTableRecord
100
AcDbLayerTableRecord
  2
11機器
 70
     0
 62
    11
  6
Continuous
290
     0
370
    -3
390
F
1001
AcAecLayerStandard
1000

1000

  0
LAYER
  5
8CB1
330
2
100
AcDbSymbolTableRecord
100
AcDbLayerTableRecord
  2
12防振架台
 70
     0
 62
   190
  6
Continuous
290
     0
370
    -3
390
F
1001
AcAecLayerStandard
1000

1000

  0
LAYER
  5
A15B
330
2
100
AcDbSymbolTableRecord
100
AcDbLayerTableRecord
  2
13製作用注記
 70
     0
 62
     5
  6
Continuous
290
     0
370
     9
390
F
1001
AcAecLayerStandard
1000

1000

  0
ENDTAB
  0
TABLE
  2
STYLE
  5
3
330
0
100
AcDbSymbolTable
 70
     3
  0
STYLE
  5
11
330
3
100
AcDbSymbolTableRecord
100
AcDbTextStyleTableRecord
  2
Standard
 70
     0
 40
0.0
 41
1.0
 50
0.0
 71
     0
 42
30.0
  3
MSGOTHIC.TTC
  4

1001
ACAD
1000
MS Gothic
1071
    32817
  0
STYLE
  5
47B
330
3
100
AcDbSymbolTableRecord
100
AcDbTextStyleTableRecord
  2

 70
     1
 40
0.0
 41
1.0
 50
0.0
 71
     0
 42
3.0
  3
ltypeshp.shx
  4

  0
STYLE
  5
10A73
330
3
100
AcDbSymbolTableRecord
100
AcDbTextStyleTableRecord
  2
STYLE1
 70
     0
 40
0.0
 41
0.9
 50
0.0
 71
     0
 42
30.0
  3
TXT.shx
  4
extfont.shx
  0
ENDTAB
  0
TABLE
  2
VIEW
  5
6
330
0
100
AcDbSymbolTable
 70
     0
  0
ENDTAB
  0
TABLE
  2
UCS
  5
7
330
0
100
AcDbSymbolTable
 70
     0
  0
ENDTAB
  0
TABLE
  2
APPID
  5
9
330
0
100
AcDbSymbolTable
 70
     9
  0
APPID
  5
12
330
9
100
AcDbSymbolTableRecord
100
AcDbRegAppTableRecord
  2
ACAD
 70
     0
  0
APPID
  5
6A9E
330
9
100
AcDbSymbolTableRecord
100
AcDbRegAppTableRecord
  2
ACAD_DSTYLE_DIMRADIAL_EXTENSION
 70
     0
  0
APPID
  5
742C
330
9
100
AcDbSymbolTableRecord
100
AcDbRegAppTableRecord
  2
ACAD_PSEXT
 70
     0
  0
APPID
  5
742D
330
9
100
AcDbSymbolTableRecord
100
AcDbRegAppTableRecord
  2
ACAD_DSTYLE_DIMJAG
 70
     0
  0
APPID
  5
742E
330
9
100
AcDbSymbolTableRecord
100
AcDbRegAppTableRecord
  2
ACAD_DSTYLE_DIMTALN
 70
     0
  0
APPID
  5
835C
330
9
100
AcDbSymbolTableRecord
100
AcDbRegAppTableRecord
  2
AcAecLayerStandard
 70
     0
  0
APPID
  5
F0B0
330
9
100
AcDbSymbolTableRecord
100
AcDbRegAppTableRecord
  2
AECBASE
 70
     0
  0
APPID
  5
F0B1
330
9
100
AcDbSymbolTableRecord
100
AcDbRegAppTableRecord
  2
AEC_2DSECTION_XDATA
 70
     0
  0
APPID
  5
F0B2
330
9
100
AcDbSymbolTableRecord
100
AcDbRegAppTableRecord
  2
AEC_MASSGROUP_XDADA
 70
     0
  0
ENDTAB
  0
TABLE
  2
DIMSTYLE
  5
A
330
0
100
AcDbSymbolTable
 70
    25
100
AcDbDimStyleTable
  0
DIMSTYLE
105
73
330
A
100
AcDbSymbolTableRecord
100
AcDbDimStyleTableRecord
  2
NEMY-1
 70
     0
 41
3.0
 42
1.5
 43
10.0
 44
1.0
 73
     0
 74
     0
 77
     1
 78
     8
140
3.0
141
1.5
143
0.03937007874016
147
1.0
171
     3
172
     1
178
     0
271
     1
272
     1
274
     3
283
     0
284
     8
340
11
341
8F
342
8F
  0
DIMSTYLE
105
4DCE
330
A
100
AcDbSymbolTableRecord
100
AcDbDimStyleTableRecord
  2
NEMY-2
 70
     0
 40
2.0
 41
3.0
 42
1.5
 43
10.0
 44
1.0
 73
     0
 74
     0
 77
     1
 78
     8
140
3.0
141
1.5
143
0.03937007874016
147
1.0
171
     3
172
     1
178
     0
271
     1
272
     1
274
     3
283
     0
284
     8
340
11
341
8F
342
8F
  0
DIMSTYLE
105
4DCF
330
A
100
AcDbSymbolTableRecord
100
AcDbDimStyleTableRecord
  2
NEMY-3
 70
     0
 40
3.0
 41
3.0
 42
1.5
 43
10.0
 44
1.0
 73
     0
 74
     0
 77
     1
 78
     8
140
3.0
141
1.5
143
0.03937007874016
147
1.0
171
     3
172
     1
178
     0
271
     1
272
     1
274
     3
283
     0
284
     8
340
11
341
8F
342
8F
  0
DIMSTYLE
105
4DD0
330
A
100
AcDbSymbolTableRecord
100
AcDbDimStyleTableRecord
  2
NEMY-5
 70
     0
 40
5.0
 41
3.0
 42
1.5
 43
10.0
 44
1.0
 73
     0
 74
     0
 77
     1
 78
     8
140
3.0
141
1.5
143
0.03937007874016
147
1.0
171
     3
172
     1
178
     0
271
     1
272
     1
274
     3
283
     0
284
     8
340
11
341
8F
342
8F
  0
DIMSTYLE
105
4DD1
330
A
100
AcDbSymbolTableRecord
100
AcDbDimStyleTableRecord
  2
NEMY-8
 70
     0
 40
8.0
 41
3.0
 42
1.5
 43
10.0
 44
1.0
 73
     0
 74
     0
 77
     1
 78
     8
140
3.0
141
1.5
143
0.03937007874016
147
1.0
171
     3
172
     1
178
     0
271
     1
272
     1
274
     3
283
     0
284
     8
340
11
341
8F
342
8F
  0
DIMSTYLE
105
4DD2
330
A
100
AcDbSymbolTableRecord
100
AcDbDimStyleTableRecord
  2
NEMY-15
 70
     0
 40
15.0
 41
3.0
 42
1.5
 43
10.0
 44
1.0
 73
     0
 74
     0
 77
     1
 78
     8
140
3.0
141
1.5
143
0.03937007874016
147
1.0
171
     3
172
     1
178
     0
271
     1
272
     1
274
     3
283
     0
284
     8
340
11
341
8F
342
8F
  0
DIMSTYLE
105
4DD3
102
{ACAD_REACTORS
102
}
330
A
100
AcDbSymbolTableRecord
100
AcDbDimStyleTableRecord
  2
NEMY-10
 70
     0
 40
10.0
 41
3.0
 42
1.5
 43
10.0
 44
1.0
 73
     0
 74
     0
 77
     1
 78
     8
140
3.0
141
1.5
143
0.03937007874016
147
1.0
171
     3
172
     1
178
     0
271
     1
272
     1
274
     3
283
     0
284
     8
340
11
341
8F
342
8F
  0
DIMSTYLE
105
4DD4
330
A
100
AcDbSymbolTableRecord
100
AcDbDimStyleTableRecord
  2
NEMY-25
 70
     0
 40
25.0
 41
3.0
 42
1.5
 43
10.0
 44
1.0
 73
     0
 74
     0
 77
     1
 78
     8
140
3.0
141
1.5
143
0.03937007874016
147
1.0
171
     3
172
     1
178
     0
271
     1
272
     1
274
     3
283
     0
284
     8
340
11
341
8F
342
8F
  0
DIMSTYLE
105
4DD5
330
A
100
AcDbSymbolTableRecord
100
AcDbDimStyleTableRecord
  2
NEMY-30
 70
     0
 40
30.0
 41
3.0
 42
1.5
 43
10.0
 44
1.0
 73
     0
 74
     0
 77
     1
 78
     8
140
3.0
141
1.5
143
0.03937007874016
147
1.0
171
     3
172
     1
178
     0
271
     1
272
     1
274
     3
283
     0
284
     8
340
11
341
8F
342
8F
  0
DIMSTYLE
105
4DD6
330
A
100
AcDbSymbolTableRecord
100
AcDbDimStyleTableRecord
  2
NEMY-50
 70
     0
 40
50.0
 41
3.0
 42
1.5
 43
10.0
 44
1.0
 73
     0
 74
     0
 77
     1
 78
     8
140
3.0
141
1.5
143
0.03937007874016
147
1.0
171
     3
172
     1
178
     0
271
     1
272
     1
274
     3
283
     0
284
     8
340
11
341
8F
342
8F
  0
DIMSTYLE
105
4E6F
330
A
100
AcDbSymbolTableRecord
100
AcDbDimStyleTableRecord
  2
NEMY-20
 70
     0
 40
20.0
 41
3.0
 42
1.5
 43
10.0
 44
1.0
 73
     0
 74
     0
 77
     1
 78
     8
140
3.0
141
1.5
143
0.03937007874016
147
1.0
171
     3
172
     1
178
     0
271
     1
272
     1
274
     3
283
     0
284
     8
340
11
341
8F
342
8F
  0
DIMSTYLE
105
4F44
330
A
100
AcDbSymbolTableRecord
100
AcDbDimStyleTableRecord
  2
NEMY-10$3
 70
     0
 40
10.0
 41
3.0
 42
1.5
 43
10.0
 44
1.0
 77
     1
 78
     8
140
3.0
141
1.5
143
0.03937007874016
147
1.0
171
     3
172
     1
178
     0
271
     1
272
     1
274
     3
283
     0
284
     8
340
11
341
8F
342
8F
  0
DIMSTYLE
105
4F45
330
A
100
AcDbSymbolTableRecord
100
AcDbDimStyleTableRecord
  2
NEMY-1$3
 70
     0
 41
3.0
 42
1.5
 43
10.0
 44
1.0
 77
     1
 78
     8
140
3.0
141
1.5
143
0.03937007874016
147
1.0
171
     3
172
     1
178
     0
271
     1
272
     1
274
     3
283
     0
284
     8
340
11
341
8F
342
8F
  0
DIMSTYLE
105
4F46
330
A
100
AcDbSymbolTableRecord
100
AcDbDimStyleTableRecord
  2
NEMY-12
 70
     0
 40
12.0
 41
3.0
 42
1.5
 43
10.0
 44
1.0
 73
     0
 74
     0
 77
     1
 78
     8
140
3.0
141
1.5
143
0.03937007874016
147
1.0
171
     3
172
     1
178
     0
271
     1
272
     1
274
     3
283
     0
284
     8
340
11
341
8F
342
8F
  0
DIMSTYLE
105
4F47
330
A
100
AcDbSymbolTableRecord
100
AcDbDimStyleTableRecord
  2
NEMY-12$3
 70
     0
 40
12.0
 41
3.0
 42
1.5
 43
10.0
 44
1.0
 77
     1
 78
     8
140
3.0
141
1.5
143
0.03937007874016
147
1.0
171
     3
172
     1
178
     0
271
     1
272
     1
274
     3
283
     0
284
     8
340
11
341
8F
342
8F
  0
DIMSTYLE
105
5E6E
330
A
100
AcDbSymbolTableRecord
100
AcDbDimStyleTableRecord
  2
NEMY-8$3
 70
     0
 40
8.0
 41
3.0
 42
1.5
 43
10.0
 44
1.0
 77
     1
 78
     8
140
3.0
141
1.5
143
0.03937007874016
147
1.0
171
     3
172
     1
178
     0
271
     1
272
     1
274
     3
283
     0
284
     8
340
11
341
8F
342
8F
  0
DIMSTYLE
105
5E6F
330
A
100
AcDbSymbolTableRecord
100
AcDbDimStyleTableRecord
  2
NEMY-50$3
 70
     0
 40
50.0
 41
3.0
 42
1.5
 43
10.0
 44
1.0
 77
     1
 78
     8
140
3.0
141
1.5
143
0.03937007874016
147
1.0
171
     3
172
     1
178
     0
271
     1
272
     1
274
     3
283
     0
284
     8
340
11
341
8F
342
8F
  0
DIMSTYLE
105
5E70
330
A
100
AcDbSymbolTableRecord
100
AcDbDimStyleTableRecord
  2
NEMY-5$3
 70
     0
 40
5.0
 41
3.0
 42
1.5
 43
10.0
 44
1.0
 77
     1
 78
     8
140
3.0
141
1.5
143
0.03937007874016
147
1.0
171
     3
172
     1
178
     0
271
     1
272
     1
274
     3
283
     0
284
     8
340
11
341
8F
342
8F
  0
DIMSTYLE
105
5E71
330
A
100
AcDbSymbolTableRecord
100
AcDbDimStyleTableRecord
  2
NEMY-30$3
 70
     0
 40
30.0
 41
3.0
 42
1.5
 43
10.0
 44
1.0
 77
     1
 78
     8
140
3.0
141
1.5
143
0.03937007874016
147
1.0
171
     3
172
     1
178
     0
271
     1
272
     1
274
     3
283
     0
284
     8
340
11
341
8F
342
8F
  0
DIMSTYLE
105
5E72
330
A
100
AcDbSymbolTableRecord
100
AcDbDimStyleTableRecord
  2
NEMY-3$3
 70
     0
 40
3.0
 41
3.0
 42
1.5
 43
10.0
 44
1.0
 77
     1
 78
     8
140
3.0
141
1.5
143
0.03937007874016
147
1.0
171
     3
172
     1
178
     0
271
     1
272
     1
274
     3
283
     0
284
     8
340
11
341
8F
342
8F
  0
DIMSTYLE
105
5E73
330
A
100
AcDbSymbolTableRecord
100
AcDbDimStyleTableRecord
  2
NEMY-25$3
 70
     0
 40
25.0
 41
3.0
 42
1.5
 43
10.0
 44
1.0
 77
     1
 78
     8
140
3.0
141
1.5
143
0.03937007874016
147
1.0
171
     3
172
     1
178
     0
271
     1
272
     1
274
     3
283
     0
284
     8
340
11
341
8F
342
8F
  0
DIMSTYLE
105
5E74
330
A
100
AcDbSymbolTableRecord
100
AcDbDimStyleTableRecord
  2
NEMY-20$3
 70
     0
 40
20.0
 41
3.0
 42
1.5
 43
10.0
 44
1.0
 77
     1
 78
     8
140
3.0
141
1.5
143
0.03937007874016
147
1.0
171
     3
172
     1
178
     0
271
     1
272
     1
274
     3
283
     0
284
     8
340
11
341
8F
342
8F
  0
DIMSTYLE
105
5E75
330
A
100
AcDbSymbolTableRecord
100
AcDbDimStyleTableRecord
  2
NEMY-2$3
 70
     0
 40
2.0
 41
3.0
 42
1.5
 43
10.0
 44
1.0
 77
     1
 78
     8
140
3.0
141
1.5
143
0.03937007874016
147
1.0
171
     3
172
     1
178
     0
271
     1
272
     1
274
     3
283
     0
284
     8
340
11
341
8F
342
8F
  0
DIMSTYLE
105
5E76
330
A
100
AcDbSymbolTableRecord
100
AcDbDimStyleTableRecord
  2
NEMY-15$3
 70
     0
 40
15.0
 41
3.0
 42
1.5
 43
10.0
 44
1.0
 77
     1
 78
     8
140
3.0
141
1.5
143
0.03937007874016
147
1.0
171
     3
172
     1
178
     0
271
     1
272
     1
274
     3
283
     0
284
     8
340
11
341
8F
342
8F
  0
DIMSTYLE
105
10A72
330
A
100
AcDbSymbolTableRecord
100
AcDbDimStyleTableRecord
  2
STANDARD-WS-10
 70
     0
 40
7.5
 41
2.5
 42
2.0
 43
3.75
 44
1.25
 73
     0
 74
     0
 77
     1
 78
     8
140
3.75
141
2.0
143
0.0394
147
1.5
171
     4
172
     1
173
     1
176
     7
177
     7
271
     2
178
   256
271
     2
272
     2
273
     8
274
     4
284
     8
340
10A73
341
8F
343
8F
344
8F
  0
ENDTAB
  0
TABLE
  2
BLOCK_RECORD
  5
1
330
0
100
AcDbSymbolTable
 70
    21
  0
BLOCK_RECORD
  5
1F
102
{ACAD_XDICTIONARY
360
969E
102
}
330
1
100
AcDbSymbolTableRecord
100
AcDbBlockTableRecord
  2
*Model_Space
340
22
  0
BLOCK_RECORD
  5
1B
330
1
100
AcDbSymbolTableRecord
100
AcDbBlockTableRecord
  2
*Paper_Space
340
1E
  0
BLOCK_RECORD
  5
8F
330
1
100
AcDbSymbolTableRecord
100
AcDbBlockTableRecord
  2
_Open
340
0
102
{BLKREFS
331
10DDE
331
10DEB
331
10DF8
331
10E05
331
10E23
331
10E3F
331
10E6B
331
10E87
331
10E94
331
10EA1
331
11AC9
331
10DDF
331
10DEC
331
10DF9
331
10E06
331
10E24
331
10E40
331
10E6C
331
10E88
331
10E95
331
10EA2
331
11ACA
331
10E32
331
10E4F
331
10E5E
331
10E7A
331
10EE8
331
10EF7
331
10F06
331
10E16
331
10E33
331
10E50
331
10E5F
331
10E7B
331
10EE9
331
10EF8
331
10F07
331
10E17
102
}
  0
BLOCK_RECORD
  5
82F2
330
1
100
AcDbSymbolTableRecord
100
AcDbBlockTableRecord
  2
hole-φ16
340
0
102
{BLKREFS
331
10DCE
331
10DCF
331
10DD0
331
10DD1
331
11AC0
331
11AC1
102
}
  0
BLOCK_RECORD
  5
10DD8
330
1
100
AcDbSymbolTableRecord
100
AcDbBlockTableRecord
  2
*D889
340
0
  0
BLOCK_RECORD
  5
10DE5
330
1
100
AcDbSymbolTableRecord
100
AcDbBlockTableRecord
  2
*D890
340
0
  0
BLOCK_RECORD
  5
10DF2
330
1
100
AcDbSymbolTableRecord
100
AcDbBlockTableRecord
  2
*D891
340
0
  0
BLOCK_RECORD
  5
10DFF
330
1
100
AcDbSymbolTableRecord
100
AcDbBlockTableRecord
  2
*D892
340
0
  0
BLOCK_RECORD
  5
10E0D
330
1
100
AcDbSymbolTableRecord
100
AcDbBlockTableRecord
  2
*D893
340
0
  0
BLOCK_RECORD
  5
10E1D
330
1
100
AcDbSymbolTableRecord
100
AcDbBlockTableRecord
  2
*D894
340
0
  0
BLOCK_RECORD
  5
10E2A
330
1
100
AcDbSymbolTableRecord
100
AcDbBlockTableRecord
  2
*D895
340
0
  0
BLOCK_RECORD
  5
10E39
330
1
100
AcDbSymbolTableRecord
100
AcDbBlockTableRecord
  2
*D896
340
0
  0
BLOCK_RECORD
  5
10E47
330
1
100
AcDbSymbolTableRecord
100
AcDbBlockTableRecord
  2
*D897
340
0
  0
BLOCK_RECORD
  5
10E56
330
1
100
AcDbSymbolTableRecord
100
AcDbBlockTableRecord
  2
*D898
340
0
  0
BLOCK_RECORD
  5
10E65
330
1
100
AcDbSymbolTableRecord
100
AcDbBlockTableRecord
  2
*D899
340
0
  0
BLOCK_RECORD
  5
10E72
330
1
100
AcDbSymbolTableRecord
100
AcDbBlockTableRecord
  2
*D900
340
0
  0
BLOCK_RECORD
  5
10E81
330
1
100
AcDbSymbolTableRecord
100
AcDbBlockTableRecord
  2
*D901
340
0
  0
BLOCK_RECORD
  5
10E8E
330
1
100
AcDbSymbolTableRecord
100
AcDbBlockTableRecord
  2
*D902
340
0
  0
BLOCK_RECORD
  5
10E9B
330
1
100
AcDbSymbolTableRecord
100
AcDbBlockTableRecord
  2
*D903
340
0
  0
BLOCK_RECORD
  5
10EE0
330
1
100
AcDbSymbolTableRecord
100
AcDbBlockTableRecord
  2
*D905
340
0
  0
BLOCK_RECORD
  5
10EEF
330
1
100
AcDbSymbolTableRecord
100
AcDbBlockTableRecord
  2
*D906
340
0
  0
BLOCK_RECORD
  5
10EFE
330
1
100
AcDbSymbolTableRecord
100
AcDbBlockTableRecord
  2
*D907
340
0
  0
BLOCK_RECORD
  5
11AC3
330
1
100
AcDbSymbolTableRecord
100
AcDbBlockTableRecord
  2
*D933
340
0
  0
ENDTAB
  0
ENDSEC
  0
SECTION
  2
BLOCKS
  0
BLOCK
  5
20
330
1F
100
AcDbEntity
  8
0
100
AcDbBlockBegin
  2
*Model_Space
 70
     0
 10
0.0
 20
0.0
 30
0.0
  3
*Model_Space
  1

  0
ENDBLK
  5
21
330
1F
100
AcDbEntity
  8
0
100
AcDbBlockEnd
  0
BLOCK
  5
1C
330
1B
100
AcDbEntity
 67
     1
  8
0
100
AcDbBlockBegin
  2
*Paper_Space
 70
     0
 10
0.0
 20
0.0
 30
0.0
  3
*Paper_Space
  1

  0
ENDBLK
  5
1D
330
1B
100
AcDbEntity
 67
     1
  8
0
100
AcDbBlockEnd
  0
BLOCK
  5
93
330
8F
100
AcDbEntity
  8
0
100
AcDbBlockBegin
  2
_Open
 70
     0
 10
0.0
 20
0.0
 30
0.0
  3
_Open
  1

  0
LINE
  5
90
330
8F
100
AcDbEntity
  8
01注記寸法
 62
     0
370
    -2
100
AcDbLine
 10
-1.0
 20
0.1666666666666667
 30
0.0
 11
0.0
 21
0.0
 31
0.0
  0
LINE
  5
91
330
8F
100
AcDbEntity
  8
01注記寸法
 62
     0
370
    -2
100
AcDbLine
 10
-1.0
 20
-0.1666666666666667
 30
0.0
 11
0.0
 21
0.0
 31
0.0
  0
LINE
  5
92
330
8F
100
AcDbEntity
  8
01注記寸法
 62
     0
370
    -2
100
AcDbLine
 10
0.0
 20
0.0
 30
0.0
 11
-1.0
 21
0.0
 31
0.0
  0
ENDBLK
  5
94
330
8F
100
AcDbEntity
  8
0
100
AcDbBlockEnd
  0
BLOCK
  5
82F3
330
82F2
100
AcDbEntity
  8
0
100
AcDbBlockBegin
  2
hole-φ16
 70
     0
 10
0.0
 20
0.0
 30
0.0
  3
hole-φ16
  1

  0
CIRCLE
  5
82F4
330
82F2
100
AcDbEntity
  8
02実線
100
AcDbCircle
 10
0.0
 20
0.0
 30
0.0
 40
8.0
  0
LINE
  5
82F5
330
82F2
100
AcDbEntity
  8
04一点鎖線
  6
CENTER
 48
0.2
100
AcDbLine
 10
0.0
 20
-18.0
 30
0.0
 11
0.0
 21
18.0
 31
0.0
  0
LINE
  5
82F6
330
82F2
100
AcDbEntity
  8
04一点鎖線
  6
CENTER
 48
0.2
100
AcDbLine
 10
-18.0
 20
0.0
 30
0.0
 11
18.0
 21
0.0
 31
0.0
  0
ENDBLK
  5
82F7
330
82F2
100
AcDbEntity
  8
0
100
AcDbBlockEnd
  0
BLOCK
  5
10DD9
330
10DD8
100
AcDbEntity
  8
0
100
AcDbBlockBegin
  2
*D889
 70
     1
 10
0.0
 20
0.0
 30
0.0
  3
*D889
  1

  0
LINE
  5
10DDB
330
10DD8
100
AcDbEntity
  8
01注記寸法
 62
     0
370
    -2
100
AcDbLine
 10
412.3021942334622
 20
1487.467979872034
 30
0.0
 11
412.3021942334622
 21
1319.445520758224
 31
0.0
  0
LINE
  5
10DDC
330
10DD8
100
AcDbEntity
  8
01注記寸法
 62
     0
370
    -2
100
AcDbLine
 10
2002.30219423346
 20
1487.467979872034
 30
0.0
 11
2002.30219423346
 21
1319.445520758224
 31
0.0
  0
LINE
  5
10DDD
330
10DD8
100
AcDbEntity
  8
01注記寸法
 62
     0
370
    -2
100
AcDbLine
 10
442.3021942334622
 20
1329.445520758224
 30
0.0
 11
1972.30219423346
 21
1329.445520758224
 31
0.0
  0
INSERT
  5
10DDE
330
10DD8
100
AcDbEntity
  8
01注記寸法
 62
     0
370
    -2
100
AcDbBlockReference
  2
_Open
 10
412.3021942334622
 20
1329.445520758224
 30
0.0
 41
30.0
 42
30.0
 43
30.0
 50
180.0
  0
INSERT
  5
10DDF
330
10DD8
100
AcDbEntity
  8
01注記寸法
 62
     0
370
    -2
100
AcDbBlockReference
  2
_Open
 10
2002.30219423346
 20
1329.445520758224
 30
0.0
 41
30.0
 42
30.0
 43
30.0
  0
MTEXT
  5
10DE0
330
10DD8
100
AcDbEntity
  8
01注記寸法
 62
     0
100
AcDbMText
 10
1207.302194233461
 20
1354.445520758224
 30
0.0
 40
30.0
 41
0.0
 71
     5
 72
     1
  1
1590
 73
     1
 44
1.0
  0
POINT
  5
10DE1
330
10DD8
100
AcDbEntity
  8
Defpoints
 62
     0
100
AcDbPoint
 10
412.3021942334622
 20
1502.467979872034
 30
0.0
  0
POINT
  5
10DE2
330
10DD8
100
AcDbEntity
  8
Defpoints
 62
     0
100
AcDbPoint
 10
2002.30219423346
 20
1502.467979872034
 30
0.0
  0
POINT
  5
10DE3
330
10DD8
100
AcDbEntity
  8
Defpoints
 62
     0
100
AcDbPoint
 10
2002.30219423346
 20
1329.445520758224
 30
0.0
  0
ENDBLK
  5
10DDA
330
10DD8
100
AcDbEntity
  8
0
100
AcDbBlockEnd
  0
BLOCK
  5
10DE6
330
10DE5
100
AcDbEntity
  8
0
100
AcDbBlockBegin
  2
*D890
 70
     1
 10
0.0
 20
0.0
 30
0.0
  3
*D890
  1

  0
LINE
  5
10DE8
330
10DE5
100
AcDbEntity
  8
01注記寸法
 62
     0
370
    -2
100
AcDbLine
 10
412.3021942334622
 20
1487.467979872034
 30
0.0
 11
412.3021942334622
 21
1390.949740485745
 31
0.0
  0
LINE
  5
10DE9
330
10DE5
100
AcDbEntity
  8
01注記寸法
 62
     0
370
    -2
100
AcDbLine
 10
538.3021942334608
 20
1482.467979872033
 30
0.0
 11
538.3021942334608
 21
1390.949740485745
 31
0.0
  0
LINE
  5
10DEA
330
10DE5
100
AcDbEntity
  8
01注記寸法
 62
     0
370
    -2
100
AcDbLine
 10
442.3021942334622
 20
1400.949740485745
 30
0.0
 11
508.3021942334608
 21
1400.949740485745
 31
0.0
  0
INSERT
  5
10DEB
330
10DE5
100
AcDbEntity
  8
01注記寸法
 62
     0
370
    -2
100
AcDbBlockReference
  2
_Open
 10
412.3021942334622
 20
1400.949740485745
 30
0.0
 41
30.0
 42
30.0
 43
30.0
 50
180.0
  0
INSERT
  5
10DEC
330
10DE5
100
AcDbEntity
  8
01注記寸法
 62
     0
370
    -2
100
AcDbBlockReference
  2
_Open
 10
538.3021942334608
 20
1400.949740485745
 30
0.0
 41
30.0
 42
30.0
 43
30.0
  0
MTEXT
  5
10DED
330
10DE5
100
AcDbEntity
  8
01注記寸法
 62
     0
100
AcDbMText
 10
475.3021942334615
 20
1425.949740485745
 30
0.0
 40
30.0
 41
0.0
 71
     5
 72
     1
  1
126
 73
     1
 44
1.0
  0
POINT
  5
10DEE
330
10DE5
100
AcDbEntity
  8
Defpoints
 62
     0
100
AcDbPoint
 10
412.3021942334622
 20
1502.467979872034
 30
0.0
  0
POINT
  5
10DEF
330
10DE5
100
AcDbEntity
  8
Defpoints
 62
     0
100
AcDbPoint
 10
538.3021942334608
 20
1497.467979872033
 30
0.0
  0
POINT
  5
10DF0
330
10DE5
100
AcDbEntity
  8
Defpoints
 62
     0
100
AcDbPoint
 10
538.3021942334608
 20
1400.949740485745
 30
0.0
  0
ENDBLK
  5
10DE7
330
10DE5
100
AcDbEntity
  8
0
100
AcDbBlockEnd
  0
BLOCK
  5
10DF3
330
10DF2
100
AcDbEntity
  8
0
100
AcDbBlockBegin
  2
*D891
 70
     1
 10
0.0
 20
0.0
 30
0.0
  3
*D891
  1

  0
LINE
  5
10DF5
330
10DF2
100
AcDbEntity
  8
01注記寸法
 62
     0
370
    -2
100
AcDbLine
 10
538.3021942334608
 20
1482.467979872033
 30
0.0
 11
538.3021942334608
 21
1390.949740485745
 31
0.0
  0
LINE
  5
10DF6
330
10DF2
100
AcDbEntity
  8
01注記寸法
 62
     0
370
    -2
100
AcDbLine
 10
1207.302194233461
 20
1482.467979872033
 30
0.0
 11
1207.302194233461
 21
1390.949740485745
 31
0.0
  0
LINE
  5
10DF7
330
10DF2
100
AcDbEntity
  8
01注記寸法
 62
     0
370
    -2
100
AcDbLine
 10
568.3021942334608
 20
1400.949740485745
 30
0.0
 11
1177.302194233461
 21
1400.949740485745
 31
0.0
  0
INSERT
  5
10DF8
330
10DF2
100
AcDbEntity
  8
01注記寸法
 62
     0
370
    -2
100
AcDbBlockReference
  2
_Open
 10
538.3021942334608
 20
1400.949740485745
 30
0.0
 41
30.0
 42
30.0
 43
30.0
 50
180.0
  0
INSERT
  5
10DF9
330
10DF2
100
AcDbEntity
  8
01注記寸法
 62
     0
370
    -2
100
AcDbBlockReference
  2
_Open
 10
1207.302194233461
 20
1400.949740485745
 30
0.0
 41
30.0
 42
30.0
 43
30.0
  0
MTEXT
  5
10DFA
330
10DF2
100
AcDbEntity
  8
01注記寸法
 62
     0
100
AcDbMText
 10
872.8021942334608
 20
1425.949740485745
 30
0.0
 40
30.0
 41
0.0
 71
     5
 72
     1
  1
669
 73
     1
 44
1.0
  0
POINT
  5
10DFB
330
10DF2
100
AcDbEntity
  8
Defpoints
 62
     0
100
AcDbPoint
 10
538.3021942334608
 20
1497.467979872033
 30
0.0
  0
POINT
  5
10DFC
330
10DF2
100
AcDbEntity
  8
Defpoints
 62
     0
100
AcDbPoint
 10
1207.302194233461
 20
1497.467979872033
 30
0.0
  0
POINT
  5
10DFD
330
10DF2
100
AcDbEntity
  8
Defpoints
 62
     0
100
AcDbPoint
 10
1207.302194233461
 20
1400.949740485745
 30
0.0
  0
ENDBLK
  5
10DF4
330
10DF2
100
AcDbEntity
  8
0
100
AcDbBlockEnd
  0
BLOCK
  5
10E00
330
10DFF
100
AcDbEntity
  8
0
100
AcDbBlockBegin
  2
*D892
 70
     1
 10
0.0
 20
0.0
 30
0.0
  3
*D892
  1

  0
LINE
  5
10E02
330
10DFF
100
AcDbEntity
  8
01注記寸法
 62
     0
370
    -2
100
AcDbLine
 10
1876.302194233461
 20
1485.467979872033
 30
0.0
 11
1876.302194233461
 21
1390.949740485745
 31
0.0
  0
LINE
  5
10E03
330
10DFF
100
AcDbEntity
  8
01注記寸法
 62
     0
370
    -2
100
AcDbLine
 10
2002.30219423346
 20
1487.467979872034
 30
0.0
 11
2002.30219423346
 21
1390.949740485745
 31
0.0
  0
LINE
  5
10E04
330
10DFF
100
AcDbEntity
  8
01注記寸法
 62
     0
370
    -2
100
AcDbLine
 10
1906.302194233461
 20
1400.949740485745
 30
0.0
 11
1972.30219423346
 21
1400.949740485745
 31
0.0
  0
INSERT
  5
10E05
330
10DFF
100
AcDbEntity
  8
01注記寸法
 62
     0
370
    -2
100
AcDbBlockReference
  2
_Open
 10
1876.302194233461
 20
1400.949740485745
 30
0.0
 41
30.0
 42
30.0
 43
30.0
 50
180.0
  0
INSERT
  5
10E06
330
10DFF
100
AcDbEntity
  8
01注記寸法
 62
     0
370
    -2
100
AcDbBlockReference
  2
_Open
 10
2002.30219423346
 20
1400.949740485745
 30
0.0
 41
30.0
 42
30.0
 43
30.0
  0
MTEXT
  5
10E07
330
10DFF
100
AcDbEntity
  8
01注記寸法
 62
     0
100
AcDbMText
 10
1939.302194233461
 20
1425.949740485745
 30
0.0
 40
30.0
 41
0.0
 71
     5
 72
     1
  1
126
 73
     1
 44
1.0
  0
POINT
  5
10E08
330
10DFF
100
AcDbEntity
  8
Defpoints
 62
     0
100
AcDbPoint
 10
1876.302194233461
 20
1500.467979872033
 30
0.0
  0
POINT
  5
10E09
330
10DFF
100
AcDbEntity
  8
Defpoints
 62
     0
100
AcDbPoint
 10
2002.30219423346
 20
1502.467979872034
 30
0.0
  0
POINT
  5
10E0A
330
10DFF
100
AcDbEntity
  8
Defpoints
 62
     0
100
AcDbPoint
 10
2002.30219423346
 20
1400.949740485745
 30
0.0
  0
ENDBLK
  5
10E01
330
10DFF
100
AcDbEntity
  8
0
100
AcDbBlockEnd
  0
BLOCK
  5
10E0E
330
10E0D
100
AcDbEntity
  8
0
100
AcDbBlockBegin
  2
*D893
 70
     1
 10
0.0
 20
0.0
 30
0.0
  3
*D893
  1

  0
LINE
  5
10E10
330
10E0D
100
AcDbEntity
  8
01注記寸法
 62
     0
370
    -2
100
AcDbLine
 10
2012.30219423346
 20
2257.467979872033
 30
0.0
 11
2155.668172009829
 21
2257.467979872033
 31
0.0
  0
LINE
  5
10E11
330
10E0D
100
AcDbEntity
  8
01注記寸法
 62
     0
370
    -2
100
AcDbLine
 10
1909.302194233461
 20
2244.467979872034
 30
0.0
 11
2155.668172009829
 21
2244.467979872034
 31
0.0
  0
LINE
  5
10E12
330
10E0D
100
AcDbEntity
  8
01注記寸法
 62
     0
370
    -2
100
AcDbLine
 10
2145.668172009829
 20
2257.467979872033
 30
0.0
 11
2145.668172009829
 21
2370.347979872033
 31
0.0
  0
LINE
  5
10E13
330
10E0D
100
AcDbEntity
  8
01注記寸法
 62
     0
370
    -2
100
AcDbLine
 10
2145.668172009829
 20
2257.467979872033
 30
0.0
 11
2145.668172009829
 21
2244.467979872034
 31
0.0
  0
LINE
  5
10E14
330
10E0D
100
AcDbEntity
  8
01注記寸法
 62
     0
370
    -2
100
AcDbLine
 10
2145.668172009829
 20
2287.467979872033
 30
0.0
 11
2145.668172009829
 21
2317.467979872033
 31
0.0
  0
LINE
  5
10E15
330
10E0D
100
AcDbEntity
  8
01注記寸法
 62
     0
370
    -2
100
AcDbLine
 10
2145.668172009829
 20
2214.467979872034
 30
0.0
 11
2145.668172009829
 21
2184.467979872034
 31
0.0
  0
INSERT
  5
10E16
330
10E0D
100
AcDbEntity
  8
01注記寸法
 62
     0
370
    -2
100
AcDbBlockReference
  2
_Open
 10
2145.668172009829
 20
2257.467979872033
 30
0.0
 41
30.0
 42
30.0
 43
30.0
 50
270.0
  0
INSERT
  5
10E17
330
10E0D
100
AcDbEntity
  8
01注記寸法
 62
     0
370
    -2
100
AcDbBlockReference
  2
_Open
 10
2145.668172009829
 20
2244.467979872034
 30
0.0
 41
30.0
 42
30.0
 43
30.0
 50
90.0
  0
MTEXT
  5
10E18
330
10E0D
100
AcDbEntity
  8
01注記寸法
 62
     0
100
AcDbMText
 10
2120.668172009829
 20
2343.907979872033
 30
0.0
 40
30.0
 41
0.0
 71
     5
 72
     1
  1
13
 11
0.0
 21
1.0
 31
0.0
 73
     1
 44
1.0
  0
POINT
  5
10E19
330
10E0D
100
AcDbEntity
  8
Defpoints
 62
     0
100
AcDbPoint
 10
1997.30219423346
 20
2257.467979872033
 30
0.0
  0
POINT
  5
10E1A
330
10E0D
100
AcDbEntity
  8
Defpoints
 62
     0
100
AcDbPoint
 10
1894.302194233461
 20
2244.467979872034
 30
0.0
  0
POINT
  5
10E1B
330
10E0D
100
AcDbEntity
  8
Defpoints
 62
     0
100
AcDbPoint
 10
2145.668172009829
 20
2244.467979872034
 30
0.0
  0
ENDBLK
  5
10E0F
330
10E0D
100
AcDbEntity
  8
0
100
AcDbBlockEnd
  0
BLOCK
  5
10E1E
330
10E1D
100
AcDbEntity
  8
0
100
AcDbBlockBegin
  2
*D894
 70
     1
 10
0.0
 20
0.0
 30
0.0
  3
*D894
  1

  0
LINE
  5
10E20
330
10E1D
100
AcDbEntity
  8
01注記寸法
 62
     0
370
    -2
100
AcDbLine
 10
1909.302194233461
 20
2244.467979872034
 30
0.0
 11
2155.668172009829
 21
2244.467979872034
 31
0.0
  0
LINE
  5
10E21
330
10E1D
100
AcDbEntity
  8
01注記寸法
 62
     0
370
    -2
100
AcDbLine
 10
1909.302194233461
 20
1515.467979872033
 30
0.0
 11
2155.668172009829
 21
1515.467979872033
 31
0.0
  0
LINE
  5
10E22
330
10E1D
100
AcDbEntity
  8
01注記寸法
 62
     0
370
    -2
100
AcDbLine
 10
2145.668172009829
 20
2214.467979872034
 30
0.0
 11
2145.668172009829
 21
1545.467979872033
 31
0.0
  0
INSERT
  5
10E23
330
10E1D
100
AcDbEntity
  8
01注記寸法
 62
     0
370
    -2
100
AcDbBlockReference
  2
_Open
 10
2145.668172009829
 20
2244.467979872034
 30
0.0
 41
30.0
 42
30.0
 43
30.0
 50
90.0
  0
INSERT
  5
10E24
330
10E1D
100
AcDbEntity
  8
01注記寸法
 62
     0
370
    -2
100
AcDbBlockReference
  2
_Open
 10
2145.668172009829
 20
1515.467979872033
 30
0.0
 41
30.0
 42
30.0
 43
30.0
 50
270.0
  0
MTEXT
  5
10E25
330
10E1D
100
AcDbEntity
  8
01注記寸法
 62
     0
100
AcDbMText
 10
2120.668172009829
 20
1879.967979872033
 30
0.0
 40
30.0
 41
0.0
 71
     5
 72
     1
  1
729
 11
0.0
 21
1.0
 31
0.0
 73
     1
 44
1.0
  0
POINT
  5
10E26
330
10E1D
100
AcDbEntity
  8
Defpoints
 62
     0
100
AcDbPoint
 10
1894.302194233461
 20
2244.467979872034
 30
0.0
  0
POINT
  5
10E27
330
10E1D
100
AcDbEntity
  8
Defpoints
 62
     0
100
AcDbPoint
 10
1894.302194233461
 20
1515.467979872033
 30
0.0
  0
POINT
  5
10E28
330
10E1D
100
AcDbEntity
  8
Defpoints
 62
     0
100
AcDbPoint
 10
2145.668172009829
 20
1515.467979872033
 30
0.0
  0
ENDBLK
  5
10E1F
330
10E1D
100
AcDbEntity
  8
0
100
AcDbBlockEnd
  0
BLOCK
  5
10E2B
330
10E2A
100
AcDbEntity
  8
0
100
AcDbBlockBegin
  2
*D895
 70
     1
 10
0.0
 20
0.0
 30
0.0
  3
*D895
  1

  0
LINE
  5
10E2D
330
10E2A
100
AcDbEntity
  8
01注記寸法
 62
     0
370
    -2
100
AcDbLine
 10
1909.302194233461
 20
1515.467979872033
 30
0.0
 11
2155.668172009829
 21
1515.467979872033
 31
0.0
  0
LINE
  5
10E2E
330
10E2A
100
AcDbEntity
  8
01注記寸法
 62
     0
370
    -2
100
AcDbLine
 10
2017.30219423346
 20
1502.467979872034
 30
0.0
 11
2155.668172009829
 21
1502.467979872034
 31
0.0
  0
LINE
  5
10E2F
330
10E2A
100
AcDbEntity
  8
01注記寸法
 62
     0
370
    -2
100
AcDbLine
 10
2145.668172009829
 20
1472.467979872034
 30
0.0
 11
2145.668172009829
 21
1389.587979872034
 31
0.0
  0
LINE
  5
10E30
330
10E2A
100
AcDbEntity
  8
01注記寸法
 62
     0
370
    -2
100
AcDbLine
 10
2145.668172009829
 20
1515.467979872033
 30
0.0
 11
2145.668172009829
 21
1502.467979872034
 31
0.0
  0
LINE
  5
10E31
330
10E2A
100
AcDbEntity
  8
01注記寸法
 62
     0
370
    -2
100
AcDbLine
 10
2145.668172009829
 20
1545.467979872033
 30
0.0
 11
2145.668172009829
 21
1575.467979872033
 31
0.0
  0
INSERT
  5
10E32
330
10E2A
100
AcDbEntity
  8
01注記寸法
 62
     0
370
    -2
100
AcDbBlockReference
  2
_Open
 10
2145.668172009829
 20
1515.467979872033
 30
0.0
 41
30.0
 42
30.0
 43
30.0
 50
270.0
  0
INSERT
  5
10E33
330
10E2A
100
AcDbEntity
  8
01注記寸法
 62
     0
370
    -2
100
AcDbBlockReference
  2
_Open
 10
2145.668172009829
 20
1502.467979872034
 30
0.0
 41
30.0
 42
30.0
 43
30.0
 50
90.0
  0
MTEXT
  5
10E34
330
10E2A
100
AcDbEntity
  8
01注記寸法
 62
     0
100
AcDbMText
 10
2120.668172009829
 20
1416.027979872034
 30
0.0
 40
30.0
 41
0.0
 71
     5
 72
     1
  1
13
 11
0.0
 21
1.0
 31
0.0
 73
     1
 44
1.0
  0
POINT
  5
10E35
330
10E2A
100
AcDbEntity
  8
Defpoints
 62
     0
100
AcDbPoint
 10
1894.302194233461
 20
1515.467979872033
 30
0.0
  0
POINT
  5
10E36
330
10E2A
100
AcDbEntity
  8
Defpoints
 62
     0
100
AcDbPoint
 10
2002.30219423346
 20
1502.467979872034
 30
0.0
  0
POINT
  5
10E37
330
10E2A
100
AcDbEntity
  8
Defpoints
 62
     0
100
AcDbPoint
 10
2145.668172009829
 20
1502.467979872034
 30
0.0
  0
ENDBLK
  5
10E2C
330
10E2A
100
AcDbEntity
  8
0
100
AcDbBlockEnd
  0
BLOCK
  5
10E3A
330
10E39
100
AcDbEntity
  8
0
100
AcDbBlockBegin
  2
*D896
 70
     1
 10
0.0
 20
0.0
 30
0.0
  3
*D896
  1

  0
LINE
  5
10E3C
330
10E39
100
AcDbEntity
  8
01注記寸法
 62
     0
370
    -2
100
AcDbLine
 10
2012.30219423346
 20
2257.467979872033
 30
0.0
 11
2236.481419061364
 21
2257.467979872033
 31
0.0
  0
LINE
  5
10E3D
330
10E39
100
AcDbEntity
  8
01注記寸法
 62
     0
370
    -2
100
AcDbLine
 10
2017.30219423346
 20
1502.467979872034
 30
0.0
 11
2236.481419061364
 21
1502.467979872034
 31
0.0
  0
LINE
  5
10E3E
330
10E39
100
AcDbEntity
  8
01注記寸法
 62
     0
370
    -2
100
AcDbLine
 10
2226.481419061364
 20
2227.467979872033
 30
0.0
 11
2226.481419061364
 21
1532.467979872034
 31
0.0
  0
INSERT
  5
10E3F
330
10E39
100
AcDbEntity
  8
01注記寸法
 62
     0
370
    -2
100
AcDbBlockReference
  2
_Open
 10
2226.481419061364
 20
2257.467979872033
 30
0.0
 41
30.0
 42
30.0
 43
30.0
 50
90.0
  0
INSERT
  5
10E40
330
10E39
100
AcDbEntity
  8
01注記寸法
 62
     0
370
    -2
100
AcDbBlockReference
  2
_Open
 10
2226.481419061364
 20
1502.467979872034
 30
0.0
 41
30.0
 42
30.0
 43
30.0
 50
270.0
  0
MTEXT
  5
10E41
330
10E39
100
AcDbEntity
  8
01注記寸法
 62
     0
100
AcDbMText
 10
2201.481419061364
 20
1879.967979872034
 30
0.0
 40
30.0
 41
0.0
 71
     5
 72
     1
  1
755
 11
0.0
 21
1.0
 31
0.0
 73
     1
 44
1.0
  0
POINT
  5
10E42
330
10E39
100
AcDbEntity
  8
Defpoints
 62
     0
100
AcDbPoint
 10
1997.30219423346
 20
2257.467979872033
 30
0.0
  0
POINT
  5
10E43
330
10E39
100
AcDbEntity
  8
Defpoints
 62
     0
100
AcDbPoint
 10
2002.30219423346
 20
1502.467979872034
 30
0.0
  0
POINT
  5
10E44
330
10E39
100
AcDbEntity
  8
Defpoints
 62
     0
100
AcDbPoint
 10
2226.481419061364
 20
1502.467979872034
 30
0.0
  0
ENDBLK
  5
10E3B
330
10E39
100
AcDbEntity
  8
0
100
AcDbBlockEnd
  0
BLOCK
  5
10E48
330
10E47
100
AcDbEntity
  8
0
100
AcDbBlockBegin
  2
*D897
 70
     1
 10
0.0
 20
0.0
 30
0.0
  3
*D897
  1

  0
LINE
  5
10E4A
330
10E47
100
AcDbEntity
  8
01注記寸法
 62
     0
370
    -2
100
AcDbLine
 10
397.3021942334622
 20
1034.029057199511
 30
0.0
 11
318.7614425378606
 21
1034.029057199511
 31
0.0
  0
LINE
  5
10E4B
330
10E47
100
AcDbEntity
  8
01注記寸法
 62
     0
370
    -2
100
AcDbLine
 10
462.3021942334622
 20
1019.029057199511
 30
0.0
 11
318.7614425378606
 21
1019.029057199511
 31
0.0
  0
LINE
  5
10E4C
330
10E47
100
AcDbEntity
  8
01注記寸法
 62
     0
370
    -2
100
AcDbLine
 10
328.7614425378606
 20
989.0290571995113
 30
0.0
 11
328.7614425378606
 21
906.1490571995113
 31
0.0
  0
LINE
  5
10E4D
330
10E47
100
AcDbEntity
  8
01注記寸法
 62
     0
370
    -2
100
AcDbLine
 10
328.7614425378606
 20
1034.029057199511
 30
0.0
 11
328.7614425378606
 21
1019.029057199511
 31
0.0
  0
LINE
  5
10E4E
330
10E47
100
AcDbEntity
  8
01注記寸法
 62
     0
370
    -2
100
AcDbLine
 10
328.7614425378606
 20
1064.029057199511
 30
0.0
 11
328.7614425378606
 21
1094.029057199511
 31
0.0
  0
INSERT
  5
10E4F
330
10E47
100
AcDbEntity
  8
01注記寸法
 62
     0
370
    -2
100
AcDbBlockReference
  2
_Open
 10
328.7614425378606
 20
1034.029057199511
 30
0.0
 41
30.0
 42
30.0
 43
30.0
 50
270.0
  0
INSERT
  5
10E50
330
10E47
100
AcDbEntity
  8
01注記寸法
 62
     0
370
    -2
100
AcDbBlockReference
  2
_Open
 10
328.7614425378606
 20
1019.029057199511
 30
0.0
 41
30.0
 42
30.0
 43
30.0
 50
90.0
  0
MTEXT
  5
10E51
330
10E47
100
AcDbEntity
  8
01注記寸法
 62
     0
100
AcDbMText
 10
303.7614425378606
 20
932.5890571995112
 30
0.0
 40
30.0
 41
0.0
 71
     5
 72
     1
  1
15
 11
0.0
 21
1.0
 31
0.0
 73
     1
 44
1.0
  0
POINT
  5
10E52
330
10E47
100
AcDbEntity
  8
Defpoints
 62
     0
100
AcDbPoint
 10
412.3021942334622
 20
1034.029057199511
 30
0.0
  0
POINT
  5
10E53
330
10E47
100
AcDbEntity
  8
Defpoints
 62
     0
100
AcDbPoint
 10
477.3021942334622
 20
1019.029057199511
 30
0.0
  0
POINT
  5
10E54
330
10E47
100
AcDbEntity
  8
Defpoints
 62
     0
100
AcDbPoint
 10
328.7614425378606
 20
1019.029057199511
 30
0.0
  0
ENDBLK
  5
10E49
330
10E47
100
AcDbEntity
  8
0
100
AcDbBlockEnd
  0
BLOCK
  5
10E57
330
10E56
100
AcDbEntity
  8
0
100
AcDbBlockBegin
  2
*D898
 70
     1
 10
0.0
 20
0.0
 30
0.0
  3
*D898
  1

  0
LINE
  5
10E59
330
10E56
100
AcDbEntity
  8
01注記寸法
 62
     0
370
    -2
100
AcDbLine
 10
412.3021942334622
 20
1019.029057199511
 30
0.0
 11
412.3021942334622
 21
858.8117330843054
 31
0.0
  0
LINE
  5
10E5A
330
10E56
100
AcDbEntity
  8
01注記寸法
 62
     0
370
    -2
100
AcDbLine
 10
477.3021942334622
 20
1004.029057199511
 30
0.0
 11
477.3021942334622
 21
858.8117330843054
 31
0.0
  0
LINE
  5
10E5B
330
10E56
100
AcDbEntity
  8
01注記寸法
 62
     0
370
    -2
100
AcDbLine
 10
412.3021942334622
 20
868.8117330843054
 30
0.0
 11
477.3021942334622
 21
868.8117330843054
 31
0.0
  0
LINE
  5
10E5C
330
10E56
100
AcDbEntity
  8
01注記寸法
 62
     0
370
    -2
100
AcDbLine
 10
382.3021942334622
 20
868.8117330843054
 30
0.0
 11
352.3021942334622
 21
868.8117330843054
 31
0.0
  0
LINE
  5
10E5D
330
10E56
100
AcDbEntity
  8
01注記寸法
 62
     0
370
    -2
100
AcDbLine
 10
507.3021942334622
 20
868.8117330843054
 30
0.0
 11
537.3021942334622
 21
868.8117330843054
 31
0.0
  0
INSERT
  5
10E5E
330
10E56
100
AcDbEntity
  8
01注記寸法
 62
     0
370
    -2
100
AcDbBlockReference
  2
_Open
 10
412.3021942334622
 20
868.8117330843054
 30
0.0
 41
30.0
 42
30.0
 43
30.0
  0
INSERT
  5
10E5F
330
10E56
100
AcDbEntity
  8
01注記寸法
 62
     0
370
    -2
100
AcDbBlockReference
  2
_Open
 10
477.3021942334622
 20
868.8117330843054
 30
0.0
 41
30.0
 42
30.0
 43
30.0
 50
180.0
  0
MTEXT
  5
10E60
330
10E56
100
AcDbEntity
  8
01注記寸法
 62
     0
100
AcDbMText
 10
444.8021942334622
 20
893.8117330843054
 30
0.0
 40
30.0
 41
0.0
 71
     5
 72
     1
  1
65
 73
     1
 44
1.0
  0
POINT
  5
10E61
330
10E56
100
AcDbEntity
  8
Defpoints
 62
     0
100
AcDbPoint
 10
412.3021942334622
 20
1034.029057199511
 30
0.0
  0
POINT
  5
10E62
330
10E56
100
AcDbEntity
  8
Defpoints
 62
     0
100
AcDbPoint
 10
477.3021942334622
 20
1019.029057199511
 30
0.0
  0
POINT
  5
10E63
330
10E56
100
AcDbEntity
  8
Defpoints
 62
     0
100
AcDbPoint
 10
477.3021942334622
 20
868.8117330843054
 30
0.0
  0
ENDBLK
  5
10E58
330
10E56
100
AcDbEntity
  8
0
100
AcDbBlockEnd
  0
BLOCK
  5
10E66
330
10E65
100
AcDbEntity
  8
0
100
AcDbBlockBegin
  2
*D899
 70
     1
 10
0.0
 20
0.0
 30
0.0
  3
*D899
  1

  0
LINE
  5
10E68
330
10E65
100
AcDbEntity
  8
01注記寸法
 62
     0
370
    -2
100
AcDbLine
 10
477.3021942334622
 20
1004.029057199511
 30
0.0
 11
477.3021942334622
 21
858.8117330843054
 31
0.0
  0
LINE
  5
10E69
330
10E65
100
AcDbEntity
  8
01注記寸法
 62
     0
370
    -2
100
AcDbLine
 10
1937.302194233459
 20
979.0290571995113
 30
0.0
 11
1937.302194233459
 21
858.8117330843054
 31
0.0
  0
LINE
  5
10E6A
330
10E65
100
AcDbEntity
  8
01注記寸法
 62
     0
370
    -2
100
AcDbLine
 10
507.3021942334622
 20
868.8117330843054
 30
0.0
 11
1907.302194233459
 21
868.8117330843054
 31
0.0
  0
INSERT
  5
10E6B
330
10E65
100
AcDbEntity
  8
01注記寸法
 62
     0
370
    -2
100
AcDbBlockReference
  2
_Open
 10
477.3021942334622
 20
868.8117330843054
 30
0.0
 41
30.0
 42
30.0
 43
30.0
 50
180.0
  0
INSERT
  5
10E6C
330
10E65
100
AcDbEntity
  8
01注記寸法
 62
     0
370
    -2
100
AcDbBlockReference
  2
_Open
 10
1937.302194233459
 20
868.8117330843054
 30
0.0
 41
30.0
 42
30.0
 43
30.0
  0
MTEXT
  5
10E6D
330
10E65
100
AcDbEntity
  8
01注記寸法
 62
     0
100
AcDbMText
 10
1207.30219423346
 20
893.8117330843054
 30
0.0
 40
30.0
 41
0.0
 71
     5
 72
     1
  1
1460
 73
     1
 44
1.0
  0
POINT
  5
10E6E
330
10E65
100
AcDbEntity
  8
Defpoints
 62
     0
100
AcDbPoint
 10
477.3021942334622
 20
1019.029057199511
 30
0.0
  0
POINT
  5
10E6F
330
10E65
100
AcDbEntity
  8
Defpoints
 62
     0
100
AcDbPoint
 10
1937.302194233459
 20
994.0290571995113
 30
0.0
  0
POINT
  5
10E70
330
10E65
100
AcDbEntity
  8
Defpoints
 62
     0
100
AcDbPoint
 10
1937.302194233459
 20
868.8117330843054
 30
0.0
  0
ENDBLK
  5
10E67
330
10E65
100
AcDbEntity
  8
0
100
AcDbBlockEnd
  0
BLOCK
  5
10E73
330
10E72
100
AcDbEntity
  8
0
100
AcDbBlockBegin
  2
*D900
 70
     1
 10
0.0
 20
0.0
 30
0.0
  3
*D900
  1

  0
LINE
  5
10E75
330
10E72
100
AcDbEntity
  8
01注記寸法
 62
     0
370
    -2
100
AcDbLine
 10
1937.302194233459
 20
979.0290571995113
 30
0.0
 11
1937.302194233459
 21
858.8117330843054
 31
0.0
  0
LINE
  5
10E76
330
10E72
100
AcDbEntity
  8
01注記寸法
 62
     0
370
    -2
100
AcDbLine
 10
2002.302194233459
 20
1019.029057199511
 30
0.0
 11
2002.302194233459
 21
858.8117330843054
 31
0.0
  0
LINE
  5
10E77
330
10E72
100
AcDbEntity
  8
01注記寸法
 62
     0
370
    -2
100
AcDbLine
 10
1937.302194233459
 20
868.8117330843054
 30
0.0
 11
2002.302194233459
 21
868.8117330843054
 31
0.0
  0
LINE
  5
10E78
330
10E72
100
AcDbEntity
  8
01注記寸法
 62
     0
370
    -2
100
AcDbLine
 10
1907.302194233459
 20
868.8117330843054
 30
0.0
 11
1877.302194233459
 21
868.8117330843054
 31
0.0
  0
LINE
  5
10E79
330
10E72
100
AcDbEntity
  8
01注記寸法
 62
     0
370
    -2
100
AcDbLine
 10
2032.302194233459
 20
868.8117330843054
 30
0.0
 11
2062.302194233459
 21
868.8117330843054
 31
0.0
  0
INSERT
  5
10E7A
330
10E72
100
AcDbEntity
  8
01注記寸法
 62
     0
370
    -2
100
AcDbBlockReference
  2
_Open
 10
1937.302194233459
 20
868.8117330843054
 30
0.0
 41
30.0
 42
30.0
 43
30.0
  0
INSERT
  5
10E7B
330
10E72
100
AcDbEntity
  8
01注記寸法
 62
     0
370
    -2
100
AcDbBlockReference
  2
_Open
 10
2002.302194233459
 20
868.8117330843054
 30
0.0
 41
30.0
 42
30.0
 43
30.0
 50
180.0
  0
MTEXT
  5
10E7C
330
10E72
100
AcDbEntity
  8
01注記寸法
 62
     0
100
AcDbMText
 10
1969.802194233459
 20
893.8117330843054
 30
0.0
 40
30.0
 41
0.0
 71
     5
 72
     1
  1
65
 73
     1
 44
1.0
  0
POINT
  5
10E7D
330
10E72
100
AcDbEntity
  8
Defpoints
 62
     0
100
AcDbPoint
 10
1937.302194233459
 20
994.0290571995113
 30
0.0
  0
POINT
  5
10E7E
330
10E72
100
AcDbEntity
  8
Defpoints
 62
     0
100
AcDbPoint
 10
2002.302194233459
 20
1034.029057199511
 30
0.0
  0
POINT
  5
10E7F
330
10E72
100
AcDbEntity
  8
Defpoints
 62
     0
100
AcDbPoint
 10
2002.302194233459
 20
868.8117330843054
 30
0.0
  0
ENDBLK
  5
10E74
330
10E72
100
AcDbEntity
  8
0
100
AcDbBlockEnd
  0
BLOCK
  5
10E82
330
10E81
100
AcDbEntity
  8
0
100
AcDbBlockBegin
  2
*D901
 70
     1
 10
0.0
 20
0.0
 30
0.0
  3
*D901
  1

  0
LINE
  5
10E84
330
10E81
100
AcDbEntity
  8
01注記寸法
 62
     0
370
    -2
100
AcDbLine
 10
2593.109947455372
 20
2257.467979872033
 30
0.0
 11
2782.462881723658
 21
2257.467979872033
 31
0.0
  0
LINE
  5
10E85
330
10E81
100
AcDbEntity
  8
01注記寸法
 62
     0
370
    -2
100
AcDbLine
 10
2606.609947455372
 20
2160.467979872032
 30
0.0
 11
2782.462881723658
 21
2160.467979872032
 31
0.0
  0
LINE
  5
10E86
330
10E81
100
AcDbEntity
  8
01注記寸法
 62
     0
370
    -2
100
AcDbLine
 10
2772.462881723658
 20
2227.467979872033
 30
0.0
 11
2772.462881723658
 21
2190.467979872032
 31
0.0
  0
INSERT
  5
10E87
330
10E81
100
AcDbEntity
  8
01注記寸法
 62
     0
370
    -2
100
AcDbBlockReference
  2
_Open
 10
2772.462881723658
 20
2257.467979872033
 30
0.0
 41
30.0
 42
30.0
 43
30.0
 50
90.0
  0
INSERT
  5
10E88
330
10E81
100
AcDbEntity
  8
01注記寸法
 62
     0
370
    -2
100
AcDbBlockReference
  2
_Open
 10
2772.462881723658
 20
2160.467979872032
 30
0.0
 41
30.0
 42
30.0
 43
30.0
 50
270.0
  0
MTEXT
  5
10E89
330
10E81
100
AcDbEntity
  8
01注記寸法
 62
     0
100
AcDbMText
 10
2747.462881723658
 20
2208.967979872032
 30
0.0
 40
30.0
 41
0.0
 71
     5
 72
     1
  1
97
 11
0.0
 21
1.0
 31
0.0
 73
     1
 44
1.0
  0
POINT
  5
10E8A
330
10E81
100
AcDbEntity
  8
Defpoints
 62
     0
100
AcDbPoint
 10
2578.109947455372
 20
2257.467979872033
 30
0.0
  0
POINT
  5
10E8B
330
10E81
100
AcDbEntity
  8
Defpoints
 62
     0
100
AcDbPoint
 10
2591.609947455372
 20
2160.467979872032
 30
0.0
  0
POINT
  5
10E8C
330
10E81
100
AcDbEntity
  8
Defpoints
 62
     0
100
AcDbPoint
 10
2772.462881723658
 20
2160.467979872032
 30
0.0
  0
ENDBLK
  5
10E83
330
10E81
100
AcDbEntity
  8
0
100
AcDbBlockEnd
  0
BLOCK
  5
10E8F
330
10E8E
100
AcDbEntity
  8
0
100
AcDbBlockBegin
  2
*D902
 70
     1
 10
0.0
 20
0.0
 30
0.0
  3
*D902
  1

  0
LINE
  5
10E91
330
10E8E
100
AcDbEntity
  8
01注記寸法
 62
     0
370
    -2
100
AcDbLine
 10
2606.609947455372
 20
2160.467979872032
 30
0.0
 11
2782.462881723658
 21
2160.467979872032
 31
0.0
  0
LINE
  5
10E92
330
10E8E
100
AcDbEntity
  8
01注記寸法
 62
     0
370
    -2
100
AcDbLine
 10
2606.609947455372
 20
1599.467979872035
 30
0.0
 11
2782.462881723658
 21
1599.467979872035
 31
0.0
  0
LINE
  5
10E93
330
10E8E
100
AcDbEntity
  8
01注記寸法
 62
     0
370
    -2
100
AcDbLine
 10
2772.462881723658
 20
2130.467979872032
 30
0.0
 11
2772.462881723658
 21
1629.467979872035
 31
0.0
  0
INSERT
  5
10E94
330
10E8E
100
AcDbEntity
  8
01注記寸法
 62
     0
370
    -2
100
AcDbBlockReference
  2
_Open
 10
2772.462881723658
 20
2160.467979872032
 30
0.0
 41
30.0
 42
30.0
 43
30.0
 50
90.0
  0
INSERT
  5
10E95
330
10E8E
100
AcDbEntity
  8
01注記寸法
 62
     0
370
    -2
100
AcDbBlockReference
  2
_Open
 10
2772.462881723658
 20
1599.467979872035
 30
0.0
 41
30.0
 42
30.0
 43
30.0
 50
270.0
  0
MTEXT
  5
10E96
330
10E8E
100
AcDbEntity
  8
01注記寸法
 62
     0
100
AcDbMText
 10
2747.462881723658
 20
1879.967979872033
 30
0.0
 40
30.0
 41
0.0
 71
     5
 72
     1
  1
561
 11
0.0
 21
1.0
 31
0.0
 73
     1
 44
1.0
  0
POINT
  5
10E97
330
10E8E
100
AcDbEntity
  8
Defpoints
 62
     0
100
AcDbPoint
 10
2591.609947455372
 20
2160.467979872032
 30
0.0
  0
POINT
  5
10E98
330
10E8E
100
AcDbEntity
  8
Defpoints
 62
     0
100
AcDbPoint
 10
2591.609947455372
 20
1599.467979872035
 30
0.0
  0
POINT
  5
10E99
330
10E8E
100
AcDbEntity
  8
Defpoints
 62
     0
100
AcDbPoint
 10
2772.462881723658
 20
1599.467979872035
 30
0.0
  0
ENDBLK
  5
10E90
330
10E8E
100
AcDbEntity
  8
0
100
AcDbBlockEnd
  0
BLOCK
  5
10E9C
330
10E9B
100
AcDbEntity
  8
0
100
AcDbBlockBegin
  2
*D903
 70
     1
 10
0.0
 20
0.0
 30
0.0
  3
*D903
  1

  0
LINE
  5
10E9E
330
10E9B
100
AcDbEntity
  8
01注記寸法
 62
     0
370
    -2
100
AcDbLine
 10
2606.609947455372
 20
1599.467979872035
 30
0.0
 11
2782.462881723658
 21
1599.467979872035
 31
0.0
  0
LINE
  5
10E9F
330
10E9B
100
AcDbEntity
  8
01注記寸法
 62
     0
370
    -2
100
AcDbLine
 10
2593.109947455372
 20
1502.467979872034
 30
0.0
 11
2782.462881723658
 21
1502.467979872034
 31
0.0
  0
LINE
  5
10EA0
330
10E9B
100
AcDbEntity
  8
01注記寸法
 62
     0
370
    -2
100
AcDbLine
 10
2772.462881723658
 20
1569.467979872035
 30
0.0
 11
2772.462881723658
 21
1532.467979872034
 31
0.0
  0
INSERT
  5
10EA1
330
10E9B
100
AcDbEntity
  8
01注記寸法
 62
     0
370
    -2
100
AcDbBlockReference
  2
_Open
 10
2772.462881723658
 20
1599.467979872035
 30
0.0
 41
30.0
 42
30.0
 43
30.0
 50
90.0
  0
INSERT
  5
10EA2
330
10E9B
100
AcDbEntity
  8
01注記寸法
 62
     0
370
    -2
100
AcDbBlockReference
  2
_Open
 10
2772.462881723658
 20
1502.467979872034
 30
0.0
 41
30.0
 42
30.0
 43
30.0
 50
270.0
  0
MTEXT
  5
10EA3
330
10E9B
100
AcDbEntity
  8
01注記寸法
 62
     0
100
AcDbMText
 10
2747.462881723658
 20
1550.967979872034
 30
0.0
 40
30.0
 41
0.0
 71
     5
 72
     1
  1
97
 11
0.0
 21
1.0
 31
0.0
 73
     1
 44
1.0
  0
POINT
  5
10EA4
330
10E9B
100
AcDbEntity
  8
Defpoints
 62
     0
100
AcDbPoint
 10
2591.609947455372
 20
1599.467979872035
 30
0.0
  0
POINT
  5
10EA5
330
10E9B
100
AcDbEntity
  8
Defpoints
 62
     0
100
AcDbPoint
 10
2578.109947455372
 20
1502.467979872034
 30
0.0
  0
POINT
  5
10EA6
330
10E9B
100
AcDbEntity
  8
Defpoints
 62
     0
100
AcDbPoint
 10
2772.462881723658
 20
1502.467979872034
 30
0.0
  0
ENDBLK
  5
10E9D
330
10E9B
100
AcDbEntity
  8
0
100
AcDbBlockEnd
  0
BLOCK
  5
10EE1
330
10EE0
100
AcDbEntity
  8
0
100
AcDbBlockBegin
  2
*D905
 70
     1
 10
0.0
 20
0.0
 30
0.0
  3
*D905
  1

  0
LINE
  5
10EE3
330
10EE0
100
AcDbEntity
  8
01注記寸法
 62
     0
370
    -2
100
AcDbLine
 10
2576.609947455372
 20
2272.467979872033
 30
0.0
 11
2576.609947455372
 21
2338.786318286003
 31
0.0
  0
LINE
  5
10EE4
330
10EE0
100
AcDbEntity
  8
01注記寸法
 62
     0
370
    -2
100
AcDbLine
 10
2578.109947455372
 20
2272.467979872033
 30
0.0
 11
2578.109947455372
 21
2338.786318286003
 31
0.0
  0
LINE
  5
10EE5
330
10EE0
100
AcDbEntity
  8
01注記寸法
 62
     0
370
    -2
100
AcDbLine
 10
2608.109947455372
 20
2328.786318286003
 30
0.0
 11
2710.489947455372
 21
2328.786318286003
 31
0.0
  0
LINE
  5
10EE6
330
10EE0
100
AcDbEntity
  8
01注記寸法
 62
     0
370
    -2
100
AcDbLine
 10
2576.609947455372
 20
2328.786318286003
 30
0.0
 11
2578.109947455372
 21
2328.786318286003
 31
0.0
  0
LINE
  5
10EE7
330
10EE0
100
AcDbEntity
  8
01注記寸法
 62
     0
370
    -2
100
AcDbLine
 10
2546.609947455372
 20
2328.786318286003
 30
0.0
 11
2516.609947455372
 21
2328.786318286003
 31
0.0
  0
INSERT
  5
10EE8
330
10EE0
100
AcDbEntity
  8
01注記寸法
 62
     0
370
    -2
100
AcDbBlockReference
  2
_Open
 10
2576.609947455372
 20
2328.786318286003
 30
0.0
 41
30.0
 42
30.0
 43
30.0
  0
INSERT
  5
10EE9
330
10EE0
100
AcDbEntity
  8
01注記寸法
 62
     0
370
    -2
100
AcDbBlockReference
  2
_Open
 10
2578.109947455372
 20
2328.786318286003
 30
0.0
 41
30.0
 42
30.0
 43
30.0
 50
180.0
  0
MTEXT
  5
10EEA
330
10EE0
100
AcDbEntity
  8
01注記寸法
 62
     0
100
AcDbMText
 10
2674.299947455372
 20
2353.786318286003
 30
0.0
 40
30.0
 41
0.0
 71
     5
 72
     1
  1
1.5
 73
     1
 44
1.0
  0
POINT
  5
10EEB
330
10EE0
100
AcDbEntity
  8
Defpoints
 62
     0
100
AcDbPoint
 10
2576.609947455372
 20
2257.467979872033
 30
0.0
  0
POINT
  5
10EEC
330
10EE0
100
AcDbEntity
  8
Defpoints
 62
     0
100
AcDbPoint
 10
2578.109947455372
 20
2257.467979872033
 30
0.0
  0
POINT
  5
10EED
330
10EE0
100
AcDbEntity
  8
Defpoints
 62
     0
100
AcDbPoint
 10
2578.109947455372
 20
2328.786318286003
 30
0.0
  0
ENDBLK
  5
10EE2
330
10EE0
100
AcDbEntity
  8
0
100
AcDbBlockEnd
  0
BLOCK
  5
10EF0
330
10EEF
100
AcDbEntity
  8
0
100
AcDbBlockBegin
  2
*D906
 70
     1
 10
0.0
 20
0.0
 30
0.0
  3
*D906
  1

  0
LINE
  5
10EF2
330
10EEF
100
AcDbEntity
  8
01注記寸法
 62
     0
370
    -2
100
AcDbLine
 10
2017.302194233459
 20
1034.029057199511
 30
0.0
 11
2139.248039297471
 21
1034.029057199511
 31
0.0
  0
LINE
  5
10EF3
330
10EEF
100
AcDbEntity
  8
01注記寸法
 62
     0
370
    -2
100
AcDbLine
 10
1952.302194233459
 20
994.0290571995113
 30
0.0
 11
2139.248039297471
 21
994.0290571995113
 31
0.0
  0
LINE
  5
10EF4
330
10EEF
100
AcDbEntity
  8
01注記寸法
 62
     0
370
    -2
100
AcDbLine
 10
2129.248039297471
 20
964.0290571995113
 30
0.0
 11
2129.248039297471
 21
877.7890571995115
 31
0.0
  0
LINE
  5
10EF5
330
10EEF
100
AcDbEntity
  8
01注記寸法
 62
     0
370
    -2
100
AcDbLine
 10
2129.248039297471
 20
1034.029057199511
 30
0.0
 11
2129.248039297471
 21
994.0290571995113
 31
0.0
  0
LINE
  5
10EF6
330
10EEF
100
AcDbEntity
  8
01注記寸法
 62
     0
370
    -2
100
AcDbLine
 10
2129.248039297471
 20
1064.029057199511
 30
0.0
 11
2129.248039297471
 21
1094.029057199511
 31
0.0
  0
INSERT
  5
10EF7
330
10EEF
100
AcDbEntity
  8
01注記寸法
 62
     0
370
    -2
100
AcDbBlockReference
  2
_Open
 10
2129.248039297471
 20
1034.029057199511
 30
0.0
 41
30.0
 42
30.0
 43
30.0
 50
270.0
  0
INSERT
  5
10EF8
330
10EEF
100
AcDbEntity
  8
01注記寸法
 62
     0
370
    -2
100
AcDbBlockReference
  2
_Open
 10
2129.248039297471
 20
994.0290571995113
 30
0.0
 41
30.0
 42
30.0
 43
30.0
 50
90.0
  0
MTEXT
  5
10EF9
330
10EEF
100
AcDbEntity
  8
01注記寸法
 62
     0
100
AcDbMText
 10
2104.248039297471
 20
905.9090571995114
 30
0.0
 40
30.0
 41
0.0
 71
     5
 72
     1
  1
40
 11
0.0
 21
1.0
 31
0.0
 73
     1
 44
1.0
  0
POINT
  5
10EFA
330
10EEF
100
AcDbEntity
  8
Defpoints
 62
     0
100
AcDbPoint
 10
2002.302194233459
 20
1034.029057199511
 30
0.0
  0
POINT
  5
10EFB
330
10EEF
100
AcDbEntity
  8
Defpoints
 62
     0
100
AcDbPoint
 10
1937.302194233459
 20
994.0290571995113
 30
0.0
  0
POINT
  5
10EFC
330
10EEF
100
AcDbEntity
  8
Defpoints
 62
     0
100
AcDbPoint
 10
2129.248039297471
 20
994.0290571995113
 30
0.0
  0
ENDBLK
  5
10EF1
330
10EEF
100
AcDbEntity
  8
0
100
AcDbBlockEnd
  0
BLOCK
  5
10EFF
330
10EFE
100
AcDbEntity
  8
0
100
AcDbBlockBegin
  2
*D907
 70
     1
 10
0.0
 20
0.0
 30
0.0
  3
*D907
  1

  0
LINE
  5
10F01
330
10EFE
100
AcDbEntity
  8
01注記寸法
 62
     0
370
    -2
100
AcDbLine
 10
1935.802194233459
 20
1864.967979872033
 30
0.0
 11
1935.802194233459
 21
1744.227401701245
 31
0.0
  0
LINE
  5
10F02
330
10EFE
100
AcDbEntity
  8
01注記寸法
 62
     0
370
    -2
100
AcDbLine
 10
1913.802194233459
 20
1827.679494143731
 30
0.0
 11
1913.802194233459
 21
1744.227401701245
 31
0.0
  0
LINE
  5
10F03
330
10EFE
100
AcDbEntity
  8
01注記寸法
 62
     0
370
    -2
100
AcDbLine
 10
1883.802194233459
 20
1754.227401701245
 30
0.0
 11
1763.452194233459
 21
1754.227401701245
 31
0.0
  0
LINE
  5
10F04
330
10EFE
100
AcDbEntity
  8
01注記寸法
 62
     0
370
    -2
100
AcDbLine
 10
1935.802194233459
 20
1754.227401701245
 30
0.0
 11
1913.802194233459
 21
1754.227401701245
 31
0.0
  0
LINE
  5
10F05
330
10EFE
100
AcDbEntity
  8
01注記寸法
 62
     0
370
    -2
100
AcDbLine
 10
1965.802194233459
 20
1754.227401701245
 30
0.0
 11
1995.802194233459
 21
1754.227401701245
 31
0.0
  0
INSERT
  5
10F06
330
10EFE
100
AcDbEntity
  8
01注記寸法
 62
     0
370
    -2
100
AcDbBlockReference
  2
_Open
 10
1935.802194233459
 20
1754.227401701245
 30
0.0
 41
30.0
 42
30.0
 43
30.0
 50
180.0
  0
INSERT
  5
10F07
330
10EFE
100
AcDbEntity
  8
01注記寸法
 62
     0
370
    -2
100
AcDbBlockReference
  2
_Open
 10
1913.802194233459
 20
1754.227401701245
 30
0.0
 41
30.0
 42
30.0
 43
30.0
  0
MTEXT
  5
10F08
330
10EFE
100
AcDbEntity
  8
01注記寸法
 62
     0
100
AcDbMText
 10
1808.627194233459
 20
1779.227401701245
 30
0.0
 40
30.0
 41
0.0
 71
     5
 72
     1
  1
≒22
 73
     1
 44
1.0
  0
POINT
  5
10F09
330
10EFE
100
AcDbEntity
  8
Defpoints
 62
     0
100
AcDbPoint
 10
1935.802194233459
 20
1879.967979872033
 30
0.0
  0
POINT
  5
10F0A
330
10EFE
100
AcDbEntity
  8
Defpoints
 62
     0
100
AcDbPoint
 10
1913.802194233459
 20
1842.679494143731
 30
0.0
  0
POINT
  5
10F0B
330
10EFE
100
AcDbEntity
  8
Defpoints
 62
     0
100
AcDbPoint
 10
1913.802194233459
 20
1754.227401701245
 30
0.0
  0
ENDBLK
  5
10F00
330
10EFE
100
AcDbEntity
  8
0
100
AcDbBlockEnd
  0
BLOCK
  5
11AC4
330
11AC3
100
AcDbEntity
  8
0
100
AcDbBlockBegin
  2
*D933
 70
     1
 10
0.0
 20
0.0
 30
0.0
  3
*D933
  1

  0
LINE
  5
11AC6
330
11AC3
100
AcDbEntity
  8
01注記寸法
 62
     0
370
    -2
100
AcDbLine
 10
1207.302194233461
 20
1482.467979872033
 30
0.0
 11
1207.302194233461
 21
1390.949740485745
 31
0.0
  0
LINE
  5
11AC7
330
11AC3
100
AcDbEntity
  8
01注記寸法
 62
     0
370
    -2
100
AcDbLine
 10
1876.302194233461
 20
1482.467979872033
 30
0.0
 11
1876.302194233461
 21
1390.949740485745
 31
0.0
  0
LINE
  5
11AC8
330
11AC3
100
AcDbEntity
  8
01注記寸法
 62
     0
370
    -2
100
AcDbLine
 10
1237.302194233461
 20
1400.949740485745
 30
0.0
 11
1846.302194233461
 21
1400.949740485745
 31
0.0
  0
INSERT
  5
11AC9
330
11AC3
100
AcDbEntity
  8
01注記寸法
 62
     0
370
    -2
100
AcDbBlockReference
  2
_Open
 10
1207.302194233461
 20
1400.949740485745
 30
0.0
 41
30.0
 42
30.0
 43
30.0
 50
180.0
  0
INSERT
  5
11ACA
330
11AC3
100
AcDbEntity
  8
01注記寸法
 62
     0
370
    -2
100
AcDbBlockReference
  2
_Open
 10
1876.302194233461
 20
1400.949740485745
 30
0.0
 41
30.0
 42
30.0
 43
30.0
  0
MTEXT
  5
11ACB
330
11AC3
100
AcDbEntity
  8
01注記寸法
 62
     0
100
AcDbMText
 10
1541.802194233461
 20
1425.949740485745
 30
0.0
 40
30.0
 41
0.0
 71
     5
 72
     1
  1
669
 73
     1
 44
1.0
  0
POINT
  5
11ACC
330
11AC3
100
AcDbEntity
  8
Defpoints
 62
     0
100
AcDbPoint
 10
1207.302194233461
 20
1497.467979872033
 30
0.0
  0
POINT
  5
11ACD
330
11AC3
100
AcDbEntity
  8
Defpoints
 62
     0
100
AcDbPoint
 10
1876.302194233461
 20
1497.467979872033
 30
0.0
  0
POINT
  5
11ACE
330
11AC3
100
AcDbEntity
  8
Defpoints
 62
     0
100
AcDbPoint
 10
1876.302194233461
 20
1400.949740485745
 30
0.0
  0
ENDBLK
  5
11AC5
330
11AC3
100
AcDbEntity
  8
0
100
AcDbBlockEnd
  0
ENDSEC
  0
SECTION
  2
ENTITIES
  0
LWPOLYLINE
  5
10A36
330
1F
100
AcDbEntity
  8
02実線
100
AcDbPolyline
 90
        8
 70
     1
 43
0.0
 10
412.3021942334622
 20
2252.467979872033
 10
412.3021942334622
 20
1507.467979872034
 10
417.3021942334622
 20
1502.467979872034
 10
1997.30219423346
 20
1502.467979872034
 10
2002.30219423346
 20
1507.467979872034
 10
2002.30219423346
 20
2252.467979872033
 10
1997.30219423346
 20
2257.467979872033
 10
417.3021942334622
 20
2257.467979872033
  0
LWPOLYLINE
  5
10A38
330
1F
100
AcDbEntity
  8
03破線
100
AcDbPolyline
 90
        4
 70
     1
 43
0.0
 10
477.3021942334622
 20
2160.467979872032
 10
477.3021942334622
 20
1599.467979872035
 10
1937.302194233459
 20
1599.467979872035
 10
1937.302194233459
 20
2160.467979872032
  0
LWPOLYLINE
  5
10A39
330
1F
100
AcDbEntity
  8
02実線
100
AcDbPolyline
 90
        4
 70
     1
 43
0.0
 10
478.8021942334622
 20
2158.967979872032
 10
478.8021942334622
 20
1600.967979872035
 10
1935.802194233459
 20
1600.967979872035
 10
1935.802194233459
 20
2158.967979872032
  0
LWPOLYLINE
  5
10A3E
330
1F
100
AcDbEntity
  8
02実線
100
AcDbPolyline
 90
        4
 70
     1
 43
0.0
 10
412.3021942334622
 20
1035.529057199511
 10
412.3021942334622
 20
1034.029057199511
 10
2002.302194233459
 20
1034.029057199511
 10
2002.302194233459
 20
1035.529057199511
  0
LINE
  5
10A43
330
1F
100
AcDbEntity
  8
02実線
100
AcDbLine
 10
477.3021942334622
 20
1034.029057199511
 30
0.0
 11
477.3021942334622
 21
1019.029057199511
 31
0.0
  0
LINE
  5
10A44
330
1F
100
AcDbEntity
  8
02実線
100
AcDbLine
 10
477.3021942334622
 20
1019.029057199511
 30
0.0
 11
1937.302194233459
 21
994.0290571995113
 31
0.0
  0
LINE
  5
10A45
330
1F
100
AcDbEntity
  8
02実線
100
AcDbLine
 10
1937.302194233459
 20
994.0290571995113
 30
0.0
 11
1937.302194233459
 21
1034.029057199511
 31
0.0
  0
LINE
  5
10A46
330
1F
100
AcDbEntity
  8
03破線
100
AcDbLine
 10
478.8021942334622
 20
1034.029057199511
 30
0.0
 11
478.8021942334622
 21
1020.483475182167
 31
0.0
  0
LINE
  5
10A47
330
1F
100
AcDbEntity
  8
03破線
100
AcDbLine
 10
478.8021942334622
 20
1020.483475182167
 30
0.0
 11
1935.802194233459
 21
995.5760677747598
 31
0.0
  0
LINE
  5
10A48
330
1F
100
AcDbEntity
  8
03破線
100
AcDbLine
 10
1935.802194233459
 20
995.5760677747598
 30
0.0
 11
1935.802194233459
 21
1034.029057199511
 31
0.0
  0
CIRCLE
  5
10D4B
330
1F
100
AcDbEntity
  8
02実線
100
AcDbCircle
 10
1913.802194233459
 20
1879.967979872034
 30
0.0
 40
11.0
  0
LINE
  5
10D6A
330
1F
100
AcDbEntity
  8
02実線
100
AcDbLine
 10
478.8021942334622
 20
2158.967979872032
 30
0.0
 11
1903.437369641179
 21
1883.65178377171
 31
0.0
  0
LINE
  5
10D6B
330
1F
100
AcDbEntity
  8
02実線
100
AcDbLine
 10
1903.437369641179
 20
1876.284175972357
 30
0.0
 11
478.8021942334622
 21
1600.967979872035
 31
0.0
  0
LINE
  5
10D8C
330
1F
100
AcDbEntity
  8
02実線
100
AcDbLine
 10
1896.802194233459
 20
974.3491934276931
 30
0.0
 11
1930.802194233459
 21
974.3491934276931
 31
0.0
  0
LINE
  5
10D8D
330
1F
100
AcDbEntity
  8
02実線
100
AcDbLine
 10
1896.802194233459
 20
974.3491934276931
 30
0.0
 11
1900.328733847628
 21
954.3491934276931
 31
0.0
  0
LINE
  5
10D8E
330
1F
100
AcDbEntity
  8
02実線
100
AcDbLine
 10
1930.802194233459
 20
974.3491934276931
 30
0.0
 11
1927.275654619289
 21
954.3491934276931
 31
0.0
  0
LWPOLYLINE
  5
10D8F
330
1F
100
AcDbEntity
  8
02実線
100
AcDbPolyline
 90
        2
 70
     0
 43
0.0
 10
1900.328733847628
 20
954.3491934276931
 10
1927.275654619289
 20
954.3491934276931
  0
LINE
  5
10D90
330
1F
100
AcDbEntity
  8
03破線
  6
HIDDEN2
 48
0.2
100
AcDbLine
 10
1927.802194233459
 20
974.3491934276931
 30
0.0
 11
1927.802194233459
 21
994.3491934276931
 31
0.0
  0
LINE
  5
10D91
330
1F
100
AcDbEntity
  8
03破線
  6
HIDDEN2
 48
0.2
100
AcDbLine
 10
1899.802194233459
 20
994.3491934276931
 30
0.0
 11
1899.802194233459
 21
974.3491934276931
 31
0.0
  0
LINE
  5
10D92
330
1F
100
AcDbEntity
  8
02実線
100
AcDbLine
 10
1899.711733164637
 20
974.8622236426818
 30
0.0
 11
1903.238272778807
 21
954.8622236426818
 31
0.0
  0
LINE
  5
10D93
330
1F
100
AcDbEntity
  8
02実線
100
AcDbLine
 10
1927.89265530228
 20
974.8622236426818
 30
0.0
 11
1924.36611568811
 21
954.8622236426818
 31
0.0
  0
LINE
  5
10D94
330
1F
100
AcDbEntity
  8
02実線
100
AcDbLine
 10
1930.802194233459
 20
974.3491934276931
 30
0.0
 11
1930.802194233459
 21
994.3491934276931
 31
0.0
  0
LINE
  5
10D95
330
1F
100
AcDbEntity
  8
02実線
100
AcDbLine
 10
1896.802194233459
 20
994.3491934276931
 30
0.0
 11
1896.802194233459
 21
974.3491934276931
 31
0.0
  0
LINE
  5
10D96
330
1F
100
AcDbEntity
  8
04一点鎖線
  6
CENTER
 48
3.0
100
AcDbLine
 10
1913.802194233459
 20
1014.444130218139
 30
0.0
 11
1913.802194233459
 21
941.252715401055
 31
0.0
  0
LINE
  5
10DB3
330
1F
100
AcDbEntity
  8
02実線
100
AcDbLine
 10
2576.609947455372
 20
1502.467979872034
 30
0.0
 11
2576.609947455372
 21
2257.467979872033
 31
0.0
  0
LINE
  5
10DB4
330
1F
100
AcDbEntity
  8
02実線
100
AcDbLine
 10
2578.109947455372
 20
1502.467979872034
 30
0.0
 11
2578.109947455372
 21
2257.467979872033
 31
0.0
  0
LINE
  5
10DB5
330
1F
100
AcDbEntity
  8
02実線
100
AcDbLine
 10
2576.609947455372
 20
1502.467979872034
 30
0.0
 11
2578.109947455372
 21
1502.467979872034
 31
0.0
  0
LINE
  5
10DB6
330
1F
100
AcDbEntity
  8
04一点鎖線
100
AcDbLine
 10
2590.609947455372
 20
1515.467979872033
 30
0.0
 11
2562.609947455372
 21
1515.467979872033
 31
0.0
  0
LINE
  5
10DB7
330
1F
100
AcDbEntity
  8
02実線
100
AcDbLine
 10
2626.609947455372
 20
1862.967979872034
 30
0.0
 11
2626.609947455372
 21
1896.967979872034
 31
0.0
  0
LWPOLYLINE
  5
10DB8
330
1F
100
AcDbEntity
  8
02実線
100
AcDbPolyline
 90
        2
 70
     0
 43
0.0
 10
2646.609947455372
 20
1866.494519486203
 10
2646.609947455372
 20
1893.441440257864
  0
LINE
  5
10DB9
330
1F
100
AcDbEntity
  8
02実線
100
AcDbLine
 10
2626.609947455372
 20
1862.967979872034
 30
0.0
 11
2646.609947455372
 21
1866.494519486203
 31
0.0
  0
LINE
  5
10DBA
330
1F
100
AcDbEntity
  8
02実線
100
AcDbLine
 10
2626.096917240383
 20
1865.877518803213
 30
0.0
 11
2646.096917240383
 21
1869.404058417382
 31
0.0
  0
LINE
  5
10DBB
330
1F
100
AcDbEntity
  8
03破線
 48
0.2
100
AcDbLine
 10
2605.587416086668
 20
1865.967979872034
 30
0.0
 11
2626.609947455372
 21
1865.967979872034
 31
0.0
  0
LINE
  5
10DBC
330
1F
100
AcDbEntity
  8
02実線
100
AcDbLine
 10
2626.609947455372
 20
1896.967979872034
 30
0.0
 11
2646.609947455372
 21
1893.441440257864
 31
0.0
  0
LINE
  5
10DBD
330
1F
100
AcDbEntity
  8
02実線
100
AcDbLine
 10
2626.096917240383
 20
1894.058440940855
 30
0.0
 11
2646.096917240383
 21
1890.531901326686
 31
0.0
  0
LINE
  5
10DBE
330
1F
100
AcDbEntity
  8
03破線
 48
0.2
100
AcDbLine
 10
2626.609947455372
 20
1893.967979872034
 30
0.0
 11
2605.573583819008
 21
1893.967979872034
 31
0.0
  0
LINE
  5
10DBF
330
1F
100
AcDbEntity
  8
02実線
100
AcDbLine
 10
2576.609947455372
 20
2257.467979872033
 30
0.0
 11
2578.109947455372
 21
2257.467979872033
 31
0.0
  0
LINE
  5
10DC0
330
1F
100
AcDbEntity
  8
04一点鎖線
100
AcDbLine
 10
2590.609947455372
 20
2244.467979872034
 30
0.0
 11
2562.609947455372
 21
2244.467979872034
 31
0.0
  0
LINE
  5
10DC1
330
1F
100
AcDbEntity
  8
02実線
100
AcDbLine
 10
2626.609947455372
 20
1896.967979872034
 30
0.0
 11
2605.351505896931
 21
1896.967979872034
 31
0.0
  0
LINE
  5
10DC2
330
1F
100
AcDbEntity
  8
02実線
100
AcDbLine
 10
2605.365226313369
 20
1862.967979872034
 30
0.0
 11
2626.609947455372
 21
1862.967979872034
 31
0.0
  0
LINE
  5
10DC3
330
1F
100
AcDbEntity
  8
02実線
100
AcDbLine
 10
2578.109947455372
 20
2160.467979872032
 30
0.0
 11
2591.609947455372
 21
2160.467979872032
 31
0.0
  0
LINE
  5
10DC4
330
1F
100
AcDbEntity
  8
02実線
100
AcDbLine
 10
2591.609947455372
 20
2160.467979872032
 30
0.0
 11
2606.617122768434
 21
1879.871050204356
 31
0.0
  0
LINE
  5
10DC5
330
1F
100
AcDbEntity
  8
02実線
  6
HIDDEN
 48
5.0
100
AcDbLine
 10
2578.109947455372
 20
2158.967979872032
 30
0.0
 11
2590.167263697012
 21
2158.967979872032
 31
0.0
  0
LINE
  5
10DC6
330
1F
100
AcDbEntity
  8
02実線
100
AcDbLine
 10
2591.609947455372
 20
1599.467979872035
 30
0.0
 11
2606.617122768434
 21
1880.064909539712
 31
0.0
  0
LINE
  5
10DC7
330
1F
100
AcDbEntity
  8
02実線
100
AcDbLine
 10
2578.109947455372
 20
1599.467979872035
 30
0.0
 11
2591.609947455372
 21
1599.467979872035
 31
0.0
  0
LINE
  5
10DC8
330
1F
100
AcDbEntity
  8
02実線
  6
HIDDEN
 48
5.0
100
AcDbLine
 10
2578.109947455372
 20
1600.967979872035
 30
0.0
 11
2590.167263697012
 21
1600.967979872035
 31
0.0
  0
LINE
  5
10DC9
330
1F
100
AcDbEntity
  8
03破線
100
AcDbLine
 10
2590.117641470318
 20
2160.31624705761
 30
0.0
 11
2605.12481678338
 21
1879.719317389935
 31
0.0
  0
LINE
  5
10DCA
330
1F
100
AcDbEntity
  8
03破線
100
AcDbLine
 10
2590.117641470318
 20
1599.619712686456
 30
0.0
 11
2605.12481678338
 21
1880.216642354133
 31
0.0
  0
LINE
  5
10DCB
330
1F
100
AcDbEntity
  8
04一点鎖線
  6
CENTER
 48
3.0
100
AcDbLine
 10
2551.609947455372
 20
1879.967979872034
 30
0.0
 11
2671.609947455372
 21
1879.967979872034
 31
0.0
  0
INSERT
  5
10DCE
330
1F
100
AcDbEntity
  8
02実線
100
AcDbBlockReference
  2
hole-φ16
 10
538.3021942334608
 20
1515.467979872033
 30
0.0
  0
INSERT
  5
10DCF
330
1F
100
AcDbEntity
  8
02実線
100
AcDbBlockReference
  2
hole-φ16
 10
1876.302194233461
 20
1515.467979872033
 30
0.0
  0
INSERT
  5
10DD0
330
1F
100
AcDbEntity
  8
02実線
100
AcDbBlockReference
  2
hole-φ16
 10
538.3021942334613
 20
2244.467979872034
 30
0.0
  0
INSERT
  5
10DD1
330
1F
100
AcDbEntity
  8
02実線
100
AcDbBlockReference
  2
hole-φ16
 10
1876.302194233461
 20
2244.467979872034
 30
0.0
  0
LINE
  5
10DD3
330
1F
100
AcDbEntity
  8
04一点鎖線
100
AcDbLine
 10
538.3021942334613
 20
1048.141347162031
 30
0.0
 11
538.3021942334613
 21
1022.916767236991
 31
0.0
  0
LINE
  5
10DD4
330
1F
100
AcDbEntity
  8
04一点鎖線
100
AcDbLine
 10
1876.302194233461
 20
1048.141347162031
 30
0.0
 11
1876.302194233461
 21
1022.916767236991
 31
0.0
  0
LINE
  5
10E0B
330
1F
100
AcDbEntity
  8
04一点鎖線
100
AcDbLine
 10
1913.802194233459
 20
1917.256465600336
 30
0.0
 11
1913.802194233459
 21
1842.679494143731
 31
0.0
  0
INSERT
  5
11AC0
330
1F
100
AcDbEntity
  8
02実線
100
AcDbBlockReference
  2
hole-φ16
 10
1207.302194233461
 20
1515.467979872033
 30
0.0
  0
INSERT
  5
11AC1
330
1F
100
AcDbEntity
  8
02実線
100
AcDbBlockReference
  2
hole-φ16
 10
1207.302194233461
 20
2244.467979872034
 30
0.0
  0
VIEWPORT
  5
9F0D
330
1B
100
AcDbEntity
 67
     1
  8
0
100
AcDbViewport
 10
202.5
 20
128.5
 30
0.0
 40
486.0
 41
308.4
 68
     1
 69
     1
 12
202.5
 22
128.5
 13
0.0
 23
0.0
 14
0.5
 24
0.5
 15
0.0
 25
0.0
 16
0.0
 26
0.0
 36
1.0
 17
0.0
 27
0.0
 37
0.0
 42
50.0
 43
0.0
 44
0.0
 45
308.4
 50
0.0
 51
0.0
 72
   100
 90
   557152
  1

281
     0
 71
     1
 74
     0
110
0.0
120
0.0
130
0.0
111
1.0
121
0.0
131
0.0
112
0.0
122
1.0
132
0.0
 79
     0
146
0.0
  0
VIEWPORT
  5
9F0E
330
1B
100
AcDbEntity
 67
     1
  8
0
100
AcDbViewport
 10
202.5
 20
128.5
 30
0.0
 40
324.0
 41
205.6
 68
     2
 69
     2
 12
-3224.9849078482
 22
3553.815758143106
 13
0.0
 23
0.0
 14
0.5
 24
0.5
 15
0.0
 25
0.0
 16
0.0
 26
0.0
 36
1.0
 17
0.0
 27
0.0
 37
0.0
 42
50.0
 43
0.0
 44
0.0
 45
10712.16027781073
 50
0.0
 51
0.0
 72
   100
 90
   557152
  1

281
     0
 71
     1
 74
     0
110
0.0
120
0.0
130
0.0
111
1.0
121
0.0
131
0.0
112
0.0
122
1.0
132
0.0
 79
     0
146
0.0
  0
ENDSEC
  0
SECTION
  2
OBJECTS
  0
DICTIONARY
  5
C
330
0
100
AcDbDictionary
281
     1
  3
ACAD_GROUP
350
D
  3
ACAD_IMAGE_VARS
350
6A88
  3
ACAD_LAYOUT
350
1A
  3
ACAD_MLINESTYLE
350
17
  3
ACAD_PLOTSETTINGS
350
19
  3
ACAD_PLOTSTYLENAME
350
E
  3
ACAD_SCALELIST
350
6A4E
  3
AcadDim
350
813A
  3
AcDbVariableDictionary
350
79E
  3
AEC_DISP_REPS
350
F0B5
  3
AEC_DISPLAY_PROPS_DEFAULTS
350
F0B7
  3
AEC_VARS
350
F0B3
  3
APPDATA
350
6A87
  3
DWGPROPS
350
11B18
  0
DICTIONARY
  5
7A6F
330
2
100
AcDbDictionary
280
     1
281
     1
  3
ACAD_LAYERSTATES
360
7A70
  3
ACLYDICTIONARY
360
A16A
  0
DICTIONARY
  5
969E
330
1F
100
AcDbDictionary
280
     1
281
     1
  3
ACAD_SORTENTS
360
969F
  0
DICTIONARY
  5
D
102
{ACAD_REACTORS
330
C
102
}
330
C
100
AcDbDictionary
281
     1
  3
*A1
350
D317
  3
*A2
350
D31A
  3
*A3
350
D31D
  3
*A4
350
D320
  3
*A5
350
D323
  3
*A6
350
11AF5
  0
RASTERVARIABLES
  5
6A88
102
{ACAD_REACTORS
330
C
102
}
330
C
100
AcDbRasterVariables
 90
        0
 70
     1
 71
     1
 72
     1
  0
DICTIONARY
  5
1A
102
{ACAD_REACTORS
330
C
102
}
330
C
100
AcDbDictionary
281
     1
  3
Layout1
350
1E
  3
Model
350
22
  0
DICTIONARY
  5
17
102
{ACAD_REACTORS
330
C
102
}
330
C
100
AcDbDictionary
281
     1
  3
Standard
350
18
  0
DICTIONARY
  5
19
102
{ACAD_REACTORS
330
C
102
}
330
C
100
AcDbDictionary
281
     1
  0
ACDBDICTIONARYWDFLT
  5
E
102
{ACAD_REACTORS
330
C
102
}
330
C
100
AcDbDictionary
281
     1
  3
Normal
350
F
100
AcDbDictionaryWithDefault
340
F
  0
DICTIONARY
  5
6A4E
102
{ACAD_REACTORS
330
C
102
}
330
C
100
AcDbDictionary
281
     1
  3
A0
350
6A4F
  3
A1
350
6A50
  3
A2
350
6A51
  3
A3
350
6A52
  3
A4
350
6A53
  3
A5
350
6A54
  3
A6
350
6A55
  3
A7
350
6A56
  3
A8
350
6A57
  3
A9
350
6A58
  3
B0
350
6A59
  3
B1
350
6A5A
  3
B2
350
6A5B
  3
B3
350
6A5C
  3
B4
350
6A5D
  3
B5
350
6A5E
  3
B6
350
6A5F
  3
B7
350
6A60
  3
B8
350
6A61
  3
B9
350
6A62
  3
C0
350
6A63
  3
C1
350
6A64
  3
C2
350
6A65
  3
C3
350
6A66
  3
C4
350
6A67
  3
C5
350
6A68
  3
C6
350
6A69
  3
C7
350
6A6A
  3
C8
350
6A6B
  3
C9
350
6A6C
  3
D0
350
6A6D
  3
D1
350
6A6E
  3
D2
350
6A6F
  0
XRECORD
  5
813A
102
{ACAD_REACTORS
330
C
102
}
330
C
100
AcDbXrecord
280
     1
340
0
 72
     0
 71
     0
 70
     0
 69
     0
 68
     1
 67
     3
 66
     0
 65
     0
 64
     0
 63
     3
 62
     1
 61
     0
 60
     0
 40
0.0
  0
DICTIONARY
  5
79E
102
{ACAD_REACTORS
330
C
102
}
330
C
100
AcDbDictionary
281
     1
  3
DIMASSOC
350
79F
  3
SORTENTS
350
264F
  0
DICTIONARY
  5
F0B5
102
{ACAD_REACTORS
330
C
102
}
330
C
100
AcDbDictionary
281
     1
  3
AecDbDispRep2dSection
350
F0B6
  3
AecDbDispRepAnchor
350
F0F0
  3
AecDbDispRepAnchorEntToNode
350
F0F1
  3
AecDbDispRepClipVolModel
350
F0BD
  3
AecDbDispRepClipVolPlan
350
F0BF
  3
AecDbDispRepClipVolResSubDiv
350
F0C2
  3
AecDbDispRepClipVolResult
350
F0C1
  3
AecDbDispRepDisplayTheme
350
F0C4
  3
AecDbDispRepEditInPlaceProfile
350
F0F5
  3
AecDbDispRepEntRef
350
F0C6
  3
AecDbDispRepLayoutCurve
350
F0C8
  3
AecDbDispRepLayoutGrid2d
350
F0CA
  3
AecDbDispRepLayoutGrid3d
350
F0CC
  3
AecDbDispRepMaskBlockRef
350
F0CE
  3
AecDbDispRepMaskBlockRefRcp
350
F0D0
  3
AecDbDispRepMassElemModel
350
F0D2
  3
AecDbDispRepMassElemPlan100
350
F0D8
  3
AecDbDispRepMassElemPlan50
350
F0D6
  3
AecDbDispRepMassElemRcp
350
F0DA
  3
AecDbDispRepMassElemSchem
350
F0D4
  3
AecDbDispRepMassGroupModel
350
F0DC
  3
AecDbDispRepMassGroupPlan
350
F0DE
  3
AecDbDispRepMassGroupPlan100
350
F0E2
  3
AecDbDispRepMassGroupPlan50
350
F0E0
  3
AecDbDispRepMassGroupRcp
350
F0E4
  3
AecDbDispRepMaterial
350
F0F3
  3
AecDbDispRepMvBlockRef
350
F0E6
  3
AecDbDispRepMvBlockRefModel
350
F0E7
  3
AecDbDispRepMvBlockRefPlan100
350
F0E8
  3
AecDbDispRepMvBlockRefPlan50
350
F0E9
  3
AecDbDispRepPolygonModel
350
F0EA
  3
AecDbDispRepPolygonTrueColour
350
F0EC
  3
AecDbDispRepSlice
350
F0EE
  0
DICTIONARY
  5
F0B7
102
{ACAD_REACTORS
330
C
102
}
330
C
100
AcDbDictionary
281
     1
  3
*A1
350
F0B8
  3
*A10
350
F0CF
  3
*A11
350
F0D1
  3
*A12
350
F0D3
  3
*A13
350
F0D5
  3
*A14
350
F0D7
  3
*A15
350
F0D9
  3
*A16
350
F0DB
  3
*A17
350
F0DD
  3
*A18
350
F0DF
  3
*A19
350
F0E1
  3
*A2
350
F0BE
  3
*A20
350
F0E3
  3
*A21
350
F0E5
  3
*A22
350
F0EB
  3
*A23
350
F0ED
  3
*A24
350
F0EF
  3
*A25
350
F0F2
  3
*A26
350
F0F4
  3
*A27
350
F0F6
  3
*A3
350
F0C0
  3
*A4
350
F0C3
  3
*A5
350
F0C5
  3
*A6
350
F0C7
  3
*A7
350
F0C9
  3
*A8
350
F0CB
  3
*A9
350
F0CD
  0
DICTIONARY
  5
F0B3
102
{ACAD_REACTORS
330
C
102
}
330
C
100
AcDbDictionary
281
     1
  3
AEC_VARS_DWG_SETUP
350
F0B4
  0
DICTIONARY
  5
6A87
102
{ACAD_REACTORS
330
C
102
}
330
C
100
AcDbDictionary
281
     1
  0
XRECORD
  5
11B18
102
{ACAD_REACTORS
330
C
102
}
330
C
100
AcDbXrecord
280
     1
  1
DWGPROPS COOKIE
  2

  3

  4

  6

  7

  8
Sales
  9

300
=
301
=
302
=
303
=
304
=
305
=
306
=
307
=
308
=
309
=
 40
0.0
 41
2455859.030048461
 42
2459031.221172141
  1

 90
        0
  0
DICTIONARY
  5
7A70
102
{ACAD_REACTORS
330
7A6F
102
}
330
7A6F
100
AcDbDictionary
281
     1
  0
DICTIONARY
  5
A16A
102
{ACAD_REACTORS
330
7A6F
102
}
330
7A6F
100
AcDbDictionary
281
     1
1001
ACAD
1000
<All
  0
SORTENTSTABLE
  5
969F
102
{ACAD_REACTORS
330
969E
102
}
330
969E
100
AcDbSortentsTable
330
1F
331
0
  5
11AF4
331
0
  5
C201
331
0
  5
11AF3
331
0
  5
11AC2
331
0
  5
11AC1
331
0
  5
C202
331
0
  5
C209
331
0
  5
11AC0
331
0
  5
C20D
331
0
  5
C20E
331
0
  5
C20F
331
0
  5
C1C2
331
0
  5
C1C6
331
0
  5
C1C7
331
0
  5
11A64
331
0
  5
C210
331
0
  5
C1CC
331
0
  5
C211
331
0
  5
C212
331
0
  5
C1CD
331
0
  5
C1CE
331
0
  5
11A62
331
0
  5
11A60
331
0
  5
C213
331
0
  5
C215
331
0
  5
C21A
331
0
  5
C21B
331
0
  5
C21C
331
0
  5
C21D
331
0
  5
C21E
331
0
  5
C220
331
0
  5
C225
331
0
  5
C226
331
0
  5
C227
331
0
  5
C228
331
0
  5
C229
331
0
  5
C22B
331
0
  5
C230
331
0
  5
11A5F
331
0
  5
11A5E
331
0
  5
C231
331
0
  5
C232
331
0
  5
C233
331
0
  5
C234
331
0
  5
C236
331
0
  5
C23B
331
0
  5
C23C
331
0
  5
C23D
331
0
  5
C23E
331
0
  5
C23F
331
0
  5
C240
331
0
  5
C241
331
0
  5
C242
331
0
  5
C243
331
0
  5
C244
331
0
  5
C245
331
0
  5
C246
331
0
  5
C247
331
0
  5
11A5D
331
0
  5
11A5C
331
0
  5
C24C
331
0
  5
C24D
331
0
  5
C24F
331
0
  5
C250
331
0
  5
C251
331
0
  5
C1CF
331
0
  5
C252
331
0
  5
C253
331
0
  5
C254
331
0
  5
C279
331
0
  5
C27A
331
0
  5
C1D0
331
0
  5
C27D
331
0
  5
C27E
331
0
  5
C27F
331
0
  5
C280
331
0
  5
C281
331
0
  5
C1D1
331
0
  5
C282
331
0
  5
C283
331
0
  5
C284
331
0
  5
C2A4
331
0
  5
C2A5
331
0
  5
C1D2
331
0
  5
11A5B
331
0
  5
11A5A
331
0
  5
11A59
331
0
  5
11A58
331
0
  5
C2A6
331
0
  5
C2C1
331
0
  5
C1D3
331
0
  5
C1D4
331
0
  5
C1D5
331
0
  5
C1D6
331
0
  5
C2C2
331
0
  5
C2C3
331
0
  5
C1D7
331
0
  5
C2C4
331
0
  5
C1D8
331
0
  5
C1D9
331
0
  5
C2C5
331
0
  5
C1DA
331
0
  5
11A57
331
0
  5
C2C6
331
0
  5
C2C7
331
0
  5
C2C8
331
0
  5
C2C9
331
0
  5
C2CA
331
0
  5
C2CB
331
0
  5
C2CF
331
0
  5
C2D0
331
0
  5
C2D1
331
0
  5
C2D2
331
0
  5
C2D3
331
0
  5
C2D4
331
0
  5
C2D5
331
0
  5
C2D6
331
0
  5
C2D7
331
0
  5
C1DB
331
0
  5
C1DC
331
0
  5
11A56
331
0
  5
11A55
331
0
  5
C2D8
331
0
  5
11A54
331
0
  5
11A19
331
0
  5
C1DD
331
0
  5
C2D9
331
0
  5
C1DE
331
0
  5
C1DF
331
0
  5
11A18
331
0
  5
11A17
331
0
  5
11A16
331
0
  5
C2DA
331
0
  5
C1E0
331
0
  5
11A15
331
0
  5
C2DB
331
0
  5
C1E1
331
0
  5
C2DC
331
0
  5
C2DD
331
0
  5
C1E2
331
0
  5
C2DE
331
0
  5
C1E3
331
0
  5
C2DF
331
0
  5
C1E4
331
0
  5
C1E5
331
0
  5
C2EB
331
0
  5
11A14
331
0
  5
11A13
331
0
  5
C2FB
331
0
  5
C1E6
331
0
  5
C1E7
331
0
  5
C1E8
331
0
  5
C1E9
331
0
  5
C1EA
331
0
  5
C2FC
331
0
  5
C312
331
0
  5
C313
331
0
  5
C314
331
0
  5
C315
331
0
  5
C316
331
0
  5
C378
331
0
  5
C37B
331
0
  5
C37C
331
0
  5
C394
331
0
  5
C395
331
0
  5
C9CF
331
0
  5
C9D0
331
0
  5
C9D1
331
0
  5
C9D2
331
0
  5
C9D3
331
0
  5
C9D4
331
0
  5
C9D5
331
0
  5
C9D6
331
0
  5
C9D7
331
0
  5
C9D8
331
0
  5
C9D9
331
0
  5
C9DA
331
0
  5
C9DB
331
0
  5
C9DC
331
0
  5
C9DD
331
0
  5
C9DE
331
0
  5
C9DF
331
0
  5
C9E0
331
0
  5
C9E1
331
0
  5
C9E2
331
0
  5
C9E3
331
0
  5
C9E4
331
0
  5
C9E5
331
0
  5
C9E6
331
0
  5
C9E7
331
0
  5
C9E8
331
0
  5
C9E9
331
0
  5
C9EA
331
0
  5
C9EB
331
0
  5
C9EC
331
0
  5
C9ED
331
0
  5
C9EE
331
0
  5
C9EF
331
0
  5
C9F0
331
0
  5
C9F1
331
0
  5
C9F2
331
0
  5
C9F3
331
0
  5
C9F4
331
0
  5
C9F5
331
0
  5
C9F6
331
0
  5
C9F7
331
0
  5
C9F8
331
0
  5
C9F9
331
0
  5
C9FA
331
0
  5
C9FB
331
0
  5
C9FC
331
0
  5
C9FD
331
0
  5
C9FE
331
0
  5
C9FF
331
0
  5
CA00
331
0
  5
CA01
331
0
  5
CA02
331
0
  5
CA03
331
0
  5
CA04
331
0
  5
CA05
331
0
  5
CA06
331
0
  5
CA07
331
0
  5
CA08
331
0
  5
CA09
331
0
  5
CA0A
331
0
  5
CA0B
331
0
  5
CA0C
331
0
  5
CA0D
331
0
  5
CA0E
331
0
  5
CA0F
331
0
  5
CA10
331
0
  5
CA11
331
0
  5
CA12
331
0
  5
CA13
331
0
  5
CA14
331
0
  5
CA15
331
0
  5
CA16
331
0
  5
CA17
331
0
  5
CA18
331
0
  5
CA19
331
0
  5
CA1A
331
0
  5
CA1B
331
0
  5
CA1C
331
0
  5
CA1D
331
0
  5
CA1E
331
0
  5
CA1F
331
0
  5
CA20
331
0
  5
CA21
331
0
  5
CA22
331
0
  5
CA23
331
0
  5
CA24
331
0
  5
CA25
331
0
  5
CA26
331
0
  5
CA27
331
0
  5
CA28
331
0
  5
CA29
331
0
  5
CA2A
331
0
  5
CA2B
331
0
  5
CA2C
331
0
  5
CA2D
331
0
  5
CA2E
331
0
  5
CA2F
331
0
  5
CA30
331
0
  5
CA31
331
0
  5
CA32
331
0
  5
CA33
331
0
  5
CA34
331
0
  5
CA35
331
0
  5
CA36
331
0
  5
CA37
331
0
  5
CA38
331
0
  5
CA39
331
0
  5
CA3A
331
0
  5
CA3B
331
0
  5
CA3C
331
0
  5
CA3D
331
0
  5
CA3E
331
0
  5
CA3F
331
0
  5
CA40
331
0
  5
CA41
331
0
  5
CA42
331
0
  5
CA43
331
0
  5
CA44
331
0
  5
CA45
331
0
  5
CA46
331
0
  5
CA47
331
0
  5
CA48
331
0
  5
CA49
331
0
  5
CA4A
331
0
  5
CA4B
331
0
  5
CA4C
331
0
  5
CA4D
331
0
  5
CA4E
331
0
  5
CA4F
331
0
  5
CA50
331
0
  5
CA51
331
0
  5
CA52
331
0
  5
CA53
331
0
  5
CA54
331
0
  5
CA55
331
0
  5
CA56
331
0
  5
CA57
331
0
  5
CA58
331
0
  5
CA59
331
0
  5
CA5A
331
0
  5
CA5B
331
0
  5
CA5C
331
0
  5
CA5D
331
0
  5
CA5E
331
0
  5
CA5F
331
0
  5
CA60
331
0
  5
CA61
331
0
  5
CA62
331
0
  5
CA63
331
0
  5
CA64
331
0
  5
CA65
331
0
  5
CA66
331
0
  5
CA67
331
0
  5
CA68
331
0
  5
CA69
331
0
  5
CA6A
331
0
  5
CA6B
331
0
  5
CA6C
331
0
  5
C1EB
331
0
  5
CA6D
331
0
  5
CA6E
331
0
  5
CA6F
331
0
  5
CA71
331
0
  5
CA73
331
0
  5
CA74
331
0
  5
CA75
331
0
  5
CA76
331
0
  5
11A12
331
0
  5
11A11
331
0
  5
C1EC
331
0
  5
CA77
331
0
  5
C1ED
331
0
  5
CA78
331
0
  5
CA79
331
0
  5
C1EE
331
0
  5
C1EF
331
0
  5
C1F1
331
0
  5
C1F2
331
0
  5
C1F3
331
0
  5
C1F4
331
0
  5
C1F5
331
0
  5
C1F6
331
0
  5
11A10
331
0
  5
11A0F
331
0
  5
11A0E
331
0
  5
11A0D
331
0
  5
C1F7
331
0
  5
C1F8
331
10A36
  5
CA7A
331
10A38
  5
CA7B
331
10A39
  5
CA7C
331
10A3E
  5
CA7D
331
10A43
  5
CB33
331
10A44
  5
CB36
331
10A45
  5
D297
331
10A46
  5
D2DD
331
10A47
  5
D2DE
331
10A48
  5
D2E4
331
0
  5
D316
331
10D4B
  5
D318
331
10D6A
  5
D319
331
10D6B
  5
D31B
331
10D8C
  5
D31C
331
10D8D
  5
D31E
331
10D8E
  5
D31F
331
10D8F
  5
D321
331
10D90
  5
D322
331
10D91
  5
EDDB
331
10D92
  5
EDDC
331
10D93
  5
EDDD
331
10D94
  5
EDDE
331
10D95
  5
EDED
331
10D96
  5
EDEF
331
10DB3
  5
10A36
331
10DB4
  5
10A38
331
10DB5
  5
10A39
331
10DB6
  5
10A3E
331
10DB7
  5
10A43
331
10DB8
  5
10A44
331
10DB9
  5
10A45
331
10DBA
  5
10A46
331
10DBB
  5
10A47
331
10DBC
  5
10A48
331
10DBD
  5
10D48
331
10DBE
  5
10D4B
331
10DBF
  5
10D6A
331
10DC0
  5
10D6B
331
10DC1
  5
10D8C
331
10DC2
  5
10D8D
331
10DC3
  5
10D8E
331
10DC4
  5
10D8F
331
10DC5
  5
10D90
331
10DC6
  5
10D91
331
10DC7
  5
10D92
331
10DC8
  5
10D93
331
10DC9
  5
10D94
331
10DCA
  5
10D95
331
10DCB
  5
10D96
331
10DCE
  5
10DB3
331
10DCF
  5
10DB4
331
10DD0
  5
10DB5
331
10DD1
  5
10DB6
331
10DD3
  5
10DB7
331
10DD4
  5
10DB8
331
0
  5
10DB9
331
0
  5
10DBA
331
0
  5
10DBB
331
0
  5
10DBC
331
10E0B
  5
10DBD
331
0
  5
10DBE
331
0
  5
10DBF
331
0
  5
10DC0
331
0
  5
10DC1
331
0
  5
10DC2
331
0
  5
10DC3
331
0
  5
10DC4
331
0
  5
10DC5
331
0
  5
10DC6
331
0
  5
10DC7
331
0
  5
10DC8
331
0
  5
10DC9
331
0
  5
10DCA
331
0
  5
10DCB
331
0
  5
10DCE
331
0
  5
10DCF
331
0
  5
10DD0
331
0
  5
10DD1
331
0
  5
10DD3
331
0
  5
10DD4
331
0
  5
10DD7
331
0
  5
10DE4
331
0
  5
10DF1
331
0
  5
C1F9
331
0
  5
10DFE
331
0
  5
10E0B
331
0
  5
10E0C
331
0
  5
10E1C
331
0
  5
10E29
331
0
  5
10E38
331
0
  5
10E46
331
0
  5
10E55
331
0
  5
10E64
331
0
  5
10E71
331
0
  5
10E80
331
0
  5
10E8D
331
0
  5
10E9A
331
0
  5
10ED9
331
0
  5
10EDA
331
0
  5
10EDB
331
0
  5
10EDC
331
0
  5
10EDD
331
0
  5
10EDE
331
0
  5
10EDF
331
0
  5
10EEE
331
0
  5
10EFD
331
0
  5
10F0C
331
0
  5
10F0D
331
0
  5
10F0E
331
0
  5
10F0F
331
0
  5
11A05
331
0
  5
11A06
331
0
  5
11A07
331
0
  5
C1FA
331
0
  5
C1FB
331
0
  5
C1FC
331
0
  5
C1FD
331
0
  5
C1FE
331
0
  5
C1FF
331
0
  5
C200
331
11AC0
  5
11A08
331
11AC1
  5
11A09
331
0
  5
11A0A
331
0
  5
11A0B
331
0
  5
11A0C
  0
GROUP
  5
D317
102
{ACAD_REACTORS
330
D
102
}
330
D
100
AcDbGroup
300

 70
     1
 71
     1
  0
GROUP
  5
D31A
102
{ACAD_REACTORS
330
D
102
}
330
D
100
AcDbGroup
300

 70
     1
 71
     1
  0
GROUP
  5
D31D
102
{ACAD_REACTORS
330
D
102
}
330
D
100
AcDbGroup
300

 70
     1
 71
     1
  0
GROUP
  5
D320
102
{ACAD_REACTORS
330
D
102
}
330
D
100
AcDbGroup
300

 70
     1
 71
     1
  0
GROUP
  5
D323
102
{ACAD_REACTORS
330
D
102
}
330
D
100
AcDbGroup
300

 70
     1
 71
     1
  0
GROUP
  5
11AF5
102
{ACAD_REACTORS
330
D
102
}
330
D
100
AcDbGroup
300

 70
     1
 71
     1
  0
LAYOUT
  5
1E
102
{ACAD_REACTORS
330
1A
102
}
330
1A
100
AcDbPlotSettings
  1

  2
none_device
  4
ISO_A3_(420.00_x_297.00_MM)
  6

 40
7.5
 41
20.0
 42
7.5
 43
20.0
 44
420.0
 45
297.0
 46
0.0
 47
0.0
 48
0.0
 49
0.0
140
0.0
141
0.0
142
1.0
143
1.0
 70
   688
 72
     1
 73
     0
 74
     5
  7

 75
    16
147
1.0
148
0.0
149
0.0
100
AcDbLayout
  1
Layout1
 70
     1
 71
     1
 10
0.0
 20
0.0
 11
412.5
 21
277.0
 12
0.0
 22
0.0
 32
0.0
 14
1.000000000000000E+20
 24
1.000000000000000E+20
 34
1.000000000000000E+20
 15
-1.000000000000000E+20
 25
-1.000000000000000E+20
 35
-1.000000000000000E+20
146
0.0
 13
0.0
 23
0.0
 33
0.0
 16
1.0
 26
0.0
 36
0.0
 17
0.0
 27
1.0
 37
0.0
 76
     0
330
1B
331
9F0D
  0
LAYOUT
  5
22
102
{ACAD_REACTORS
330
1A
102
}
330
1A
100
AcDbPlotSettings
  1

  2
none_device
  4
A3
  6

 40
3.174999952316284
 41
3.174999952316284
 42
3.17498779296875
 43
3.17498779296875
 44
297.0318298339844
 45
420.1583251953125
 46
-3.16
 47
-3.1
 48
-90.0
 49
-90.0
140
329.9999999999998
141
207.0
142
1.0
143
1.0
 70
 11940
 72
     1
 73
     1
 74
     4
  7
monochrome.ctb
 75
     0
147
1.0
148
90.0
149
90.0
100
AcDbLayout
  1
Model
 70
     1
 71
     0
 10
0.0
 20
0.0
 11
4200.0
 21
2970.0
 12
0.0
 22
0.0
 32
0.0
 14
412.3021942334622
 24
941.252715401055
 34
0.0
 15
2671.609947455372
 25
2262.467979872034
 35
0.0
146
0.0
 13
0.0
 23
0.0
 33
0.0
 16
1.0
 26
0.0
 36
0.0
 17
0.0
 27
1.0
 37
0.0
 76
     0
330
1F
331
7A57
  0
MLINESTYLE
  5
18
102
{ACAD_REACTORS
330
17
102
}
330
17
100
AcDbMlineStyle
  2
STANDARD
 70
     0
  3

 62
   256
 51
90.0
 52
90.0
 71
     2
 49
0.5
 62
   256
  6
BYLAYER
 49
-0.5
 62
   256
  6
BYLAYER
  0
ACDBPLACEHOLDER
  5
F
102
{ACAD_REACTORS
330
E
102
}
330
E
  0
SCALE
  5
6A4F
102
{ACAD_REACTORS
330
6A4E
102
}
330
6A4E
100
AcDbScale
 70
     0
300
1:1
140
1.0
141
1.0
290
     1
  0
SCALE
  5
6A50
102
{ACAD_REACTORS
330
6A4E
102
}
330
6A4E
100
AcDbScale
 70
     0
300
1:2
140
1.0
141
2.0
290
     0
  0
SCALE
  5
6A51
102
{ACAD_REACTORS
330
6A4E
102
}
330
6A4E
100
AcDbScale
 70
     0
300
1:4
140
1.0
141
4.0
290
     0
  0
SCALE
  5
6A52
102
{ACAD_REACTORS
330
6A4E
102
}
330
6A4E
100
AcDbScale
 70
     0
300
1:5
140
1.0
141
5.0
290
     0
  0
SCALE
  5
6A53
102
{ACAD_REACTORS
330
6A4E
102
}
330
6A4E
100
AcDbScale
 70
     0
300
1:8
140
1.0
141
8.0
290
     0
  0
SCALE
  5
6A54
102
{ACAD_REACTORS
330
6A4E
102
}
330
6A4E
100
AcDbScale
 70
     0
300
1:10
140
1.0
141
10.0
290
     0
  0
SCALE
  5
6A55
102
{ACAD_REACTORS
330
6A4E
102
}
330
6A4E
100
AcDbScale
 70
     0
300
1:16
140
1.0
141
16.0
290
     0
  0
SCALE
  5
6A56
102
{ACAD_REACTORS
330
6A4E
102
}
330
6A4E
100
AcDbScale
 70
     0
300
1:20
140
1.0
141
20.0
290
     0
  0
SCALE
  5
6A57
102
{ACAD_REACTORS
330
6A4E
102
}
330
6A4E
100
AcDbScale
 70
     0
300
1:30
140
1.0
141
30.0
290
     0
  0
SCALE
  5
6A58
102
{ACAD_REACTORS
330
6A4E
102
}
330
6A4E
100
AcDbScale
 70
     0
300
1:40
140
1.0
141
40.0
290
     0
  0
SCALE
  5
6A59
102
{ACAD_REACTORS
330
6A4E
102
}
330
6A4E
100
AcDbScale
 70
     0
300
1:50
140
1.0
141
50.0
290
     0
  0
SCALE
  5
6A5A
102
{ACAD_REACTORS
330
6A4E
102
}
330
6A4E
100
AcDbScale
 70
     0
300
1:100
140
1.0
141
100.0
290
     0
  0
SCALE
  5
6A5B
102
{ACAD_REACTORS
330
6A4E
102
}
330
6A4E
100
AcDbScale
 70
     0
300
2:1
140
2.0
141
1.0
290
     0
  0
SCALE
  5
6A5C
102
{ACAD_REACTORS
330
6A4E
102
}
330
6A4E
100
AcDbScale
 70
     0
300
4:1
140
4.0
141
1.0
290
     0
  0
SCALE
  5
6A5D
102
{ACAD_REACTORS
330
6A4E
102
}
330
6A4E
100
AcDbScale
 70
     0
300
8:1
140
8.0
141
1.0
290
     0
  0
SCALE
  5
6A5E
102
{ACAD_REACTORS
330
6A4E
102
}
330
6A4E
100
AcDbScale
 70
     0
300
10:1
140
10.0
141
1.0
290
     0
  0
SCALE
  5
6A5F
102
{ACAD_REACTORS
330
6A4E
102
}
330
6A4E
100
AcDbScale
 70
     0
300
100:1
140
100.0
141
1.0
290
     0
  0
SCALE
  5
6A60
102
{ACAD_REACTORS
330
6A4E
102
}
330
6A4E
100
AcDbScale
 70
     0
300
1/128" = 1'-0"
140
0.0078125
141
12.0
290
     0
  0
SCALE
  5
6A61
102
{ACAD_REACTORS
330
6A4E
102
}
330
6A4E
100
AcDbScale
 70
     0
300
1/64" = 1'-0"
140
0.015625
141
12.0
290
     0
  0
SCALE
  5
6A62
102
{ACAD_REACTORS
330
6A4E
102
}
330
6A4E
100
AcDbScale
 70
     0
300
1/32" = 1'-0"
140
0.03125
141
12.0
290
     0
  0
SCALE
  5
6A63
102
{ACAD_REACTORS
330
6A4E
102
}
330
6A4E
100
AcDbScale
 70
     0
300
1/16" = 1'-0"
140
0.0625
141
12.0
290
     0
  0
SCALE
  5
6A64
102
{ACAD_REACTORS
330
6A4E
102
}
330
6A4E
100
AcDbScale
 70
     0
300
3/32" = 1'-0"
140
0.09375
141
12.0
290
     0
  0
SCALE
  5
6A65
102
{ACAD_REACTORS
330
6A4E
102
}
330
6A4E
100
AcDbScale
 70
     0
300
1/8" = 1'-0"
140
0.125
141
12.0
290
     0
  0
SCALE
  5
6A66
102
{ACAD_REACTORS
330
6A4E
102
}
330
6A4E
100
AcDbScale
 70
     0
300
3/16" = 1'-0"
140
0.1875
141
12.0
290
     0
  0
SCALE
  5
6A67
102
{ACAD_REACTORS
330
6A4E
102
}
330
6A4E
100
AcDbScale
 70
     0
300
1/4" = 1'-0"
140
0.25
141
12.0
290
     0
  0
SCALE
  5
6A68
102
{ACAD_REACTORS
330
6A4E
102
}
330
6A4E
100
AcDbScale
 70
     0
300
3/8" = 1'-0"
140
0.375
141
12.0
290
     0
  0
SCALE
  5
6A69
102
{ACAD_REACTORS
330
6A4E
102
}
330
6A4E
100
AcDbScale
 70
     0
300
1/2" = 1'-0"
140
0.5
141
12.0
290
     0
  0
SCALE
  5
6A6A
102
{ACAD_REACTORS
330
6A4E
102
}
330
6A4E
100
AcDbScale
 70
     0
300
3/4" = 1'-0"
140
0.75
141
12.0
290
     0
  0
SCALE
  5
6A6B
102
{ACAD_REACTORS
330
6A4E
102
}
330
6A4E
100
AcDbScale
 70
     0
300
1" = 1'-0"
140
1.0
141
12.0
290
     0
  0
SCALE
  5
6A6C
102
{ACAD_REACTORS
330
6A4E
102
}
330
6A4E
100
AcDbScale
 70
     0
300
1-1/2" = 1'-0"
140
1.5
141
12.0
290
     0
  0
SCALE
  5
6A6D
102
{ACAD_REACTORS
330
6A4E
102
}
330
6A4E
100
AcDbScale
 70
     0
300
3" = 1'-0"
140
3.0
141
12.0
290
     0
  0
SCALE
  5
6A6E
102
{ACAD_REACTORS
330
6A4E
102
}
330
6A4E
100
AcDbScale
 70
     0
300
6" = 1'-0"
140
6.0
141
12.0
290
     0
  0
SCALE
  5
6A6F
102
{ACAD_REACTORS
330
6A4E
102
}
330
6A4E
100
AcDbScale
 70
     0
300
1'-0" = 1'-0"
140
12.0
141
12.0
290
     0
  0
DICTIONARYVAR
  5
79F
102
{ACAD_REACTORS
330
79E
102
}
330
79E
100
DictionaryVariables
280
     0
  1
1
  0
DICTIONARYVAR
  5
264F
102
{ACAD_REACTORS
330
79E
102
}
330
79E
100
DictionaryVariables
280
     0
  1
96
  0
ACAD_PROXY_OBJECT
  5
F0B4
102
{ACAD_REACTORS
330
F0B3
102
}
330
F0B3
100
AcDbProxyObject
 90
      499
 91
      511
 95
   262177
 70
     0
 93
     1856
310
5434D15054000541505428FC812095550000000000000B08000000000000008200000000000001807E8F2048F205000200001204000000000000581F8000000000000B0807EC3FA6DEBC0E99F8000000000001C07FE8FCC02A4224E2520CA600E2005C008C00E8005C008321803A80170023003A0017002089800620064006
310
001202DA008C2080248020801000140019001A801B00100021803780360037803900148010001000100010002080220019001A801B0021082008600820088008200A4008600900087A08032803180260030803C803280390029803A003200170032003B80338049C09
330
0
 94
        0
  0
ENDSEC
  0
EOF
