  0
SECTION
  2
HEADER
  9
$ACADVER
  1
AC1015
  9
$ACADMAINTVER
 70
     6
  9
$DWGCODEPAGE
  3
ANSI_932
  9
$INSBASE
 10
0.0
 20
0.0
 30
0.0
  9
$EXTMIN
 10
1440.0
 20
1640.0
 30
0.0
  9
$EXTMAX
 10
3930.0
 20
3854.999999999997
 30
0.0
  9
$LIMMIN
 10
0.0
 20
0.0
  9
$LIMMAX
 10
6300.0
 20
4455.0
  9
$ORTHOMODE
 70
     0
  9
$REGENMODE
 70
     1
  9
$FILLMODE
 70
     1
  9
$QTEXTMODE
 70
     0
  9
$MIRRTEXT
 70
     1
  9
$LTSCALE
 40
4.5
  9
$ATTMODE
 70
     1
  9
$TEXTSIZE
 40
45.0
  9
$TRACEWID
 40
1.0
  9
$TEXTSTYLE
  7
Standard
  9
$CLAYER
  8
01注記寸法
  9
$CELTYPE
  6
ByLayer
  9
$CECOLOR
 62
   256
  9
$CELTSCALE
 40
1.0
  9
$DISPSILH
 70
     0
  9
$DIMSCALE
 40
15.0
  9
$DIMASZ
 40
3.0
  9
$DIMEXO
 40
1.5
  9
$DIMDLI
 40
10.0
  9
$DIMRND
 40
0.0
  9
$DIMDLE
 40
0.0
  9
$DIMEXE
 40
1.0
  9
$DIMTP
 40
0.0
  9
$DIMTM
 40
0.0
  9
$DIMTXT
 40
3.0
  9
$DIMCEN
 40
1.5
  9
$DIMTSZ
 40
0.0
  9
$DIMTOL
 70
     0
  9
$DIMLIM
 70
     0
  9
$DIMTIH
 70
     0
  9
$DIMTOH
 70
     0
  9
$DIMSE1
 70
     0
  9
$DIMSE2
 70
     0
  9
$DIMTAD
 70
     1
  9
$DIMZIN
 70
     8
  9
$DIMBLK
  1
Open
  9
$DIMASO
 70
     1
  9
$DIMSHO
 70
     1
  9
$DIMPOST
  1

  9
$DIMAPOST
  1

  9
$DIMALT
 70
     0
  9
$DIMALTD
 70
     3
  9
$DIMALTF
 40
0.03937007874016
  9
$DIMLFAC
 40
1.0
  9
$DIMTOFL
 70
     1
  9
$DIMTVP
 40
0.0
  9
$DIMTIX
 70
     0
  9
$DIMSOXD
 70
     0
  9
$DIMSAH
 70
     0
  9
$DIMBLK1
  1

  9
$DIMBLK2
  1

  9
$DIMSTYLE
  2
NEMY-15
  9
$DIMCLRD
 70
     0
  9
$DIMCLRE
 70
     0
  9
$DIMCLRT
 70
     0
  9
$DIMTFAC
 40
1.0
  9
$DIMGAP
 40
1.0
  9
$DIMJUST
 70
     0
  9
$DIMSD1
 70
     0
  9
$DIMSD2
 70
     0
  9
$DIMTOLJ
 70
     0
  9
$DIMTZIN
 70
     8
  9
$DIMALTZ
 70
     0
  9
$DIMALTTZ
 70
     0
  9
$DIMUPT
 70
     0
  9
$DIMDEC
 70
     1
  9
$DIMTDEC
 70
     1
  9
$DIMALTU
 70
     2
  9
$DIMALTTD
 70
     3
  9
$DIMTXSTY
  7
Standard
  9
$DIMAUNIT
 70
     0
  9
$DIMADEC
 70
     0
  9
$DIMALTRND
 40
0.0
  9
$DIMAZIN
 70
     0
  9
$DIMDSEP
 70
    46
  9
$DIMATFIT
 70
     3
  9
$DIMFRAC
 70
     0
  9
$DIMLDRBLK
  1
Open
  9
$DIMLUNIT
 70
     2
  9
$DIMLWD
 70
    -2
  9
$DIMLWE
 70
    -2
  9
$DIMTMOVE
 70
     0
  9
$LUNITS
 70
     2
  9
$LUPREC
 70
     4
  9
$SKETCHINC
 40
1.0
  9
$FILLETRAD
 40
8.0
  9
$AUNITS
 70
     0
  9
$AUPREC
 70
     0
  9
$MENU
  1
.
  9
$ELEVATION
 40
0.0
  9
$PELEVATION
 40
0.0
  9
$THICKNESS
 40
0.0
  9
$LIMCHECK
 70
     0
  9
$CHAMFERA
 40
5.0
  9
$CHAMFERB
 40
5.0
  9
$CHAMFERC
 40
20.0
  9
$CHAMFERD
 40
0.0
  9
$SKPOLY
 70
     0
  9
$TDCREATE
 40
2455859.405048461
  9
$TDUCREATE
 40
2455859.030048461
  9
$TDUPDATE
 40
2458376.402884028
  9
$TDUUPDATE
 40
2458376.027884028
  9
$TDINDWG
 40
1.3504193866
  9
$TDUSRTIMER
 40
2458376.027268379
  9
$USRTIMER
 70
     1
  9
$ANGBASE
 50
0.0
  9
$ANGDIR
 70
     0
  9
$PDMODE
 70
     0
  9
$PDSIZE
 40
0.0
  9
$PLINEWID
 40
0.0
  9
$SPLFRAME
 70
     0
  9
$SPLINETYPE
 70
     6
  9
$SPLINESEGS
 70
     8
  9
$HANDSEED
  5
12636
  9
$SURFTAB1
 70
     6
  9
$SURFTAB2
 70
     6
  9
$SURFTYPE
 70
     6
  9
$SURFU
 70
     6
  9
$SURFV
 70
     6
  9
$UCSBASE
  2

  9
$UCSNAME
  2

  9
$UCSORG
 10
0.0
 20
0.0
 30
0.0
  9
$UCSXDIR
 10
1.0
 20
0.0
 30
0.0
  9
$UCSYDIR
 10
0.0
 20
1.0
 30
0.0
  9
$UCSORTHOREF
  2

  9
$UCSORTHOVIEW
 70
     0
  9
$UCSORGTOP
 10
0.0
 20
0.0
 30
0.0
  9
$UCSORGBOTTOM
 10
0.0
 20
0.0
 30
0.0
  9
$UCSORGLEFT
 10
0.0
 20
0.0
 30
0.0
  9
$UCSORGRIGHT
 10
0.0
 20
0.0
 30
0.0
  9
$UCSORGFRONT
 10
0.0
 20
0.0
 30
0.0
  9
$UCSORGBACK
 10
0.0
 20
0.0
 30
0.0
  9
$PUCSBASE
  2

  9
$PUCSNAME
  2

  9
$PUCSORG
 10
0.0
 20
0.0
 30
0.0
  9
$PUCSXDIR
 10
1.0
 20
0.0
 30
0.0
  9
$PUCSYDIR
 10
0.0
 20
1.0
 30
0.0
  9
$PUCSORTHOREF
  2

  9
$PUCSORTHOVIEW
 70
     0
  9
$PUCSORGTOP
 10
0.0
 20
0.0
 30
0.0
  9
$PUCSORGBOTTOM
 10
0.0
 20
0.0
 30
0.0
  9
$PUCSORGLEFT
 10
0.0
 20
0.0
 30
0.0
  9
$PUCSORGRIGHT
 10
0.0
 20
0.0
 30
0.0
  9
$PUCSORGFRONT
 10
0.0
 20
0.0
 30
0.0
  9
$PUCSORGBACK
 10
0.0
 20
0.0
 30
0.0
  9
$USERI1
 70
     0
  9
$USERI2
 70
     0
  9
$USERI3
 70
     0
  9
$USERI4
 70
     0
  9
$USERI5
 70
     0
  9
$USERR1
 40
0.0
  9
$USERR2
 40
0.0
  9
$USERR3
 40
0.0
  9
$USERR4
 40
0.0
  9
$USERR5
 40
0.0
  9
$WORLDVIEW
 70
     1
  9
$SHADEDGE
 70
     3
  9
$SHADEDIF
 70
    70
  9
$TILEMODE
 70
     1
  9
$MAXACTVP
 70
    64
  9
$PINSBASE
 10
0.0
 20
0.0
 30
0.0
  9
$PLIMCHECK
 70
     0
  9
$PEXTMIN
 10
1.000000000000000E+20
 20
1.000000000000000E+20
 30
1.000000000000000E+20
  9
$PEXTMAX
 10
-1.000000000000000E+20
 20
-1.000000000000000E+20
 30
-1.000000000000000E+20
  9
$PLIMMIN
 10
-7.5
 20
-20.0
  9
$PLIMMAX
 10
412.5
 20
277.0
  9
$UNITMODE
 70
     0
  9
$VISRETAIN
 70
     1
  9
$PLINEGEN
 70
     0
  9
$PSLTSCALE
 70
     1
  9
$TREEDEPTH
 70
  3020
  9
$CMLSTYLE
  2
Standard
  9
$CMLJUST
 70
     0
  9
$CMLSCALE
 40
20.0
  9
$PROXYGRAPHICS
 70
     1
  9
$MEASUREMENT
 70
     1
  9
$CELWEIGHT
370
    -1
  9
$ENDCAPS
280
     0
  9
$JOINSTYLE
280
     0
  9
$LWDISPLAY
290
     0
  9
$INSUNITS
 70
     4
  9
$HYPERLINKBASE
  1

  9
$STYLESHEET
  1
monochrome.ctb
  9
$XEDIT
290
     1
  9
$CEPSNTYPE
380
     0
  9
$PSTYLEMODE
290
     1
  9
$FINGERPRINTGUID
  2
{FDEAD578-A652-11D2-9A35-0060089B3A3F}
  9
$VERSIONGUID
  2
{11DB8456-EC16-47A0-BA21-BBDA07550E8A}
  9
$EXTNAMES
290
     1
  9
$PSVPSCALE
 40
0.0
  9
$OLESTARTUP
290
     0
  0
ENDSEC
  0
SECTION
  2
CLASSES
  0
CLASS
  1
ACDBDICTIONARYWDFLT
  2
AcDbDictionaryWithDefault
  3
ObjectDBX Classes
 90
        0
280
     0
281
     0
  0
CLASS
  1
ACDBPLACEHOLDER
  2
AcDbPlaceHolder
  3
ObjectDBX Classes
 90
        0
280
     0
281
     0
  0
CLASS
  1
LAYOUT
  2
AcDbLayout
  3
ObjectDBX Classes
 90
        0
280
     0
281
     0
  0
CLASS
  1
DICTIONARYVAR
  2
AcDbDictionaryVar
  3
ObjectDBX Classes
 90
        0
280
     0
281
     0
  0
CLASS
  1
SCALE
  2
AcDbScale
  3
ObjectDBX Classes
 90
     1153
280
     0
281
     0
  0
CLASS
  1
MATERIAL
  2
AcDbMaterial
  3
ObjectDBX Classes
 90
     1153
280
     0
281
     0
  0
CLASS
  1
VISUALSTYLE
  2
AcDbVisualStyle
  3
ObjectDBX Classes
 90
     4095
280
     0
281
     0
  0
CLASS
  1
TABLESTYLE
  2
AcDbTableStyle
  3
ObjectDBX Classes
 90
     4095
280
     0
281
     0
  0
CLASS
  1
RASTERVARIABLES
  2
AcDbRasterVariables
  3
ISM
 90
        0
280
     0
281
     0
  0
CLASS
  1
SORTENTSTABLE
  2
AcDbSortentsTable
  3
ObjectDBX Classes
 90
        0
280
     0
281
     0
  0
CLASS
  1
SUN
  2
AcDbSun
  3
SCENEOE
 90
     1153
280
     0
281
     0
  0
CLASS
  1
MLEADERSTYLE
  2
AcDbMLeaderStyle
  3
ACDB_MLEADERSTYLE_CLASS
 90
     4095
280
     0
281
     0
  0
ENDSEC
  0
SECTION
  2
TABLES
  0
TABLE
  2
VPORT
  5
8
330
0
100
AcDbSymbolTable
 70
     2
  0
VPORT
  5
7A57
330
8
100
AcDbSymbolTableRecord
100
AcDbViewportTableRecord
  2
*Active
 70
     0
 10
0.0
 20
0.0
 11
1.0
 21
1.0
 12
2291.396606447237
 22
2447.377036020323
 13
0.0
 23
0.0
 14
10.0
 24
10.0
 15
10.0
 25
10.0
 16
0.0
 26
0.0
 36
1.0
 17
0.0
 27
0.0
 37
0.0
 40
3074.687999999999
 41
2.293577981651376
 42
50.0
 43
0.0
 44
0.0
 50
0.0
 51
0.0
 71
    16
 72
   100
 73
     1
 74
     2
 75
     0
 76
     0
 77
     0
 78
     0
281
     0
 65
     1
110
0.0
120
0.0
130
0.0
111
1.0
121
0.0
131
0.0
112
0.0
122
1.0
132
0.0
 79
     0
146
0.0
  0
ENDTAB
  0
TABLE
  2
LTYPE
  5
5
330
0
100
AcDbSymbolTable
 70
     5
  0
LTYPE
  5
14
330
5
100
AcDbSymbolTableRecord
100
AcDbLinetypeTableRecord
  2
ByBlock
 70
     0
  3

 72
    65
 73
     0
 40
0.0
  0
LTYPE
  5
15
330
5
100
AcDbSymbolTableRecord
100
AcDbLinetypeTableRecord
  2
ByLayer
 70
     0
  3

 72
    65
 73
     0
 40
0.0
  0
LTYPE
  5
16
330
5
100
AcDbSymbolTableRecord
100
AcDbLinetypeTableRecord
  2
Continuous
 70
     0
  3
Solid line
 72
    65
 73
     0
 40
0.0
  0
LTYPE
  5
BA
330
5
100
AcDbSymbolTableRecord
100
AcDbLinetypeTableRecord
  2
HIDDEN
 70
     0
  3
Hidden __ __ __ __ __ __ __ __ __ __ __ __ __ _
 72
    65
 73
     2
 40
9.524999999999999
 49
6.35
 74
     0
 49
-3.175
 74
     0
  0
LTYPE
  5
BB
330
5
100
AcDbSymbolTableRecord
100
AcDbLinetypeTableRecord
  2
PHANTOM
 70
     0
  3
Phantom ______  __  __  ______  __  __  ______
 72
    65
 73
     6
 40
63.5
 49
31.75
 74
     0
 49
-6.35
 74
     0
 49
6.35
 74
     0
 49
-6.35
 74
     0
 49
6.35
 74
     0
 49
-6.35
 74
     0
  0
LTYPE
  5
BC
330
5
100
AcDbSymbolTableRecord
100
AcDbLinetypeTableRecord
  2
CENTER
 70
     0
  3
Center ____ _ ____ _ ____ _ ____ _ ____ _ ____
 72
    65
 73
     4
 40
50.8
 49
31.75
 74
     0
 49
-6.35
 74
     0
 49
6.35
 74
     0
 49
-6.35
 74
     0
  0
LTYPE
  5
47C
330
5
100
AcDbSymbolTableRecord
100
AcDbLinetypeTableRecord
  2
DOT
 70
     0
  3
Dot . . . . . . . . . . . . . . . . . . . . . .
 72
    65
 73
     2
 40
6.35
 49
0.0
 74
     0
 49
-6.35
 74
     0
  0
ENDTAB
  0
TABLE
  2
LAYER
  5
2
102
{ACAD_XDICTIONARY
360
7A6F
102
}
330
0
100
AcDbSymbolTable
 70
    22
  0
LAYER
  5
10
330
2
100
AcDbSymbolTableRecord
100
AcDbLayerTableRecord
  2
0
 70
     0
 62
     7
  6
Continuous
370
    -3
390
F
  0
LAYER
  5
45
330
2
100
AcDbSymbolTableRecord
100
AcDbLayerTableRecord
  2
01注記寸法
 70
     0
 62
     7
  6
Continuous
370
     9
390
F
  0
LAYER
  5
46
330
2
100
AcDbSymbolTableRecord
100
AcDbLayerTableRecord
  2
02実線
 70
     0
 62
     2
  6
Continuous
370
    15
390
F
  0
LAYER
  5
5F
330
2
100
AcDbSymbolTableRecord
100
AcDbLayerTableRecord
  2
Defpoints
 70
     0
 62
     7
  6
Continuous
290
     0
370
    -3
390
F
  0
LAYER
  5
7E52
330
2
100
AcDbSymbolTableRecord
100
AcDbLayerTableRecord
  2
03破線
 70
     0
 62
     3
  6
HIDDEN
370
     9
390
F
  0
LAYER
  5
7E55
330
2
100
AcDbSymbolTableRecord
100
AcDbLayerTableRecord
  2
04一点鎖線
 70
     0
 62
    70
  6
CENTER
370
     9
390
F
  0
LAYER
  5
7E58
330
2
100
AcDbSymbolTableRecord
100
AcDbLayerTableRecord
  2
05二点鎖線
 70
     0
 62
   110
  6
PHANTOM
370
     9
390
F
  0
LAYER
  5
7E5B
330
2
100
AcDbSymbolTableRecord
100
AcDbLayerTableRecord
  2
06点線
 70
     0
 62
    96
  6
DOT
370
     9
390
F
  0
LAYER
  5
7E5E
330
2
100
AcDbSymbolTableRecord
100
AcDbLayerTableRecord
  2
07その他
 70
     0
 62
     6
  6
Continuous
370
    13
390
F
  0
LAYER
  5
7E60
330
2
100
AcDbSymbolTableRecord
100
AcDbLayerTableRecord
  2
08非表示
 70
     0
 62
     4
  6
Continuous
290
     0
370
     0
390
F
  0
LAYER
  5
7E62
330
2
100
AcDbSymbolTableRecord
100
AcDbLayerTableRecord
  2
09図枠
 70
     0
 62
     1
  6
Continuous
370
    30
390
F
  0
LAYER
  5
835A
330
2
100
AcDbSymbolTableRecord
100
AcDbLayerTableRecord
  2
10副資材
 70
     0
 62
    51
  6
Continuous
290
     0
370
    -3
390
F
1001
AcAecLayerStandard
1000

1000

  0
LAYER
  5
8CAC
330
2
100
AcDbSymbolTableRecord
100
AcDbLayerTableRecord
  2
11機器
 70
     0
 62
    11
  6
Continuous
290
     0
370
    -3
390
F
1001
AcAecLayerStandard
1000

1000

  0
LAYER
  5
8CB1
330
2
100
AcDbSymbolTableRecord
100
AcDbLayerTableRecord
  2
12防振架台
 70
     0
 62
   190
  6
Continuous
290
     0
370
    -3
390
F
1001
AcAecLayerStandard
1000

1000

  0
LAYER
  5
A15B
330
2
100
AcDbSymbolTableRecord
100
AcDbLayerTableRecord
  2
13製作用注記
 70
     0
 62
     5
  6
Continuous
290
     0
370
     9
390
F
1001
AcAecLayerStandard
1000

1000

  0
ENDTAB
  0
TABLE
  2
STYLE
  5
3
330
0
100
AcDbSymbolTable
 70
     3
  0
STYLE
  5
11
330
3
100
AcDbSymbolTableRecord
100
AcDbTextStyleTableRecord
  2
Standard
 70
     0
 40
0.0
 41
1.0
 50
0.0
 71
     0
 42
45.0
  3
MSGOTHIC.TTC
  4

1001
ACAD
1000
MS Gothic
1071
    32817
  0
STYLE
  5
47B
330
3
100
AcDbSymbolTableRecord
100
AcDbTextStyleTableRecord
  2

 70
     1
 40
0.0
 41
1.0
 50
0.0
 71
     0
 42
3.0
  3
ltypeshp.shx
  4

  0
ENDTAB
  0
TABLE
  2
VIEW
  5
6
330
0
100
AcDbSymbolTable
 70
     0
  0
ENDTAB
  0
TABLE
  2
UCS
  5
7
330
0
100
AcDbSymbolTable
 70
     0
  0
ENDTAB
  0
TABLE
  2
APPID
  5
9
330
0
100
AcDbSymbolTable
 70
     6
  0
APPID
  5
12
330
9
100
AcDbSymbolTableRecord
100
AcDbRegAppTableRecord
  2
ACAD
 70
     0
  0
APPID
  5
6A9E
330
9
100
AcDbSymbolTableRecord
100
AcDbRegAppTableRecord
  2
ACAD_DSTYLE_DIMRADIAL_EXTENSION
 70
     0
  0
APPID
  5
742C
330
9
100
AcDbSymbolTableRecord
100
AcDbRegAppTableRecord
  2
ACAD_PSEXT
 70
     0
  0
APPID
  5
742D
330
9
100
AcDbSymbolTableRecord
100
AcDbRegAppTableRecord
  2
ACAD_DSTYLE_DIMJAG
 70
     0
  0
APPID
  5
742E
330
9
100
AcDbSymbolTableRecord
100
AcDbRegAppTableRecord
  2
ACAD_DSTYLE_DIMTALN
 70
     0
  0
APPID
  5
835C
330
9
100
AcDbSymbolTableRecord
100
AcDbRegAppTableRecord
  2
AcAecLayerStandard
 70
     0
  0
ENDTAB
  0
TABLE
  2
DIMSTYLE
  5
A
330
0
100
AcDbSymbolTable
 70
    24
100
AcDbDimStyleTable
  0
DIMSTYLE
105
73
330
A
100
AcDbSymbolTableRecord
100
AcDbDimStyleTableRecord
  2
NEMY-1
 70
     0
 41
3.0
 42
1.5
 43
10.0
 44
1.0
 73
     0
 74
     0
 77
     1
 78
     8
140
3.0
141
1.5
143
0.03937007874016
147
1.0
171
     3
172
     1
178
     0
271
     1
272
     1
274
     3
283
     0
284
     8
340
11
341
8F
342
8F
  0
DIMSTYLE
105
4DCE
330
A
100
AcDbSymbolTableRecord
100
AcDbDimStyleTableRecord
  2
NEMY-2
 70
     0
 40
2.0
 41
3.0
 42
1.5
 43
10.0
 44
1.0
 73
     0
 74
     0
 77
     1
 78
     8
140
3.0
141
1.5
143
0.03937007874016
147
1.0
171
     3
172
     1
178
     0
271
     1
272
     1
274
     3
283
     0
284
     8
340
11
341
8F
342
8F
  0
DIMSTYLE
105
4DCF
330
A
100
AcDbSymbolTableRecord
100
AcDbDimStyleTableRecord
  2
NEMY-3
 70
     0
 40
3.0
 41
3.0
 42
1.5
 43
10.0
 44
1.0
 73
     0
 74
     0
 77
     1
 78
     8
140
3.0
141
1.5
143
0.03937007874016
147
1.0
171
     3
172
     1
178
     0
271
     1
272
     1
274
     3
283
     0
284
     8
340
11
341
8F
342
8F
  0
DIMSTYLE
105
4DD0
330
A
100
AcDbSymbolTableRecord
100
AcDbDimStyleTableRecord
  2
NEMY-5
 70
     0
 40
5.0
 41
3.0
 42
1.5
 43
10.0
 44
1.0
 73
     0
 74
     0
 77
     1
 78
     8
140
3.0
141
1.5
143
0.03937007874016
147
1.0
171
     3
172
     1
178
     0
271
     1
272
     1
274
     3
283
     0
284
     8
340
11
341
8F
342
8F
  0
DIMSTYLE
105
4DD1
330
A
100
AcDbSymbolTableRecord
100
AcDbDimStyleTableRecord
  2
NEMY-8
 70
     0
 40
8.0
 41
3.0
 42
1.5
 43
10.0
 44
1.0
 73
     0
 74
     0
 77
     1
 78
     8
140
3.0
141
1.5
143
0.03937007874016
147
1.0
171
     3
172
     1
178
     0
271
     1
272
     1
274
     3
283
     0
284
     8
340
11
341
8F
342
8F
  0
DIMSTYLE
105
4DD2
102
{ACAD_REACTORS
102
}
330
A
100
AcDbSymbolTableRecord
100
AcDbDimStyleTableRecord
  2
NEMY-15
 70
     0
 40
15.0
 41
3.0
 42
1.5
 43
10.0
 44
1.0
 73
     0
 74
     0
 77
     1
 78
     8
140
3.0
141
1.5
143
0.03937007874016
147
1.0
171
     3
172
     1
178
     0
271
     1
272
     1
274
     3
283
     0
284
     8
340
11
341
8F
342
8F
  0
DIMSTYLE
105
4DD3
330
A
100
AcDbSymbolTableRecord
100
AcDbDimStyleTableRecord
  2
NEMY-10
 70
     0
 40
10.0
 41
3.0
 42
1.5
 43
10.0
 44
1.0
 73
     0
 74
     0
 77
     1
 78
     8
140
3.0
141
1.5
143
0.03937007874016
147
1.0
171
     3
172
     1
178
     0
271
     1
272
     1
274
     3
283
     0
284
     8
340
11
341
8F
342
8F
  0
DIMSTYLE
105
4DD4
330
A
100
AcDbSymbolTableRecord
100
AcDbDimStyleTableRecord
  2
NEMY-25
 70
     0
 40
25.0
 41
3.0
 42
1.5
 43
10.0
 44
1.0
 73
     0
 74
     0
 77
     1
 78
     8
140
3.0
141
1.5
143
0.03937007874016
147
1.0
171
     3
172
     1
178
     0
271
     1
272
     1
274
     3
283
     0
284
     8
340
11
341
8F
342
8F
  0
DIMSTYLE
105
4DD5
330
A
100
AcDbSymbolTableRecord
100
AcDbDimStyleTableRecord
  2
NEMY-30
 70
     0
 40
30.0
 41
3.0
 42
1.5
 43
10.0
 44
1.0
 73
     0
 74
     0
 77
     1
 78
     8
140
3.0
141
1.5
143
0.03937007874016
147
1.0
171
     3
172
     1
178
     0
271
     1
272
     1
274
     3
283
     0
284
     8
340
11
341
8F
342
8F
  0
DIMSTYLE
105
4DD6
330
A
100
AcDbSymbolTableRecord
100
AcDbDimStyleTableRecord
  2
NEMY-50
 70
     0
 40
50.0
 41
3.0
 42
1.5
 43
10.0
 44
1.0
 73
     0
 74
     0
 77
     1
 78
     8
140
3.0
141
1.5
143
0.03937007874016
147
1.0
171
     3
172
     1
178
     0
271
     1
272
     1
274
     3
283
     0
284
     8
340
11
341
8F
342
8F
  0
DIMSTYLE
105
4E6F
330
A
100
AcDbSymbolTableRecord
100
AcDbDimStyleTableRecord
  2
NEMY-20
 70
     0
 40
20.0
 41
3.0
 42
1.5
 43
10.0
 44
1.0
 73
     0
 74
     0
 77
     1
 78
     8
140
3.0
141
1.5
143
0.03937007874016
147
1.0
171
     3
172
     1
178
     0
271
     1
272
     1
274
     3
283
     0
284
     8
340
11
341
8F
342
8F
  0
DIMSTYLE
105
4F44
330
A
100
AcDbSymbolTableRecord
100
AcDbDimStyleTableRecord
  2
NEMY-10$3
 70
     0
 40
10.0
 41
3.0
 42
1.5
 43
10.0
 44
1.0
 77
     1
 78
     8
140
3.0
141
1.5
143
0.03937007874016
147
1.0
171
     3
172
     1
178
     0
271
     1
272
     1
274
     3
283
     0
284
     8
340
11
341
8F
342
8F
  0
DIMSTYLE
105
4F45
330
A
100
AcDbSymbolTableRecord
100
AcDbDimStyleTableRecord
  2
NEMY-1$3
 70
     0
 41
3.0
 42
1.5
 43
10.0
 44
1.0
 77
     1
 78
     8
140
3.0
141
1.5
143
0.03937007874016
147
1.0
171
     3
172
     1
178
     0
271
     1
272
     1
274
     3
283
     0
284
     8
340
11
341
8F
342
8F
  0
DIMSTYLE
105
4F46
330
A
100
AcDbSymbolTableRecord
100
AcDbDimStyleTableRecord
  2
NEMY-12
 70
     0
 40
12.0
 41
3.0
 42
1.5
 43
10.0
 44
1.0
 73
     0
 74
     0
 77
     1
 78
     8
140
3.0
141
1.5
143
0.03937007874016
147
1.0
171
     3
172
     1
178
     0
271
     1
272
     1
274
     3
283
     0
284
     8
340
11
341
8F
342
8F
  0
DIMSTYLE
105
4F47
330
A
100
AcDbSymbolTableRecord
100
AcDbDimStyleTableRecord
  2
NEMY-12$3
 70
     0
 40
12.0
 41
3.0
 42
1.5
 43
10.0
 44
1.0
 77
     1
 78
     8
140
3.0
141
1.5
143
0.03937007874016
147
1.0
171
     3
172
     1
178
     0
271
     1
272
     1
274
     3
283
     0
284
     8
340
11
341
8F
342
8F
  0
DIMSTYLE
105
5E6E
330
A
100
AcDbSymbolTableRecord
100
AcDbDimStyleTableRecord
  2
NEMY-8$3
 70
     0
 40
8.0
 41
3.0
 42
1.5
 43
10.0
 44
1.0
 77
     1
 78
     8
140
3.0
141
1.5
143
0.03937007874016
147
1.0
171
     3
172
     1
178
     0
271
     1
272
     1
274
     3
283
     0
284
     8
340
11
341
8F
342
8F
  0
DIMSTYLE
105
5E6F
330
A
100
AcDbSymbolTableRecord
100
AcDbDimStyleTableRecord
  2
NEMY-50$3
 70
     0
 40
50.0
 41
3.0
 42
1.5
 43
10.0
 44
1.0
 77
     1
 78
     8
140
3.0
141
1.5
143
0.03937007874016
147
1.0
171
     3
172
     1
178
     0
271
     1
272
     1
274
     3
283
     0
284
     8
340
11
341
8F
342
8F
  0
DIMSTYLE
105
5E70
330
A
100
AcDbSymbolTableRecord
100
AcDbDimStyleTableRecord
  2
NEMY-5$3
 70
     0
 40
5.0
 41
3.0
 42
1.5
 43
10.0
 44
1.0
 77
     1
 78
     8
140
3.0
141
1.5
143
0.03937007874016
147
1.0
171
     3
172
     1
178
     0
271
     1
272
     1
274
     3
283
     0
284
     8
340
11
341
8F
342
8F
  0
DIMSTYLE
105
5E71
330
A
100
AcDbSymbolTableRecord
100
AcDbDimStyleTableRecord
  2
NEMY-30$3
 70
     0
 40
30.0
 41
3.0
 42
1.5
 43
10.0
 44
1.0
 77
     1
 78
     8
140
3.0
141
1.5
143
0.03937007874016
147
1.0
171
     3
172
     1
178
     0
271
     1
272
     1
274
     3
283
     0
284
     8
340
11
341
8F
342
8F
  0
DIMSTYLE
105
5E72
330
A
100
AcDbSymbolTableRecord
100
AcDbDimStyleTableRecord
  2
NEMY-3$3
 70
     0
 40
3.0
 41
3.0
 42
1.5
 43
10.0
 44
1.0
 77
     1
 78
     8
140
3.0
141
1.5
143
0.03937007874016
147
1.0
171
     3
172
     1
178
     0
271
     1
272
     1
274
     3
283
     0
284
     8
340
11
341
8F
342
8F
  0
DIMSTYLE
105
5E73
330
A
100
AcDbSymbolTableRecord
100
AcDbDimStyleTableRecord
  2
NEMY-25$3
 70
     0
 40
25.0
 41
3.0
 42
1.5
 43
10.0
 44
1.0
 77
     1
 78
     8
140
3.0
141
1.5
143
0.03937007874016
147
1.0
171
     3
172
     1
178
     0
271
     1
272
     1
274
     3
283
     0
284
     8
340
11
341
8F
342
8F
  0
DIMSTYLE
105
5E74
330
A
100
AcDbSymbolTableRecord
100
AcDbDimStyleTableRecord
  2
NEMY-20$3
 70
     0
 40
20.0
 41
3.0
 42
1.5
 43
10.0
 44
1.0
 77
     1
 78
     8
140
3.0
141
1.5
143
0.03937007874016
147
1.0
171
     3
172
     1
178
     0
271
     1
272
     1
274
     3
283
     0
284
     8
340
11
341
8F
342
8F
  0
DIMSTYLE
105
5E75
330
A
100
AcDbSymbolTableRecord
100
AcDbDimStyleTableRecord
  2
NEMY-2$3
 70
     0
 40
2.0
 41
3.0
 42
1.5
 43
10.0
 44
1.0
 77
     1
 78
     8
140
3.0
141
1.5
143
0.03937007874016
147
1.0
171
     3
172
     1
178
     0
271
     1
272
     1
274
     3
283
     0
284
     8
340
11
341
8F
342
8F
  0
DIMSTYLE
105
5E76
330
A
100
AcDbSymbolTableRecord
100
AcDbDimStyleTableRecord
  2
NEMY-15$3
 70
     0
 40
15.0
 41
3.0
 42
1.5
 43
10.0
 44
1.0
 77
     1
 78
     8
140
3.0
141
1.5
143
0.03937007874016
147
1.0
171
     3
172
     1
178
     0
271
     1
272
     1
274
     3
283
     0
284
     8
340
11
341
8F
342
8F
  0
ENDTAB
  0
TABLE
  2
BLOCK_RECORD
  5
1
330
0
100
AcDbSymbolTable
 70
  1782
  0
BLOCK_RECORD
  5
1F
102
{ACAD_XDICTIONARY
360
969E
102
}
330
1
100
AcDbSymbolTableRecord
100
AcDbBlockTableRecord
  2
*Model_Space
340
22
  0
BLOCK_RECORD
  5
1B
330
1
100
AcDbSymbolTableRecord
100
AcDbBlockTableRecord
  2
*Paper_Space
340
1E
  0
BLOCK_RECORD
  5
8F
330
1
100
AcDbSymbolTableRecord
100
AcDbBlockTableRecord
  2
_Open
340
0
102
{BLKREFS
331
BAFA
331
101FD
331
10209
331
10230
331
1023C
331
12310
331
1231D
331
12516
331
12530
331
1255B
331
12575
331
12582
331
1258F
331
125AB
331
125D6
331
125F8
331
12605
331
BAFB
331
101FE
331
1020A
331
10231
331
1023D
331
12311
331
12517
331
12531
331
1255C
331
12576
331
12583
331
12590
331
125AC
331
125D7
331
125F9
331
12606
331
11F29
331
12303
331
12524
331
12569
331
1259E
331
125BA
331
125C9
331
125E5
331
101F1
331
10224
331
11F2A
331
12304
331
12525
331
1254F
331
1256A
331
1259F
331
125BB
331
125CA
331
125E6
331
101F2
331
10225
331
12540
331
12550
331
12541
102
}
  0
BLOCK_RECORD
  5
825E
330
1
100
AcDbSymbolTableRecord
100
AcDbBlockTableRecord
  2
L65x65xt6-破線
340
0
102
{BLKREFS
331
8AE7
331
8AE8
331
8AE9
331
8AEA
331
8AEE
331
8AEF
331
8AF2
331
8AF3
331
BACF
331
BAD0
331
BAD1
331
BAD2
331
12386
331
12387
102
}
  0
BLOCK_RECORD
  5
82C5
330
1
100
AcDbSymbolTableRecord
100
AcDbBlockTableRecord
  2
L65x65xt6
340
0
102
{BLKREFS
331
832B
102
}
  0
BLOCK_RECORD
  5
82F2
330
1
100
AcDbSymbolTableRecord
100
AcDbBlockTableRecord
  2
hole-φ16
340
0
102
{BLKREFS
331
0
331
0
331
0
331
0
331
0
102
}
  0
BLOCK_RECORD
  5
8329
330
1
100
AcDbSymbolTableRecord
100
AcDbBlockTableRecord
  2
AH-アンカーL65
340
0
102
{BLKREFS
331
0
331
0
331
0
331
0
331
0
102
}
  0
BLOCK_RECORD
  5
BAF4
330
1
100
AcDbSymbolTableRecord
100
AcDbBlockTableRecord
  2
*D497
340
0
  0
BLOCK_RECORD
  5
101E8
330
1
100
AcDbSymbolTableRecord
100
AcDbBlockTableRecord
  2
*D1306
340
0
  0
BLOCK_RECORD
  5
101F7
330
1
100
AcDbSymbolTableRecord
100
AcDbBlockTableRecord
  2
*D1307
340
0
  0
BLOCK_RECORD
  5
10203
330
1
100
AcDbSymbolTableRecord
100
AcDbBlockTableRecord
  2
*D1308
340
0
  0
BLOCK_RECORD
  5
1021B
330
1
100
AcDbSymbolTableRecord
100
AcDbBlockTableRecord
  2
*D1310
340
0
  0
BLOCK_RECORD
  5
1022A
330
1
100
AcDbSymbolTableRecord
100
AcDbBlockTableRecord
  2
*D1311
340
0
  0
BLOCK_RECORD
  5
10236
330
1
100
AcDbSymbolTableRecord
100
AcDbBlockTableRecord
  2
*D1312
340
0
  0
BLOCK_RECORD
  5
11E63
330
1
100
AcDbSymbolTableRecord
100
AcDbBlockTableRecord
  2
シール(検査済)
340
0
102
{BLKREFS
331
0
102
}
  0
BLOCK_RECORD
  5
11E69
330
1
100
AcDbSymbolTableRecord
100
AcDbBlockTableRecord
  2
シール(型式)
340
0
102
{BLKREFS
331
0
102
}
  0
BLOCK_RECORD
  5
11F0D
330
1
100
AcDbSymbolTableRecord
100
AcDbBlockTableRecord
  2
1-MDL326
340
0
102
{BLKREFS
331
0
102
}
  0
BLOCK_RECORD
  5
11F21
330
1
100
AcDbSymbolTableRecord
100
AcDbBlockTableRecord
  2
*D1714
340
0
  0
BLOCK_RECORD
  5
122FB
330
1
100
AcDbSymbolTableRecord
100
AcDbBlockTableRecord
  2
*D1746
340
0
  0
BLOCK_RECORD
  5
1230A
330
1
100
AcDbSymbolTableRecord
100
AcDbBlockTableRecord
  2
*D1747
340
0
  0
BLOCK_RECORD
  5
12317
330
1
100
AcDbSymbolTableRecord
100
AcDbBlockTableRecord
  2
*D1748
340
0
  0
BLOCK_RECORD
  5
12510
330
1
100
AcDbSymbolTableRecord
100
AcDbBlockTableRecord
  2
*D1764
340
0
  0
BLOCK_RECORD
  5
1251C
330
1
100
AcDbSymbolTableRecord
100
AcDbBlockTableRecord
  2
*D1765
340
0
  0
BLOCK_RECORD
  5
1252A
330
1
100
AcDbSymbolTableRecord
100
AcDbBlockTableRecord
  2
*D1766
340
0
  0
BLOCK_RECORD
  5
12536
330
1
100
AcDbSymbolTableRecord
100
AcDbBlockTableRecord
  2
*D1767
340
0
  0
BLOCK_RECORD
  5
12546
330
1
100
AcDbSymbolTableRecord
100
AcDbBlockTableRecord
  2
*D1768
340
0
  0
BLOCK_RECORD
  5
12555
330
1
100
AcDbSymbolTableRecord
100
AcDbBlockTableRecord
  2
*D1769
340
0
  0
BLOCK_RECORD
  5
12561
330
1
100
AcDbSymbolTableRecord
100
AcDbBlockTableRecord
  2
*D1770
340
0
  0
BLOCK_RECORD
  5
1256F
330
1
100
AcDbSymbolTableRecord
100
AcDbBlockTableRecord
  2
*D1771
340
0
  0
BLOCK_RECORD
  5
1257C
330
1
100
AcDbSymbolTableRecord
100
AcDbBlockTableRecord
  2
*D1772
340
0
  0
BLOCK_RECORD
  5
12589
330
1
100
AcDbSymbolTableRecord
100
AcDbBlockTableRecord
  2
*D1773
340
0
  0
BLOCK_RECORD
  5
12596
330
1
100
AcDbSymbolTableRecord
100
AcDbBlockTableRecord
  2
*D1774
340
0
  0
BLOCK_RECORD
  5
125A5
330
1
100
AcDbSymbolTableRecord
100
AcDbBlockTableRecord
  2
*D1775
340
0
  0
BLOCK_RECORD
  5
125B2
330
1
100
AcDbSymbolTableRecord
100
AcDbBlockTableRecord
  2
*D1776
340
0
  0
BLOCK_RECORD
  5
125C1
330
1
100
AcDbSymbolTableRecord
100
AcDbBlockTableRecord
  2
*D1777
340
0
  0
BLOCK_RECORD
  5
125D0
330
1
100
AcDbSymbolTableRecord
100
AcDbBlockTableRecord
  2
*D1778
340
0
  0
BLOCK_RECORD
  5
125DD
330
1
100
AcDbSymbolTableRecord
100
AcDbBlockTableRecord
  2
*D1779
340
0
  0
BLOCK_RECORD
  5
125F2
330
1
100
AcDbSymbolTableRecord
100
AcDbBlockTableRecord
  2
*D1780
340
0
  0
BLOCK_RECORD
  5
125FF
330
1
100
AcDbSymbolTableRecord
100
AcDbBlockTableRecord
  2
*D1781
340
0
  0
ENDTAB
  0
ENDSEC
  0
SECTION
  2
BLOCKS
  0
BLOCK
  5
20
330
1F
100
AcDbEntity
  8
0
100
AcDbBlockBegin
  2
*Model_Space
 70
     0
 10
0.0
 20
0.0
 30
0.0
  3
*Model_Space
  1

  0
ENDBLK
  5
21
330
1F
100
AcDbEntity
  8
0
100
AcDbBlockEnd
  0
BLOCK
  5
1C
330
1B
100
AcDbEntity
 67
     1
  8
0
100
AcDbBlockBegin
  2
*Paper_Space
 70
     0
 10
0.0
 20
0.0
 30
0.0
  3
*Paper_Space
  1

  0
ENDBLK
  5
1D
330
1B
100
AcDbEntity
 67
     1
  8
0
100
AcDbBlockEnd
  0
BLOCK
  5
93
330
8F
100
AcDbEntity
  8
0
100
AcDbBlockBegin
  2
_Open
 70
     0
 10
0.0
 20
0.0
 30
0.0
  3
_Open
  1

  0
LINE
  5
90
330
8F
100
AcDbEntity
  8
01注記寸法
 62
     0
370
    -2
100
AcDbLine
 10
-1.0
 20
0.1666666666666667
 30
0.0
 11
0.0
 21
0.0
 31
0.0
  0
LINE
  5
91
330
8F
100
AcDbEntity
  8
01注記寸法
 62
     0
370
    -2
100
AcDbLine
 10
-1.0
 20
-0.1666666666666667
 30
0.0
 11
0.0
 21
0.0
 31
0.0
  0
LINE
  5
92
330
8F
100
AcDbEntity
  8
01注記寸法
 62
     0
370
    -2
100
AcDbLine
 10
0.0
 20
0.0
 30
0.0
 11
-1.0
 21
0.0
 31
0.0
  0
ENDBLK
  5
94
330
8F
100
AcDbEntity
  8
0
100
AcDbBlockEnd
  0
BLOCK
  5
825F
330
825E
100
AcDbEntity
  8
0
100
AcDbBlockBegin
  2
L65x65xt6-破線
 70
     0
 10
0.0
 20
0.0
 30
0.0
  3
L65x65xt6-破線
  1

  0
LINE
  5
8260
330
825E
100
AcDbEntity
  8
03破線
  6
HIDDEN
100
AcDbLine
 10
61.0
 20
-6.0
 30
0.0
 11
14.5
 21
-6.0
 31
0.0
  0
LINE
  5
8261
330
825E
100
AcDbEntity
  8
03破線
  6
HIDDEN
100
AcDbLine
 10
0.0
 20
0.0
 30
0.0
 11
0.0
 21
-65.0
 31
0.0
  0
LINE
  5
8262
330
825E
100
AcDbEntity
  8
03破線
  6
HIDDEN
100
AcDbLine
 10
65.0
 20
0.0
 30
0.0
 11
0.0
 21
0.0
 31
0.0
  0
LINE
  5
8263
330
825E
100
AcDbEntity
  8
03破線
  6
HIDDEN
100
AcDbLine
 10
65.0
 20
0.0
 30
0.0
 11
65.0
 21
-2.0
 31
0.0
  0
LINE
  5
8264
330
825E
100
AcDbEntity
  8
03破線
  6
HIDDEN
100
AcDbLine
 10
2.0
 20
-65.0
 30
0.0
 11
0.0
 21
-65.0
 31
0.0
  0
ARC
  5
8265
330
825E
100
AcDbEntity
  8
03破線
  6
HIDDEN
100
AcDbCircle
 10
61.0
 20
-2.0
 30
0.0
 40
4.000000000000002
100
AcDbArc
 50
270.0
 51
0.0
  0
LINE
  5
8266
330
825E
100
AcDbEntity
  8
03破線
  6
HIDDEN
100
AcDbLine
 10
6.0
 20
-14.5
 30
0.0
 11
6.0
 21
-61.0
 31
0.0
  0
ARC
  5
8267
330
825E
100
AcDbEntity
  8
03破線
  6
HIDDEN
100
AcDbCircle
 10
2.0
 20
-61.0
 30
0.0
 40
4.000000000000002
100
AcDbArc
 50
270.0
 51
0.0
  0
ARC
  5
8268
330
825E
100
AcDbEntity
  8
03破線
  6
HIDDEN
100
AcDbCircle
 10
14.5
 20
-14.5
 30
0.0
 40
8.500000000000004
100
AcDbArc
 50
90.0
 51
180.0
  0
ENDBLK
  5
8269
330
825E
100
AcDbEntity
  8
0
100
AcDbBlockEnd
  0
BLOCK
  5
82C6
330
82C5
100
AcDbEntity
  8
0
100
AcDbBlockBegin
  2
L65x65xt6
 70
     0
 10
0.0
 20
0.0
 30
0.0
  3
L65x65xt6
  1

  0
ARC
  5
82C7
330
82C5
100
AcDbEntity
  8
02実線
100
AcDbCircle
 10
14.5
 20
-14.5
 30
0.0
 40
8.500000000000004
100
AcDbArc
 50
90.0
 51
180.0
  0
ARC
  5
82C8
330
82C5
100
AcDbEntity
  8
02実線
100
AcDbCircle
 10
2.0
 20
-61.0
 30
0.0
 40
4.000000000000002
100
AcDbArc
 50
270.0
 51
0.0
  0
LINE
  5
82C9
330
82C5
100
AcDbEntity
  8
02実線
100
AcDbLine
 10
6.0
 20
-14.5
 30
0.0
 11
6.0
 21
-61.0
 31
0.0
  0
ARC
  5
82CA
330
82C5
100
AcDbEntity
  8
02実線
100
AcDbCircle
 10
61.0
 20
-2.0
 30
0.0
 40
4.000000000000002
100
AcDbArc
 50
270.0
 51
0.0
  0
LINE
  5
82CB
330
82C5
100
AcDbEntity
  8
02実線
100
AcDbLine
 10
2.0
 20
-65.0
 30
0.0
 11
0.0
 21
-65.0
 31
0.0
  0
LINE
  5
82CC
330
82C5
100
AcDbEntity
  8
02実線
100
AcDbLine
 10
65.0
 20
0.0
 30
0.0
 11
65.0
 21
-2.0
 31
0.0
  0
LINE
  5
82CD
330
82C5
100
AcDbEntity
  8
02実線
100
AcDbLine
 10
65.0
 20
0.0
 30
0.0
 11
0.0
 21
0.0
 31
0.0
  0
LINE
  5
82CE
330
82C5
100
AcDbEntity
  8
02実線
100
AcDbLine
 10
0.0
 20
0.0
 30
0.0
 11
0.0
 21
-65.0
 31
0.0
  0
LINE
  5
82CF
330
82C5
100
AcDbEntity
  8
02実線
100
AcDbLine
 10
61.0
 20
-6.0
 30
0.0
 11
14.5
 21
-6.0
 31
0.0
  0
ENDBLK
  5
82D0
330
82C5
100
AcDbEntity
  8
0
100
AcDbBlockEnd
  0
BLOCK
  5
82F3
330
82F2
100
AcDbEntity
  8
0
100
AcDbBlockBegin
  2
hole-φ16
 70
     0
 10
0.0
 20
0.0
 30
0.0
  3
hole-φ16
  1

  0
CIRCLE
  5
82F4
330
82F2
100
AcDbEntity
  8
02実線
100
AcDbCircle
 10
0.0
 20
0.0
 30
0.0
 40
8.0
  0
LINE
  5
82F5
330
82F2
100
AcDbEntity
  8
04一点鎖線
  6
CENTER
 48
0.2
100
AcDbLine
 10
0.0
 20
-20.0
 30
0.0
 11
0.0
 21
20.0
 31
0.0
  0
LINE
  5
82F6
330
82F2
100
AcDbEntity
  8
04一点鎖線
  6
CENTER
 48
0.2
100
AcDbLine
 10
-20.0
 20
0.0
 30
0.0
 11
20.0
 21
0.0
 31
0.0
  0
ENDBLK
  5
82F7
330
82F2
100
AcDbEntity
  8
0
100
AcDbBlockEnd
  0
BLOCK
  5
832A
330
8329
100
AcDbEntity
  8
0
100
AcDbBlockBegin
  2
AH-アンカーL65
 70
     0
 10
0.0
 20
0.0
 30
0.0
  3
AH-アンカーL65
  1

  0
INSERT
  5
832B
330
8329
100
AcDbEntity
  8
02実線
100
AcDbBlockReference
  2
L65x65xt6
 10
0.0
 20
0.0
 30
0.0
 50
180.0
  0
LWPOLYLINE
  5
8338
330
8329
100
AcDbEntity
  8
02実線
100
AcDbPolyline
 90
        8
 70
     1
 43
0.0
 10
-90.0
 20
0.0
 10
-90.0
 20
79.99999999999977
 10
-80.0
 20
89.99999999999977
 10
0.0
 20
89.99999999999977
 10
10.0
 20
79.99999999999977
 10
10.0
 20
0.0
 10
0.0
 20
-10.0
 10
-80.0
 20
-10.0
  0
LINE
  5
8C8B
330
8329
100
AcDbEntity
  8
08非表示
100
AcDbLine
 10
-60.0
 20
65.0
 30
0.0
 11
-70.0
 21
65.0
 31
0.0
  0
LINE
  5
8C8C
330
8329
100
AcDbEntity
  8
08非表示
100
AcDbLine
 10
-65.0
 20
60.0
 30
0.0
 11
-65.0
 21
70.0
 31
0.0
  0
ENDBLK
  5
8339
330
8329
100
AcDbEntity
  8
0
100
AcDbBlockEnd
  0
BLOCK
  5
BAF5
330
BAF4
100
AcDbEntity
  8
0
100
AcDbBlockBegin
  2
*D497
 70
     1
 10
0.0
 20
0.0
 30
0.0
  3
*D497
  1

  0
LINE
  5
BAF7
330
BAF4
100
AcDbEntity
  8
08非表示
 62
     0
370
    -2
100
AcDbLine
 10
3070.0
 20
2672.5
 30
0.0
 11
3070.0
 21
2765.000000000001
 31
0.0
  0
LINE
  5
BAF8
330
BAF4
100
AcDbEntity
  8
08非表示
 62
     0
370
    -2
100
AcDbLine
 10
3920.0
 20
2672.5
 30
0.0
 11
3920.0
 21
2765.000000000001
 31
0.0
  0
LINE
  5
BAF9
330
BAF4
100
AcDbEntity
  8
08非表示
 62
     0
370
    -2
100
AcDbLine
 10
3115.0
 20
2750.000000000001
 30
0.0
 11
3875.0
 21
2750.000000000001
 31
0.0
  0
INSERT
  5
BAFA
330
BAF4
100
AcDbEntity
  8
08非表示
 62
     0
370
    -2
100
AcDbBlockReference
  2
_Open
 10
3070.0
 20
2750.000000000001
 30
0.0
 41
45.0
 42
45.0
 43
45.0
 50
180.0
  0
INSERT
  5
BAFB
330
BAF4
100
AcDbEntity
  8
08非表示
 62
     0
370
    -2
100
AcDbBlockReference
  2
_Open
 10
3920.0
 20
2750.000000000001
 30
0.0
 41
45.0
 42
45.0
 43
45.0
  0
MTEXT
  5
BAFC
330
BAF4
100
AcDbEntity
  8
08非表示
 62
     0
100
AcDbMText
 10
3495.0
 20
2787.500000000001
 30
0.0
 40
45.0
 41
0.0
 71
     5
 72
     1
  1
850
 73
     1
 44
1.0
  0
POINT
  5
BAFD
330
BAF4
100
AcDbEntity
  8
Defpoints
 62
     0
100
AcDbPoint
 10
3070.0
 20
2650.0
 30
0.0
  0
POINT
  5
BAFE
330
BAF4
100
AcDbEntity
  8
Defpoints
 62
     0
100
AcDbPoint
 10
3920.0
 20
2650.0
 30
0.0
  0
POINT
  5
BAFF
330
BAF4
100
AcDbEntity
  8
Defpoints
 62
     0
100
AcDbPoint
 10
3920.0
 20
2750.000000000001
 30
0.0
  0
ENDBLK
  5
BAF6
330
BAF4
100
AcDbEntity
  8
0
100
AcDbBlockEnd
  0
BLOCK
  5
101E9
330
101E8
100
AcDbEntity
  8
0
100
AcDbBlockBegin
  2
*D1306
 70
     1
 10
0.0
 20
0.0
 30
0.0
  3
*D1306
  1

  0
LINE
  5
101EB
330
101E8
100
AcDbEntity
  8
01注記寸法
 62
     0
370
    -2
100
AcDbLine
 10
4207.499999999998
 20
450.0
 30
0.0
 11
4034.999999999998
 21
450.0
 31
0.0
  0
LINE
  5
101EC
330
101E8
100
AcDbEntity
  8
01注記寸法
 62
     0
370
    -2
100
AcDbLine
 10
4252.499999999999
 20
480.0
 30
0.0
 11
4034.999999999998
 21
480.0
 31
0.0
  0
LINE
  5
101ED
330
101E8
100
AcDbEntity
  8
01注記寸法
 62
     0
370
    -2
100
AcDbLine
 10
4049.999999999998
 20
450.0
 30
0.0
 11
4049.999999999998
 21
212.1600000000008
 31
0.0
  0
LINE
  5
101EE
330
101E8
100
AcDbEntity
  8
01注記寸法
 62
     0
370
    -2
100
AcDbLine
 10
4049.999999999998
 20
450.0
 30
0.0
 11
4049.999999999998
 21
480.0
 31
0.0
  0
LINE
  5
101EF
330
101E8
100
AcDbEntity
  8
01注記寸法
 62
     0
370
    -2
100
AcDbLine
 10
4049.999999999998
 20
405.0
 30
0.0
 11
4049.999999999998
 21
360.0
 31
0.0
  0
LINE
  5
101F0
330
101E8
100
AcDbEntity
  8
01注記寸法
 62
     0
370
    -2
100
AcDbLine
 10
4049.999999999998
 20
525.0
 30
0.0
 11
4049.999999999998
 21
570.0
 31
0.0
  0
INSERT
  5
101F1
330
101E8
100
AcDbEntity
  8
01注記寸法
 62
     0
370
    -2
100
AcDbBlockReference
  2
_Open
 10
4049.999999999998
 20
450.0
 30
0.0
 41
45.0
 42
45.0
 43
45.0
 50
90.0
  0
INSERT
  5
101F2
330
101E8
100
AcDbEntity
  8
01注記寸法
 62
     0
370
    -2
100
AcDbBlockReference
  2
_Open
 10
4049.999999999998
 20
480.0
 30
0.0
 41
45.0
 42
45.0
 43
45.0
 50
270.0
  0
MTEXT
  5
101F3
330
101E8
100
AcDbEntity
  8
01注記寸法
 62
     0
100
AcDbMText
 10
4012.499999999998
 20
252.4050000000007
 30
0.0
 40
45.0
 41
0.0
 71
     5
 72
     1
  1
10
 11
0.0
 21
1.0
 31
0.0
 73
     1
 44
1.0
  0
POINT
  5
101F4
330
101E8
100
AcDbEntity
  8
Defpoints
 62
     0
100
AcDbPoint
 10
4229.999999999998
 20
450.0
 30
0.0
  0
POINT
  5
101F5
330
101E8
100
AcDbEntity
  8
Defpoints
 62
     0
100
AcDbPoint
 10
4274.999999999999
 20
480.0
 30
0.0
  0
POINT
  5
101F6
330
101E8
100
AcDbEntity
  8
Defpoints
 62
     0
100
AcDbPoint
 10
4049.999999999998
 20
480.0
 30
0.0
  0
ENDBLK
  5
101EA
330
101E8
100
AcDbEntity
  8
0
100
AcDbBlockEnd
  0
BLOCK
  5
101F8
330
101F7
100
AcDbEntity
  8
0
100
AcDbBlockBegin
  2
*D1307
 70
     1
 10
0.0
 20
0.0
 30
0.0
  3
*D1307
  1

  0
LINE
  5
101FA
330
101F7
100
AcDbEntity
  8
01注記寸法
 62
     0
370
    -2
100
AcDbLine
 10
4252.499999999999
 20
480.0
 30
0.0
 11
4034.999999999998
 21
480.0
 31
0.0
  0
LINE
  5
101FB
330
101F7
100
AcDbEntity
  8
01注記寸法
 62
     0
370
    -2
100
AcDbLine
 10
4192.499999999998
 20
675.0
 30
0.0
 11
4034.999999999998
 21
675.0
 31
0.0
  0
LINE
  5
101FC
330
101F7
100
AcDbEntity
  8
01注記寸法
 62
     0
370
    -2
100
AcDbLine
 10
4049.999999999998
 20
525.0
 30
0.0
 11
4049.999999999998
 21
630.0
 31
0.0
  0
INSERT
  5
101FD
330
101F7
100
AcDbEntity
  8
01注記寸法
 62
     0
370
    -2
100
AcDbBlockReference
  2
_Open
 10
4049.999999999998
 20
480.0
 30
0.0
 41
45.0
 42
45.0
 43
45.0
 50
270.0
  0
INSERT
  5
101FE
330
101F7
100
AcDbEntity
  8
01注記寸法
 62
     0
370
    -2
100
AcDbBlockReference
  2
_Open
 10
4049.999999999998
 20
675.0
 30
0.0
 41
45.0
 42
45.0
 43
45.0
 50
90.0
  0
MTEXT
  5
101FF
330
101F7
100
AcDbEntity
  8
01注記寸法
 62
     0
100
AcDbMText
 10
4012.499999999998
 20
577.5
 30
0.0
 40
45.0
 41
0.0
 71
     5
 72
     1
  1
65
 11
0.0
 21
1.0
 31
0.0
 73
     1
 44
1.0
  0
POINT
  5
10200
330
101F7
100
AcDbEntity
  8
Defpoints
 62
     0
100
AcDbPoint
 10
4274.999999999999
 20
480.0
 30
0.0
  0
POINT
  5
10201
330
101F7
100
AcDbEntity
  8
Defpoints
 62
     0
100
AcDbPoint
 10
4214.999999999998
 20
675.0
 30
0.0
  0
POINT
  5
10202
330
101F7
100
AcDbEntity
  8
Defpoints
 62
     0
100
AcDbPoint
 10
4049.999999999998
 20
675.0
 30
0.0
  0
ENDBLK
  5
101F9
330
101F7
100
AcDbEntity
  8
0
100
AcDbBlockEnd
  0
BLOCK
  5
10204
330
10203
100
AcDbEntity
  8
0
100
AcDbBlockBegin
  2
*D1308
 70
     1
 10
0.0
 20
0.0
 30
0.0
  3
*D1308
  1

  0
LINE
  5
10206
330
10203
100
AcDbEntity
  8
01注記寸法
 62
     0
370
    -2
100
AcDbLine
 10
4207.499999999998
 20
450.0
 30
0.0
 11
3884.999999999998
 21
450.0
 31
0.0
  0
LINE
  5
10207
330
10203
100
AcDbEntity
  8
01注記寸法
 62
     0
370
    -2
100
AcDbLine
 10
4207.499999999998
 20
750.0
 30
0.0
 11
3884.999999999998
 21
750.0
 31
0.0
  0
LINE
  5
10208
330
10203
100
AcDbEntity
  8
01注記寸法
 62
     0
370
    -2
100
AcDbLine
 10
3899.999999999998
 20
495.0
 30
0.0
 11
3899.999999999998
 21
705.0
 31
0.0
  0
INSERT
  5
10209
330
10203
100
AcDbEntity
  8
01注記寸法
 62
     0
370
    -2
100
AcDbBlockReference
  2
_Open
 10
3899.999999999998
 20
450.0
 30
0.0
 41
45.0
 42
45.0
 43
45.0
 50
270.0
  0
INSERT
  5
1020A
330
10203
100
AcDbEntity
  8
01注記寸法
 62
     0
370
    -2
100
AcDbBlockReference
  2
_Open
 10
3899.999999999998
 20
750.0
 30
0.0
 41
45.0
 42
45.0
 43
45.0
 50
90.0
  0
MTEXT
  5
1020B
330
10203
100
AcDbEntity
  8
01注記寸法
 62
     0
100
AcDbMText
 10
3862.499999999998
 20
600.0
 30
0.0
 40
45.0
 41
0.0
 71
     5
 72
     1
  1
100
 11
0.0
 21
1.0
 31
0.0
 73
     1
 44
1.0
  0
POINT
  5
1020C
330
10203
100
AcDbEntity
  8
Defpoints
 62
     0
100
AcDbPoint
 10
4229.999999999998
 20
450.0
 30
0.0
  0
POINT
  5
1020D
330
10203
100
AcDbEntity
  8
Defpoints
 62
     0
100
AcDbPoint
 10
4229.999999999998
 20
750.0
 30
0.0
  0
POINT
  5
1020E
330
10203
100
AcDbEntity
  8
Defpoints
 62
     0
100
AcDbPoint
 10
3899.999999999998
 20
750.0
 30
0.0
  0
ENDBLK
  5
10205
330
10203
100
AcDbEntity
  8
0
100
AcDbBlockEnd
  0
BLOCK
  5
1021C
330
1021B
100
AcDbEntity
  8
0
100
AcDbBlockBegin
  2
*D1310
 70
     1
 10
0.0
 20
0.0
 30
0.0
  3
*D1310
  1

  0
LINE
  5
1021E
330
1021B
100
AcDbEntity
  8
01注記寸法
 62
     0
370
    -2
100
AcDbLine
 10
4499.999999999999
 20
742.5
 30
0.0
 11
4499.999999999999
 21
915.0
 31
0.0
  0
LINE
  5
1021F
330
1021B
100
AcDbEntity
  8
01注記寸法
 62
     0
370
    -2
100
AcDbLine
 10
4469.999999999999
 20
697.5
 30
0.0
 11
4469.999999999999
 21
915.0
 31
0.0
  0
LINE
  5
10220
330
1021B
100
AcDbEntity
  8
01注記寸法
 62
     0
370
    -2
100
AcDbLine
 10
4499.999999999999
 20
900.0
 30
0.0
 11
4737.839999999999
 21
900.0
 31
0.0
  0
LINE
  5
10221
330
1021B
100
AcDbEntity
  8
01注記寸法
 62
     0
370
    -2
100
AcDbLine
 10
4499.999999999999
 20
900.0
 30
0.0
 11
4469.999999999999
 21
900.0
 31
0.0
  0
LINE
  5
10222
330
1021B
100
AcDbEntity
  8
01注記寸法
 62
     0
370
    -2
100
AcDbLine
 10
4544.999999999999
 20
900.0
 30
0.0
 11
4589.999999999999
 21
900.0
 31
0.0
  0
LINE
  5
10223
330
1021B
100
AcDbEntity
  8
01注記寸法
 62
     0
370
    -2
100
AcDbLine
 10
4424.999999999999
 20
900.0
 30
0.0
 11
4379.999999999999
 21
900.0
 31
0.0
  0
INSERT
  5
10224
330
1021B
100
AcDbEntity
  8
01注記寸法
 62
     0
370
    -2
100
AcDbBlockReference
  2
_Open
 10
4499.999999999999
 20
900.0
 30
0.0
 41
45.0
 42
45.0
 43
45.0
 50
180.0
  0
INSERT
  5
10225
330
1021B
100
AcDbEntity
  8
01注記寸法
 62
     0
370
    -2
100
AcDbBlockReference
  2
_Open
 10
4469.999999999999
 20
900.0
 30
0.0
 41
45.0
 42
45.0
 43
45.0
  0
MTEXT
  5
10226
330
1021B
100
AcDbEntity
  8
01注記寸法
 62
     0
100
AcDbMText
 10
4697.594999999999
 20
937.5
 30
0.0
 40
45.0
 41
0.0
 71
     5
 72
     1
  1
10
 73
     1
 44
1.0
  0
POINT
  5
10227
330
1021B
100
AcDbEntity
  8
Defpoints
 62
     0
100
AcDbPoint
 10
4499.999999999999
 20
720.0
 30
0.0
  0
POINT
  5
10228
330
1021B
100
AcDbEntity
  8
Defpoints
 62
     0
100
AcDbPoint
 10
4469.999999999999
 20
675.0
 30
0.0
  0
POINT
  5
10229
330
1021B
100
AcDbEntity
  8
Defpoints
 62
     0
100
AcDbPoint
 10
4469.999999999999
 20
900.0
 30
0.0
  0
ENDBLK
  5
1021D
330
1021B
100
AcDbEntity
  8
0
100
AcDbBlockEnd
  0
BLOCK
  5
1022B
330
1022A
100
AcDbEntity
  8
0
100
AcDbBlockBegin
  2
*D1311
 70
     1
 10
0.0
 20
0.0
 30
0.0
  3
*D1311
  1

  0
LINE
  5
1022D
330
1022A
100
AcDbEntity
  8
01注記寸法
 62
     0
370
    -2
100
AcDbLine
 10
4469.999999999999
 20
697.5
 30
0.0
 11
4469.999999999999
 21
915.0
 31
0.0
  0
LINE
  5
1022E
330
1022A
100
AcDbEntity
  8
01注記寸法
 62
     0
370
    -2
100
AcDbLine
 10
4274.999999999998
 20
757.5
 30
0.0
 11
4274.999999999998
 21
915.0
 31
0.0
  0
LINE
  5
1022F
330
1022A
100
AcDbEntity
  8
01注記寸法
 62
     0
370
    -2
100
AcDbLine
 10
4424.999999999999
 20
900.0
 30
0.0
 11
4319.999999999998
 21
900.0
 31
0.0
  0
INSERT
  5
10230
330
1022A
100
AcDbEntity
  8
01注記寸法
 62
     0
370
    -2
100
AcDbBlockReference
  2
_Open
 10
4469.999999999999
 20
900.0
 30
0.0
 41
45.0
 42
45.0
 43
45.0
  0
INSERT
  5
10231
330
1022A
100
AcDbEntity
  8
01注記寸法
 62
     0
370
    -2
100
AcDbBlockReference
  2
_Open
 10
4274.999999999998
 20
900.0
 30
0.0
 41
45.0
 42
45.0
 43
45.0
 50
180.0
  0
MTEXT
  5
10232
330
1022A
100
AcDbEntity
  8
01注記寸法
 62
     0
100
AcDbMText
 10
4372.499999999998
 20
937.5
 30
0.0
 40
45.0
 41
0.0
 71
     5
 72
     1
  1
65
 73
     1
 44
1.0
  0
POINT
  5
10233
330
1022A
100
AcDbEntity
  8
Defpoints
 62
     0
100
AcDbPoint
 10
4469.999999999999
 20
675.0
 30
0.0
  0
POINT
  5
10234
330
1022A
100
AcDbEntity
  8
Defpoints
 62
     0
100
AcDbPoint
 10
4274.999999999998
 20
735.0
 30
0.0
  0
POINT
  5
10235
330
1022A
100
AcDbEntity
  8
Defpoints
 62
     0
100
AcDbPoint
 10
4274.999999999998
 20
900.0
 30
0.0
  0
ENDBLK
  5
1022C
330
1022A
100
AcDbEntity
  8
0
100
AcDbBlockEnd
  0
BLOCK
  5
10237
330
10236
100
AcDbEntity
  8
0
100
AcDbBlockBegin
  2
*D1312
 70
     1
 10
0.0
 20
0.0
 30
0.0
  3
*D1312
  1

  0
LINE
  5
10239
330
10236
100
AcDbEntity
  8
01注記寸法
 62
     0
370
    -2
100
AcDbLine
 10
4499.999999999999
 20
742.5
 30
0.0
 11
4499.999999999999
 21
1065.0
 31
0.0
  0
LINE
  5
1023A
330
10236
100
AcDbEntity
  8
01注記寸法
 62
     0
370
    -2
100
AcDbLine
 10
4199.999999999998
 20
742.5
 30
0.0
 11
4199.999999999998
 21
1065.0
 31
0.0
  0
LINE
  5
1023B
330
10236
100
AcDbEntity
  8
01注記寸法
 62
     0
370
    -2
100
AcDbLine
 10
4454.999999999999
 20
1050.0
 30
0.0
 11
4244.999999999998
 21
1050.0
 31
0.0
  0
INSERT
  5
1023C
330
10236
100
AcDbEntity
  8
01注記寸法
 62
     0
370
    -2
100
AcDbBlockReference
  2
_Open
 10
4499.999999999999
 20
1050.0
 30
0.0
 41
45.0
 42
45.0
 43
45.0
  0
INSERT
  5
1023D
330
10236
100
AcDbEntity
  8
01注記寸法
 62
     0
370
    -2
100
AcDbBlockReference
  2
_Open
 10
4199.999999999998
 20
1050.0
 30
0.0
 41
45.0
 42
45.0
 43
45.0
 50
180.0
  0
MTEXT
  5
1023E
330
10236
100
AcDbEntity
  8
01注記寸法
 62
     0
100
AcDbMText
 10
4349.999999999998
 20
1087.5
 30
0.0
 40
45.0
 41
0.0
 71
     5
 72
     1
  1
100
 73
     1
 44
1.0
  0
POINT
  5
1023F
330
10236
100
AcDbEntity
  8
Defpoints
 62
     0
100
AcDbPoint
 10
4499.999999999999
 20
720.0
 30
0.0
  0
POINT
  5
10240
330
10236
100
AcDbEntity
  8
Defpoints
 62
     0
100
AcDbPoint
 10
4199.999999999998
 20
720.0
 30
0.0
  0
POINT
  5
10241
330
10236
100
AcDbEntity
  8
Defpoints
 62
     0
100
AcDbPoint
 10
4199.999999999998
 20
1050.0
 30
0.0
  0
ENDBLK
  5
10238
330
10236
100
AcDbEntity
  8
0
100
AcDbBlockEnd
  0
BLOCK
  5
11E66
330
11E63
100
AcDbEntity
  8
0
100
AcDbBlockBegin
  2
シール(検査済)
 70
     0
 10
0.0
 20
0.0
 30
0.0
  3
シール(検査済)
  1

  0
LWPOLYLINE
  5
11E64
330
11E63
100
AcDbEntity
  8
07その他
100
AcDbPolyline
 90
        4
 70
     1
 43
0.0
 10
0.0
 20
0.0
 10
0.0
 20
25.0
 10
75.0
 20
25.0
 10
75.0
 20
0.0
  0
TEXT
  5
11E65
330
11E63
100
AcDbEntity
  8
08非表示
100
AcDbText
 10
8.25
 20
5.0
 30
0.0
 40
15.0
  1
検査済
 72
     1
 11
37.5
 21
12.5
 31
0.0
100
AcDbText
 73
     2
  0
ENDBLK
  5
11E67
330
11E63
100
AcDbEntity
  8
0
100
AcDbBlockEnd
  0
BLOCK
  5
11E6C
330
11E69
100
AcDbEntity
  8
0
100
AcDbBlockBegin
  2
シール(型式)
 70
     0
 10
0.0
 20
0.0
 30
0.0
  3
シール(型式)
  1

  0
LWPOLYLINE
  5
11E6A
330
11E69
100
AcDbEntity
  8
07その他
100
AcDbPolyline
 90
        4
 70
     1
 43
0.0
 10
0.0
 20
0.0
 10
0.0
 20
24.0
 10
94.0
 20
24.0
 10
94.0
 20
0.0
  0
TEXT
  5
11E6B
330
11E69
100
AcDbEntity
  8
08非表示
100
AcDbText
 10
27.5
 20
5.0
 30
0.0
 40
15.0
  1
型式
 72
     1
 11
47.0
 21
12.5
 31
0.0
100
AcDbText
 73
     2
  0
ENDBLK
  5
11E6D
330
11E69
100
AcDbEntity
  8
0
100
AcDbBlockEnd
  0
BLOCK
  5
11F1A
330
11F0D
100
AcDbEntity
  8
0
100
AcDbBlockBegin
  2
1-MDL326
 70
     0
 10
0.0
 20
0.0
 30
0.0
  3
1-MDL326
  1

  0
LWPOLYLINE
  5
11F0E
330
11F0D
100
AcDbEntity
  8
12防振架台
100
AcDbPolyline
 90
        4
 70
     1
 43
0.0
 10
0.0
 20
0.0
 10
0.0
 20
850.0
 10
1220.0
 20
850.0
 10
1220.0
 20
0.0
  0
LWPOLYLINE
  5
11F0F
330
11F0D
100
AcDbEntity
  8
12防振架台
100
AcDbPolyline
 90
        4
 70
     1
 43
0.0
 10
60.0
 20
60.0
 10
60.0
 20
790.0
 10
1160.0
 20
790.0
 10
1160.0
 20
60.0
  0
LWPOLYLINE
  5
11F10
330
11F0D
100
AcDbEntity
  8
12防振架台
100
AcDbPolyline
 90
        4
 70
     1
 43
0.0
 10
60.0
 20
62.0
 10
60.0
 20
112.0
 10
1160.0
 20
112.0
 10
1160.0
 20
62.0
  0
LWPOLYLINE
  5
11F11
330
11F0D
100
AcDbEntity
  8
12防振架台
100
AcDbPolyline
 90
        4
 70
     1
 43
0.0
 10
60.0
 20
788.0
 10
60.0
 20
738.0
 10
1160.0
 20
738.0
 10
1160.0
 20
788.0
  0
CIRCLE
  5
11F12
330
11F0D
100
AcDbEntity
  8
12防振架台
100
AcDbCircle
 10
100.0
 20
30.0
 30
0.0
 40
8.0
  0
CIRCLE
  5
11F13
330
11F0D
100
AcDbEntity
  8
12防振架台
100
AcDbCircle
 10
85.0
 20
30.0
 30
0.0
 40
8.0
  0
CIRCLE
  5
11F14
330
11F0D
100
AcDbEntity
  8
12防振架台
100
AcDbCircle
 10
100.0
 20
820.0
 30
0.0
 40
8.0
  0
CIRCLE
  5
11F15
330
11F0D
100
AcDbEntity
  8
12防振架台
100
AcDbCircle
 10
85.0
 20
820.0
 30
0.0
 40
8.0
  0
CIRCLE
  5
11F16
330
11F0D
100
AcDbEntity
  8
12防振架台
100
AcDbCircle
 10
1120.0
 20
30.0
 30
0.0
 40
8.0
  0
CIRCLE
  5
11F17
330
11F0D
100
AcDbEntity
  8
12防振架台
100
AcDbCircle
 10
1135.0
 20
30.0
 30
0.0
 40
8.0
  0
CIRCLE
  5
11F18
330
11F0D
100
AcDbEntity
  8
12防振架台
100
AcDbCircle
 10
1120.0
 20
820.0
 30
0.0
 40
8.0
  0
CIRCLE
  5
11F19
330
11F0D
100
AcDbEntity
  8
12防振架台
100
AcDbCircle
 10
1135.0
 20
820.0
 30
0.0
 40
8.0
  0
ENDBLK
  5
11F1B
330
11F0D
100
AcDbEntity
  8
0
100
AcDbBlockEnd
  0
BLOCK
  5
11F22
330
11F21
100
AcDbEntity
  8
0
100
AcDbBlockBegin
  2
*D1714
 70
     1
 10
0.0
 20
0.0
 30
0.0
  3
*D1714
  1

  0
LINE
  5
11F24
330
11F21
100
AcDbEntity
  8
01注記寸法
 62
     0
370
    -2
100
AcDbLine
 10
3881.422499999999
 20
932.9699999999993
 30
0.0
 11
4017.03
 21
932.9699999999993
 31
0.0
  0
LINE
  5
11F25
330
11F21
100
AcDbEntity
  8
01注記寸法
 62
     0
370
    -2
100
AcDbLine
 10
4017.03
 20
932.9699999999993
 30
0.0
 11
4226.209632098127
 21
723.790367901872
 31
0.0
  0
LINE
  5
11F26
330
11F21
100
AcDbEntity
  8
01注記寸法
 62
     0
370
    -2
100
AcDbLine
 10
4323.790367901871
 20
626.209632098128
 30
0.0
 11
4355.610173055265
 21
594.3898269447334
 31
0.0
  0
MTEXT
  5
11F27
330
11F21
100
AcDbEntity
  8
01注記寸法
 62
     0
100
AcDbMText
 10
3932.362499999999
 20
974.1149999999993
 30
0.0
 40
45.0
 41
0.0
 71
     5
 72
     1
  1
φ16
 73
     1
 44
1.0
  0
LINE
  5
11F28
330
11F21
100
AcDbEntity
  8
01注記寸法
 62
     0
370
    -2
100
AcDbLine
 10
4291.970562748476
 20
658.0294372515227
 30
0.0
 11
4258.029437251522
 21
691.9705627484773
 31
0.0
  0
INSERT
  5
11F29
330
11F21
100
AcDbEntity
  8
01注記寸法
 62
     0
370
    -2
100
AcDbBlockReference
  2
_Open
 10
4291.970562748476
 20
658.0294372515227
 30
0.0
 41
45.0
 42
45.0
 43
45.0
 50
135.0
  0
INSERT
  5
11F2A
330
11F21
100
AcDbEntity
  8
01注記寸法
 62
     0
370
    -2
100
AcDbBlockReference
  2
_Open
 10
4258.029437251522
 20
691.9705627484773
 30
0.0
 41
45.0
 42
45.0
 43
45.0
 50
315.0
  0
POINT
  5
11F2B
330
11F21
100
AcDbEntity
  8
Defpoints
 62
     0
100
AcDbPoint
 10
4258.029437251522
 20
691.9705627484773
 30
0.0
  0
POINT
  5
12115
330
11F21
100
AcDbEntity
  8
Defpoints
 62
     0
100
AcDbPoint
 10
4291.970562748476
 20
658.0294372515227
 30
0.0
  0
ENDBLK
  5
11F23
330
11F21
100
AcDbEntity
  8
0
100
AcDbBlockEnd
  0
BLOCK
  5
122FC
330
122FB
100
AcDbEntity
  8
0
100
AcDbBlockBegin
  2
*D1746
 70
     1
 10
0.0
 20
0.0
 30
0.0
  3
*D1746
  1

  0
LINE
  5
122FE
330
122FB
100
AcDbEntity
  8
01注記寸法
 62
     0
370
    -2
100
AcDbLine
 10
3758.191899637617
 20
2971.206038102309
 30
0.0
 11
3589.139913540042
 21
2971.206038102309
 31
0.0
  0
LINE
  5
122FF
330
122FB
100
AcDbEntity
  8
01注記寸法
 62
     0
370
    -2
100
AcDbLine
 10
3758.191899637617
 20
2891.206038102309
 30
0.0
 11
3589.139913540042
 21
2891.206038102309
 31
0.0
  0
LINE
  5
12300
330
122FB
100
AcDbEntity
  8
01注記寸法
 62
     0
370
    -2
100
AcDbLine
 10
3604.139913540042
 20
2971.206038102309
 30
0.0
 11
3604.139913540042
 21
2891.206038102309
 31
0.0
  0
LINE
  5
12301
330
122FB
100
AcDbEntity
  8
01注記寸法
 62
     0
370
    -2
100
AcDbLine
 10
3604.139913540042
 20
3016.206038102309
 30
0.0
 11
3604.139913540042
 21
3061.206038102309
 31
0.0
  0
LINE
  5
12302
330
122FB
100
AcDbEntity
  8
01注記寸法
 62
     0
370
    -2
100
AcDbLine
 10
3604.139913540042
 20
2846.206038102309
 30
0.0
 11
3604.139913540042
 21
2801.206038102309
 31
0.0
  0
INSERT
  5
12303
330
122FB
100
AcDbEntity
  8
01注記寸法
 62
     0
370
    -2
100
AcDbBlockReference
  2
_Open
 10
3604.139913540042
 20
2971.206038102309
 30
0.0
 41
45.0
 42
45.0
 43
45.0
 50
270.0
  0
INSERT
  5
12304
330
122FB
100
AcDbEntity
  8
01注記寸法
 62
     0
370
    -2
100
AcDbBlockReference
  2
_Open
 10
3604.139913540042
 20
2891.206038102309
 30
0.0
 41
45.0
 42
45.0
 43
45.0
 50
90.0
  0
MTEXT
  5
12305
330
122FB
100
AcDbEntity
  8
01注記寸法
 62
     0
100
AcDbMText
 10
3566.639913540042
 20
2931.206038102309
 30
0.0
 40
45.0
 41
0.0
 71
     5
 72
     1
  1
16
 11
0.0
 21
1.0
 31
0.0
 73
     1
 44
1.0
  0
POINT
  5
12306
330
122FB
100
AcDbEntity
  8
Defpoints
 62
     0
100
AcDbPoint
 10
3780.691899637617
 20
2971.206038102309
 30
0.0
  0
POINT
  5
12307
330
122FB
100
AcDbEntity
  8
Defpoints
 62
     0
100
AcDbPoint
 10
3780.691899637617
 20
2891.206038102309
 30
0.0
  0
POINT
  5
12308
330
122FB
100
AcDbEntity
  8
Defpoints
 62
     0
100
AcDbPoint
 10
3604.139913540042
 20
2891.206038102309
 30
0.0
  0
ENDBLK
  5
122FD
330
122FB
100
AcDbEntity
  8
0
100
AcDbBlockEnd
  0
BLOCK
  5
1230B
330
1230A
100
AcDbEntity
  8
0
100
AcDbBlockBegin
  2
*D1747
 70
     1
 10
0.0
 20
0.0
 30
0.0
  3
*D1747
  1

  0
LINE
  5
1230D
330
1230A
100
AcDbEntity
  8
01注記寸法
 62
     0
370
    -2
100
AcDbLine
 10
3740.691899637617
 20
2953.706038102309
 30
0.0
 11
3740.691899637617
 21
3147.781812153561
 31
0.0
  0
LINE
  5
1230E
330
1230A
100
AcDbEntity
  8
01注記寸法
 62
     0
370
    -2
100
AcDbLine
 10
3895.691899637615
 20
2953.706038102309
 30
0.0
 11
3895.691899637615
 21
3147.781812153561
 31
0.0
  0
LINE
  5
1230F
330
1230A
100
AcDbEntity
  8
01注記寸法
 62
     0
370
    -2
100
AcDbLine
 10
3785.691899637617
 20
3132.781812153561
 30
0.0
 11
3850.691899637615
 21
3132.781812153561
 31
0.0
  0
INSERT
  5
12310
330
1230A
100
AcDbEntity
  8
01注記寸法
 62
     0
370
    -2
100
AcDbBlockReference
  2
_Open
 10
3740.691899637617
 20
3132.781812153561
 30
0.0
 41
45.0
 42
45.0
 43
45.0
 50
180.0
  0
INSERT
  5
12311
330
1230A
100
AcDbEntity
  8
01注記寸法
 62
     0
370
    -2
100
AcDbBlockReference
  2
_Open
 10
3895.691899637615
 20
3132.781812153561
 30
0.0
 41
45.0
 42
45.0
 43
45.0
  0
MTEXT
  5
12312
330
1230A
100
AcDbEntity
  8
01注記寸法
 62
     0
100
AcDbMText
 10
3818.191899637616
 20
3170.281812153561
 30
0.0
 40
45.0
 41
0.0
 71
     5
 72
     1
  1
31
 73
     1
 44
1.0
  0
POINT
  5
12313
330
1230A
100
AcDbEntity
  8
Defpoints
 62
     0
100
AcDbPoint
 10
3740.691899637617
 20
2931.206038102309
 30
0.0
  0
POINT
  5
12314
330
1230A
100
AcDbEntity
  8
Defpoints
 62
     0
100
AcDbPoint
 10
3895.691899637615
 20
2931.206038102309
 30
0.0
  0
POINT
  5
12315
330
1230A
100
AcDbEntity
  8
Defpoints
 62
     0
100
AcDbPoint
 10
3895.691899637615
 20
3132.781812153561
 30
0.0
  0
ENDBLK
  5
1230C
330
1230A
100
AcDbEntity
  8
0
100
AcDbBlockEnd
  0
BLOCK
  5
12318
330
12317
100
AcDbEntity
  8
0
100
AcDbBlockBegin
  2
*D1748
 70
     1
 10
0.0
 20
0.0
 30
0.0
  3
*D1748
  1

  0
LINE
  5
1231A
330
12317
100
AcDbEntity
  8
01注記寸法
 62
     0
370
    -2
100
AcDbLine
 10
3921.338156867561
 20
2877.21002980818
 30
0.0
 11
4043.660303354209
 21
2776.596408941523
 31
0.0
  0
MTEXT
  5
1231B
330
12317
100
AcDbEntity
  8
01注記寸法
 62
     0
100
AcDbMText
 10
4023.697948919164
 20
2841.571742427851
 30
0.0
 40
45.0
 41
0.0
 71
     5
 72
     1
  1
2-R
 11
0.7723089085876012
 21
-0.6352471564015288
 31
0.0
 73
     1
 44
1.0
  0
LINE
  5
1231C
330
12317
100
AcDbEntity
  8
01注記寸法
 62
     0
370
    -2
100
AcDbLine
 10
3855.691899637615
 20
2931.206038102309
 30
0.0
 11
3886.584255981119
 21
2905.796151846248
 31
0.0
  0
INSERT
  5
1231D
330
12317
100
AcDbEntity
  8
01注記寸法
 62
     0
370
    -2
100
AcDbBlockReference
  2
_Open
 10
3886.584255981119
 20
2905.796151846248
 30
0.0
 41
45.0
 42
45.0
 43
45.0
 50
140.5616819937681
  0
POINT
  5
1231E
330
12317
100
AcDbEntity
  8
Defpoints
 62
     0
100
AcDbPoint
 10
3886.584255981119
 20
2905.796151846248
 30
0.0
  0
POINT
  5
1231F
330
12317
100
AcDbEntity
  8
Defpoints
 62
     0
100
AcDbPoint
 10
3855.691899637615
 20
2931.206038102309
 30
0.0
  0
ENDBLK
  5
12319
330
12317
100
AcDbEntity
  8
0
100
AcDbBlockEnd
  0
BLOCK
  5
12511
330
12510
100
AcDbEntity
  8
0
100
AcDbBlockBegin
  2
*D1764
 70
     1
 10
0.0
 20
0.0
 30
0.0
  3
*D1764
  1

  0
LINE
  5
12513
330
12510
100
AcDbEntity
  8
01注記寸法
 62
     0
370
    -2
100
AcDbLine
 10
1542.5
 20
3867.499999999997
 30
0.0
 11
1542.5
 21
4019.999999999997
 31
0.0
  0
LINE
  5
12514
330
12510
100
AcDbEntity
  8
01注記寸法
 62
     0
370
    -2
100
AcDbLine
 10
2577.5
 20
3867.499999999997
 30
0.0
 11
2577.5
 21
4019.999999999997
 31
0.0
  0
LINE
  5
12515
330
12510
100
AcDbEntity
  8
01注記寸法
 62
     0
370
    -2
100
AcDbLine
 10
1587.5
 20
4004.999999999997
 30
0.0
 11
2532.5
 21
4004.999999999997
 31
0.0
  0
INSERT
  5
12516
330
12510
100
AcDbEntity
  8
01注記寸法
 62
     0
370
    -2
100
AcDbBlockReference
  2
_Open
 10
1542.5
 20
4004.999999999997
 30
0.0
 41
45.0
 42
45.0
 43
45.0
 50
180.0
  0
INSERT
  5
12517
330
12510
100
AcDbEntity
  8
01注記寸法
 62
     0
370
    -2
100
AcDbBlockReference
  2
_Open
 10
2577.5
 20
4004.999999999997
 30
0.0
 41
45.0
 42
45.0
 43
45.0
  0
MTEXT
  5
12518
330
12510
100
AcDbEntity
  8
01注記寸法
 62
     0
100
AcDbMText
 10
2060.0
 20
4042.499999999997
 30
0.0
 40
45.0
 41
0.0
 71
     5
 72
     1
  1
1035
 73
     1
 44
1.0
  0
POINT
  5
12519
330
12510
100
AcDbEntity
  8
Defpoints
 62
     0
100
AcDbPoint
 10
1542.5
 20
3844.999999999997
 30
0.0
  0
POINT
  5
1251A
330
12510
100
AcDbEntity
  8
Defpoints
 62
     0
100
AcDbPoint
 10
2577.5
 20
3844.999999999997
 30
0.0
  0
POINT
  5
1251B
330
12510
100
AcDbEntity
  8
Defpoints
 62
     0
100
AcDbPoint
 10
2577.5
 20
4004.999999999997
 30
0.0
  0
ENDBLK
  5
12512
330
12510
100
AcDbEntity
  8
0
100
AcDbBlockEnd
  0
BLOCK
  5
1251D
330
1251C
100
AcDbEntity
  8
0
100
AcDbBlockBegin
  2
*D1765
 70
     1
 10
0.0
 20
0.0
 30
0.0
  3
*D1765
  1

  0
LINE
  5
1251F
330
1251C
100
AcDbEntity
  8
01注記寸法
 62
     0
370
    -2
100
AcDbLine
 10
2577.5
 20
3867.499999999997
 30
0.0
 11
2577.5
 21
4019.999999999997
 31
0.0
  0
LINE
  5
12520
330
1251C
100
AcDbEntity
  8
01注記寸法
 62
     0
370
    -2
100
AcDbLine
 10
2670.0
 20
3878.999999999996
 30
0.0
 11
2670.0
 21
4019.999999999997
 31
0.0
  0
LINE
  5
12521
330
1251C
100
AcDbEntity
  8
01注記寸法
 62
     0
370
    -2
100
AcDbLine
 10
2715.0
 20
4004.999999999997
 30
0.0
 11
2900.565
 21
4004.999999999997
 31
0.0
  0
LINE
  5
12522
330
1251C
100
AcDbEntity
  8
01注記寸法
 62
     0
370
    -2
100
AcDbLine
 10
2577.5
 20
4004.999999999997
 30
0.0
 11
2670.0
 21
4004.999999999997
 31
0.0
  0
LINE
  5
12523
330
1251C
100
AcDbEntity
  8
01注記寸法
 62
     0
370
    -2
100
AcDbLine
 10
2532.5
 20
4004.999999999997
 30
0.0
 11
2487.5
 21
4004.999999999997
 31
0.0
  0
INSERT
  5
12524
330
1251C
100
AcDbEntity
  8
01注記寸法
 62
     0
370
    -2
100
AcDbBlockReference
  2
_Open
 10
2577.5
 20
4004.999999999997
 30
0.0
 41
45.0
 42
45.0
 43
45.0
  0
INSERT
  5
12525
330
1251C
100
AcDbEntity
  8
01注記寸法
 62
     0
370
    -2
100
AcDbBlockReference
  2
_Open
 10
2670.0
 20
4004.999999999997
 30
0.0
 41
45.0
 42
45.0
 43
45.0
 50
180.0
  0
MTEXT
  5
12526
330
1251C
100
AcDbEntity
  8
01注記寸法
 62
     0
100
AcDbMText
 10
2830.2825
 20
4042.499999999997
 30
0.0
 40
45.0
 41
0.0
 71
     5
 72
     1
  1
92.5
 73
     1
 44
1.0
  0
POINT
  5
12527
330
1251C
100
AcDbEntity
  8
Defpoints
 62
     0
100
AcDbPoint
 10
2577.5
 20
3844.999999999997
 30
0.0
  0
POINT
  5
12528
330
1251C
100
AcDbEntity
  8
Defpoints
 62
     0
100
AcDbPoint
 10
2670.0
 20
3856.499999999996
 30
0.0
  0
POINT
  5
12529
330
1251C
100
AcDbEntity
  8
Defpoints
 62
     0
100
AcDbPoint
 10
2670.0
 20
4004.999999999997
 30
0.0
  0
ENDBLK
  5
1251E
330
1251C
100
AcDbEntity
  8
0
100
AcDbBlockEnd
  0
BLOCK
  5
1252B
330
1252A
100
AcDbEntity
  8
0
100
AcDbBlockBegin
  2
*D1766
 70
     1
 10
0.0
 20
0.0
 30
0.0
  3
*D1766
  1

  0
LINE
  5
1252D
330
1252A
100
AcDbEntity
  8
01注記寸法
 62
     0
370
    -2
100
AcDbLine
 10
2670.0
 20
3878.999999999996
 30
0.0
 11
2670.0
 21
4169.999999999997
 31
0.0
  0
LINE
  5
1252E
330
1252A
100
AcDbEntity
  8
01注記寸法
 62
     0
370
    -2
100
AcDbLine
 10
1450.0
 20
3878.999999999996
 30
0.0
 11
1450.0
 21
4169.999999999997
 31
0.0
  0
LINE
  5
1252F
330
1252A
100
AcDbEntity
  8
01注記寸法
 62
     0
370
    -2
100
AcDbLine
 10
2625.0
 20
4154.999999999997
 30
0.0
 11
1495.0
 21
4154.999999999997
 31
0.0
  0
INSERT
  5
12530
330
1252A
100
AcDbEntity
  8
01注記寸法
 62
     0
370
    -2
100
AcDbBlockReference
  2
_Open
 10
2670.0
 20
4154.999999999997
 30
0.0
 41
45.0
 42
45.0
 43
45.0
  0
INSERT
  5
12531
330
1252A
100
AcDbEntity
  8
01注記寸法
 62
     0
370
    -2
100
AcDbBlockReference
  2
_Open
 10
1450.0
 20
4154.999999999997
 30
0.0
 41
45.0
 42
45.0
 43
45.0
 50
180.0
  0
MTEXT
  5
12532
330
1252A
100
AcDbEntity
  8
01注記寸法
 62
     0
100
AcDbMText
 10
2060.0
 20
4192.499999999997
 30
0.0
 40
45.0
 41
0.0
 71
     5
 72
     1
  1
1220
 73
     1
 44
1.0
  0
POINT
  5
12533
330
1252A
100
AcDbEntity
  8
Defpoints
 62
     0
100
AcDbPoint
 10
2670.0
 20
3856.499999999996
 30
0.0
  0
POINT
  5
12534
330
1252A
100
AcDbEntity
  8
Defpoints
 62
     0
100
AcDbPoint
 10
1450.0
 20
3856.499999999996
 30
0.0
  0
POINT
  5
12535
330
1252A
100
AcDbEntity
  8
Defpoints
 62
     0
100
AcDbPoint
 10
1450.0
 20
4154.999999999997
 30
0.0
  0
ENDBLK
  5
1252C
330
1252A
100
AcDbEntity
  8
0
100
AcDbBlockEnd
  0
BLOCK
  5
12537
330
12536
100
AcDbEntity
  8
0
100
AcDbBlockBegin
  2
*D1767
 70
     1
 10
0.0
 20
0.0
 30
0.0
  3
*D1767
  1

  0
LINE
  5
12539
330
12536
100
AcDbEntity
  8
01注記寸法
 62
     0
370
    -2
100
AcDbLine
 10
1654.815013441148
 20
4064.999999999997
 30
0.0
 11
1514.250013441148
 21
4064.999999999997
 31
0.0
  0
LINE
  5
1253A
330
12536
100
AcDbEntity
  8
01注記寸法
 62
     0
370
    -2
100
AcDbLine
 10
1514.250013441148
 20
4064.999999999997
 30
0.0
 11
1496.25
 21
4004.999999999997
 31
0.0
  0
LINE
  5
1253B
330
12536
100
AcDbEntity
  8
01注記寸法
 62
     0
370
    -2
100
AcDbLine
 10
1542.5
 20
3867.499999999997
 30
0.0
 11
1542.5
 21
4019.999999999997
 31
0.0
  0
LINE
  5
1253C
330
12536
100
AcDbEntity
  8
01注記寸法
 62
     0
370
    -2
100
AcDbLine
 10
1450.0
 20
3878.999999999996
 30
0.0
 11
1450.0
 21
4019.999999999997
 31
0.0
  0
LINE
  5
1253D
330
12536
100
AcDbEntity
  8
01注記寸法
 62
     0
370
    -2
100
AcDbLine
 10
1542.5
 20
4004.999999999997
 30
0.0
 11
1450.0
 21
4004.999999999997
 31
0.0
  0
LINE
  5
1253E
330
12536
100
AcDbEntity
  8
01注記寸法
 62
     0
370
    -2
100
AcDbLine
 10
1587.5
 20
4004.999999999997
 30
0.0
 11
1632.5
 21
4004.999999999997
 31
0.0
  0
LINE
  5
1253F
330
12536
100
AcDbEntity
  8
01注記寸法
 62
     0
370
    -2
100
AcDbLine
 10
1405.0
 20
4004.999999999997
 30
0.0
 11
1360.0
 21
4004.999999999997
 31
0.0
  0
INSERT
  5
12540
330
12536
100
AcDbEntity
  8
01注記寸法
 62
     0
370
    -2
100
AcDbBlockReference
  2
_Open
 10
1542.5
 20
4004.999999999997
 30
0.0
 41
45.0
 42
45.0
 43
45.0
 50
180.0
  0
INSERT
  5
12541
330
12536
100
AcDbEntity
  8
01注記寸法
 62
     0
370
    -2
100
AcDbBlockReference
  2
_Open
 10
1450.0
 20
4004.999999999997
 30
0.0
 41
45.0
 42
45.0
 43
45.0
  0
MTEXT
  5
12542
330
12536
100
AcDbEntity
  8
01注記寸法
 62
     0
100
AcDbMText
 10
1584.532513441148
 20
4102.499999999997
 30
0.0
 40
45.0
 41
0.0
 71
     5
 72
     1
  1
92.5
 73
     1
 44
1.0
  0
POINT
  5
12543
330
12536
100
AcDbEntity
  8
Defpoints
 62
     0
100
AcDbPoint
 10
1542.5
 20
3844.999999999997
 30
0.0
  0
POINT
  5
12544
330
12536
100
AcDbEntity
  8
Defpoints
 62
     0
100
AcDbPoint
 10
1450.0
 20
3856.499999999996
 30
0.0
  0
POINT
  5
12545
330
12536
100
AcDbEntity
  8
Defpoints
 62
     0
100
AcDbPoint
 10
1450.0
 20
4004.999999999997
 30
0.0
  0
ENDBLK
  5
12538
330
12536
100
AcDbEntity
  8
0
100
AcDbBlockEnd
  0
BLOCK
  5
12547
330
12546
100
AcDbEntity
  8
0
100
AcDbBlockBegin
  2
*D1768
 70
     1
 10
0.0
 20
0.0
 30
0.0
  3
*D1768
  1

  0
LINE
  5
12549
330
12546
100
AcDbEntity
  8
01注記寸法
 62
     0
370
    -2
100
AcDbLine
 10
1427.5
 20
3854.999999999996
 30
0.0
 11
1285.0
 21
3854.999999999996
 31
0.0
  0
LINE
  5
1254A
330
12546
100
AcDbEntity
  8
01注記寸法
 62
     0
370
    -2
100
AcDbLine
 10
1492.5
 20
3824.999999999997
 30
0.0
 11
1285.0
 21
3824.999999999997
 31
0.0
  0
LINE
  5
1254B
330
12546
100
AcDbEntity
  8
01注記寸法
 62
     0
370
    -2
100
AcDbLine
 10
1300.0
 20
3854.999999999996
 30
0.0
 11
1300.0
 21
4028.684999999997
 31
0.0
  0
LINE
  5
1254C
330
12546
100
AcDbEntity
  8
01注記寸法
 62
     0
370
    -2
100
AcDbLine
 10
1300.0
 20
3854.999999999996
 30
0.0
 11
1300.0
 21
3824.999999999997
 31
0.0
  0
LINE
  5
1254D
330
12546
100
AcDbEntity
  8
01注記寸法
 62
     0
370
    -2
100
AcDbLine
 10
1300.0
 20
3899.999999999996
 30
0.0
 11
1300.0
 21
3944.999999999996
 31
0.0
  0
LINE
  5
1254E
330
12546
100
AcDbEntity
  8
01注記寸法
 62
     0
370
    -2
100
AcDbLine
 10
1300.0
 20
3779.999999999997
 30
0.0
 11
1300.0
 21
3734.999999999997
 31
0.0
  0
INSERT
  5
1254F
330
12546
100
AcDbEntity
  8
01注記寸法
 62
     0
370
    -2
100
AcDbBlockReference
  2
_Open
 10
1300.0
 20
3854.999999999996
 30
0.0
 41
45.0
 42
45.0
 43
45.0
 50
270.0
  0
INSERT
  5
12550
330
12546
100
AcDbEntity
  8
01注記寸法
 62
     0
370
    -2
100
AcDbBlockReference
  2
_Open
 10
1300.0
 20
3824.999999999997
 30
0.0
 41
45.0
 42
45.0
 43
45.0
 50
90.0
  0
MTEXT
  5
12551
330
12546
100
AcDbEntity
  8
01注記寸法
 62
     0
100
AcDbMText
 10
1262.5
 20
3986.842499999997
 30
0.0
 40
45.0
 41
0.0
 71
     5
 72
     1
  1
30
 11
0.0
 21
1.0
 31
0.0
 73
     1
 44
1.0
  0
POINT
  5
12552
330
12546
100
AcDbEntity
  8
Defpoints
 62
     0
100
AcDbPoint
 10
1450.0
 20
3854.999999999996
 30
0.0
  0
POINT
  5
12553
330
12546
100
AcDbEntity
  8
Defpoints
 62
     0
100
AcDbPoint
 10
1515.0
 20
3824.999999999997
 30
0.0
  0
POINT
  5
12554
330
12546
100
AcDbEntity
  8
Defpoints
 62
     0
100
AcDbPoint
 10
1300.0
 20
3824.999999999997
 30
0.0
  0
ENDBLK
  5
12548
330
12546
100
AcDbEntity
  8
0
100
AcDbBlockEnd
  0
BLOCK
  5
12556
330
12555
100
AcDbEntity
  8
0
100
AcDbBlockBegin
  2
*D1769
 70
     1
 10
0.0
 20
0.0
 30
0.0
  3
*D1769
  1

  0
LINE
  5
12558
330
12555
100
AcDbEntity
  8
01注記寸法
 62
     0
370
    -2
100
AcDbLine
 10
1492.5
 20
3824.999999999997
 30
0.0
 11
1285.0
 21
3824.999999999997
 31
0.0
  0
LINE
  5
12559
330
12555
100
AcDbEntity
  8
01注記寸法
 62
     0
370
    -2
100
AcDbLine
 10
1492.5
 20
3034.999999999997
 30
0.0
 11
1285.0
 21
3034.999999999997
 31
0.0
  0
LINE
  5
1255A
330
12555
100
AcDbEntity
  8
01注記寸法
 62
     0
370
    -2
100
AcDbLine
 10
1300.0
 20
3779.999999999997
 30
0.0
 11
1300.0
 21
3079.999999999997
 31
0.0
  0
INSERT
  5
1255B
330
12555
100
AcDbEntity
  8
01注記寸法
 62
     0
370
    -2
100
AcDbBlockReference
  2
_Open
 10
1300.0
 20
3824.999999999997
 30
0.0
 41
45.0
 42
45.0
 43
45.0
 50
90.0
  0
INSERT
  5
1255C
330
12555
100
AcDbEntity
  8
01注記寸法
 62
     0
370
    -2
100
AcDbBlockReference
  2
_Open
 10
1300.0
 20
3034.999999999997
 30
0.0
 41
45.0
 42
45.0
 43
45.0
 50
270.0
  0
MTEXT
  5
1255D
330
12555
100
AcDbEntity
  8
01注記寸法
 62
     0
100
AcDbMText
 10
1262.5
 20
3429.999999999997
 30
0.0
 40
45.0
 41
0.0
 71
     5
 72
     1
  1
790
 11
0.0
 21
1.0
 31
0.0
 73
     1
 44
1.0
  0
POINT
  5
1255E
330
12555
100
AcDbEntity
  8
Defpoints
 62
     0
100
AcDbPoint
 10
1515.0
 20
3824.999999999997
 30
0.0
  0
POINT
  5
1255F
330
12555
100
AcDbEntity
  8
Defpoints
 62
     0
100
AcDbPoint
 10
1515.0
 20
3034.999999999997
 30
0.0
  0
POINT
  5
12560
330
12555
100
AcDbEntity
  8
Defpoints
 62
     0
100
AcDbPoint
 10
1300.0
 20
3034.999999999997
 30
0.0
  0
ENDBLK
  5
12557
330
12555
100
AcDbEntity
  8
0
100
AcDbBlockEnd
  0
BLOCK
  5
12562
330
12561
100
AcDbEntity
  8
0
100
AcDbBlockBegin
  2
*D1770
 70
     1
 10
0.0
 20
0.0
 30
0.0
  3
*D1770
  1

  0
LINE
  5
12564
330
12561
100
AcDbEntity
  8
01注記寸法
 62
     0
370
    -2
100
AcDbLine
 10
1492.5
 20
3034.999999999997
 30
0.0
 11
1285.0
 21
3034.999999999997
 31
0.0
  0
LINE
  5
12565
330
12561
100
AcDbEntity
  8
01注記寸法
 62
     0
370
    -2
100
AcDbLine
 10
1427.5
 20
3004.999999999997
 30
0.0
 11
1285.0
 21
3004.999999999997
 31
0.0
  0
LINE
  5
12566
330
12561
100
AcDbEntity
  8
01注記寸法
 62
     0
370
    -2
100
AcDbLine
 10
1300.0
 20
2959.999999999997
 30
0.0
 11
1300.0
 21
2831.314999999997
 31
0.0
  0
LINE
  5
12567
330
12561
100
AcDbEntity
  8
01注記寸法
 62
     0
370
    -2
100
AcDbLine
 10
1300.0
 20
3034.999999999997
 30
0.0
 11
1300.0
 21
3004.999999999997
 31
0.0
  0
LINE
  5
12568
330
12561
100
AcDbEntity
  8
01注記寸法
 62
     0
370
    -2
100
AcDbLine
 10
1300.0
 20
3079.999999999997
 30
0.0
 11
1300.0
 21
3124.999999999997
 31
0.0
  0
INSERT
  5
12569
330
12561
100
AcDbEntity
  8
01注記寸法
 62
     0
370
    -2
100
AcDbBlockReference
  2
_Open
 10
1300.0
 20
3034.999999999997
 30
0.0
 41
45.0
 42
45.0
 43
45.0
 50
270.0
  0
INSERT
  5
1256A
330
12561
100
AcDbEntity
  8
01注記寸法
 62
     0
370
    -2
100
AcDbBlockReference
  2
_Open
 10
1300.0
 20
3004.999999999997
 30
0.0
 41
45.0
 42
45.0
 43
45.0
 50
90.0
  0
MTEXT
  5
1256B
330
12561
100
AcDbEntity
  8
01注記寸法
 62
     0
100
AcDbMText
 10
1262.5
 20
2873.157499999998
 30
0.0
 40
45.0
 41
0.0
 71
     5
 72
     1
  1
30
 11
0.0
 21
1.0
 31
0.0
 73
     1
 44
1.0
  0
POINT
  5
1256C
330
12561
100
AcDbEntity
  8
Defpoints
 62
     0
100
AcDbPoint
 10
1515.0
 20
3034.999999999997
 30
0.0
  0
POINT
  5
1256D
330
12561
100
AcDbEntity
  8
Defpoints
 62
     0
100
AcDbPoint
 10
1450.0
 20
3004.999999999997
 30
0.0
  0
POINT
  5
1256E
330
12561
100
AcDbEntity
  8
Defpoints
 62
     0
100
AcDbPoint
 10
1300.0
 20
3004.999999999997
 30
0.0
  0
ENDBLK
  5
12563
330
12561
100
AcDbEntity
  8
0
100
AcDbBlockEnd
  0
BLOCK
  5
12570
330
1256F
100
AcDbEntity
  8
0
100
AcDbBlockBegin
  2
*D1771
 70
     1
 10
0.0
 20
0.0
 30
0.0
  3
*D1771
  1

  0
LINE
  5
12572
330
1256F
100
AcDbEntity
  8
01注記寸法
 62
     0
370
    -2
100
AcDbLine
 10
1427.5
 20
3004.999999999997
 30
0.0
 11
1135.0
 21
3004.999999999997
 31
0.0
  0
LINE
  5
12573
330
1256F
100
AcDbEntity
  8
01注記寸法
 62
     0
370
    -2
100
AcDbLine
 10
1427.5
 20
3854.999999999997
 30
0.0
 11
1135.0
 21
3854.999999999997
 31
0.0
  0
LINE
  5
12574
330
1256F
100
AcDbEntity
  8
01注記寸法
 62
     0
370
    -2
100
AcDbLine
 10
1150.0
 20
3049.999999999997
 30
0.0
 11
1150.0
 21
3809.999999999997
 31
0.0
  0
INSERT
  5
12575
330
1256F
100
AcDbEntity
  8
01注記寸法
 62
     0
370
    -2
100
AcDbBlockReference
  2
_Open
 10
1150.0
 20
3004.999999999997
 30
0.0
 41
45.0
 42
45.0
 43
45.0
 50
270.0
  0
INSERT
  5
12576
330
1256F
100
AcDbEntity
  8
01注記寸法
 62
     0
370
    -2
100
AcDbBlockReference
  2
_Open
 10
1150.0
 20
3854.999999999997
 30
0.0
 41
45.0
 42
45.0
 43
45.0
 50
90.0
  0
MTEXT
  5
12577
330
1256F
100
AcDbEntity
  8
01注記寸法
 62
     0
100
AcDbMText
 10
1112.5
 20
3429.999999999997
 30
0.0
 40
45.0
 41
0.0
 71
     5
 72
     1
  1
850
 11
0.0
 21
1.0
 31
0.0
 73
     1
 44
1.0
  0
POINT
  5
12578
330
1256F
100
AcDbEntity
  8
Defpoints
 62
     0
100
AcDbPoint
 10
1450.0
 20
3004.999999999997
 30
0.0
  0
POINT
  5
12579
330
1256F
100
AcDbEntity
  8
Defpoints
 62
     0
100
AcDbPoint
 10
1450.0
 20
3854.999999999997
 30
0.0
  0
POINT
  5
1257A
330
1256F
100
AcDbEntity
  8
Defpoints
 62
     0
100
AcDbPoint
 10
1150.0
 20
3854.999999999997
 30
0.0
  0
ENDBLK
  5
12571
330
1256F
100
AcDbEntity
  8
0
100
AcDbBlockEnd
  0
BLOCK
  5
1257D
330
1257C
100
AcDbEntity
  8
0
100
AcDbBlockBegin
  2
*D1772
 70
     1
 10
0.0
 20
0.0
 30
0.0
  3
*D1772
  1

  0
LINE
  5
1257F
330
1257C
100
AcDbEntity
  8
01注記寸法
 62
     0
370
    -2
100
AcDbLine
 10
1417.5
 20
1650.0
 30
0.0
 11
1285.0
 21
1650.0
 31
0.0
  0
LINE
  5
12580
330
1257C
100
AcDbEntity
  8
01注記寸法
 62
     0
370
    -2
100
AcDbLine
 10
1427.5
 20
1850.0
 30
0.0
 11
1285.0
 21
1850.0
 31
0.0
  0
LINE
  5
12581
330
1257C
100
AcDbEntity
  8
01注記寸法
 62
     0
370
    -2
100
AcDbLine
 10
1300.0
 20
1695.0
 30
0.0
 11
1300.0
 21
1805.0
 31
0.0
  0
INSERT
  5
12582
330
1257C
100
AcDbEntity
  8
01注記寸法
 62
     0
370
    -2
100
AcDbBlockReference
  2
_Open
 10
1300.0
 20
1650.0
 30
0.0
 41
45.0
 42
45.0
 43
45.0
 50
270.0
  0
INSERT
  5
12583
330
1257C
100
AcDbEntity
  8
01注記寸法
 62
     0
370
    -2
100
AcDbBlockReference
  2
_Open
 10
1300.0
 20
1850.0
 30
0.0
 41
45.0
 42
45.0
 43
45.0
 50
90.0
  0
MTEXT
  5
12584
330
1257C
100
AcDbEntity
  8
01注記寸法
 62
     0
100
AcDbMText
 10
1262.5
 20
1750.0
 30
0.0
 40
45.0
 41
0.0
 71
     5
 72
     1
  1
200
 11
0.0
 21
1.0
 31
0.0
 73
     1
 44
1.0
  0
POINT
  5
12585
330
1257C
100
AcDbEntity
  8
Defpoints
 62
     0
100
AcDbPoint
 10
1440.0
 20
1650.0
 30
0.0
  0
POINT
  5
12586
330
1257C
100
AcDbEntity
  8
Defpoints
 62
     0
100
AcDbPoint
 10
1450.0
 20
1850.0
 30
0.0
  0
POINT
  5
12587
330
1257C
100
AcDbEntity
  8
Defpoints
 62
     0
100
AcDbPoint
 10
1300.0
 20
1850.0
 30
0.0
  0
ENDBLK
  5
1257E
330
1257C
100
AcDbEntity
  8
0
100
AcDbBlockEnd
  0
BLOCK
  5
1258A
330
12589
100
AcDbEntity
  8
0
100
AcDbBlockBegin
  2
*D1773
 70
     1
 10
0.0
 20
0.0
 30
0.0
  3
*D1773
  1

  0
LINE
  5
1258C
330
12589
100
AcDbEntity
  8
01注記寸法
 62
     0
370
    -2
100
AcDbLine
 10
1417.5
 20
1650.0
 30
0.0
 11
1135.0
 21
1650.0
 31
0.0
  0
LINE
  5
1258D
330
12589
100
AcDbEntity
  8
01注記寸法
 62
     0
370
    -2
100
AcDbLine
 10
1427.5
 20
2650.0
 30
0.0
 11
1135.0
 21
2650.0
 31
0.0
  0
LINE
  5
1258E
330
12589
100
AcDbEntity
  8
01注記寸法
 62
     0
370
    -2
100
AcDbLine
 10
1150.0
 20
1695.0
 30
0.0
 11
1150.0
 21
2605.0
 31
0.0
  0
INSERT
  5
1258F
330
12589
100
AcDbEntity
  8
01注記寸法
 62
     0
370
    -2
100
AcDbBlockReference
  2
_Open
 10
1150.0
 20
1650.0
 30
0.0
 41
45.0
 42
45.0
 43
45.0
 50
270.0
  0
INSERT
  5
12590
330
12589
100
AcDbEntity
  8
01注記寸法
 62
     0
370
    -2
100
AcDbBlockReference
  2
_Open
 10
1150.0
 20
2650.0
 30
0.0
 41
45.0
 42
45.0
 43
45.0
 50
90.0
  0
MTEXT
  5
12591
330
12589
100
AcDbEntity
  8
01注記寸法
 62
     0
100
AcDbMText
 10
1112.5
 20
2150.0
 30
0.0
 40
45.0
 41
0.0
 71
     5
 72
     1
  1
1000
 11
0.0
 21
1.0
 31
0.0
 73
     1
 44
1.0
  0
POINT
  5
12592
330
12589
100
AcDbEntity
  8
Defpoints
 62
     0
100
AcDbPoint
 10
1440.0
 20
1650.0
 30
0.0
  0
POINT
  5
12593
330
12589
100
AcDbEntity
  8
Defpoints
 62
     0
100
AcDbPoint
 10
1450.0
 20
2650.0
 30
0.0
  0
POINT
  5
12594
330
12589
100
AcDbEntity
  8
Defpoints
 62
     0
100
AcDbPoint
 10
1150.0
 20
2650.0
 30
0.0
  0
ENDBLK
  5
1258B
330
12589
100
AcDbEntity
  8
0
100
AcDbBlockEnd
  0
BLOCK
  5
12597
330
12596
100
AcDbEntity
  8
0
100
AcDbBlockBegin
  2
*D1774
 70
     1
 10
0.0
 20
0.0
 30
0.0
  3
*D1774
  1

  0
LINE
  5
12599
330
12596
100
AcDbEntity
  8
01注記寸法
 62
     0
370
    -2
100
AcDbLine
 10
1427.5
 20
300.0000000000009
 30
0.0
 11
1285.0
 21
300.0000000000009
 31
0.0
  0
LINE
  5
1259A
330
12596
100
AcDbEntity
  8
01注記寸法
 62
     0
370
    -2
100
AcDbLine
 10
1472.5
 20
365.0
 30
0.0
 11
1285.0
 21
365.0
 31
0.0
  0
LINE
  5
1259B
330
12596
100
AcDbEntity
  8
01注記寸法
 62
     0
370
    -2
100
AcDbLine
 10
1300.0
 20
300.0000000000009
 30
0.0
 11
1300.0
 21
365.0
 31
0.0
  0
LINE
  5
1259C
330
12596
100
AcDbEntity
  8
01注記寸法
 62
     0
370
    -2
100
AcDbLine
 10
1300.0
 20
255.0000000000009
 30
0.0
 11
1300.0
 21
210.0000000000009
 31
0.0
  0
LINE
  5
1259D
330
12596
100
AcDbEntity
  8
01注記寸法
 62
     0
370
    -2
100
AcDbLine
 10
1300.0
 20
410.0
 30
0.0
 11
1300.0
 21
455.0
 31
0.0
  0
INSERT
  5
1259E
330
12596
100
AcDbEntity
  8
01注記寸法
 62
     0
370
    -2
100
AcDbBlockReference
  2
_Open
 10
1300.0
 20
300.0000000000009
 30
0.0
 41
45.0
 42
45.0
 43
45.0
 50
90.0
  0
INSERT
  5
1259F
330
12596
100
AcDbEntity
  8
01注記寸法
 62
     0
370
    -2
100
AcDbBlockReference
  2
_Open
 10
1300.0
 20
365.0
 30
0.0
 41
45.0
 42
45.0
 43
45.0
 50
270.0
  0
MTEXT
  5
125A0
330
12596
100
AcDbEntity
  8
01注記寸法
 62
     0
100
AcDbMText
 10
1262.5
 20
332.5
 30
0.0
 40
45.0
 41
0.0
 71
     5
 72
     1
  1
65
 11
0.0
 21
1.0
 31
0.0
 73
     1
 44
1.0
  0
POINT
  5
125A1
330
12596
100
AcDbEntity
  8
Defpoints
 62
     0
100
AcDbPoint
 10
1450.0
 20
300.0000000000009
 30
0.0
  0
POINT
  5
125A2
330
12596
100
AcDbEntity
  8
Defpoints
 62
     0
100
AcDbPoint
 10
1495.0
 20
365.0
 30
0.0
  0
POINT
  5
125A3
330
12596
100
AcDbEntity
  8
Defpoints
 62
     0
100
AcDbPoint
 10
1300.0
 20
365.0
 30
0.0
  0
ENDBLK
  5
12598
330
12596
100
AcDbEntity
  8
0
100
AcDbBlockEnd
  0
BLOCK
  5
125A6
330
125A5
100
AcDbEntity
  8
0
100
AcDbBlockBegin
  2
*D1775
 70
     1
 10
0.0
 20
0.0
 30
0.0
  3
*D1775
  1

  0
LINE
  5
125A8
330
125A5
100
AcDbEntity
  8
01注記寸法
 62
     0
370
    -2
100
AcDbLine
 10
1472.5
 20
365.0
 30
0.0
 11
1285.0
 21
365.0
 31
0.0
  0
LINE
  5
125A9
330
125A5
100
AcDbEntity
  8
01注記寸法
 62
     0
370
    -2
100
AcDbLine
 10
1472.5
 20
1085.000000000001
 30
0.0
 11
1285.0
 21
1085.000000000001
 31
0.0
  0
LINE
  5
125AA
330
125A5
100
AcDbEntity
  8
01注記寸法
 62
     0
370
    -2
100
AcDbLine
 10
1300.0
 20
410.0
 30
0.0
 11
1300.0
 21
1040.000000000001
 31
0.0
  0
INSERT
  5
125AB
330
125A5
100
AcDbEntity
  8
01注記寸法
 62
     0
370
    -2
100
AcDbBlockReference
  2
_Open
 10
1300.0
 20
365.0
 30
0.0
 41
45.0
 42
45.0
 43
45.0
 50
270.0
  0
INSERT
  5
125AC
330
125A5
100
AcDbEntity
  8
01注記寸法
 62
     0
370
    -2
100
AcDbBlockReference
  2
_Open
 10
1300.0
 20
1085.000000000001
 30
0.0
 41
45.0
 42
45.0
 43
45.0
 50
90.0
  0
MTEXT
  5
125AD
330
125A5
100
AcDbEntity
  8
01注記寸法
 62
     0
100
AcDbMText
 10
1262.5
 20
725.0000000000005
 30
0.0
 40
45.0
 41
0.0
 71
     5
 72
     1
  1
720
 11
0.0
 21
1.0
 31
0.0
 73
     1
 44
1.0
  0
POINT
  5
125AE
330
125A5
100
AcDbEntity
  8
Defpoints
 62
     0
100
AcDbPoint
 10
1495.0
 20
365.0
 30
0.0
  0
POINT
  5
125AF
330
125A5
100
AcDbEntity
  8
Defpoints
 62
     0
100
AcDbPoint
 10
1495.0
 20
1085.000000000001
 30
0.0
  0
POINT
  5
125B0
330
125A5
100
AcDbEntity
  8
Defpoints
 62
     0
100
AcDbPoint
 10
1300.0
 20
1085.000000000001
 30
0.0
  0
ENDBLK
  5
125A7
330
125A5
100
AcDbEntity
  8
0
100
AcDbBlockEnd
  0
BLOCK
  5
125B3
330
125B2
100
AcDbEntity
  8
0
100
AcDbBlockBegin
  2
*D1776
 70
     1
 10
0.0
 20
0.0
 30
0.0
  3
*D1776
  1

  0
LINE
  5
125B5
330
125B2
100
AcDbEntity
  8
01注記寸法
 62
     0
370
    -2
100
AcDbLine
 10
1472.5
 20
1085.000000000001
 30
0.0
 11
1285.0
 21
1085.000000000001
 31
0.0
  0
LINE
  5
125B6
330
125B2
100
AcDbEntity
  8
01注記寸法
 62
     0
370
    -2
100
AcDbLine
 10
1427.5
 20
1150.000000000001
 30
0.0
 11
1285.0
 21
1150.000000000001
 31
0.0
  0
LINE
  5
125B7
330
125B2
100
AcDbEntity
  8
01注記寸法
 62
     0
370
    -2
100
AcDbLine
 10
1300.0
 20
1085.000000000001
 30
0.0
 11
1300.0
 21
1150.000000000001
 31
0.0
  0
LINE
  5
125B8
330
125B2
100
AcDbEntity
  8
01注記寸法
 62
     0
370
    -2
100
AcDbLine
 10
1300.0
 20
1040.000000000001
 30
0.0
 11
1300.0
 21
995.0000000000009
 31
0.0
  0
LINE
  5
125B9
330
125B2
100
AcDbEntity
  8
01注記寸法
 62
     0
370
    -2
100
AcDbLine
 10
1300.0
 20
1195.000000000001
 30
0.0
 11
1300.0
 21
1240.000000000001
 31
0.0
  0
INSERT
  5
125BA
330
125B2
100
AcDbEntity
  8
01注記寸法
 62
     0
370
    -2
100
AcDbBlockReference
  2
_Open
 10
1300.0
 20
1085.000000000001
 30
0.0
 41
45.0
 42
45.0
 43
45.0
 50
90.0
  0
INSERT
  5
125BB
330
125B2
100
AcDbEntity
  8
01注記寸法
 62
     0
370
    -2
100
AcDbBlockReference
  2
_Open
 10
1300.0
 20
1150.000000000001
 30
0.0
 41
45.0
 42
45.0
 43
45.0
 50
270.0
  0
MTEXT
  5
125BC
330
125B2
100
AcDbEntity
  8
01注記寸法
 62
     0
100
AcDbMText
 10
1262.5
 20
1117.500000000001
 30
0.0
 40
45.0
 41
0.0
 71
     5
 72
     1
  1
65
 11
0.0
 21
1.0
 31
0.0
 73
     1
 44
1.0
  0
POINT
  5
125BD
330
125B2
100
AcDbEntity
  8
Defpoints
 62
     0
100
AcDbPoint
 10
1495.0
 20
1085.000000000001
 30
0.0
  0
POINT
  5
125BE
330
125B2
100
AcDbEntity
  8
Defpoints
 62
     0
100
AcDbPoint
 10
1450.0
 20
1150.000000000001
 30
0.0
  0
POINT
  5
125BF
330
125B2
100
AcDbEntity
  8
Defpoints
 62
     0
100
AcDbPoint
 10
1300.0
 20
1150.000000000001
 30
0.0
  0
ENDBLK
  5
125B4
330
125B2
100
AcDbEntity
  8
0
100
AcDbBlockEnd
  0
BLOCK
  5
125C2
330
125C1
100
AcDbEntity
  8
0
100
AcDbBlockBegin
  2
*D1777
 70
     1
 10
0.0
 20
0.0
 30
0.0
  3
*D1777
  1

  0
LINE
  5
125C4
330
125C1
100
AcDbEntity
  8
01注記寸法
 62
     0
370
    -2
100
AcDbLine
 10
1450.0
 20
1172.500000000001
 30
0.0
 11
1450.0
 21
1315.000000000001
 31
0.0
  0
LINE
  5
125C5
330
125C1
100
AcDbEntity
  8
01注記寸法
 62
     0
370
    -2
100
AcDbLine
 10
1515.0
 20
1127.500000000001
 30
0.0
 11
1515.0
 21
1315.000000000001
 31
0.0
  0
LINE
  5
125C6
330
125C1
100
AcDbEntity
  8
01注記寸法
 62
     0
370
    -2
100
AcDbLine
 10
1450.0
 20
1300.000000000001
 30
0.0
 11
1515.0
 21
1300.000000000001
 31
0.0
  0
LINE
  5
125C7
330
125C1
100
AcDbEntity
  8
01注記寸法
 62
     0
370
    -2
100
AcDbLine
 10
1405.0
 20
1300.000000000001
 30
0.0
 11
1360.0
 21
1300.000000000001
 31
0.0
  0
LINE
  5
125C8
330
125C1
100
AcDbEntity
  8
01注記寸法
 62
     0
370
    -2
100
AcDbLine
 10
1560.0
 20
1300.000000000001
 30
0.0
 11
1605.0
 21
1300.000000000001
 31
0.0
  0
INSERT
  5
125C9
330
125C1
100
AcDbEntity
  8
01注記寸法
 62
     0
370
    -2
100
AcDbBlockReference
  2
_Open
 10
1450.0
 20
1300.000000000001
 30
0.0
 41
45.0
 42
45.0
 43
45.0
  0
INSERT
  5
125CA
330
125C1
100
AcDbEntity
  8
01注記寸法
 62
     0
370
    -2
100
AcDbBlockReference
  2
_Open
 10
1515.0
 20
1300.000000000001
 30
0.0
 41
45.0
 42
45.0
 43
45.0
 50
180.0
  0
MTEXT
  5
125CB
330
125C1
100
AcDbEntity
  8
01注記寸法
 62
     0
100
AcDbMText
 10
1482.5
 20
1337.500000000001
 30
0.0
 40
45.0
 41
0.0
 71
     5
 72
     1
  1
65
 73
     1
 44
1.0
  0
POINT
  5
125CC
330
125C1
100
AcDbEntity
  8
Defpoints
 62
     0
100
AcDbPoint
 10
1450.0
 20
1150.000000000001
 30
0.0
  0
POINT
  5
125CD
330
125C1
100
AcDbEntity
  8
Defpoints
 62
     0
100
AcDbPoint
 10
1515.0
 20
1105.000000000001
 30
0.0
  0
POINT
  5
125CE
330
125C1
100
AcDbEntity
  8
Defpoints
 62
     0
100
AcDbPoint
 10
1515.0
 20
1300.000000000001
 30
0.0
  0
ENDBLK
  5
125C3
330
125C1
100
AcDbEntity
  8
0
100
AcDbBlockEnd
  0
BLOCK
  5
125D1
330
125D0
100
AcDbEntity
  8
0
100
AcDbBlockBegin
  2
*D1778
 70
     1
 10
0.0
 20
0.0
 30
0.0
  3
*D1778
  1

  0
LINE
  5
125D3
330
125D0
100
AcDbEntity
  8
01注記寸法
 62
     0
370
    -2
100
AcDbLine
 10
1515.0
 20
1127.500000000001
 30
0.0
 11
1515.0
 21
1315.000000000001
 31
0.0
  0
LINE
  5
125D4
330
125D0
100
AcDbEntity
  8
01注記寸法
 62
     0
370
    -2
100
AcDbLine
 10
2605.0
 20
1127.500000000001
 30
0.0
 11
2605.0
 21
1315.000000000001
 31
0.0
  0
LINE
  5
125D5
330
125D0
100
AcDbEntity
  8
01注記寸法
 62
     0
370
    -2
100
AcDbLine
 10
1560.0
 20
1300.000000000001
 30
0.0
 11
2560.0
 21
1300.000000000001
 31
0.0
  0
INSERT
  5
125D6
330
125D0
100
AcDbEntity
  8
01注記寸法
 62
     0
370
    -2
100
AcDbBlockReference
  2
_Open
 10
1515.0
 20
1300.000000000001
 30
0.0
 41
45.0
 42
45.0
 43
45.0
 50
180.0
  0
INSERT
  5
125D7
330
125D0
100
AcDbEntity
  8
01注記寸法
 62
     0
370
    -2
100
AcDbBlockReference
  2
_Open
 10
2605.0
 20
1300.000000000001
 30
0.0
 41
45.0
 42
45.0
 43
45.0
  0
MTEXT
  5
125D8
330
125D0
100
AcDbEntity
  8
01注記寸法
 62
     0
100
AcDbMText
 10
2060.0
 20
1337.500000000001
 30
0.0
 40
45.0
 41
0.0
 71
     5
 72
     1
  1
1090
 73
     1
 44
1.0
  0
POINT
  5
125D9
330
125D0
100
AcDbEntity
  8
Defpoints
 62
     0
100
AcDbPoint
 10
1515.0
 20
1105.000000000001
 30
0.0
  0
POINT
  5
125DA
330
125D0
100
AcDbEntity
  8
Defpoints
 62
     0
100
AcDbPoint
 10
2605.0
 20
1105.000000000001
 30
0.0
  0
POINT
  5
125DB
330
125D0
100
AcDbEntity
  8
Defpoints
 62
     0
100
AcDbPoint
 10
2605.0
 20
1300.000000000001
 30
0.0
  0
ENDBLK
  5
125D2
330
125D0
100
AcDbEntity
  8
0
100
AcDbBlockEnd
  0
BLOCK
  5
125DE
330
125DD
100
AcDbEntity
  8
0
100
AcDbBlockBegin
  2
*D1779
 70
     1
 10
0.0
 20
0.0
 30
0.0
  3
*D1779
  1

  0
LINE
  5
125E0
330
125DD
100
AcDbEntity
  8
01注記寸法
 62
     0
370
    -2
100
AcDbLine
 10
2605.0
 20
1127.500000000001
 30
0.0
 11
2605.0
 21
1315.000000000001
 31
0.0
  0
LINE
  5
125E1
330
125DD
100
AcDbEntity
  8
01注記寸法
 62
     0
370
    -2
100
AcDbLine
 10
2670.0
 20
1172.500000000001
 30
0.0
 11
2670.0
 21
1315.000000000001
 31
0.0
  0
LINE
  5
125E2
330
125DD
100
AcDbEntity
  8
01注記寸法
 62
     0
370
    -2
100
AcDbLine
 10
2605.0
 20
1300.000000000001
 30
0.0
 11
2670.0
 21
1300.000000000001
 31
0.0
  0
LINE
  5
125E3
330
125DD
100
AcDbEntity
  8
01注記寸法
 62
     0
370
    -2
100
AcDbLine
 10
2560.0
 20
1300.000000000001
 30
0.0
 11
2515.0
 21
1300.000000000001
 31
0.0
  0
LINE
  5
125E4
330
125DD
100
AcDbEntity
  8
01注記寸法
 62
     0
370
    -2
100
AcDbLine
 10
2715.0
 20
1300.000000000001
 30
0.0
 11
2760.0
 21
1300.000000000001
 31
0.0
  0
INSERT
  5
125E5
330
125DD
100
AcDbEntity
  8
01注記寸法
 62
     0
370
    -2
100
AcDbBlockReference
  2
_Open
 10
2605.0
 20
1300.000000000001
 30
0.0
 41
45.0
 42
45.0
 43
45.0
  0
INSERT
  5
125E6
330
125DD
100
AcDbEntity
  8
01注記寸法
 62
     0
370
    -2
100
AcDbBlockReference
  2
_Open
 10
2670.0
 20
1300.000000000001
 30
0.0
 41
45.0
 42
45.0
 43
45.0
 50
180.0
  0
MTEXT
  5
125E7
330
125DD
100
AcDbEntity
  8
01注記寸法
 62
     0
100
AcDbMText
 10
2637.5
 20
1337.500000000001
 30
0.0
 40
45.0
 41
0.0
 71
     5
 72
     1
  1
65
 73
     1
 44
1.0
  0
POINT
  5
125E8
330
125DD
100
AcDbEntity
  8
Defpoints
 62
     0
100
AcDbPoint
 10
2605.0
 20
1105.000000000001
 30
0.0
  0
POINT
  5
125E9
330
125DD
100
AcDbEntity
  8
Defpoints
 62
     0
100
AcDbPoint
 10
2670.0
 20
1150.000000000001
 30
0.0
  0
POINT
  5
125EA
330
125DD
100
AcDbEntity
  8
Defpoints
 62
     0
100
AcDbPoint
 10
2670.0
 20
1300.000000000001
 30
0.0
  0
ENDBLK
  5
125DF
330
125DD
100
AcDbEntity
  8
0
100
AcDbBlockEnd
  0
BLOCK
  5
125F3
330
125F2
100
AcDbEntity
  8
0
100
AcDbBlockBegin
  2
*D1780
 70
     1
 10
0.0
 20
0.0
 30
0.0
  3
*D1780
  1

  0
LINE
  5
125F5
330
125F2
100
AcDbEntity
  8
01注記寸法
 62
     0
370
    -2
100
AcDbLine
 10
2692.5
 20
3854.999999999997
 30
0.0
 11
2835.0
 21
3854.999999999997
 31
0.0
  0
LINE
  5
125F6
330
125F2
100
AcDbEntity
  8
01注記寸法
 62
     0
370
    -2
100
AcDbLine
 10
2686.5
 20
3724.999999999997
 30
0.0
 11
2835.0
 21
3724.999999999997
 31
0.0
  0
LINE
  5
125F7
330
125F2
100
AcDbEntity
  8
01注記寸法
 62
     0
370
    -2
100
AcDbLine
 10
2820.0
 20
3809.999999999997
 30
0.0
 11
2820.0
 21
3769.999999999997
 31
0.0
  0
INSERT
  5
125F8
330
125F2
100
AcDbEntity
  8
01注記寸法
 62
     0
370
    -2
100
AcDbBlockReference
  2
_Open
 10
2820.0
 20
3854.999999999997
 30
0.0
 41
45.0
 42
45.0
 43
45.0
 50
90.0
  0
INSERT
  5
125F9
330
125F2
100
AcDbEntity
  8
01注記寸法
 62
     0
370
    -2
100
AcDbBlockReference
  2
_Open
 10
2820.0
 20
3724.999999999997
 30
0.0
 41
45.0
 42
45.0
 43
45.0
 50
270.0
  0
MTEXT
  5
125FA
330
125F2
100
AcDbEntity
  8
01注記寸法
 62
     0
100
AcDbMText
 10
2782.5
 20
3789.999999999997
 30
0.0
 40
45.0
 41
0.0
 71
     5
 72
     1
  1
130
 11
0.0
 21
1.0
 31
0.0
 73
     1
 44
1.0
  0
POINT
  5
125FB
330
125F2
100
AcDbEntity
  8
Defpoints
 62
     0
100
AcDbPoint
 10
2670.0
 20
3854.999999999997
 30
0.0
  0
POINT
  5
125FC
330
125F2
100
AcDbEntity
  8
Defpoints
 62
     0
100
AcDbPoint
 10
2664.0
 20
3724.999999999997
 30
0.0
  0
POINT
  5
125FD
330
125F2
100
AcDbEntity
  8
Defpoints
 62
     0
100
AcDbPoint
 10
2820.0
 20
3724.999999999997
 30
0.0
  0
ENDBLK
  5
125F4
330
125F2
100
AcDbEntity
  8
0
100
AcDbBlockEnd
  0
BLOCK
  5
12600
330
125FF
100
AcDbEntity
  8
0
100
AcDbBlockBegin
  2
*D1781
 70
     1
 10
0.0
 20
0.0
 30
0.0
  3
*D1781
  1

  0
LINE
  5
12602
330
125FF
100
AcDbEntity
  8
01注記寸法
 62
     0
370
    -2
100
AcDbLine
 10
2686.5
 20
3134.999999999996
 30
0.0
 11
2835.0
 21
3134.999999999996
 31
0.0
  0
LINE
  5
12603
330
125FF
100
AcDbEntity
  8
01注記寸法
 62
     0
370
    -2
100
AcDbLine
 10
2692.5
 20
3004.999999999997
 30
0.0
 11
2835.0
 21
3004.999999999997
 31
0.0
  0
LINE
  5
12604
330
125FF
100
AcDbEntity
  8
01注記寸法
 62
     0
370
    -2
100
AcDbLine
 10
2820.0
 20
3089.999999999996
 30
0.0
 11
2820.0
 21
3049.999999999997
 31
0.0
  0
INSERT
  5
12605
330
125FF
100
AcDbEntity
  8
01注記寸法
 62
     0
370
    -2
100
AcDbBlockReference
  2
_Open
 10
2820.0
 20
3134.999999999996
 30
0.0
 41
45.0
 42
45.0
 43
45.0
 50
90.0
  0
INSERT
  5
12606
330
125FF
100
AcDbEntity
  8
01注記寸法
 62
     0
370
    -2
100
AcDbBlockReference
  2
_Open
 10
2820.0
 20
3004.999999999997
 30
0.0
 41
45.0
 42
45.0
 43
45.0
 50
270.0
  0
MTEXT
  5
12607
330
125FF
100
AcDbEntity
  8
01注記寸法
 62
     0
100
AcDbMText
 10
2782.5
 20
3069.999999999997
 30
0.0
 40
45.0
 41
0.0
 71
     5
 72
     1
  1
130
 11
0.0
 21
1.0
 31
0.0
 73
     1
 44
1.0
  0
POINT
  5
12608
330
125FF
100
AcDbEntity
  8
Defpoints
 62
     0
100
AcDbPoint
 10
2664.0
 20
3134.999999999996
 30
0.0
  0
POINT
  5
12609
330
125FF
100
AcDbEntity
  8
Defpoints
 62
     0
100
AcDbPoint
 10
2670.0
 20
3004.999999999997
 30
0.0
  0
POINT
  5
1260A
330
125FF
100
AcDbEntity
  8
Defpoints
 62
     0
100
AcDbPoint
 10
2820.0
 20
3004.999999999997
 30
0.0
  0
ENDBLK
  5
12601
330
125FF
100
AcDbEntity
  8
0
100
AcDbBlockEnd
  0
ENDSEC
  0
SECTION
  2
ENTITIES
  0
LWPOLYLINE
  5
8AD0
330
1F
100
AcDbEntity
  8
02実線
100
AcDbPolyline
 90
        4
 70
     1
 43
0.0
 10
1450.0
 20
3004.999999999996
 10
1450.0
 20
3854.999999999997
 10
2670.0
 20
3854.999999999997
 10
2670.0
 20
3004.999999999996
  0
LWPOLYLINE
  5
8AD1
330
1F
100
AcDbEntity
  8
03破線
100
AcDbPolyline
 90
        8
 70
     1
 43
0.0
 10
1456.0
 20
3019.499999999996
 10
1456.0
 20
3840.499999999997
 42
-0.414213562373095
 10
1464.5
 20
3848.999999999997
 10
2655.5
 20
3848.999999999997
 42
-0.414213562373095
 10
2664.0
 20
3840.499999999997
 10
2664.0
 20
3019.499999999996
 42
-0.414213562373095
 10
2655.5
 20
3010.999999999996
 10
1464.5
 20
3010.999999999996
 42
-0.414213562373095
  0
LWPOLYLINE
  5
8AD2
330
1F
100
AcDbEntity
  8
03破線
100
AcDbPolyline
 90
        6
 70
     0
 43
0.0
 10
1456.0
 20
1656.0
 10
1456.0
 20
2635.5
 42
-0.414213562373095
 10
1464.5
 20
2644.0
 10
2655.5
 20
2644.0
 42
-0.414213562373095
 10
2664.0
 20
2635.5
 10
2664.0
 20
1656.0
  0
LWPOLYLINE
  5
8AD3
330
1F
100
AcDbEntity
  8
02実線
100
AcDbPolyline
 90
        4
 70
     0
 43
0.0
 10
1450.0
 20
1656.0
 10
1450.0
 20
2650.0
 10
2670.0
 20
2650.0
 10
2670.0
 20
1656.0
  0
LWPOLYLINE
  5
8AD4
330
1F
100
AcDbEntity
  8
02実線
100
AcDbPolyline
 90
        4
 70
     1
 43
0.0
 10
1440.0
 20
1650.0
 10
1440.0
 20
1656.0
 10
1540.0
 20
1656.0
 10
1540.0
 20
1650.0
  0
LINE
  5
8AD5
330
1F
100
AcDbEntity
  8
04一点鎖線
  6
CENTER
100
AcDbLine
 10
1515.0
 20
1640.0
 30
0.0
 11
1515.0
 21
1666.0
 31
0.0
  0
LINE
  5
8AD6
330
1F
100
AcDbEntity
  8
04一点鎖線
  6
CENTER
100
AcDbLine
 10
2605.0
 20
1640.0
 30
0.0
 11
2605.0
 21
1666.0
 31
0.0
  0
LWPOLYLINE
  5
8AD7
330
1F
100
AcDbEntity
  8
02実線
100
AcDbPolyline
 90
        4
 70
     1
 43
0.0
 10
2680.0
 20
1650.0
 10
2680.0
 20
1656.0
 10
2580.0
 20
1656.0
 10
2580.0
 20
1650.0
  0
LINE
  5
8AE0
102
{ACAD_REACTORS
330
D912
102
}
330
1F
100
AcDbEntity
  8
03破線
100
AcDbLine
 10
1515.0
 20
3134.999999999996
 30
0.0
 11
1456.0
 21
3134.999999999996
 31
0.0
  0
LINE
  5
8AE1
102
{ACAD_REACTORS
330
D912
102
}
330
1F
100
AcDbEntity
  8
03破線
100
AcDbLine
 10
2605.0
 20
3134.999999999996
 30
0.0
 11
2664.0
 21
3134.999999999996
 31
0.0
  0
LINE
  5
8AE3
102
{ACAD_REACTORS
330
D912
102
}
330
1F
100
AcDbEntity
  8
03破線
100
AcDbLine
 10
2664.0
 20
3128.999999999996
 30
0.0
 11
1456.0
 21
3128.999999999996
 31
0.0
  0
LWPOLYLINE
  5
8AE6
330
1F
100
AcDbEntity
  8
02実線
100
AcDbPolyline
 90
        4
 70
     0
 43
0.0
 10
1515.0
 20
1656.0
 10
1515.0
 20
2585.0
 10
2605.0
 20
2585.0
 10
2605.0
 20
1656.0
  0
INSERT
  5
8AE7
330
1F
100
AcDbEntity
  8
03破線
100
AcDbBlockReference
  2
L65x65xt6-破線
 10
1450.0
 20
1850.0
 30
0.0
  0
INSERT
  5
8AE8
330
1F
100
AcDbEntity
  8
03破線
100
AcDbBlockReference
  2
L65x65xt6-破線
 10
1450.0
 20
2650.0
 30
0.0
  0
INSERT
  5
8AE9
330
1F
100
AcDbEntity
  8
03破線
100
AcDbBlockReference
  2
L65x65xt6-破線
 10
2670.0
 20
2650.0
 30
0.0
 41
-1.0
  0
INSERT
  5
8AEA
330
1F
100
AcDbEntity
  8
03破線
100
AcDbBlockReference
  2
L65x65xt6-破線
 10
2670.0
 20
1850.0
 30
0.0
 41
-1.0
  0
LWPOLYLINE
  5
8AEB
330
1F
100
AcDbEntity
  8
02実線
100
AcDbPolyline
 90
        4
 70
     1
 43
0.0
 10
1515.0
 20
3069.999999999996
 10
1515.0
 20
3789.999999999997
 10
2605.0
 20
3789.999999999997
 10
2605.0
 20
3069.999999999996
  0
INSERT
  5
8AEE
330
1F
100
AcDbEntity
  8
03破線
100
AcDbBlockReference
  2
L65x65xt6-破線
 10
1450.0
 20
3854.999999999997
 30
0.0
  0
INSERT
  5
8AEF
330
1F
100
AcDbEntity
  8
03破線
100
AcDbBlockReference
  2
L65x65xt6-破線
 10
2670.0
 20
3854.999999999997
 30
0.0
 41
-1.0
  0
INSERT
  5
8AF2
330
1F
100
AcDbEntity
  8
03破線
100
AcDbBlockReference
  2
L65x65xt6-破線
 10
1450.0
 20
3004.999999999997
 30
0.0
 41
-1.0
 50
180.0
  0
INSERT
  5
8AF3
330
1F
100
AcDbEntity
  8
03破線
100
AcDbBlockReference
  2
L65x65xt6-破線
 10
2670.0
 20
3004.999999999997
 30
0.0
 50
180.0
  0
LINE
  5
8BD0
330
1F
100
AcDbEntity
  8
02実線
100
AcDbLine
 10
2605.0
 20
1850.0
 30
0.0
 11
1515.0
 21
1850.0
 31
0.0
  0
LINE
  5
8BD1
330
1F
100
AcDbEntity
  8
02実線
100
AcDbLine
 10
2605.0
 20
1785.0
 30
0.0
 11
1515.0
 21
1785.0
 31
0.0
  0
LINE
  5
96D6
330
1F
100
AcDbEntity
  8
03破線
100
AcDbLine
 10
2605.0
 20
1844.0
 30
0.0
 11
1515.0
 21
1844.0
 31
0.0
  0
LWPOLYLINE
  5
BAC5
330
1F
100
AcDbEntity
  8
03破線
100
AcDbPolyline
 90
        6
 70
     0
 43
0.0
 10
3076.0
 20
1656.0
 10
3076.0
 20
2635.5
 42
-0.414213562373095
 10
3084.5
 20
2644.0
 10
3905.5
 20
2644.0
 42
-0.414213562373095
 10
3914.0
 20
2635.5
 10
3914.0
 20
1656.0
  0
LWPOLYLINE
  5
BAC6
330
1F
100
AcDbEntity
  8
02実線
100
AcDbPolyline
 90
        4
 70
     0
 43
0.0
 10
3070.0
 20
1656.0
 10
3070.0
 20
2650.0
 10
3920.0
 20
2650.0
 10
3920.0
 20
1656.0
  0
LWPOLYLINE
  5
BAC7
330
1F
100
AcDbEntity
  8
02実線
100
AcDbPolyline
 90
        4
 70
     1
 43
0.0
 10
3060.0
 20
1650.0
 10
3060.0
 20
1656.0
 10
3160.0
 20
1656.0
 10
3160.0
 20
1650.0
  0
LINE
  5
BAC8
330
1F
100
AcDbEntity
  8
04一点鎖線
  6
CENTER
100
AcDbLine
 10
3135.0
 20
1640.0
 30
0.0
 11
3135.0
 21
1666.0
 31
0.0
  0
LINE
  5
BAC9
330
1F
100
AcDbEntity
  8
04一点鎖線
  6
CENTER
100
AcDbLine
 10
3855.0
 20
1640.0
 30
0.0
 11
3855.0
 21
1666.0
 31
0.0
  0
LWPOLYLINE
  5
BACA
330
1F
100
AcDbEntity
  8
02実線
100
AcDbPolyline
 90
        4
 70
     1
 43
0.0
 10
3930.0
 20
1650.0
 10
3930.0
 20
1656.0
 10
3830.0
 20
1656.0
 10
3830.0
 20
1650.0
  0
LINE
  5
BACB
330
1F
100
AcDbEntity
  8
03破線
100
AcDbLine
 10
3855.0
 20
1844.0
 30
0.0
 11
3135.0
 21
1844.0
 31
0.0
  0
LINE
  5
BACC
330
1F
100
AcDbEntity
  8
02実線
100
AcDbLine
 10
3855.0
 20
1850.0
 30
0.0
 11
3135.0
 21
1850.0
 31
0.0
  0
LINE
  5
BACD
330
1F
100
AcDbEntity
  8
02実線
100
AcDbLine
 10
3855.0
 20
1785.0
 30
0.0
 11
3135.0
 21
1785.0
 31
0.0
  0
LWPOLYLINE
  5
BACE
330
1F
100
AcDbEntity
  8
02実線
100
AcDbPolyline
 90
        4
 70
     0
 43
0.0
 10
3135.0
 20
1656.0
 10
3135.0
 20
2585.0
 10
3855.0
 20
2585.0
 10
3855.0
 20
1656.0
  0
INSERT
  5
BACF
330
1F
100
AcDbEntity
  8
03破線
100
AcDbBlockReference
  2
L65x65xt6-破線
 10
3070.0
 20
1850.0
 30
0.0
  0
INSERT
  5
BAD0
330
1F
100
AcDbEntity
  8
03破線
100
AcDbBlockReference
  2
L65x65xt6-破線
 10
3070.0
 20
2650.0
 30
0.0
  0
INSERT
  5
BAD1
330
1F
100
AcDbEntity
  8
03破線
100
AcDbBlockReference
  2
L65x65xt6-破線
 10
3920.0
 20
2650.0
 30
0.0
 41
-1.0
  0
INSERT
  5
BAD2
330
1F
100
AcDbEntity
  8
03破線
100
AcDbBlockReference
  2
L65x65xt6-破線
 10
3920.0
 20
1850.0
 30
0.0
 41
-1.0
  0
LWPOLYLINE
  5
D910
102
{ACAD_REACTORS
330
D912
102
}
330
1F
100
AcDbEntity
  8
02実線
100
AcDbPolyline
 90
        4
 70
     1
 43
0.0
 10
1515.0
 20
3069.999999999996
 10
1515.0
 20
3134.999999999996
 10
2605.0
 20
3134.999999999996
 10
2605.0
 20
3069.999999999996
  0
LINE
  5
D911
102
{ACAD_REACTORS
330
D912
102
}
330
1F
100
AcDbEntity
  8
08非表示
100
AcDbLine
 10
1515.0
 20
3102.499999999996
 30
0.0
 11
2605.0
 21
3102.499999999996
 31
0.0
  0
LWPOLYLINE
  5
11F52
102
{ACAD_REACTORS
330
11F5E
102
}
330
1F
100
AcDbEntity
  8
02実線
100
AcDbPolyline
 90
        8
 70
     1
 43
0.0
 10
1527.0
 20
3824.999999999997
 10
1527.0
 20
3824.999999999997
 42
-0.414213562373095
 10
1535.0
 20
3832.999999999997
 10
1550.0
 20
3832.999999999997
 42
-0.414213562373095
 10
1558.0
 20
3824.999999999997
 10
1558.0
 20
3824.999999999997
 42
-0.414213562373095
 10
1550.0
 20
3816.999999999997
 10
1535.0
 20
3816.999999999997
 42
-0.414213562373095
  0
LINE
  5
11F5B
102
{ACAD_REACTORS
330
11F5E
102
}
330
1F
100
AcDbEntity
  8
04一点鎖線
  6
CENTER
 48
0.2
100
AcDbLine
 10
1515.0
 20
3824.999999999997
 30
0.0
 11
1570.0
 21
3824.999999999997
 31
0.0
  0
LINE
  5
11F5D
102
{ACAD_REACTORS
330
11F5E
102
}
330
1F
100
AcDbEntity
  8
04一点鎖線
  6
CENTER
 48
0.2
100
AcDbLine
 10
1542.5
 20
3804.999999999997
 30
0.0
 11
1542.5
 21
3844.999999999997
 31
0.0
  0
LWPOLYLINE
  5
11F5F
102
{ACAD_REACTORS
330
11F62
102
}
330
1F
100
AcDbEntity
  8
02実線
100
AcDbPolyline
 90
        8
 70
     1
 43
0.0
 10
1527.0
 20
3034.999999999997
 10
1527.0
 20
3034.999999999997
 42
0.414213562373095
 10
1535.0
 20
3026.999999999997
 10
1550.0
 20
3026.999999999997
 42
0.414213562373095
 10
1558.0
 20
3034.999999999997
 10
1558.0
 20
3034.999999999997
 42
0.414213562373095
 10
1550.0
 20
3042.999999999997
 10
1535.0
 20
3042.999999999997
 42
0.414213562373095
  0
LINE
  5
11F60
102
{ACAD_REACTORS
330
11F62
102
}
330
1F
100
AcDbEntity
  8
04一点鎖線
  6
CENTER
 48
0.2
100
AcDbLine
 10
1515.0
 20
3034.999999999997
 30
0.0
 11
1570.0
 21
3034.999999999997
 31
0.0
  0
LINE
  5
11F61
102
{ACAD_REACTORS
330
11F62
102
}
330
1F
100
AcDbEntity
  8
04一点鎖線
  6
CENTER
 48
0.2
100
AcDbLine
 10
1542.5
 20
3054.999999999997
 30
0.0
 11
1542.5
 21
3014.999999999996
 31
0.0
  0
LWPOLYLINE
  5
11F63
102
{ACAD_REACTORS
330
11F6A
102
}
330
1F
100
AcDbEntity
  8
02実線
100
AcDbPolyline
 90
        8
 70
     1
 43
0.0
 10
2593.0
 20
3824.999999999997
 10
2593.0
 20
3824.999999999997
 42
0.414213562373095
 10
2585.0
 20
3832.999999999997
 10
2570.0
 20
3832.999999999997
 42
0.414213562373095
 10
2562.0
 20
3824.999999999997
 10
2562.0
 20
3824.999999999997
 42
0.414213562373095
 10
2570.0
 20
3816.999999999997
 10
2585.0
 20
3816.999999999997
 42
0.414213562373095
  0
LINE
  5
11F64
102
{ACAD_REACTORS
330
11F6A
102
}
330
1F
100
AcDbEntity
  8
04一点鎖線
  6
CENTER
 48
0.2
100
AcDbLine
 10
2605.0
 20
3824.999999999997
 30
0.0
 11
2550.0
 21
3824.999999999997
 31
0.0
  0
LINE
  5
11F65
102
{ACAD_REACTORS
330
11F6A
102
}
330
1F
100
AcDbEntity
  8
04一点鎖線
  6
CENTER
 48
0.2
100
AcDbLine
 10
2577.5
 20
3804.999999999997
 30
0.0
 11
2577.5
 21
3844.999999999997
 31
0.0
  0
LWPOLYLINE
  5
11F66
102
{ACAD_REACTORS
330
11F69
102
}
330
1F
100
AcDbEntity
  8
02実線
100
AcDbPolyline
 90
        8
 70
     1
 43
0.0
 10
2593.0
 20
3034.999999999997
 10
2593.0
 20
3034.999999999997
 42
-0.414213562373095
 10
2585.0
 20
3026.999999999997
 10
2570.0
 20
3026.999999999997
 42
-0.414213562373095
 10
2562.0
 20
3034.999999999997
 10
2562.0
 20
3034.999999999997
 42
-0.414213562373095
 10
2570.0
 20
3042.999999999997
 10
2585.0
 20
3042.999999999997
 42
-0.414213562373095
  0
LINE
  5
11F67
102
{ACAD_REACTORS
330
11F69
102
}
330
1F
100
AcDbEntity
  8
04一点鎖線
  6
CENTER
 48
0.2
100
AcDbLine
 10
2605.0
 20
3034.999999999997
 30
0.0
 11
2550.0
 21
3034.999999999997
 31
0.0
  0
LINE
  5
11F68
102
{ACAD_REACTORS
330
11F69
102
}
330
1F
100
AcDbEntity
  8
04一点鎖線
  6
CENTER
 48
0.2
100
AcDbLine
 10
2577.5
 20
3054.999999999997
 30
0.0
 11
2577.5
 21
3014.999999999996
 31
0.0
  0
LINE
  5
12380
102
{ACAD_REACTORS
330
12385
102
}
330
1F
100
AcDbEntity
  8
03破線
100
AcDbLine
 10
1515.0
 20
3724.999999999997
 30
0.0
 11
1456.0
 21
3724.999999999997
 31
0.0
  0
LINE
  5
12381
102
{ACAD_REACTORS
330
12385
102
}
330
1F
100
AcDbEntity
  8
03破線
100
AcDbLine
 10
2605.0
 20
3724.999999999997
 30
0.0
 11
2664.0
 21
3724.999999999997
 31
0.0
  0
LINE
  5
12382
102
{ACAD_REACTORS
330
12385
102
}
330
1F
100
AcDbEntity
  8
03破線
100
AcDbLine
 10
2664.0
 20
3730.999999999997
 30
0.0
 11
1456.0
 21
3730.999999999997
 31
0.0
  0
LWPOLYLINE
  5
12383
102
{ACAD_REACTORS
330
12385
102
}
330
1F
100
AcDbEntity
  8
02実線
100
AcDbPolyline
 90
        4
 70
     1
 43
0.0
 10
1515.0
 20
3789.999999999997
 10
1515.0
 20
3724.999999999997
 10
2605.0
 20
3724.999999999997
 10
2605.0
 20
3789.999999999997
  0
LINE
  5
12384
102
{ACAD_REACTORS
330
12385
102
}
330
1F
100
AcDbEntity
  8
08非表示
100
AcDbLine
 10
1515.0
 20
3757.499999999997
 30
0.0
 11
2605.0
 21
3757.499999999997
 31
0.0
  0
INSERT
  5
12386
330
1F
100
AcDbEntity
  8
03破線
100
AcDbBlockReference
  2
L65x65xt6-破線
 10
3790.0
 20
2650.0
 30
0.0
  0
INSERT
  5
12387
330
1F
100
AcDbEntity
  8
03破線
100
AcDbBlockReference
  2
L65x65xt6-破線
 10
3200.0
 20
2650.0
 30
0.0
 41
-1.0
  0
VIEWPORT
  5
9F0D
330
1B
100
AcDbEntity
 67
     1
  8
0
100
AcDbViewport
 10
202.5
 20
128.5
 30
0.0
 40
486.0
 41
308.4
 68
     1
 69
     1
 12
202.5
 22
128.5
 13
0.0
 23
0.0
 14
0.5
 24
0.5
 15
0.0
 25
0.0
 16
0.0
 26
0.0
 36
1.0
 17
0.0
 27
0.0
 37
0.0
 42
50.0
 43
0.0
 44
0.0
 45
308.4
 50
0.0
 51
0.0
 72
   100
 90
   557152
  1

281
     0
 71
     1
 74
     0
110
0.0
120
0.0
130
0.0
111
1.0
121
0.0
131
0.0
112
0.0
122
1.0
132
0.0
 79
     0
146
0.0
  0
VIEWPORT
  5
9F0E
330
1B
100
AcDbEntity
 67
     1
  8
0
100
AcDbViewport
 10
202.5
 20
128.5
 30
0.0
 40
324.0
 41
205.6
 68
     2
 69
     2
 12
-3224.9849078482
 22
3553.815758143106
 13
0.0
 23
0.0
 14
0.5
 24
0.5
 15
0.0
 25
0.0
 16
0.0
 26
0.0
 36
1.0
 17
0.0
 27
0.0
 37
0.0
 42
50.0
 43
0.0
 44
0.0
 45
10712.16027781073
 50
0.0
 51
0.0
 72
   100
 90
   557152
  1

281
     0
 71
     1
 74
     0
110
0.0
120
0.0
130
0.0
111
1.0
121
0.0
131
0.0
112
0.0
122
1.0
132
0.0
 79
     0
146
0.0
  0
ENDSEC
  0
SECTION
  2
OBJECTS
  0
DICTIONARY
  5
C
330
0
100
AcDbDictionary
281
     1
  3
ACAD_DETAILVIEWSTYLE
350
1210D
  3
ACAD_GROUP
350
D
  3
ACAD_IMAGE_VARS
350
6A88
  3
ACAD_LAYOUT
350
1A
  3
ACAD_MLINESTYLE
350
17
  3
ACAD_PLOTSETTINGS
350
19
  3
ACAD_PLOTSTYLENAME
350
E
  3
ACAD_SCALELIST
350
6A4E
  3
ACAD_SECTIONVIEWSTYLE
350
1210E
  3
AcadDim
350
FB97
  3
AcDbVariableDictionary
350
79E
  3
APPDATA
350
6A87
  3
DWGPROPS
350
12635
  0
DICTIONARY
  5
7A6F
330
2
100
AcDbDictionary
280
     1
281
     1
  3
ACAD_LAYERSTATES
360
7A70
  3
ACLYDICTIONARY
360
F959
  0
DICTIONARY
  5
969E
330
1F
100
AcDbDictionary
280
     1
281
     1
  3
ACAD_SORTENTS
360
969F
  0
DICTIONARY
  5
1210D
102
{ACAD_REACTORS
330
C
102
}
330
C
100
AcDbDictionary
281
     1
  0
DICTIONARY
  5
D
102
{ACAD_REACTORS
330
C
102
}
330
C
100
AcDbDictionary
281
     1
  3
*A1
350
D912
  3
*A2
350
11F5E
  3
*A3
350
11F62
  3
*A4
350
11F69
  3
*A5
350
11F6A
  3
*A6
350
122F9
  3
*A7
350
12385
  0
RASTERVARIABLES
  5
6A88
102
{ACAD_REACTORS
330
C
102
}
330
C
100
AcDbRasterVariables
 90
        0
 70
     1
 71
     1
 72
     1
  0
DICTIONARY
  5
1A
102
{ACAD_REACTORS
330
C
102
}
330
C
100
AcDbDictionary
281
     1
  3
Layout1
350
1E
  3
Model
350
22
  0
DICTIONARY
  5
17
102
{ACAD_REACTORS
330
C
102
}
330
C
100
AcDbDictionary
281
     1
  3
Standard
350
18
  0
DICTIONARY
  5
19
102
{ACAD_REACTORS
330
C
102
}
330
C
100
AcDbDictionary
281
     1
  0
ACDBDICTIONARYWDFLT
  5
E
102
{ACAD_REACTORS
330
C
102
}
330
C
100
AcDbDictionary
281
     1
  3
Normal
350
F
100
AcDbDictionaryWithDefault
340
F
  0
DICTIONARY
  5
6A4E
102
{ACAD_REACTORS
330
C
102
}
330
C
100
AcDbDictionary
281
     1
  3
A0
350
6A4F
  3
A1
350
6A50
  3
A2
350
6A51
  3
A3
350
6A52
  3
A4
350
6A53
  3
A5
350
6A54
  3
A6
350
6A55
  3
A7
350
6A56
  3
A8
350
6A57
  3
A9
350
6A58
  3
B0
350
6A59
  3
B1
350
6A5A
  3
B2
350
6A5B
  3
B3
350
6A5C
  3
B4
350
6A5D
  3
B5
350
6A5E
  3
B6
350
6A5F
  3
B7
350
6A60
  3
B8
350
6A61
  3
B9
350
6A62
  3
C0
350
6A63
  3
C1
350
6A64
  3
C2
350
6A65
  3
C3
350
6A66
  3
C4
350
6A67
  3
C5
350
6A68
  3
C6
350
6A69
  3
C7
350
6A6A
  3
C8
350
6A6B
  3
C9
350
6A6C
  3
D0
350
6A6D
  3
D1
350
6A6E
  3
D2
350
6A6F
  0
DICTIONARY
  5
1210E
102
{ACAD_REACTORS
330
C
102
}
330
C
100
AcDbDictionary
281
     1
  0
XRECORD
  5
FB97
102
{ACAD_REACTORS
330
C
102
}
330
C
100
AcDbXrecord
280
     1
340
0
 72
     0
 71
     0
 70
     0
 69
     0
 68
     1
 67
     3
 66
     0
 65
     0
 64
     0
 63
     3
 62
     1
 61
     0
 60
     0
 40
0.0
  0
DICTIONARY
  5
79E
102
{ACAD_REACTORS
330
C
102
}
330
C
100
AcDbDictionary
281
     1
  3
DIMASSOC
350
79F
  3
SORTENTS
350
264F
  0
DICTIONARY
  5
6A87
102
{ACAD_REACTORS
330
C
102
}
330
C
100
AcDbDictionary
281
     1
  0
XRECORD
  5
12635
102
{ACAD_REACTORS
330
C
102
}
330
C
100
AcDbXrecord
280
     1
  1
DWGPROPS COOKIE
  2

  3

  4

  6

  7

  8
2328
  9

300
=
301
=
302
=
303
=
304
=
305
=
306
=
307
=
308
=
309
=
 40
0.0
 41
2455859.030048461
 42
2458376.027884028
  1

 90
        0
  0
DICTIONARY
  5
7A70
102
{ACAD_REACTORS
330
7A6F
102
}
330
7A6F
100
AcDbDictionary
281
     1
  0
DICTIONARY
  5
F959
102
{ACAD_REACTORS
330
7A6F
102
}
330
7A6F
100
AcDbDictionary
281
     1
1001
ACAD
1000
<All
  0
SORTENTSTABLE
  5
969F
102
{ACAD_REACTORS
330
969E
102
}
330
969E
100
AcDbSortentsTable
330
1F
331
0
  5
7ED1
331
0
  5
8ABB
331
8AD0
  5
8AF4
331
8AD1
  5
8AF5
331
8AD2
  5
8AF7
331
8AD3
  5
8AF8
331
8AD4
  5
8AFA
331
8AD5
  5
8AFB
331
8AD6
  5
8AFC
331
8AD7
  5
8AFD
331
8AE0
  5
8B05
331
8AE1
  5
8B07
331
8AE3
  5
8B0A
331
8AE6
  5
8B0B
331
8AE7
  5
8B0C
331
8AE8
  5
8B0F
331
8AE9
  5
8B10
331
8AEA
  5
8B13
331
8AEB
  5
8B14
331
8AEE
  5
8BED
331
8AEF
  5
8BEE
331
8AF2
  5
8BF5
331
8AF3
  5
8BF6
331
8BD0
  5
8C22
331
8BD1
  5
8C5E
331
96D6
  5
9A87
331
0
  5
B899
331
0
  5
B89A
331
0
  5
B89B
331
0
  5
B8AD
331
BAC5
  5
BBB0
331
BAC6
  5
BBB1
331
BAC7
  5
BBB2
331
BAC8
  5
BBB3
331
BAC9
  5
BBB4
331
BACA
  5
BBB9
331
BACB
  5
BBBA
331
BACC
  5
BBBB
331
BACD
  5
BBBC
331
BACE
  5
BBBD
331
BACF
  5
BBBE
331
BAD0
  5
BBC0
331
BAD1
  5
BBC1
331
BAD2
  5
BBC2
331
0
  5
BBCE
331
0
  5
D346
331
0
  5
D354
331
0
  5
D355
331
0
  5
D356
331
0
  5
D357
331
0
  5
D366
331
0
  5
D63A
331
0
  5
D63B
331
0
  5
D63C
331
D910
  5
D93D
331
D911
  5
D93E
331
0
  5
F80F
331
0
  5
F817
331
0
  5
F81B
331
0
  5
F9D1
331
0
  5
7E94
331
0
  5
10243
331
0
  5
10244
331
0
  5
10245
331
0
  5
10246
331
0
  5
10248
331
0
  5
10249
331
0
  5
1024A
331
0
  5
1024B
331
0
  5
102A7
331
0
  5
102A8
331
0
  5
102A9
331
0
  5
10780
331
0
  5
10781
331
0
  5
10782
331
0
  5
10783
331
0
  5
11F1F
331
0
  5
11F20
331
0
  5
11F2E
331
0
  5
11F2F
331
0
  5
11F30
331
11F52
  5
11F56
331
11F5B
  5
11F61
331
11F5D
  5
11F63
331
11F5F
  5
11F64
331
11F60
  5
11F65
331
11F61
  5
11F66
331
11F63
  5
11F67
331
11F64
  5
11F68
331
11F65
  5
11F6B
331
11F66
  5
11F6C
331
11F67
  5
11F6D
331
11F68
  5
11F6E
331
0
  5
11F6F
331
0
  5
11F70
331
0
  5
11F71
331
0
  5
11F72
331
0
  5
11F73
331
0
  5
11F74
331
0
  5
11F75
331
0
  5
11F76
331
0
  5
11F77
331
0
  5
11F78
331
0
  5
11F79
331
0
  5
11F7A
331
0
  5
11F7B
331
0
  5
11F7C
331
0
  5
11F7D
331
0
  5
11F7E
331
0
  5
11F7F
331
0
  5
11F80
331
0
  5
11F81
331
0
  5
11F82
331
0
  5
11F83
331
0
  5
11F84
331
0
  5
11F85
331
0
  5
11F86
331
0
  5
11F87
331
0
  5
11F88
331
0
  5
11F89
331
0
  5
11F8A
331
0
  5
11F8B
331
0
  5
11F8C
331
0
  5
11F8D
331
0
  5
11F8E
331
0
  5
11F8F
331
0
  5
11F90
331
0
  5
11F91
331
0
  5
11F92
331
0
  5
11F93
331
0
  5
11F94
331
0
  5
11F95
331
0
  5
11F96
331
0
  5
11F97
331
0
  5
11F98
331
0
  5
11F99
331
0
  5
11F9A
331
0
  5
11F9B
331
0
  5
11F9C
331
0
  5
11F9D
331
0
  5
11F9E
331
0
  5
11F9F
331
0
  5
11FA0
331
0
  5
11FA1
331
0
  5
11FA2
331
0
  5
11FA3
331
0
  5
11FA4
331
0
  5
11FA5
331
0
  5
11FA6
331
0
  5
11FA7
331
0
  5
11FA8
331
0
  5
11FA9
331
0
  5
11FAA
331
0
  5
11FAB
331
0
  5
11FAC
331
0
  5
11FAD
331
0
  5
11FAE
331
0
  5
11FAF
331
0
  5
11FB0
331
0
  5
11FB1
331
0
  5
11FB2
331
0
  5
11FB3
331
0
  5
11FB4
331
0
  5
11FB5
331
0
  5
11FB6
331
0
  5
11FB7
331
0
  5
11FB8
331
0
  5
11FB9
331
0
  5
11FBA
331
0
  5
11FBB
331
0
  5
11FBC
331
0
  5
11FBD
331
0
  5
11FBE
331
0
  5
11FBF
331
0
  5
11FC0
331
0
  5
11FC1
331
0
  5
11FC2
331
0
  5
11FC3
331
0
  5
11FC4
331
0
  5
11FC5
331
0
  5
11FC6
331
0
  5
11FC7
331
0
  5
11FC8
331
0
  5
11FC9
331
0
  5
11FCA
331
0
  5
11FCB
331
0
  5
11FCC
331
0
  5
11FCD
331
0
  5
11FCE
331
0
  5
11FCF
331
0
  5
11FD0
331
0
  5
11FD1
331
0
  5
11FD2
331
0
  5
11FD3
331
0
  5
11FD4
331
0
  5
11FD5
331
0
  5
11FD6
331
0
  5
11FD7
331
0
  5
11FD8
331
0
  5
11FD9
331
0
  5
11FDA
331
0
  5
11FDB
331
0
  5
11FDC
331
0
  5
11FDD
331
0
  5
11FDE
331
0
  5
11FDF
331
0
  5
11FE0
331
0
  5
11FE1
331
0
  5
11FE2
331
0
  5
11FE3
331
0
  5
11FE4
331
0
  5
11FE5
331
0
  5
11FE6
331
0
  5
11FE7
331
0
  5
11FE8
331
0
  5
11FE9
331
0
  5
11FEA
331
0
  5
11FEB
331
0
  5
11FEC
331
0
  5
11FED
331
0
  5
11FEE
331
0
  5
11FEF
331
0
  5
11FF0
331
0
  5
11FF1
331
0
  5
11FF2
331
0
  5
11FF3
331
0
  5
11FF4
331
0
  5
11FF5
331
0
  5
11FF6
331
0
  5
11FF7
331
0
  5
11FF8
331
0
  5
11FF9
331
0
  5
11FFA
331
0
  5
11FFB
331
0
  5
11FFC
331
0
  5
11FFD
331
0
  5
11FFE
331
0
  5
11FFF
331
0
  5
12000
331
0
  5
12001
331
0
  5
12002
331
0
  5
12003
331
0
  5
12004
331
0
  5
12005
331
0
  5
12006
331
0
  5
12007
331
0
  5
12008
331
0
  5
12009
331
0
  5
1200A
331
0
  5
1200B
331
0
  5
1200C
331
0
  5
1200D
331
0
  5
1200E
331
0
  5
1200F
331
0
  5
12010
331
0
  5
12011
331
0
  5
12016
331
0
  5
12017
331
0
  5
12018
331
0
  5
12019
331
0
  5
1201A
331
0
  5
1201B
331
0
  5
1201C
331
0
  5
1201D
331
0
  5
1201E
331
0
  5
1201F
331
0
  5
12020
331
0
  5
12021
331
0
  5
12022
331
0
  5
12023
331
0
  5
12024
331
0
  5
12025
331
0
  5
12026
331
0
  5
12027
331
0
  5
12028
331
0
  5
12029
331
0
  5
1202A
331
0
  5
1202B
331
0
  5
1202C
331
0
  5
1202D
331
0
  5
1202E
331
0
  5
1202F
331
0
  5
12030
331
0
  5
12031
331
0
  5
12032
331
0
  5
12033
331
0
  5
12034
331
0
  5
12035
331
0
  5
12036
331
0
  5
12037
331
0
  5
12038
331
0
  5
12039
331
0
  5
1203A
331
0
  5
1203B
331
0
  5
1203C
331
0
  5
1203D
331
0
  5
1203E
331
0
  5
1203F
331
0
  5
12040
331
0
  5
12041
331
0
  5
12042
331
0
  5
12043
331
0
  5
12044
331
0
  5
12045
331
0
  5
12046
331
0
  5
12047
331
0
  5
12048
331
0
  5
12049
331
0
  5
1204A
331
0
  5
1204B
331
0
  5
1204C
331
0
  5
1204D
331
0
  5
1204E
331
0
  5
1204F
331
0
  5
12050
331
0
  5
12051
331
0
  5
12052
331
0
  5
12053
331
0
  5
12054
331
0
  5
12055
331
0
  5
12056
331
0
  5
12057
331
0
  5
12058
331
0
  5
12059
331
0
  5
1205A
331
0
  5
1205B
331
0
  5
1205C
331
0
  5
1205D
331
0
  5
1205E
331
0
  5
1205F
331
0
  5
12060
331
0
  5
12061
331
0
  5
12062
331
0
  5
12063
331
0
  5
12064
331
0
  5
12067
331
0
  5
12068
331
0
  5
12069
331
0
  5
1206A
331
0
  5
1206B
331
0
  5
1206C
331
0
  5
1206D
331
0
  5
1206E
331
0
  5
1206F
331
0
  5
12070
331
0
  5
12071
331
0
  5
12072
331
0
  5
12073
331
0
  5
12074
331
0
  5
12075
331
0
  5
12076
331
0
  5
12077
331
0
  5
12078
331
0
  5
12079
331
0
  5
1207A
331
0
  5
1207B
331
0
  5
1207C
331
0
  5
1207D
331
0
  5
1207E
331
0
  5
1207F
331
0
  5
12080
331
0
  5
12081
331
0
  5
12082
331
0
  5
12083
331
0
  5
12084
331
0
  5
12085
331
0
  5
12086
331
0
  5
12087
331
0
  5
12088
331
0
  5
12089
331
0
  5
1208A
331
0
  5
1208B
331
0
  5
1208C
331
0
  5
1208D
331
0
  5
1208E
331
0
  5
1208F
331
0
  5
12090
331
0
  5
12091
331
0
  5
12092
331
0
  5
12093
331
0
  5
12094
331
0
  5
12095
331
0
  5
12096
331
0
  5
12097
331
0
  5
12098
331
0
  5
12099
331
0
  5
1209A
331
0
  5
1209D
331
0
  5
1209F
331
0
  5
120A0
331
0
  5
120A1
331
0
  5
12309
331
0
  5
12316
331
0
  5
12320
331
0
  5
12321
331
0
  5
1232E
331
0
  5
12380
331
0
  5
12381
331
12380
  5
12384
331
12381
  5
12386
331
12382
  5
12387
331
12383
  5
123BA
331
12384
  5
123BB
331
12386
  5
123BC
331
12387
  5
123BD
331
0
  5
123ED
331
0
  5
123EE
331
0
  5
123EF
331
0
  5
1241E
331
0
  5
12420
331
0
  5
1244F
331
0
  5
12451
331
0
  5
12452
331
0
  5
12455
331
0
  5
12456
331
0
  5
7E8F
331
0
  5
7E90
331
0
  5
7E87
331
0
  5
7E8D
  0
GROUP
  5
D912
102
{ACAD_REACTORS
330
D
102
}
330
D
100
AcDbGroup
300

 70
     1
 71
     1
340
8AE0
340
8AE1
340
8AE3
340
D910
340
D911
  0
GROUP
  5
11F5E
102
{ACAD_REACTORS
330
D
102
}
330
D
100
AcDbGroup
300

 70
     1
 71
     1
340
11F52
340
11F5B
340
11F5D
  0
GROUP
  5
11F62
102
{ACAD_REACTORS
330
D
102
}
330
D
100
AcDbGroup
300

 70
     1
 71
     1
340
11F5F
340
11F60
340
11F61
  0
GROUP
  5
11F69
102
{ACAD_REACTORS
330
D
102
}
330
D
100
AcDbGroup
300

 70
     1
 71
     1
340
11F66
340
11F67
340
11F68
  0
GROUP
  5
11F6A
102
{ACAD_REACTORS
330
D
102
}
330
D
100
AcDbGroup
300

 70
     1
 71
     1
340
11F63
340
11F64
340
11F65
  0
GROUP
  5
122F9
102
{ACAD_REACTORS
330
D
102
}
330
D
100
AcDbGroup
300

 70
     1
 71
     1
  0
GROUP
  5
12385
102
{ACAD_REACTORS
330
D
102
}
330
D
100
AcDbGroup
300

 70
     1
 71
     1
340
12380
340
12381
340
12382
340
12383
340
12384
  0
LAYOUT
  5
1E
102
{ACAD_REACTORS
330
1A
102
}
330
1A
100
AcDbPlotSettings
  1

  2
none_device
  4
ISO_A3_(420.00_x_297.00_MM)
  6

 40
7.5
 41
20.0
 42
7.5
 43
20.0
 44
420.0
 45
297.0
 46
0.0
 47
0.0
 48
0.0
 49
0.0
140
0.0
141
0.0
142
1.0
143
1.0
 70
   688
 72
     1
 73
     0
 74
     5
  7

 75
    16
147
1.0
148
0.0
149
0.0
100
AcDbLayout
  1
Layout1
 70
     1
 71
     1
 10
0.0
 20
0.0
 11
412.5
 21
277.0
 12
0.0
 22
0.0
 32
0.0
 14
1.000000000000000E+20
 24
1.000000000000000E+20
 34
1.000000000000000E+20
 15
-1.000000000000000E+20
 25
-1.000000000000000E+20
 35
-1.000000000000000E+20
146
0.0
 13
0.0
 23
0.0
 33
0.0
 16
1.0
 26
0.0
 36
0.0
 17
0.0
 27
1.0
 37
0.0
 76
     0
330
1B
331
9F0D
  0
LAYOUT
  5
22
102
{ACAD_REACTORS
330
1A
102
}
330
1A
100
AcDbPlotSettings
  1

  2
none_device
  4
A3
  6

 40
3.174999952316284
 41
3.174999952316284
 42
3.17498779296875
 43
3.17498779296875
 44
297.0318298339844
 45
420.1583251953125
 46
-3.16
 47
-3.1
 48
-90.0
 49
-90.0
140
329.9999999999998
141
207.0
142
1.0
143
1.0
 70
 11940
 72
     1
 73
     1
 74
     4
  7
monochrome.ctb
 75
     0
147
1.0
148
90.0
149
90.0
100
AcDbLayout
  1
Model
 70
     1
 71
     0
 10
0.0
 20
0.0
 11
6300.0
 21
4455.0
 12
0.0
 22
0.0
 32
0.0
 14
1440.0
 24
1640.0
 34
0.0
 15
3930.0
 25
3854.999999999997
 35
0.0
146
0.0
 13
0.0
 23
0.0
 33
0.0
 16
1.0
 26
0.0
 36
0.0
 17
0.0
 27
1.0
 37
0.0
 76
     0
330
1F
331
7A57
  0
MLINESTYLE
  5
18
102
{ACAD_REACTORS
330
17
102
}
330
17
100
AcDbMlineStyle
  2
STANDARD
 70
     0
  3

 62
   256
 51
90.0
 52
90.0
 71
     2
 49
0.5
 62
   256
  6
BYLAYER
 49
-0.5
 62
   256
  6
BYLAYER
  0
ACDBPLACEHOLDER
  5
F
102
{ACAD_REACTORS
330
E
102
}
330
E
  0
SCALE
  5
6A4F
102
{ACAD_REACTORS
330
6A4E
102
}
330
6A4E
100
AcDbScale
 70
     0
300
1:1
140
1.0
141
1.0
290
     1
  0
SCALE
  5
6A50
102
{ACAD_REACTORS
330
6A4E
102
}
330
6A4E
100
AcDbScale
 70
     0
300
1:2
140
1.0
141
2.0
290
     0
  0
SCALE
  5
6A51
102
{ACAD_REACTORS
330
6A4E
102
}
330
6A4E
100
AcDbScale
 70
     0
300
1:4
140
1.0
141
4.0
290
     0
  0
SCALE
  5
6A52
102
{ACAD_REACTORS
330
6A4E
102
}
330
6A4E
100
AcDbScale
 70
     0
300
1:5
140
1.0
141
5.0
290
     0
  0
SCALE
  5
6A53
102
{ACAD_REACTORS
330
6A4E
102
}
330
6A4E
100
AcDbScale
 70
     0
300
1:8
140
1.0
141
8.0
290
     0
  0
SCALE
  5
6A54
102
{ACAD_REACTORS
330
6A4E
102
}
330
6A4E
100
AcDbScale
 70
     0
300
1:10
140
1.0
141
10.0
290
     0
  0
SCALE
  5
6A55
102
{ACAD_REACTORS
330
6A4E
102
}
330
6A4E
100
AcDbScale
 70
     0
300
1:16
140
1.0
141
16.0
290
     0
  0
SCALE
  5
6A56
102
{ACAD_REACTORS
330
6A4E
102
}
330
6A4E
100
AcDbScale
 70
     0
300
1:20
140
1.0
141
20.0
290
     0
  0
SCALE
  5
6A57
102
{ACAD_REACTORS
330
6A4E
102
}
330
6A4E
100
AcDbScale
 70
     0
300
1:30
140
1.0
141
30.0
290
     0
  0
SCALE
  5
6A58
102
{ACAD_REACTORS
330
6A4E
102
}
330
6A4E
100
AcDbScale
 70
     0
300
1:40
140
1.0
141
40.0
290
     0
  0
SCALE
  5
6A59
102
{ACAD_REACTORS
330
6A4E
102
}
330
6A4E
100
AcDbScale
 70
     0
300
1:50
140
1.0
141
50.0
290
     0
  0
SCALE
  5
6A5A
102
{ACAD_REACTORS
330
6A4E
102
}
330
6A4E
100
AcDbScale
 70
     0
300
1:100
140
1.0
141
100.0
290
     0
  0
SCALE
  5
6A5B
102
{ACAD_REACTORS
330
6A4E
102
}
330
6A4E
100
AcDbScale
 70
     0
300
2:1
140
2.0
141
1.0
290
     0
  0
SCALE
  5
6A5C
102
{ACAD_REACTORS
330
6A4E
102
}
330
6A4E
100
AcDbScale
 70
     0
300
4:1
140
4.0
141
1.0
290
     0
  0
SCALE
  5
6A5D
102
{ACAD_REACTORS
330
6A4E
102
}
330
6A4E
100
AcDbScale
 70
     0
300
8:1
140
8.0
141
1.0
290
     0
  0
SCALE
  5
6A5E
102
{ACAD_REACTORS
330
6A4E
102
}
330
6A4E
100
AcDbScale
 70
     0
300
10:1
140
10.0
141
1.0
290
     0
  0
SCALE
  5
6A5F
102
{ACAD_REACTORS
330
6A4E
102
}
330
6A4E
100
AcDbScale
 70
     0
300
100:1
140
100.0
141
1.0
290
     0
  0
SCALE
  5
6A60
102
{ACAD_REACTORS
330
6A4E
102
}
330
6A4E
100
AcDbScale
 70
     0
300
1/128" = 1'-0"
140
0.0078125
141
12.0
290
     0
  0
SCALE
  5
6A61
102
{ACAD_REACTORS
330
6A4E
102
}
330
6A4E
100
AcDbScale
 70
     0
300
1/64" = 1'-0"
140
0.015625
141
12.0
290
     0
  0
SCALE
  5
6A62
102
{ACAD_REACTORS
330
6A4E
102
}
330
6A4E
100
AcDbScale
 70
     0
300
1/32" = 1'-0"
140
0.03125
141
12.0
290
     0
  0
SCALE
  5
6A63
102
{ACAD_REACTORS
330
6A4E
102
}
330
6A4E
100
AcDbScale
 70
     0
300
1/16" = 1'-0"
140
0.0625
141
12.0
290
     0
  0
SCALE
  5
6A64
102
{ACAD_REACTORS
330
6A4E
102
}
330
6A4E
100
AcDbScale
 70
     0
300
3/32" = 1'-0"
140
0.09375
141
12.0
290
     0
  0
SCALE
  5
6A65
102
{ACAD_REACTORS
330
6A4E
102
}
330
6A4E
100
AcDbScale
 70
     0
300
1/8" = 1'-0"
140
0.125
141
12.0
290
     0
  0
SCALE
  5
6A66
102
{ACAD_REACTORS
330
6A4E
102
}
330
6A4E
100
AcDbScale
 70
     0
300
3/16" = 1'-0"
140
0.1875
141
12.0
290
     0
  0
SCALE
  5
6A67
102
{ACAD_REACTORS
330
6A4E
102
}
330
6A4E
100
AcDbScale
 70
     0
300
1/4" = 1'-0"
140
0.25
141
12.0
290
     0
  0
SCALE
  5
6A68
102
{ACAD_REACTORS
330
6A4E
102
}
330
6A4E
100
AcDbScale
 70
     0
300
3/8" = 1'-0"
140
0.375
141
12.0
290
     0
  0
SCALE
  5
6A69
102
{ACAD_REACTORS
330
6A4E
102
}
330
6A4E
100
AcDbScale
 70
     0
300
1/2" = 1'-0"
140
0.5
141
12.0
290
     0
  0
SCALE
  5
6A6A
102
{ACAD_REACTORS
330
6A4E
102
}
330
6A4E
100
AcDbScale
 70
     0
300
3/4" = 1'-0"
140
0.75
141
12.0
290
     0
  0
SCALE
  5
6A6B
102
{ACAD_REACTORS
330
6A4E
102
}
330
6A4E
100
AcDbScale
 70
     0
300
1" = 1'-0"
140
1.0
141
12.0
290
     0
  0
SCALE
  5
6A6C
102
{ACAD_REACTORS
330
6A4E
102
}
330
6A4E
100
AcDbScale
 70
     0
300
1-1/2" = 1'-0"
140
1.5
141
12.0
290
     0
  0
SCALE
  5
6A6D
102
{ACAD_REACTORS
330
6A4E
102
}
330
6A4E
100
AcDbScale
 70
     0
300
3" = 1'-0"
140
3.0
141
12.0
290
     0
  0
SCALE
  5
6A6E
102
{ACAD_REACTORS
330
6A4E
102
}
330
6A4E
100
AcDbScale
 70
     0
300
6" = 1'-0"
140
6.0
141
12.0
290
     0
  0
SCALE
  5
6A6F
102
{ACAD_REACTORS
330
6A4E
102
}
330
6A4E
100
AcDbScale
 70
     0
300
1'-0" = 1'-0"
140
12.0
141
12.0
290
     0
  0
DICTIONARYVAR
  5
79F
102
{ACAD_REACTORS
330
79E
102
}
330
79E
100
DictionaryVariables
280
     0
  1
1
  0
DICTIONARYVAR
  5
264F
102
{ACAD_REACTORS
330
79E
102
}
330
79E
100
DictionaryVariables
280
     0
  1
96
  0
ENDSEC
  0
EOF
