  0
SECTION
  2
HEADER
  9
$ACADVER
  1
AC1015
  9
$ACADMAINTVER
 70
     6
  9
$DWGCODEPAGE
  3
ANSI_932
  9
$INSBASE
 10
0.0
 20
0.0
 30
0.0
  9
$EXTMIN
 10
1805.0
 20
1640.000000000001
 30
0.0
  9
$EXTMAX
 10
3595.0
 20
3620.000000000001
 30
0.0
  9
$LIMMIN
 10
0.0
 20
0.0
  9
$LIMMAX
 10
6300.0
 20
4455.0
  9
$ORTHOMODE
 70
     1
  9
$REGENMODE
 70
     1
  9
$FILLMODE
 70
     1
  9
$QTEXTMODE
 70
     0
  9
$MIRRTEXT
 70
     1
  9
$LTSCALE
 40
4.5
  9
$ATTMODE
 70
     1
  9
$TEXTSIZE
 40
45.0
  9
$TRACEWID
 40
1.0
  9
$TEXTSTYLE
  7
Standard
  9
$CLAYER
  8
01注記寸法
  9
$CELTYPE
  6
ByLayer
  9
$CECOLOR
 62
   256
  9
$CELTSCALE
 40
1.0
  9
$DISPSILH
 70
     0
  9
$DIMSCALE
 40
15.0
  9
$DIMASZ
 40
3.0
  9
$DIMEXO
 40
1.5
  9
$DIMDLI
 40
10.0
  9
$DIMRND
 40
0.0
  9
$DIMDLE
 40
0.0
  9
$DIMEXE
 40
1.0
  9
$DIMTP
 40
0.0
  9
$DIMTM
 40
0.0
  9
$DIMTXT
 40
3.0
  9
$DIMCEN
 40
1.5
  9
$DIMTSZ
 40
0.0
  9
$DIMTOL
 70
     0
  9
$DIMLIM
 70
     0
  9
$DIMTIH
 70
     0
  9
$DIMTOH
 70
     0
  9
$DIMSE1
 70
     0
  9
$DIMSE2
 70
     0
  9
$DIMTAD
 70
     1
  9
$DIMZIN
 70
     8
  9
$DIMBLK
  1
Open
  9
$DIMASO
 70
     1
  9
$DIMSHO
 70
     1
  9
$DIMPOST
  1

  9
$DIMAPOST
  1

  9
$DIMALT
 70
     0
  9
$DIMALTD
 70
     3
  9
$DIMALTF
 40
0.03937007874016
  9
$DIMLFAC
 40
1.0
  9
$DIMTOFL
 70
     1
  9
$DIMTVP
 40
0.0
  9
$DIMTIX
 70
     0
  9
$DIMSOXD
 70
     0
  9
$DIMSAH
 70
     0
  9
$DIMBLK1
  1

  9
$DIMBLK2
  1

  9
$DIMSTYLE
  2
NEMY-15
  9
$DIMCLRD
 70
     0
  9
$DIMCLRE
 70
     0
  9
$DIMCLRT
 70
     0
  9
$DIMTFAC
 40
1.0
  9
$DIMGAP
 40
1.0
  9
$DIMJUST
 70
     0
  9
$DIMSD1
 70
     0
  9
$DIMSD2
 70
     0
  9
$DIMTOLJ
 70
     0
  9
$DIMTZIN
 70
     8
  9
$DIMALTZ
 70
     0
  9
$DIMALTTZ
 70
     0
  9
$DIMUPT
 70
     0
  9
$DIMDEC
 70
     1
  9
$DIMTDEC
 70
     1
  9
$DIMALTU
 70
     2
  9
$DIMALTTD
 70
     3
  9
$DIMTXSTY
  7
Standard
  9
$DIMAUNIT
 70
     0
  9
$DIMADEC
 70
     0
  9
$DIMALTRND
 40
0.0
  9
$DIMAZIN
 70
     0
  9
$DIMDSEP
 70
    46
  9
$DIMATFIT
 70
     3
  9
$DIMFRAC
 70
     0
  9
$DIMLDRBLK
  1
Open
  9
$DIMLUNIT
 70
     2
  9
$DIMLWD
 70
    -2
  9
$DIMLWE
 70
    -2
  9
$DIMTMOVE
 70
     0
  9
$LUNITS
 70
     2
  9
$LUPREC
 70
     4
  9
$SKETCHINC
 40
1.0
  9
$FILLETRAD
 40
6.4
  9
$AUNITS
 70
     0
  9
$AUPREC
 70
     0
  9
$MENU
  1
.
  9
$ELEVATION
 40
0.0
  9
$PELEVATION
 40
0.0
  9
$THICKNESS
 40
0.0
  9
$LIMCHECK
 70
     0
  9
$CHAMFERA
 40
0.0
  9
$CHAMFERB
 40
0.0
  9
$CHAMFERC
 40
20.0
  9
$CHAMFERD
 40
0.0
  9
$SKPOLY
 70
     0
  9
$TDCREATE
 40
2455859.405048461
  9
$TDUCREATE
 40
2455859.030048461
  9
$TDUPDATE
 40
2458376.4109464
  9
$TDUUPDATE
 40
2458376.0359464
  9
$TDINDWG
 40
1.0900071644
  9
$TDUSRTIMER
 40
2458376.02968456
  9
$USRTIMER
 70
     1
  9
$ANGBASE
 50
0.0
  9
$ANGDIR
 70
     0
  9
$PDMODE
 70
     0
  9
$PDSIZE
 40
0.0
  9
$PLINEWID
 40
0.0
  9
$SPLFRAME
 70
     0
  9
$SPLINETYPE
 70
     6
  9
$SPLINESEGS
 70
     8
  9
$HANDSEED
  5
F609
  9
$SURFTAB1
 70
     6
  9
$SURFTAB2
 70
     6
  9
$SURFTYPE
 70
     6
  9
$SURFU
 70
     6
  9
$SURFV
 70
     6
  9
$UCSBASE
  2

  9
$UCSNAME
  2

  9
$UCSORG
 10
0.0
 20
0.0
 30
0.0
  9
$UCSXDIR
 10
1.0
 20
0.0
 30
0.0
  9
$UCSYDIR
 10
0.0
 20
1.0
 30
0.0
  9
$UCSORTHOREF
  2

  9
$UCSORTHOVIEW
 70
     0
  9
$UCSORGTOP
 10
0.0
 20
0.0
 30
0.0
  9
$UCSORGBOTTOM
 10
0.0
 20
0.0
 30
0.0
  9
$UCSORGLEFT
 10
0.0
 20
0.0
 30
0.0
  9
$UCSORGRIGHT
 10
0.0
 20
0.0
 30
0.0
  9
$UCSORGFRONT
 10
0.0
 20
0.0
 30
0.0
  9
$UCSORGBACK
 10
0.0
 20
0.0
 30
0.0
  9
$PUCSBASE
  2

  9
$PUCSNAME
  2

  9
$PUCSORG
 10
0.0
 20
0.0
 30
0.0
  9
$PUCSXDIR
 10
1.0
 20
0.0
 30
0.0
  9
$PUCSYDIR
 10
0.0
 20
1.0
 30
0.0
  9
$PUCSORTHOREF
  2

  9
$PUCSORTHOVIEW
 70
     0
  9
$PUCSORGTOP
 10
0.0
 20
0.0
 30
0.0
  9
$PUCSORGBOTTOM
 10
0.0
 20
0.0
 30
0.0
  9
$PUCSORGLEFT
 10
0.0
 20
0.0
 30
0.0
  9
$PUCSORGRIGHT
 10
0.0
 20
0.0
 30
0.0
  9
$PUCSORGFRONT
 10
0.0
 20
0.0
 30
0.0
  9
$PUCSORGBACK
 10
0.0
 20
0.0
 30
0.0
  9
$USERI1
 70
     0
  9
$USERI2
 70
     0
  9
$USERI3
 70
     0
  9
$USERI4
 70
     0
  9
$USERI5
 70
     0
  9
$USERR1
 40
0.0
  9
$USERR2
 40
0.0
  9
$USERR3
 40
0.0
  9
$USERR4
 40
0.0
  9
$USERR5
 40
0.0
  9
$WORLDVIEW
 70
     1
  9
$SHADEDGE
 70
     3
  9
$SHADEDIF
 70
    70
  9
$TILEMODE
 70
     1
  9
$MAXACTVP
 70
    64
  9
$PINSBASE
 10
0.0
 20
0.0
 30
0.0
  9
$PLIMCHECK
 70
     0
  9
$PEXTMIN
 10
1.000000000000000E+20
 20
1.000000000000000E+20
 30
1.000000000000000E+20
  9
$PEXTMAX
 10
-1.000000000000000E+20
 20
-1.000000000000000E+20
 30
-1.000000000000000E+20
  9
$PLIMMIN
 10
-7.5
 20
-20.0
  9
$PLIMMAX
 10
412.5
 20
277.0
  9
$UNITMODE
 70
     0
  9
$VISRETAIN
 70
     1
  9
$PLINEGEN
 70
     0
  9
$PSLTSCALE
 70
     1
  9
$TREEDEPTH
 70
  3020
  9
$CMLSTYLE
  2
Standard
  9
$CMLJUST
 70
     0
  9
$CMLSCALE
 40
20.0
  9
$PROXYGRAPHICS
 70
     1
  9
$MEASUREMENT
 70
     1
  9
$CELWEIGHT
370
    -1
  9
$ENDCAPS
280
     0
  9
$JOINSTYLE
280
     0
  9
$LWDISPLAY
290
     0
  9
$INSUNITS
 70
     4
  9
$HYPERLINKBASE
  1

  9
$STYLESHEET
  1
monochrome.ctb
  9
$XEDIT
290
     1
  9
$CEPSNTYPE
380
     0
  9
$PSTYLEMODE
290
     1
  9
$FINGERPRINTGUID
  2
{FDEAD578-A652-11D2-9A35-0060089B3A3F}
  9
$VERSIONGUID
  2
{11DB8456-EC16-47A0-BA21-BBDA07550E8A}
  9
$EXTNAMES
290
     1
  9
$PSVPSCALE
 40
0.0
  9
$OLESTARTUP
290
     0
  0
ENDSEC
  0
SECTION
  2
CLASSES
  0
CLASS
  1
ACDBDICTIONARYWDFLT
  2
AcDbDictionaryWithDefault
  3
ObjectDBX Classes
 90
        0
280
     0
281
     0
  0
CLASS
  1
ACDBPLACEHOLDER
  2
AcDbPlaceHolder
  3
ObjectDBX Classes
 90
        0
280
     0
281
     0
  0
CLASS
  1
LAYOUT
  2
AcDbLayout
  3
ObjectDBX Classes
 90
        0
280
     0
281
     0
  0
CLASS
  1
DICTIONARYVAR
  2
AcDbDictionaryVar
  3
ObjectDBX Classes
 90
        0
280
     0
281
     0
  0
CLASS
  1
SCALE
  2
AcDbScale
  3
ObjectDBX Classes
 90
     1153
280
     0
281
     0
  0
CLASS
  1
MATERIAL
  2
AcDbMaterial
  3
ObjectDBX Classes
 90
     1153
280
     0
281
     0
  0
CLASS
  1
VISUALSTYLE
  2
AcDbVisualStyle
  3
ObjectDBX Classes
 90
     4095
280
     0
281
     0
  0
CLASS
  1
TABLESTYLE
  2
AcDbTableStyle
  3
ObjectDBX Classes
 90
     4095
280
     0
281
     0
  0
CLASS
  1
RASTERVARIABLES
  2
AcDbRasterVariables
  3
ISM
 90
        0
280
     0
281
     0
  0
CLASS
  1
SORTENTSTABLE
  2
AcDbSortentsTable
  3
ObjectDBX Classes
 90
        0
280
     0
281
     0
  0
CLASS
  1
SUN
  2
AcDbSun
  3
SCENEOE
 90
     1153
280
     0
281
     0
  0
CLASS
  1
MLEADERSTYLE
  2
AcDbMLeaderStyle
  3
ACDB_MLEADERSTYLE_CLASS
 90
     4095
280
     0
281
     0
  0
ENDSEC
  0
SECTION
  2
TABLES
  0
TABLE
  2
VPORT
  5
8
330
0
100
AcDbSymbolTable
 70
     2
  0
VPORT
  5
7A57
330
8
100
AcDbSymbolTableRecord
100
AcDbViewportTableRecord
  2
*Active
 70
     0
 10
0.0
 20
0.0
 11
1.0
 21
1.0
 12
2545.644206580431
 22
3071.485694941129
 13
0.0
 23
0.0
 14
10.0
 24
10.0
 15
10.0
 25
10.0
 16
0.0
 26
0.0
 36
1.0
 17
0.0
 27
0.0
 37
0.0
 40
3843.359999999999
 41
2.293577981651376
 42
50.0
 43
0.0
 44
0.0
 50
0.0
 51
0.0
 71
    16
 72
   100
 73
     1
 74
     2
 75
     0
 76
     0
 77
     0
 78
     0
281
     0
 65
     1
110
0.0
120
0.0
130
0.0
111
1.0
121
0.0
131
0.0
112
0.0
122
1.0
132
0.0
 79
     0
146
0.0
  0
ENDTAB
  0
TABLE
  2
LTYPE
  5
5
330
0
100
AcDbSymbolTable
 70
     5
  0
LTYPE
  5
14
330
5
100
AcDbSymbolTableRecord
100
AcDbLinetypeTableRecord
  2
ByBlock
 70
     0
  3

 72
    65
 73
     0
 40
0.0
  0
LTYPE
  5
15
330
5
100
AcDbSymbolTableRecord
100
AcDbLinetypeTableRecord
  2
ByLayer
 70
     0
  3

 72
    65
 73
     0
 40
0.0
  0
LTYPE
  5
16
330
5
100
AcDbSymbolTableRecord
100
AcDbLinetypeTableRecord
  2
Continuous
 70
     0
  3
Solid line
 72
    65
 73
     0
 40
0.0
  0
LTYPE
  5
BA
330
5
100
AcDbSymbolTableRecord
100
AcDbLinetypeTableRecord
  2
HIDDEN
 70
     0
  3
Hidden __ __ __ __ __ __ __ __ __ __ __ __ __ _
 72
    65
 73
     2
 40
9.524999999999999
 49
6.35
 74
     0
 49
-3.175
 74
     0
  0
LTYPE
  5
BB
330
5
100
AcDbSymbolTableRecord
100
AcDbLinetypeTableRecord
  2
PHANTOM
 70
     0
  3
Phantom ______  __  __  ______  __  __  ______
 72
    65
 73
     6
 40
63.5
 49
31.75
 74
     0
 49
-6.35
 74
     0
 49
6.35
 74
     0
 49
-6.35
 74
     0
 49
6.35
 74
     0
 49
-6.35
 74
     0
  0
LTYPE
  5
BC
330
5
100
AcDbSymbolTableRecord
100
AcDbLinetypeTableRecord
  2
CENTER
 70
     0
  3
Center ____ _ ____ _ ____ _ ____ _ ____ _ ____
 72
    65
 73
     4
 40
50.8
 49
31.75
 74
     0
 49
-6.35
 74
     0
 49
6.35
 74
     0
 49
-6.35
 74
     0
  0
LTYPE
  5
47C
330
5
100
AcDbSymbolTableRecord
100
AcDbLinetypeTableRecord
  2
DOT
 70
     0
  3
Dot . . . . . . . . . . . . . . . . . . . . . .
 72
    65
 73
     2
 40
6.35
 49
0.0
 74
     0
 49
-6.35
 74
     0
  0
ENDTAB
  0
TABLE
  2
LAYER
  5
2
102
{ACAD_XDICTIONARY
360
7A6F
102
}
330
0
100
AcDbSymbolTable
 70
    22
  0
LAYER
  5
10
330
2
100
AcDbSymbolTableRecord
100
AcDbLayerTableRecord
  2
0
 70
     0
 62
     7
  6
Continuous
370
    -3
390
F
  0
LAYER
  5
45
330
2
100
AcDbSymbolTableRecord
100
AcDbLayerTableRecord
  2
01注記寸法
 70
     0
 62
     7
  6
Continuous
370
     9
390
F
  0
LAYER
  5
46
330
2
100
AcDbSymbolTableRecord
100
AcDbLayerTableRecord
  2
02実線
 70
     0
 62
     2
  6
Continuous
370
    15
390
F
  0
LAYER
  5
5F
330
2
100
AcDbSymbolTableRecord
100
AcDbLayerTableRecord
  2
Defpoints
 70
     0
 62
     7
  6
Continuous
290
     0
370
    -3
390
F
  0
LAYER
  5
7E52
330
2
100
AcDbSymbolTableRecord
100
AcDbLayerTableRecord
  2
03破線
 70
     0
 62
     3
  6
HIDDEN
370
     9
390
F
  0
LAYER
  5
7E55
330
2
100
AcDbSymbolTableRecord
100
AcDbLayerTableRecord
  2
04一点鎖線
 70
     0
 62
    70
  6
CENTER
370
     9
390
F
  0
LAYER
  5
7E58
330
2
100
AcDbSymbolTableRecord
100
AcDbLayerTableRecord
  2
05二点鎖線
 70
     0
 62
   110
  6
PHANTOM
370
     9
390
F
  0
LAYER
  5
7E5B
330
2
100
AcDbSymbolTableRecord
100
AcDbLayerTableRecord
  2
06点線
 70
     0
 62
    96
  6
DOT
370
     9
390
F
  0
LAYER
  5
7E5E
330
2
100
AcDbSymbolTableRecord
100
AcDbLayerTableRecord
  2
07その他
 70
     0
 62
     6
  6
Continuous
370
     5
390
F
  0
LAYER
  5
7E60
330
2
100
AcDbSymbolTableRecord
100
AcDbLayerTableRecord
  2
08非表示
 70
     0
 62
     4
  6
Continuous
290
     0
370
     0
390
F
  0
LAYER
  5
7E62
330
2
100
AcDbSymbolTableRecord
100
AcDbLayerTableRecord
  2
09図枠
 70
     0
 62
     1
  6
Continuous
370
    30
390
F
  0
LAYER
  5
835A
330
2
100
AcDbSymbolTableRecord
100
AcDbLayerTableRecord
  2
10副資材
 70
     0
 62
    51
  6
Continuous
290
     0
370
    -3
390
F
1001
AcAecLayerStandard
1000

1000

  0
LAYER
  5
8CAC
330
2
100
AcDbSymbolTableRecord
100
AcDbLayerTableRecord
  2
11機器
 70
     0
 62
    11
  6
Continuous
290
     0
370
    -3
390
F
1001
AcAecLayerStandard
1000

1000

  0
LAYER
  5
8CB1
330
2
100
AcDbSymbolTableRecord
100
AcDbLayerTableRecord
  2
12防振架台
 70
     0
 62
   190
  6
Continuous
290
     0
370
    -3
390
F
1001
AcAecLayerStandard
1000

1000

  0
LAYER
  5
A15B
330
2
100
AcDbSymbolTableRecord
100
AcDbLayerTableRecord
  2
13製作用注記
 70
     0
 62
     5
  6
Continuous
290
     0
370
     9
390
F
1001
AcAecLayerStandard
1000

1000

  0
ENDTAB
  0
TABLE
  2
STYLE
  5
3
330
0
100
AcDbSymbolTable
 70
     3
  0
STYLE
  5
11
330
3
100
AcDbSymbolTableRecord
100
AcDbTextStyleTableRecord
  2
Standard
 70
     0
 40
0.0
 41
1.0
 50
0.0
 71
     0
 42
45.0
  3
MSGOTHIC.TTC
  4

1001
ACAD
1000
MS Gothic
1071
    32817
  0
STYLE
  5
47B
330
3
100
AcDbSymbolTableRecord
100
AcDbTextStyleTableRecord
  2

 70
     1
 40
0.0
 41
1.0
 50
0.0
 71
     0
 42
3.0
  3
ltypeshp.shx
  4

  0
ENDTAB
  0
TABLE
  2
VIEW
  5
6
330
0
100
AcDbSymbolTable
 70
     0
  0
ENDTAB
  0
TABLE
  2
UCS
  5
7
330
0
100
AcDbSymbolTable
 70
     0
  0
ENDTAB
  0
TABLE
  2
APPID
  5
9
330
0
100
AcDbSymbolTable
 70
     6
  0
APPID
  5
12
330
9
100
AcDbSymbolTableRecord
100
AcDbRegAppTableRecord
  2
ACAD
 70
     0
  0
APPID
  5
6A9E
330
9
100
AcDbSymbolTableRecord
100
AcDbRegAppTableRecord
  2
ACAD_DSTYLE_DIMRADIAL_EXTENSION
 70
     0
  0
APPID
  5
742C
330
9
100
AcDbSymbolTableRecord
100
AcDbRegAppTableRecord
  2
ACAD_PSEXT
 70
     0
  0
APPID
  5
742D
330
9
100
AcDbSymbolTableRecord
100
AcDbRegAppTableRecord
  2
ACAD_DSTYLE_DIMJAG
 70
     0
  0
APPID
  5
742E
330
9
100
AcDbSymbolTableRecord
100
AcDbRegAppTableRecord
  2
ACAD_DSTYLE_DIMTALN
 70
     0
  0
APPID
  5
835C
330
9
100
AcDbSymbolTableRecord
100
AcDbRegAppTableRecord
  2
AcAecLayerStandard
 70
     0
  0
ENDTAB
  0
TABLE
  2
DIMSTYLE
  5
A
330
0
100
AcDbSymbolTable
 70
    24
100
AcDbDimStyleTable
  0
DIMSTYLE
105
73
330
A
100
AcDbSymbolTableRecord
100
AcDbDimStyleTableRecord
  2
NEMY-1
 70
     0
 41
3.0
 42
1.5
 43
10.0
 44
1.0
 73
     0
 74
     0
 77
     1
 78
     8
140
3.0
141
1.5
143
0.03937007874016
147
1.0
171
     3
172
     1
178
     0
271
     1
272
     1
274
     3
283
     0
284
     8
340
11
341
8F
342
8F
  0
DIMSTYLE
105
4DCE
330
A
100
AcDbSymbolTableRecord
100
AcDbDimStyleTableRecord
  2
NEMY-2
 70
     0
 40
2.0
 41
3.0
 42
1.5
 43
10.0
 44
1.0
 73
     0
 74
     0
 77
     1
 78
     8
140
3.0
141
1.5
143
0.03937007874016
147
1.0
171
     3
172
     1
178
     0
271
     1
272
     1
274
     3
283
     0
284
     8
340
11
341
8F
342
8F
  0
DIMSTYLE
105
4DCF
330
A
100
AcDbSymbolTableRecord
100
AcDbDimStyleTableRecord
  2
NEMY-3
 70
     0
 40
3.0
 41
3.0
 42
1.5
 43
10.0
 44
1.0
 73
     0
 74
     0
 77
     1
 78
     8
140
3.0
141
1.5
143
0.03937007874016
147
1.0
171
     3
172
     1
178
     0
271
     1
272
     1
274
     3
283
     0
284
     8
340
11
341
8F
342
8F
  0
DIMSTYLE
105
4DD0
330
A
100
AcDbSymbolTableRecord
100
AcDbDimStyleTableRecord
  2
NEMY-5
 70
     0
 40
5.0
 41
3.0
 42
1.5
 43
10.0
 44
1.0
 73
     0
 74
     0
 77
     1
 78
     8
140
3.0
141
1.5
143
0.03937007874016
147
1.0
171
     3
172
     1
178
     0
271
     1
272
     1
274
     3
283
     0
284
     8
340
11
341
8F
342
8F
  0
DIMSTYLE
105
4DD1
330
A
100
AcDbSymbolTableRecord
100
AcDbDimStyleTableRecord
  2
NEMY-8
 70
     0
 40
8.0
 41
3.0
 42
1.5
 43
10.0
 44
1.0
 73
     0
 74
     0
 77
     1
 78
     8
140
3.0
141
1.5
143
0.03937007874016
147
1.0
171
     3
172
     1
178
     0
271
     1
272
     1
274
     3
283
     0
284
     8
340
11
341
8F
342
8F
  0
DIMSTYLE
105
4DD2
102
{ACAD_REACTORS
102
}
330
A
100
AcDbSymbolTableRecord
100
AcDbDimStyleTableRecord
  2
NEMY-15
 70
     0
 40
15.0
 41
3.0
 42
1.5
 43
10.0
 44
1.0
 73
     0
 74
     0
 77
     1
 78
     8
140
3.0
141
1.5
143
0.03937007874016
147
1.0
171
     3
172
     1
178
     0
271
     1
272
     1
274
     3
283
     0
284
     8
340
11
341
8F
342
8F
  0
DIMSTYLE
105
4DD3
330
A
100
AcDbSymbolTableRecord
100
AcDbDimStyleTableRecord
  2
NEMY-10
 70
     0
 40
10.0
 41
3.0
 42
1.5
 43
10.0
 44
1.0
 73
     0
 74
     0
 77
     1
 78
     8
140
3.0
141
1.5
143
0.03937007874016
147
1.0
171
     3
172
     1
178
     0
271
     1
272
     1
274
     3
283
     0
284
     8
340
11
341
8F
342
8F
  0
DIMSTYLE
105
4DD4
330
A
100
AcDbSymbolTableRecord
100
AcDbDimStyleTableRecord
  2
NEMY-25
 70
     0
 40
25.0
 41
3.0
 42
1.5
 43
10.0
 44
1.0
 73
     0
 74
     0
 77
     1
 78
     8
140
3.0
141
1.5
143
0.03937007874016
147
1.0
171
     3
172
     1
178
     0
271
     1
272
     1
274
     3
283
     0
284
     8
340
11
341
8F
342
8F
  0
DIMSTYLE
105
4DD5
330
A
100
AcDbSymbolTableRecord
100
AcDbDimStyleTableRecord
  2
NEMY-30
 70
     0
 40
30.0
 41
3.0
 42
1.5
 43
10.0
 44
1.0
 73
     0
 74
     0
 77
     1
 78
     8
140
3.0
141
1.5
143
0.03937007874016
147
1.0
171
     3
172
     1
178
     0
271
     1
272
     1
274
     3
283
     0
284
     8
340
11
341
8F
342
8F
  0
DIMSTYLE
105
4DD6
330
A
100
AcDbSymbolTableRecord
100
AcDbDimStyleTableRecord
  2
NEMY-50
 70
     0
 40
50.0
 41
3.0
 42
1.5
 43
10.0
 44
1.0
 73
     0
 74
     0
 77
     1
 78
     8
140
3.0
141
1.5
143
0.03937007874016
147
1.0
171
     3
172
     1
178
     0
271
     1
272
     1
274
     3
283
     0
284
     8
340
11
341
8F
342
8F
  0
DIMSTYLE
105
4E6F
330
A
100
AcDbSymbolTableRecord
100
AcDbDimStyleTableRecord
  2
NEMY-20
 70
     0
 40
20.0
 41
3.0
 42
1.5
 43
10.0
 44
1.0
 73
     0
 74
     0
 77
     1
 78
     8
140
3.0
141
1.5
143
0.03937007874016
147
1.0
171
     3
172
     1
178
     0
271
     1
272
     1
274
     3
283
     0
284
     8
340
11
341
8F
342
8F
  0
DIMSTYLE
105
4F44
330
A
100
AcDbSymbolTableRecord
100
AcDbDimStyleTableRecord
  2
NEMY-10$3
 70
     0
 40
10.0
 41
3.0
 42
1.5
 43
10.0
 44
1.0
 77
     1
 78
     8
140
3.0
141
1.5
143
0.03937007874016
147
1.0
171
     3
172
     1
178
     0
271
     1
272
     1
274
     3
283
     0
284
     8
340
11
341
8F
342
8F
  0
DIMSTYLE
105
4F45
330
A
100
AcDbSymbolTableRecord
100
AcDbDimStyleTableRecord
  2
NEMY-1$3
 70
     0
 41
3.0
 42
1.5
 43
10.0
 44
1.0
 77
     1
 78
     8
140
3.0
141
1.5
143
0.03937007874016
147
1.0
171
     3
172
     1
178
     0
271
     1
272
     1
274
     3
283
     0
284
     8
340
11
341
8F
342
8F
  0
DIMSTYLE
105
4F46
330
A
100
AcDbSymbolTableRecord
100
AcDbDimStyleTableRecord
  2
NEMY-12
 70
     0
 40
12.0
 41
3.0
 42
1.5
 43
10.0
 44
1.0
 73
     0
 74
     0
 77
     1
 78
     8
140
3.0
141
1.5
143
0.03937007874016
147
1.0
171
     3
172
     1
178
     0
271
     1
272
     1
274
     3
283
     0
284
     8
340
11
341
8F
342
8F
  0
DIMSTYLE
105
4F47
330
A
100
AcDbSymbolTableRecord
100
AcDbDimStyleTableRecord
  2
NEMY-12$3
 70
     0
 40
12.0
 41
3.0
 42
1.5
 43
10.0
 44
1.0
 77
     1
 78
     8
140
3.0
141
1.5
143
0.03937007874016
147
1.0
171
     3
172
     1
178
     0
271
     1
272
     1
274
     3
283
     0
284
     8
340
11
341
8F
342
8F
  0
DIMSTYLE
105
5E6E
330
A
100
AcDbSymbolTableRecord
100
AcDbDimStyleTableRecord
  2
NEMY-8$3
 70
     0
 40
8.0
 41
3.0
 42
1.5
 43
10.0
 44
1.0
 77
     1
 78
     8
140
3.0
141
1.5
143
0.03937007874016
147
1.0
171
     3
172
     1
178
     0
271
     1
272
     1
274
     3
283
     0
284
     8
340
11
341
8F
342
8F
  0
DIMSTYLE
105
5E6F
330
A
100
AcDbSymbolTableRecord
100
AcDbDimStyleTableRecord
  2
NEMY-50$3
 70
     0
 40
50.0
 41
3.0
 42
1.5
 43
10.0
 44
1.0
 77
     1
 78
     8
140
3.0
141
1.5
143
0.03937007874016
147
1.0
171
     3
172
     1
178
     0
271
     1
272
     1
274
     3
283
     0
284
     8
340
11
341
8F
342
8F
  0
DIMSTYLE
105
5E70
330
A
100
AcDbSymbolTableRecord
100
AcDbDimStyleTableRecord
  2
NEMY-5$3
 70
     0
 40
5.0
 41
3.0
 42
1.5
 43
10.0
 44
1.0
 77
     1
 78
     8
140
3.0
141
1.5
143
0.03937007874016
147
1.0
171
     3
172
     1
178
     0
271
     1
272
     1
274
     3
283
     0
284
     8
340
11
341
8F
342
8F
  0
DIMSTYLE
105
5E71
330
A
100
AcDbSymbolTableRecord
100
AcDbDimStyleTableRecord
  2
NEMY-30$3
 70
     0
 40
30.0
 41
3.0
 42
1.5
 43
10.0
 44
1.0
 77
     1
 78
     8
140
3.0
141
1.5
143
0.03937007874016
147
1.0
171
     3
172
     1
178
     0
271
     1
272
     1
274
     3
283
     0
284
     8
340
11
341
8F
342
8F
  0
DIMSTYLE
105
5E72
330
A
100
AcDbSymbolTableRecord
100
AcDbDimStyleTableRecord
  2
NEMY-3$3
 70
     0
 40
3.0
 41
3.0
 42
1.5
 43
10.0
 44
1.0
 77
     1
 78
     8
140
3.0
141
1.5
143
0.03937007874016
147
1.0
171
     3
172
     1
178
     0
271
     1
272
     1
274
     3
283
     0
284
     8
340
11
341
8F
342
8F
  0
DIMSTYLE
105
5E73
330
A
100
AcDbSymbolTableRecord
100
AcDbDimStyleTableRecord
  2
NEMY-25$3
 70
     0
 40
25.0
 41
3.0
 42
1.5
 43
10.0
 44
1.0
 77
     1
 78
     8
140
3.0
141
1.5
143
0.03937007874016
147
1.0
171
     3
172
     1
178
     0
271
     1
272
     1
274
     3
283
     0
284
     8
340
11
341
8F
342
8F
  0
DIMSTYLE
105
5E74
330
A
100
AcDbSymbolTableRecord
100
AcDbDimStyleTableRecord
  2
NEMY-20$3
 70
     0
 40
20.0
 41
3.0
 42
1.5
 43
10.0
 44
1.0
 77
     1
 78
     8
140
3.0
141
1.5
143
0.03937007874016
147
1.0
171
     3
172
     1
178
     0
271
     1
272
     1
274
     3
283
     0
284
     8
340
11
341
8F
342
8F
  0
DIMSTYLE
105
5E75
330
A
100
AcDbSymbolTableRecord
100
AcDbDimStyleTableRecord
  2
NEMY-2$3
 70
     0
 40
2.0
 41
3.0
 42
1.5
 43
10.0
 44
1.0
 77
     1
 78
     8
140
3.0
141
1.5
143
0.03937007874016
147
1.0
171
     3
172
     1
178
     0
271
     1
272
     1
274
     3
283
     0
284
     8
340
11
341
8F
342
8F
  0
DIMSTYLE
105
5E76
330
A
100
AcDbSymbolTableRecord
100
AcDbDimStyleTableRecord
  2
NEMY-15$3
 70
     0
 40
15.0
 41
3.0
 42
1.5
 43
10.0
 44
1.0
 77
     1
 78
     8
140
3.0
141
1.5
143
0.03937007874016
147
1.0
171
     3
172
     1
178
     0
271
     1
272
     1
274
     3
283
     0
284
     8
340
11
341
8F
342
8F
  0
ENDTAB
  0
TABLE
  2
BLOCK_RECORD
  5
1
330
0
100
AcDbSymbolTable
 70
  1201
  0
BLOCK_RECORD
  5
1F
102
{ACAD_XDICTIONARY
360
969E
102
}
330
1
100
AcDbSymbolTableRecord
100
AcDbBlockTableRecord
  2
*Model_Space
340
22
  0
BLOCK_RECORD
  5
1B
330
1
100
AcDbSymbolTableRecord
100
AcDbBlockTableRecord
  2
*Paper_Space
340
1E
  0
BLOCK_RECORD
  5
8F
330
1
100
AcDbSymbolTableRecord
100
AcDbBlockTableRecord
  2
_Open
340
0
102
{BLKREFS
331
AD61
331
AD6D
331
AD94
331
ADA0
331
E927
331
F40B
331
F418
331
F44C
331
F468
331
F475
331
F482
331
F48F
331
F49E
331
F4BF
331
F4EA
331
F537
331
F562
331
F57E
331
F58B
331
AD62
331
AD6E
331
AD95
331
ADA1
331
E928
331
F40C
331
F419
331
F44D
331
F469
331
F476
331
F483
331
F490
331
F49F
331
F4C0
331
F4EB
331
F538
331
F563
331
F57F
331
F58C
331
ABA6
331
F45B
331
F4CE
331
F4DD
331
F4F9
331
F52A
331
F546
331
F555
331
F571
331
ABA7
331
AD55
331
AD88
331
F43F
331
F45C
331
F4B2
331
F4CF
331
F4DE
331
F4FA
331
F52B
331
F547
331
F556
331
F572
331
AD56
331
AD89
331
F440
331
F4B3
102
}
  0
BLOCK_RECORD
  5
822C
330
1
100
AcDbSymbolTableRecord
100
AcDbBlockTableRecord
  2
L50x50xt6-破線
340
0
102
{BLKREFS
331
E6E8
331
E6E9
331
E6EA
331
E6EB
331
E706
331
E707
331
E70A
331
E70B
331
E7B8
331
E7B9
331
E7BA
331
E7BB
102
}
  0
BLOCK_RECORD
  5
82B8
330
1
100
AcDbSymbolTableRecord
100
AcDbBlockTableRecord
  2
L50x50xt6
340
0
102
{BLKREFS
331
8344
102
}
  0
BLOCK_RECORD
  5
82E2
330
1
100
AcDbSymbolTableRecord
100
AcDbBlockTableRecord
  2
hole-φ12
340
0
102
{BLKREFS
331
F345
331
F349
331
F34E
331
F352
102
}
  0
BLOCK_RECORD
  5
82F2
330
1
100
AcDbSymbolTableRecord
100
AcDbBlockTableRecord
  2
hole-φ16
340
0
102
{BLKREFS
331
0
331
F343
331
F347
331
F34C
331
F350
331
0
331
0
331
0
331
0
102
}
  0
BLOCK_RECORD
  5
8341
330
1
100
AcDbSymbolTableRecord
100
AcDbBlockTableRecord
  2
AH-アンカーL50
340
0
102
{BLKREFS
331
0
331
0
331
0
331
0
331
0
102
}
  0
BLOCK_RECORD
  5
835E
330
1
100
AcDbSymbolTableRecord
100
AcDbBlockTableRecord
  2
平W-M08
340
0
102
{BLKREFS
331
0
331
0
331
0
331
0
102
}
  0
BLOCK_RECORD
  5
836D
330
1
100
AcDbSymbolTableRecord
100
AcDbBlockTableRecord
  2
平W-M12
340
0
102
{BLKREFS
331
0
331
0
331
0
331
0
102
}
  0
BLOCK_RECORD
  5
AB9E
330
1
100
AcDbSymbolTableRecord
100
AcDbBlockTableRecord
  2
*D286
340
0
  0
BLOCK_RECORD
  5
AD4C
330
1
100
AcDbSymbolTableRecord
100
AcDbBlockTableRecord
  2
*D312
340
0
  0
BLOCK_RECORD
  5
AD5B
330
1
100
AcDbSymbolTableRecord
100
AcDbBlockTableRecord
  2
*D313
340
0
  0
BLOCK_RECORD
  5
AD67
330
1
100
AcDbSymbolTableRecord
100
AcDbBlockTableRecord
  2
*D314
340
0
  0
BLOCK_RECORD
  5
AD7F
330
1
100
AcDbSymbolTableRecord
100
AcDbBlockTableRecord
  2
*D316
340
0
  0
BLOCK_RECORD
  5
AD8E
330
1
100
AcDbSymbolTableRecord
100
AcDbBlockTableRecord
  2
*D317
340
0
  0
BLOCK_RECORD
  5
AD9A
330
1
100
AcDbSymbolTableRecord
100
AcDbBlockTableRecord
  2
*D318
340
0
  0
BLOCK_RECORD
  5
E921
330
1
100
AcDbSymbolTableRecord
100
AcDbBlockTableRecord
  2
*D1049
340
0
  0
BLOCK_RECORD
  5
F32B
330
1
100
AcDbSymbolTableRecord
100
AcDbBlockTableRecord
  2
1-MDA111-C
340
0
102
{BLKREFS
331
0
102
}
  0
BLOCK_RECORD
  5
F405
330
1
100
AcDbSymbolTableRecord
100
AcDbBlockTableRecord
  2
*D1176
340
0
  0
BLOCK_RECORD
  5
F412
330
1
100
AcDbSymbolTableRecord
100
AcDbBlockTableRecord
  2
*D1177
340
0
  0
BLOCK_RECORD
  5
F436
330
1
100
AcDbSymbolTableRecord
100
AcDbBlockTableRecord
  2
*D1178
340
0
  0
BLOCK_RECORD
  5
F446
330
1
100
AcDbSymbolTableRecord
100
AcDbBlockTableRecord
  2
*D1179
340
0
  0
BLOCK_RECORD
  5
F453
330
1
100
AcDbSymbolTableRecord
100
AcDbBlockTableRecord
  2
*D1180
340
0
  0
BLOCK_RECORD
  5
F462
330
1
100
AcDbSymbolTableRecord
100
AcDbBlockTableRecord
  2
*D1181
340
0
  0
BLOCK_RECORD
  5
F46F
330
1
100
AcDbSymbolTableRecord
100
AcDbBlockTableRecord
  2
*D1182
340
0
  0
BLOCK_RECORD
  5
F47C
330
1
100
AcDbSymbolTableRecord
100
AcDbBlockTableRecord
  2
*D1183
340
0
  0
BLOCK_RECORD
  5
F489
330
1
100
AcDbSymbolTableRecord
100
AcDbBlockTableRecord
  2
*D1184
340
0
  0
BLOCK_RECORD
  5
F498
330
1
100
AcDbSymbolTableRecord
100
AcDbBlockTableRecord
  2
*D1185
340
0
  0
BLOCK_RECORD
  5
F4A9
330
1
100
AcDbSymbolTableRecord
100
AcDbBlockTableRecord
  2
*D1186
340
0
  0
BLOCK_RECORD
  5
F4B9
330
1
100
AcDbSymbolTableRecord
100
AcDbBlockTableRecord
  2
*D1187
340
0
  0
BLOCK_RECORD
  5
F4C6
330
1
100
AcDbSymbolTableRecord
100
AcDbBlockTableRecord
  2
*D1188
340
0
  0
BLOCK_RECORD
  5
F4D5
330
1
100
AcDbSymbolTableRecord
100
AcDbBlockTableRecord
  2
*D1189
340
0
  0
BLOCK_RECORD
  5
F4E4
330
1
100
AcDbSymbolTableRecord
100
AcDbBlockTableRecord
  2
*D1190
340
0
  0
BLOCK_RECORD
  5
F4F1
330
1
100
AcDbSymbolTableRecord
100
AcDbBlockTableRecord
  2
*D1191
340
0
  0
BLOCK_RECORD
  5
F522
330
1
100
AcDbSymbolTableRecord
100
AcDbBlockTableRecord
  2
*D1193
340
0
  0
BLOCK_RECORD
  5
F531
330
1
100
AcDbSymbolTableRecord
100
AcDbBlockTableRecord
  2
*D1194
340
0
  0
BLOCK_RECORD
  5
F53E
330
1
100
AcDbSymbolTableRecord
100
AcDbBlockTableRecord
  2
*D1195
340
0
  0
BLOCK_RECORD
  5
F54D
330
1
100
AcDbSymbolTableRecord
100
AcDbBlockTableRecord
  2
*D1196
340
0
  0
BLOCK_RECORD
  5
F55C
330
1
100
AcDbSymbolTableRecord
100
AcDbBlockTableRecord
  2
*D1197
340
0
  0
BLOCK_RECORD
  5
F569
330
1
100
AcDbSymbolTableRecord
100
AcDbBlockTableRecord
  2
*D1198
340
0
  0
BLOCK_RECORD
  5
F578
330
1
100
AcDbSymbolTableRecord
100
AcDbBlockTableRecord
  2
*D1199
340
0
  0
BLOCK_RECORD
  5
F585
330
1
100
AcDbSymbolTableRecord
100
AcDbBlockTableRecord
  2
*D1200
340
0
  0
ENDTAB
  0
ENDSEC
  0
SECTION
  2
BLOCKS
  0
BLOCK
  5
20
330
1F
100
AcDbEntity
  8
0
100
AcDbBlockBegin
  2
*Model_Space
 70
     0
 10
0.0
 20
0.0
 30
0.0
  3
*Model_Space
  1

  0
ENDBLK
  5
21
330
1F
100
AcDbEntity
  8
0
100
AcDbBlockEnd
  0
BLOCK
  5
1C
330
1B
100
AcDbEntity
 67
     1
  8
0
100
AcDbBlockBegin
  2
*Paper_Space
 70
     0
 10
0.0
 20
0.0
 30
0.0
  3
*Paper_Space
  1

  0
ENDBLK
  5
1D
330
1B
100
AcDbEntity
 67
     1
  8
0
100
AcDbBlockEnd
  0
BLOCK
  5
93
330
8F
100
AcDbEntity
  8
0
100
AcDbBlockBegin
  2
_Open
 70
     0
 10
0.0
 20
0.0
 30
0.0
  3
_Open
  1

  0
LINE
  5
90
330
8F
100
AcDbEntity
  8
01注記寸法
 62
     0
370
    -2
100
AcDbLine
 10
-1.0
 20
0.1666666666666667
 30
0.0
 11
0.0
 21
0.0
 31
0.0
  0
LINE
  5
91
330
8F
100
AcDbEntity
  8
01注記寸法
 62
     0
370
    -2
100
AcDbLine
 10
-1.0
 20
-0.1666666666666667
 30
0.0
 11
0.0
 21
0.0
 31
0.0
  0
LINE
  5
92
330
8F
100
AcDbEntity
  8
01注記寸法
 62
     0
370
    -2
100
AcDbLine
 10
0.0
 20
0.0
 30
0.0
 11
-1.0
 21
0.0
 31
0.0
  0
ENDBLK
  5
94
330
8F
100
AcDbEntity
  8
0
100
AcDbBlockEnd
  0
BLOCK
  5
822D
330
822C
100
AcDbEntity
  8
0
100
AcDbBlockBegin
  2
L50x50xt6-破線
 70
     0
 10
0.0
 20
0.0
 30
0.0
  3
L50x50xt6-破線
  1

  0
LINE
  5
822E
330
822C
100
AcDbEntity
  8
03破線
  6
HIDDEN
100
AcDbLine
 10
50.0
 20
0.0
 30
0.0
 11
0.0
 21
0.0
 31
0.0
  0
LINE
  5
822F
330
822C
100
AcDbEntity
  8
03破線
  6
HIDDEN
100
AcDbLine
 10
0.0
 20
0.0
 30
0.0
 11
0.0
 21
-50.0
 31
0.0
  0
ARC
  5
8230
330
822C
100
AcDbEntity
  8
03破線
  6
HIDDEN
100
AcDbCircle
 10
12.5
 20
-12.5
 30
0.0
 40
6.500000000000003
100
AcDbArc
 50
90.0
 51
180.0
  0
ARC
  5
8231
330
822C
100
AcDbEntity
  8
03破線
  6
HIDDEN
100
AcDbCircle
 10
1.5
 20
-45.5
 30
0.0
 40
4.500000000000001
100
AcDbArc
 50
270.0
 51
0.0
  0
ARC
  5
8232
330
822C
100
AcDbEntity
  8
03破線
  6
HIDDEN
100
AcDbCircle
 10
45.5
 20
-1.5
 30
0.0
 40
4.500000000000001
100
AcDbArc
 50
270.0
 51
0.0
  0
LINE
  5
8233
330
822C
100
AcDbEntity
  8
03破線
  6
HIDDEN
100
AcDbLine
 10
1.5
 20
-50.0
 30
0.0
 11
0.0
 21
-50.0
 31
0.0
  0
LINE
  5
8234
330
822C
100
AcDbEntity
  8
03破線
  6
HIDDEN
100
AcDbLine
 10
6.0
 20
-12.5
 30
0.0
 11
6.0
 21
-45.5
 31
0.0
  0
LINE
  5
8235
330
822C
100
AcDbEntity
  8
03破線
  6
HIDDEN
100
AcDbLine
 10
50.0
 20
0.0
 30
0.0
 11
50.0
 21
-1.5
 31
0.0
  0
LINE
  5
8236
330
822C
100
AcDbEntity
  8
03破線
  6
HIDDEN
100
AcDbLine
 10
45.5
 20
-6.0
 30
0.0
 11
12.5
 21
-6.0
 31
0.0
  0
ENDBLK
  5
8237
330
822C
100
AcDbEntity
  8
0
100
AcDbBlockEnd
  0
BLOCK
  5
82B9
330
82B8
100
AcDbEntity
  8
0
100
AcDbBlockBegin
  2
L50x50xt6
 70
     0
 10
0.0
 20
0.0
 30
0.0
  3
L50x50xt6
  1

  0
LINE
  5
82BA
330
82B8
100
AcDbEntity
  8
02実線
100
AcDbLine
 10
50.0
 20
0.0
 30
0.0
 11
0.0
 21
0.0
 31
0.0
  0
LINE
  5
82BB
330
82B8
100
AcDbEntity
  8
02実線
100
AcDbLine
 10
0.0
 20
0.0
 30
0.0
 11
0.0
 21
-50.0
 31
0.0
  0
ARC
  5
82BC
330
82B8
100
AcDbEntity
  8
02実線
100
AcDbCircle
 10
12.5
 20
-12.5
 30
0.0
 40
6.500000000000003
100
AcDbArc
 50
90.0
 51
180.0
  0
ARC
  5
82BD
330
82B8
100
AcDbEntity
  8
02実線
100
AcDbCircle
 10
1.5
 20
-45.5
 30
0.0
 40
4.500000000000001
100
AcDbArc
 50
270.0
 51
0.0
  0
ARC
  5
82BE
330
82B8
100
AcDbEntity
  8
02実線
100
AcDbCircle
 10
45.5
 20
-1.5
 30
0.0
 40
4.500000000000001
100
AcDbArc
 50
270.0
 51
0.0
  0
LINE
  5
82BF
330
82B8
100
AcDbEntity
  8
02実線
100
AcDbLine
 10
1.5
 20
-50.0
 30
0.0
 11
0.0
 21
-50.0
 31
0.0
  0
LINE
  5
82C0
330
82B8
100
AcDbEntity
  8
02実線
100
AcDbLine
 10
6.0
 20
-12.5
 30
0.0
 11
6.0
 21
-45.5
 31
0.0
  0
LINE
  5
82C1
330
82B8
100
AcDbEntity
  8
02実線
100
AcDbLine
 10
50.0
 20
0.0
 30
0.0
 11
50.0
 21
-1.5
 31
0.0
  0
LINE
  5
82C2
330
82B8
100
AcDbEntity
  8
02実線
100
AcDbLine
 10
45.5
 20
-6.0
 30
0.0
 11
12.5
 21
-6.0
 31
0.0
  0
ENDBLK
  5
82C3
330
82B8
100
AcDbEntity
  8
0
100
AcDbBlockEnd
  0
BLOCK
  5
82E3
330
82E2
100
AcDbEntity
  8
0
100
AcDbBlockBegin
  2
hole-φ12
 70
     0
 10
0.0
 20
0.0
 30
0.0
  3
hole-φ12
  1

  0
CIRCLE
  5
82E4
330
82E2
100
AcDbEntity
  8
02実線
100
AcDbCircle
 10
0.0
 20
0.0
 30
0.0
 40
6.0
  0
LINE
  5
82E5
330
82E2
100
AcDbEntity
  8
04一点鎖線
  6
CENTER
 48
0.2
100
AcDbLine
 10
0.0
 20
-16.0
 30
0.0
 11
0.0
 21
16.0
 31
0.0
  0
LINE
  5
82E8
330
82E2
100
AcDbEntity
  8
04一点鎖線
  6
CENTER
 48
0.2
100
AcDbLine
 10
-16.0
 20
0.0
 30
0.0
 11
16.0
 21
0.0
 31
0.0
  0
ENDBLK
  5
82E9
330
82E2
100
AcDbEntity
  8
0
100
AcDbBlockEnd
  0
BLOCK
  5
82F3
330
82F2
100
AcDbEntity
  8
0
100
AcDbBlockBegin
  2
hole-φ16
 70
     0
 10
0.0
 20
0.0
 30
0.0
  3
hole-φ16
  1

  0
CIRCLE
  5
82F4
330
82F2
100
AcDbEntity
  8
02実線
100
AcDbCircle
 10
0.0
 20
0.0
 30
0.0
 40
8.0
  0
LINE
  5
82F5
330
82F2
100
AcDbEntity
  8
04一点鎖線
  6
CENTER
 48
0.2
100
AcDbLine
 10
0.0
 20
-18.0
 30
0.0
 11
0.0
 21
18.0
 31
0.0
  0
LINE
  5
82F6
330
82F2
100
AcDbEntity
  8
04一点鎖線
  6
CENTER
 48
0.2
100
AcDbLine
 10
-18.0
 20
0.0
 30
0.0
 11
18.0
 21
0.0
 31
0.0
  0
ENDBLK
  5
82F7
330
82F2
100
AcDbEntity
  8
0
100
AcDbBlockEnd
  0
BLOCK
  5
8342
330
8341
100
AcDbEntity
  8
0
100
AcDbBlockBegin
  2
AH-アンカーL50
 70
     0
 10
0.0
 20
0.0
 30
0.0
  3
AH-アンカーL50
  1

  0
LWPOLYLINE
  5
8343
330
8341
100
AcDbEntity
  8
02実線
100
AcDbPolyline
 90
        8
 70
     1
 43
0.0
 10
-90.0
 20
0.0
 10
-90.0
 20
79.99999999999977
 10
-80.0
 20
89.99999999999977
 10
0.0
 20
89.99999999999977
 10
10.0
 20
79.99999999999977
 10
10.0
 20
0.0
 10
0.0
 20
-10.0
 10
-80.0
 20
-10.0
  0
INSERT
  5
8344
330
8341
100
AcDbEntity
  8
02実線
100
AcDbBlockReference
  2
L50x50xt6
 10
0.0
 20
0.0
 30
0.0
 50
180.0
  0
LINE
  5
8C70
330
8341
100
AcDbEntity
  8
08非表示
100
AcDbLine
 10
-60.0
 20
65.0
 30
0.0
 11
-70.0
 21
65.0
 31
0.0
  0
LINE
  5
8C71
330
8341
100
AcDbEntity
  8
08非表示
100
AcDbLine
 10
-65.0
 20
60.0
 30
0.0
 11
-65.0
 21
70.0
 31
0.0
  0
ENDBLK
  5
8351
330
8341
100
AcDbEntity
  8
0
100
AcDbBlockEnd
  0
BLOCK
  5
835F
330
835E
100
AcDbEntity
  8
0
100
AcDbBlockBegin
  2
平W-M08
 70
     0
 10
0.0
 20
0.0
 30
0.0
  3
平W-M08
  1

  0
CIRCLE
  5
8360
330
835E
100
AcDbEntity
  8
10副資材
100
AcDbCircle
 10
0.0
 20
0.0
 30
0.0
 40
4.0
  0
CIRCLE
  5
8361
330
835E
100
AcDbEntity
  8
10副資材
100
AcDbCircle
 10
0.0
 20
0.0
 30
0.0
 40
9.0
  0
TEXT
  5
8362
330
835E
100
AcDbEntity
  8
10副資材
100
AcDbText
 10
-1.95
 20
-7.77435407653843
 30
0.0
 40
3.0
  1
M8
 72
     1
 11
0.0
 21
-6.27435407653843
 31
0.0
100
AcDbText
 73
     2
  0
ENDBLK
  5
8364
330
835E
100
AcDbEntity
  8
0
100
AcDbBlockEnd
  0
BLOCK
  5
836E
330
836D
100
AcDbEntity
  8
0
100
AcDbBlockBegin
  2
平W-M12
 70
     0
 10
0.0
 20
0.0
 30
0.0
  3
平W-M12
  1

  0
CIRCLE
  5
836F
330
836D
100
AcDbEntity
  8
10副資材
100
AcDbCircle
 10
0.0
 20
0.0
 30
0.0
 40
6.0
  0
CIRCLE
  5
8370
330
836D
100
AcDbEntity
  8
10副資材
100
AcDbCircle
 10
0.0
 20
0.0
 30
0.0
 40
13.0
  0
TEXT
  5
8371
330
836D
100
AcDbEntity
  8
10副資材
100
AcDbText
 10
-3.899921878130408
 20
-11.29716620919794
 30
0.0
 40
4.0
  1
M12
 72
     1
 11
0.000078121869592
 21
-9.29716620919794
 31
0.0
100
AcDbText
 73
     2
  0
ENDBLK
  5
8372
330
836D
100
AcDbEntity
  8
0
100
AcDbBlockEnd
  0
BLOCK
  5
AB9F
330
AB9E
100
AcDbEntity
  8
0
100
AcDbBlockBegin
  2
*D286
 70
     1
 10
0.0
 20
0.0
 30
0.0
  3
*D286
  1

  0
LINE
  5
ABA1
330
AB9E
100
AcDbEntity
  8
01注記寸法
 62
     0
370
    -2
100
AcDbLine
 10
4022.747806279923
 20
992.6315544705153
 30
0.0
 11
4139.627806279922
 21
992.6315544705153
 31
0.0
  0
LINE
  5
ABA2
330
AB9E
100
AcDbEntity
  8
01注記寸法
 62
     0
370
    -2
100
AcDbLine
 10
4139.627806279922
 20
992.6315544705153
 30
0.0
 11
4260.302071404524
 21
849.4384876336374
 31
0.0
  0
LINE
  5
ABA3
330
AB9E
100
AcDbEntity
  8
01注記寸法
 62
     0
370
    -2
100
AcDbLine
 10
4364.697928595472
 20
725.5615123663654
 30
0.0
 11
4393.696777815179
 21
691.1512414587905
 31
0.0
  0
MTEXT
  5
ABA4
330
AB9E
100
AcDbEntity
  8
01注記寸法
 62
     0
100
AcDbMText
 10
4073.687806279922
 20
1033.776554470515
 30
0.0
 40
45.0
 41
0.0
 71
     5
 72
     1
  1
φ16
 73
     1
 44
1.0
  0
LINE
  5
ABA5
330
AB9E
100
AcDbEntity
  8
01注記寸法
 62
     0
370
    -2
100
AcDbLine
 10
4335.699079375765
 20
759.9717832739402
 30
0.0
 11
4289.300920624231
 21
815.0282167260625
 31
0.0
  0
INSERT
  5
ABA6
330
AB9E
100
AcDbEntity
  8
01注記寸法
 62
     0
370
    -2
100
AcDbBlockReference
  2
_Open
 10
4335.699079375765
 20
759.9717832739402
 30
0.0
 41
45.0
 42
45.0
 43
45.0
 50
130.1221184277505
  0
INSERT
  5
ABA7
330
AB9E
100
AcDbEntity
  8
01注記寸法
 62
     0
370
    -2
100
AcDbBlockReference
  2
_Open
 10
4289.300920624231
 20
815.0282167260625
 30
0.0
 41
45.0
 42
45.0
 43
45.0
 50
310.1221184277505
  0
POINT
  5
ABA8
330
AB9E
100
AcDbEntity
  8
Defpoints
 62
     0
100
AcDbPoint
 10
4289.300920624231
 20
815.0282167260625
 30
0.0
  0
POINT
  5
ABA9
330
AB9E
100
AcDbEntity
  8
Defpoints
 62
     0
100
AcDbPoint
 10
4335.699079375765
 20
759.9717832739402
 30
0.0
  0
ENDBLK
  5
ABA0
330
AB9E
100
AcDbEntity
  8
0
100
AcDbBlockEnd
  0
BLOCK
  5
AD4D
330
AD4C
100
AcDbEntity
  8
0
100
AcDbBlockBegin
  2
*D312
 70
     1
 10
0.0
 20
0.0
 30
0.0
  3
*D312
  1

  0
LINE
  5
AD4F
330
AD4C
100
AcDbEntity
  8
01注記寸法
 62
     0
370
    -2
100
AcDbLine
 10
4650.0
 20
877.5000000000014
 30
0.0
 11
4650.0
 21
1065.000042266474
 31
0.0
  0
LINE
  5
AD50
330
AD4C
100
AcDbEntity
  8
01注記寸法
 62
     0
370
    -2
100
AcDbLine
 10
4605.0
 20
742.5000000000014
 30
0.0
 11
4605.0
 21
1065.000042266474
 31
0.0
  0
LINE
  5
AD51
330
AD4C
100
AcDbEntity
  8
01注記寸法
 62
     0
370
    -2
100
AcDbLine
 10
4650.0
 20
1050.000042266474
 30
0.0
 11
4822.087500000001
 21
1050.000042266474
 31
0.0
  0
LINE
  5
AD52
330
AD4C
100
AcDbEntity
  8
01注記寸法
 62
     0
370
    -2
100
AcDbLine
 10
4650.0
 20
1050.000042266474
 30
0.0
 11
4605.0
 21
1050.000042266474
 31
0.0
  0
LINE
  5
AD53
330
AD4C
100
AcDbEntity
  8
01注記寸法
 62
     0
370
    -2
100
AcDbLine
 10
4695.0
 20
1050.000042266474
 30
0.0
 11
4740.0
 21
1050.000042266474
 31
0.0
  0
LINE
  5
AD54
330
AD4C
100
AcDbEntity
  8
01注記寸法
 62
     0
370
    -2
100
AcDbLine
 10
4560.0
 20
1050.000042266474
 30
0.0
 11
4515.0
 21
1050.000042266474
 31
0.0
  0
INSERT
  5
AD55
330
AD4C
100
AcDbEntity
  8
01注記寸法
 62
     0
370
    -2
100
AcDbBlockReference
  2
_Open
 10
4650.0
 20
1050.000042266474
 30
0.0
 41
45.0
 42
45.0
 43
45.0
 50
180.0
  0
INSERT
  5
AD56
330
AD4C
100
AcDbEntity
  8
01注記寸法
 62
     0
370
    -2
100
AcDbBlockReference
  2
_Open
 10
4605.0
 20
1050.000042266474
 30
0.0
 41
45.0
 42
45.0
 43
45.0
  0
MTEXT
  5
AD57
330
AD4C
100
AcDbEntity
  8
01注記寸法
 62
     0
100
AcDbMText
 10
4781.842500000001
 20
1087.500042266474
 30
0.0
 40
45.0
 41
0.0
 71
     5
 72
     1
  1
10
 73
     1
 44
1.0
  0
POINT
  5
AD58
330
AD4C
100
AcDbEntity
  8
Defpoints
 62
     0
100
AcDbPoint
 10
4650.0
 20
855.0000000000014
 30
0.0
  0
POINT
  5
AD59
330
AD4C
100
AcDbEntity
  8
Defpoints
 62
     0
100
AcDbPoint
 10
4605.0
 20
720.0000000000014
 30
0.0
  0
POINT
  5
AD5A
330
AD4C
100
AcDbEntity
  8
Defpoints
 62
     0
100
AcDbPoint
 10
4605.0
 20
1050.000042266474
 30
0.0
  0
ENDBLK
  5
AD4E
330
AD4C
100
AcDbEntity
  8
0
100
AcDbBlockEnd
  0
BLOCK
  5
AD5C
330
AD5B
100
AcDbEntity
  8
0
100
AcDbBlockBegin
  2
*D313
 70
     1
 10
0.0
 20
0.0
 30
0.0
  3
*D313
  1

  0
LINE
  5
AD5E
330
AD5B
100
AcDbEntity
  8
01注記寸法
 62
     0
370
    -2
100
AcDbLine
 10
4605.0
 20
742.5000000000014
 30
0.0
 11
4605.0
 21
1065.000042266474
 31
0.0
  0
LINE
  5
AD5F
330
AD5B
100
AcDbEntity
  8
01注記寸法
 62
     0
370
    -2
100
AcDbLine
 10
4312.5
 20
886.5000000000014
 30
0.0
 11
4312.5
 21
1065.000042266474
 31
0.0
  0
LINE
  5
AD60
330
AD5B
100
AcDbEntity
  8
01注記寸法
 62
     0
370
    -2
100
AcDbLine
 10
4560.0
 20
1050.000042266474
 30
0.0
 11
4357.5
 21
1050.000042266474
 31
0.0
  0
INSERT
  5
AD61
330
AD5B
100
AcDbEntity
  8
01注記寸法
 62
     0
370
    -2
100
AcDbBlockReference
  2
_Open
 10
4605.0
 20
1050.000042266474
 30
0.0
 41
45.0
 42
45.0
 43
45.0
  0
INSERT
  5
AD62
330
AD5B
100
AcDbEntity
  8
01注記寸法
 62
     0
370
    -2
100
AcDbBlockReference
  2
_Open
 10
4312.5
 20
1050.000042266474
 30
0.0
 41
45.0
 42
45.0
 43
45.0
 50
180.0
  0
MTEXT
  5
AD63
330
AD5B
100
AcDbEntity
  8
01注記寸法
 62
     0
100
AcDbMText
 10
4458.75
 20
1087.500042266474
 30
0.0
 40
45.0
 41
0.0
 71
     5
 72
     1
  1
65
 73
     1
 44
1.0
  0
POINT
  5
AD64
330
AD5B
100
AcDbEntity
  8
Defpoints
 62
     0
100
AcDbPoint
 10
4605.0
 20
720.0000000000014
 30
0.0
  0
POINT
  5
AD65
330
AD5B
100
AcDbEntity
  8
Defpoints
 62
     0
100
AcDbPoint
 10
4312.5
 20
864.0000000000014
 30
0.0
  0
POINT
  5
AD66
330
AD5B
100
AcDbEntity
  8
Defpoints
 62
     0
100
AcDbPoint
 10
4312.5
 20
1050.000042266474
 30
0.0
  0
ENDBLK
  5
AD5D
330
AD5B
100
AcDbEntity
  8
0
100
AcDbBlockEnd
  0
BLOCK
  5
AD68
330
AD67
100
AcDbEntity
  8
0
100
AcDbBlockBegin
  2
*D314
 70
     1
 10
0.0
 20
0.0
 30
0.0
  3
*D314
  1

  0
LINE
  5
AD6A
330
AD67
100
AcDbEntity
  8
01注記寸法
 62
     0
370
    -2
100
AcDbLine
 10
4650.0
 20
877.5000000000014
 30
0.0
 11
4650.0
 21
1215.000069354373
 31
0.0
  0
LINE
  5
AD6B
330
AD67
100
AcDbEntity
  8
01注記寸法
 62
     0
370
    -2
100
AcDbLine
 10
4200.0
 20
877.5000000000014
 30
0.0
 11
4200.0
 21
1215.000069354373
 31
0.0
  0
LINE
  5
AD6C
330
AD67
100
AcDbEntity
  8
01注記寸法
 62
     0
370
    -2
100
AcDbLine
 10
4605.0
 20
1200.000069354373
 30
0.0
 11
4245.0
 21
1200.000069354373
 31
0.0
  0
INSERT
  5
AD6D
330
AD67
100
AcDbEntity
  8
01注記寸法
 62
     0
370
    -2
100
AcDbBlockReference
  2
_Open
 10
4650.0
 20
1200.000069354373
 30
0.0
 41
45.0
 42
45.0
 43
45.0
  0
INSERT
  5
AD6E
330
AD67
100
AcDbEntity
  8
01注記寸法
 62
     0
370
    -2
100
AcDbBlockReference
  2
_Open
 10
4200.0
 20
1200.000069354373
 30
0.0
 41
45.0
 42
45.0
 43
45.0
 50
180.0
  0
MTEXT
  5
AD6F
330
AD67
100
AcDbEntity
  8
01注記寸法
 62
     0
100
AcDbMText
 10
4425.0
 20
1237.500069354373
 30
0.0
 40
45.0
 41
0.0
 71
     5
 72
     1
  1
100
 73
     1
 44
1.0
  0
POINT
  5
AD70
330
AD67
100
AcDbEntity
  8
Defpoints
 62
     0
100
AcDbPoint
 10
4650.0
 20
855.0000000000014
 30
0.0
  0
POINT
  5
AD71
330
AD67
100
AcDbEntity
  8
Defpoints
 62
     0
100
AcDbPoint
 10
4200.0
 20
855.0000000000014
 30
0.0
  0
POINT
  5
AD72
330
AD67
100
AcDbEntity
  8
Defpoints
 62
     0
100
AcDbPoint
 10
4200.0
 20
1200.000069354373
 30
0.0
  0
ENDBLK
  5
AD69
330
AD67
100
AcDbEntity
  8
0
100
AcDbBlockEnd
  0
BLOCK
  5
AD80
330
AD7F
100
AcDbEntity
  8
0
100
AcDbBlockBegin
  2
*D316
 70
     1
 10
0.0
 20
0.0
 30
0.0
  3
*D316
  1

  0
LINE
  5
AD82
330
AD7F
100
AcDbEntity
  8
01注記寸法
 62
     0
370
    -2
100
AcDbLine
 10
4222.5
 20
450.0000000000014
 30
0.0
 11
4034.999939139687
 21
450.0000000000014
 31
0.0
  0
LINE
  5
AD83
330
AD7F
100
AcDbEntity
  8
01注記寸法
 62
     0
370
    -2
100
AcDbLine
 10
4357.5
 20
495.0000000000014
 30
0.0
 11
4034.999939139687
 21
495.0000000000014
 31
0.0
  0
LINE
  5
AD84
330
AD7F
100
AcDbEntity
  8
01注記寸法
 62
     0
370
    -2
100
AcDbLine
 10
4049.999939139687
 20
450.0000000000014
 30
0.0
 11
4049.999939139687
 21
277.9125000000008
 31
0.0
  0
LINE
  5
AD85
330
AD7F
100
AcDbEntity
  8
01注記寸法
 62
     0
370
    -2
100
AcDbLine
 10
4049.999939139687
 20
450.0000000000014
 30
0.0
 11
4049.999939139687
 21
495.0000000000014
 31
0.0
  0
LINE
  5
AD86
330
AD7F
100
AcDbEntity
  8
01注記寸法
 62
     0
370
    -2
100
AcDbLine
 10
4049.999939139687
 20
405.0000000000014
 30
0.0
 11
4049.999939139687
 21
360.0000000000014
 31
0.0
  0
LINE
  5
AD87
330
AD7F
100
AcDbEntity
  8
01注記寸法
 62
     0
370
    -2
100
AcDbLine
 10
4049.999939139687
 20
540.0000000000014
 30
0.0
 11
4049.999939139687
 21
585.0000000000014
 31
0.0
  0
INSERT
  5
AD88
330
AD7F
100
AcDbEntity
  8
01注記寸法
 62
     0
370
    -2
100
AcDbBlockReference
  2
_Open
 10
4049.999939139687
 20
450.0000000000014
 30
0.0
 41
45.0
 42
45.0
 43
45.0
 50
90.0
  0
INSERT
  5
AD89
330
AD7F
100
AcDbEntity
  8
01注記寸法
 62
     0
370
    -2
100
AcDbBlockReference
  2
_Open
 10
4049.999939139687
 20
495.0000000000014
 30
0.0
 41
45.0
 42
45.0
 43
45.0
 50
270.0
  0
MTEXT
  5
AD8A
330
AD7F
100
AcDbEntity
  8
01注記寸法
 62
     0
100
AcDbMText
 10
4012.499939139687
 20
318.1575000000007
 30
0.0
 40
45.0
 41
0.0
 71
     5
 72
     1
  1
10
 11
0.0
 21
1.0
 31
0.0
 73
     1
 44
1.0
  0
POINT
  5
AD8B
330
AD7F
100
AcDbEntity
  8
Defpoints
 62
     0
100
AcDbPoint
 10
4245.0
 20
450.0000000000014
 30
0.0
  0
POINT
  5
AD8C
330
AD7F
100
AcDbEntity
  8
Defpoints
 62
     0
100
AcDbPoint
 10
4380.0
 20
495.0000000000014
 30
0.0
  0
POINT
  5
AD8D
330
AD7F
100
AcDbEntity
  8
Defpoints
 62
     0
100
AcDbPoint
 10
4049.999939139687
 20
495.0000000000014
 30
0.0
  0
ENDBLK
  5
AD81
330
AD7F
100
AcDbEntity
  8
0
100
AcDbBlockEnd
  0
BLOCK
  5
AD8F
330
AD8E
100
AcDbEntity
  8
0
100
AcDbBlockBegin
  2
*D317
 70
     1
 10
0.0
 20
0.0
 30
0.0
  3
*D317
  1

  0
LINE
  5
AD91
330
AD8E
100
AcDbEntity
  8
01注記寸法
 62
     0
370
    -2
100
AcDbLine
 10
4357.5
 20
495.0000000000014
 30
0.0
 11
4034.999939139687
 21
495.0000000000014
 31
0.0
  0
LINE
  5
AD92
330
AD8E
100
AcDbEntity
  8
01注記寸法
 62
     0
370
    -2
100
AcDbLine
 10
4213.5
 20
787.5000000000014
 30
0.0
 11
4034.999939139687
 21
787.5000000000014
 31
0.0
  0
LINE
  5
AD93
330
AD8E
100
AcDbEntity
  8
01注記寸法
 62
     0
370
    -2
100
AcDbLine
 10
4049.999939139687
 20
540.0000000000014
 30
0.0
 11
4049.999939139687
 21
742.5000000000014
 31
0.0
  0
INSERT
  5
AD94
330
AD8E
100
AcDbEntity
  8
01注記寸法
 62
     0
370
    -2
100
AcDbBlockReference
  2
_Open
 10
4049.999939139687
 20
495.0000000000014
 30
0.0
 41
45.0
 42
45.0
 43
45.0
 50
270.0
  0
INSERT
  5
AD95
330
AD8E
100
AcDbEntity
  8
01注記寸法
 62
     0
370
    -2
100
AcDbBlockReference
  2
_Open
 10
4049.999939139687
 20
787.5000000000014
 30
0.0
 41
45.0
 42
45.0
 43
45.0
 50
90.0
  0
MTEXT
  5
AD96
330
AD8E
100
AcDbEntity
  8
01注記寸法
 62
     0
100
AcDbMText
 10
4012.499939139687
 20
641.2500000000014
 30
0.0
 40
45.0
 41
0.0
 71
     5
 72
     1
  1
65
 11
0.0
 21
1.0
 31
0.0
 73
     1
 44
1.0
  0
POINT
  5
AD97
330
AD8E
100
AcDbEntity
  8
Defpoints
 62
     0
100
AcDbPoint
 10
4380.0
 20
495.0000000000014
 30
0.0
  0
POINT
  5
AD98
330
AD8E
100
AcDbEntity
  8
Defpoints
 62
     0
100
AcDbPoint
 10
4236.0
 20
787.5000000000014
 30
0.0
  0
POINT
  5
AD99
330
AD8E
100
AcDbEntity
  8
Defpoints
 62
     0
100
AcDbPoint
 10
4049.999939139687
 20
787.5000000000014
 30
0.0
  0
ENDBLK
  5
AD90
330
AD8E
100
AcDbEntity
  8
0
100
AcDbBlockEnd
  0
BLOCK
  5
AD9B
330
AD9A
100
AcDbEntity
  8
0
100
AcDbBlockBegin
  2
*D318
 70
     1
 10
0.0
 20
0.0
 30
0.0
  3
*D318
  1

  0
LINE
  5
AD9D
330
AD9A
100
AcDbEntity
  8
01注記寸法
 62
     0
370
    -2
100
AcDbLine
 10
4222.5
 20
450.0000000000014
 30
0.0
 11
3884.999907174534
 21
450.0000000000014
 31
0.0
  0
LINE
  5
AD9E
330
AD9A
100
AcDbEntity
  8
01注記寸法
 62
     0
370
    -2
100
AcDbLine
 10
4222.5
 20
900.0000000000014
 30
0.0
 11
3884.999907174534
 21
900.0000000000014
 31
0.0
  0
LINE
  5
AD9F
330
AD9A
100
AcDbEntity
  8
01注記寸法
 62
     0
370
    -2
100
AcDbLine
 10
3899.999907174534
 20
495.0000000000014
 30
0.0
 11
3899.999907174534
 21
855.0000000000014
 31
0.0
  0
INSERT
  5
ADA0
330
AD9A
100
AcDbEntity
  8
01注記寸法
 62
     0
370
    -2
100
AcDbBlockReference
  2
_Open
 10
3899.999907174534
 20
450.0000000000014
 30
0.0
 41
45.0
 42
45.0
 43
45.0
 50
270.0
  0
INSERT
  5
ADA1
330
AD9A
100
AcDbEntity
  8
01注記寸法
 62
     0
370
    -2
100
AcDbBlockReference
  2
_Open
 10
3899.999907174534
 20
900.0000000000014
 30
0.0
 41
45.0
 42
45.0
 43
45.0
 50
90.0
  0
MTEXT
  5
ADA2
330
AD9A
100
AcDbEntity
  8
01注記寸法
 62
     0
100
AcDbMText
 10
3862.499907174534
 20
675.0000000000014
 30
0.0
 40
45.0
 41
0.0
 71
     5
 72
     1
  1
100
 11
0.0
 21
1.0
 31
0.0
 73
     1
 44
1.0
  0
POINT
  5
ADA3
330
AD9A
100
AcDbEntity
  8
Defpoints
 62
     0
100
AcDbPoint
 10
4245.0
 20
450.0000000000014
 30
0.0
  0
POINT
  5
ADA4
330
AD9A
100
AcDbEntity
  8
Defpoints
 62
     0
100
AcDbPoint
 10
4245.0
 20
900.0000000000014
 30
0.0
  0
POINT
  5
ADA5
330
AD9A
100
AcDbEntity
  8
Defpoints
 62
     0
100
AcDbPoint
 10
3899.999907174534
 20
900.0000000000014
 30
0.0
  0
ENDBLK
  5
AD9C
330
AD9A
100
AcDbEntity
  8
0
100
AcDbBlockEnd
  0
BLOCK
  5
E922
330
E921
100
AcDbEntity
  8
0
100
AcDbBlockBegin
  2
*D1049
 70
     1
 10
0.0
 20
0.0
 30
0.0
  3
*D1049
  1

  0
LINE
  5
E924
330
E921
100
AcDbEntity
  8
08非表示
 62
     0
370
    -2
100
AcDbLine
 10
3205.0
 20
2665.000000000001
 30
0.0
 11
3205.0
 21
2760.000000000001
 31
0.0
  0
LINE
  5
E925
330
E921
100
AcDbEntity
  8
08非表示
 62
     0
370
    -2
100
AcDbLine
 10
3585.0
 20
2665.000000000001
 30
0.0
 11
3585.0
 21
2760.000000000001
 31
0.0
  0
LINE
  5
E926
330
E921
100
AcDbEntity
  8
08非表示
 62
     0
370
    -2
100
AcDbLine
 10
3235.0
 20
2750.000000000001
 30
0.0
 11
3555.0
 21
2750.000000000001
 31
0.0
  0
INSERT
  5
E927
330
E921
100
AcDbEntity
  8
08非表示
 62
     0
370
    -2
100
AcDbBlockReference
  2
_Open
 10
3205.0
 20
2750.000000000001
 30
0.0
 41
30.0
 42
30.0
 43
30.0
 50
180.0
  0
INSERT
  5
E928
330
E921
100
AcDbEntity
  8
08非表示
 62
     0
370
    -2
100
AcDbBlockReference
  2
_Open
 10
3585.0
 20
2750.000000000001
 30
0.0
 41
30.0
 42
30.0
 43
30.0
  0
MTEXT
  5
E929
330
E921
100
AcDbEntity
  8
08非表示
 62
     0
100
AcDbMText
 10
3395.0
 20
2775.000000000001
 30
0.0
 40
30.0
 41
0.0
 71
     5
 72
     1
  1
380
 73
     1
 44
1.0
  0
POINT
  5
E92A
330
E921
100
AcDbEntity
  8
Defpoints
 62
     0
100
AcDbPoint
 10
3205.0
 20
2650.000000000001
 30
0.0
  0
POINT
  5
E92B
330
E921
100
AcDbEntity
  8
Defpoints
 62
     0
100
AcDbPoint
 10
3585.0
 20
2650.000000000001
 30
0.0
  0
POINT
  5
E92C
330
E921
100
AcDbEntity
  8
Defpoints
 62
     0
100
AcDbPoint
 10
3585.0
 20
2750.000000000001
 30
0.0
  0
ENDBLK
  5
E923
330
E921
100
AcDbEntity
  8
0
100
AcDbBlockEnd
  0
BLOCK
  5
F32C
330
F32B
100
AcDbEntity
  8
0
100
AcDbBlockBegin
  2
1-MDA111-C
 70
     0
 10
0.0
 20
0.0
 30
0.0
  3
1-MDA111-C
  1

  0
LWPOLYLINE
  5
F32D
330
F32B
100
AcDbEntity
  8
12防振架台
100
AcDbPolyline
 90
        8
 70
     1
 43
0.0
 10
-400.0
 20
15.0
 10
-400.0
 20
355.0
 42
-0.414213562373095
 10
-385.0
 20
370.0
 10
385.0
 20
370.0
 42
-0.414213562373095
 10
400.0
 20
355.0
 10
400.0
 20
15.0
 42
-0.414213562373095
 10
385.0
 20
0.0
 10
-385.0
 20
0.0
 42
-0.414213562373095
  0
LWPOLYLINE
  5
F32E
330
F32B
100
AcDbEntity
  8
12防振架台
100
AcDbPolyline
 90
        4
 70
     1
 43
0.0
 10
-340.0
 20
60.0
 10
-340.0
 20
310.0
 10
340.0
 20
310.0
 10
340.0
 20
60.0
  0
CIRCLE
  5
F32F
330
F32B
100
AcDbEntity
  8
12防振架台
100
AcDbCircle
 10
-300.0
 20
30.0
 30
0.0
 40
8.0
  0
CIRCLE
  5
F330
330
F32B
100
AcDbEntity
  8
12防振架台
100
AcDbCircle
 10
-250.0
 20
20.0
 30
0.0
 40
6.0
  0
CIRCLE
  5
F331
330
F32B
100
AcDbEntity
  8
12防振架台
100
AcDbCircle
 10
-300.0
 20
340.0
 30
0.0
 40
8.0
  0
CIRCLE
  5
F332
330
F32B
100
AcDbEntity
  8
12防振架台
100
AcDbCircle
 10
-250.0
 20
350.0
 30
0.0
 40
6.0
  0
CIRCLE
  5
F333
330
F32B
100
AcDbEntity
  8
12防振架台
100
AcDbCircle
 10
300.0
 20
30.0
 30
0.0
 40
8.0
  0
CIRCLE
  5
F334
330
F32B
100
AcDbEntity
  8
12防振架台
100
AcDbCircle
 10
250.0
 20
20.0
 30
0.0
 40
6.0
  0
CIRCLE
  5
F335
330
F32B
100
AcDbEntity
  8
12防振架台
100
AcDbCircle
 10
300.0
 20
340.0
 30
0.0
 40
8.0
  0
CIRCLE
  5
F336
330
F32B
100
AcDbEntity
  8
12防振架台
100
AcDbCircle
 10
250.0
 20
350.0
 30
0.0
 40
6.0
  0
ENDBLK
  5
F337
330
F32B
100
AcDbEntity
  8
0
100
AcDbBlockEnd
  0
BLOCK
  5
F406
330
F405
100
AcDbEntity
  8
0
100
AcDbBlockBegin
  2
*D1176
 70
     1
 10
0.0
 20
0.0
 30
0.0
  3
*D1176
  1

  0
LINE
  5
F408
330
F405
100
AcDbEntity
  8
01注記寸法
 62
     0
370
    -2
100
AcDbLine
 10
1782.5
 20
1650.000000000001
 30
0.0
 11
1650.0
 21
1650.000000000001
 31
0.0
  0
LINE
  5
F409
330
F405
100
AcDbEntity
  8
01注記寸法
 62
     0
370
    -2
100
AcDbLine
 10
1792.5
 20
1850.000000000001
 30
0.0
 11
1650.0
 21
1850.000000000001
 31
0.0
  0
LINE
  5
F40A
330
F405
100
AcDbEntity
  8
01注記寸法
 62
     0
370
    -2
100
AcDbLine
 10
1665.0
 20
1695.000000000001
 30
0.0
 11
1665.0
 21
1805.000000000001
 31
0.0
  0
INSERT
  5
F40B
330
F405
100
AcDbEntity
  8
01注記寸法
 62
     0
370
    -2
100
AcDbBlockReference
  2
_Open
 10
1665.0
 20
1650.000000000001
 30
0.0
 41
45.0
 42
45.0
 43
45.0
 50
270.0
  0
INSERT
  5
F40C
330
F405
100
AcDbEntity
  8
01注記寸法
 62
     0
370
    -2
100
AcDbBlockReference
  2
_Open
 10
1665.0
 20
1850.000000000001
 30
0.0
 41
45.0
 42
45.0
 43
45.0
 50
90.0
  0
MTEXT
  5
F40D
330
F405
100
AcDbEntity
  8
01注記寸法
 62
     0
100
AcDbMText
 10
1627.5
 20
1750.000000000001
 30
0.0
 40
45.0
 41
0.0
 71
     5
 72
     1
  1
200
 11
0.0
 21
1.0
 31
0.0
 73
     1
 44
1.0
  0
POINT
  5
F40E
330
F405
100
AcDbEntity
  8
Defpoints
 62
     0
100
AcDbPoint
 10
1805.0
 20
1650.000000000001
 30
0.0
  0
POINT
  5
F40F
330
F405
100
AcDbEntity
  8
Defpoints
 62
     0
100
AcDbPoint
 10
1815.0
 20
1850.000000000001
 30
0.0
  0
POINT
  5
F410
330
F405
100
AcDbEntity
  8
Defpoints
 62
     0
100
AcDbPoint
 10
1665.0
 20
1850.000000000001
 30
0.0
  0
ENDBLK
  5
F407
330
F405
100
AcDbEntity
  8
0
100
AcDbBlockEnd
  0
BLOCK
  5
F413
330
F412
100
AcDbEntity
  8
0
100
AcDbBlockBegin
  2
*D1177
 70
     1
 10
0.0
 20
0.0
 30
0.0
  3
*D1177
  1

  0
LINE
  5
F415
330
F412
100
AcDbEntity
  8
01注記寸法
 62
     0
370
    -2
100
AcDbLine
 10
1782.5
 20
1650.000000000001
 30
0.0
 11
1500.0
 21
1650.000000000001
 31
0.0
  0
LINE
  5
F416
330
F412
100
AcDbEntity
  8
01注記寸法
 62
     0
370
    -2
100
AcDbLine
 10
1792.5
 20
2650.000000000001
 30
0.0
 11
1500.0
 21
2650.000000000001
 31
0.0
  0
LINE
  5
F417
330
F412
100
AcDbEntity
  8
01注記寸法
 62
     0
370
    -2
100
AcDbLine
 10
1515.0
 20
1695.000000000001
 30
0.0
 11
1515.0
 21
2605.000000000001
 31
0.0
  0
INSERT
  5
F418
330
F412
100
AcDbEntity
  8
01注記寸法
 62
     0
370
    -2
100
AcDbBlockReference
  2
_Open
 10
1515.0
 20
1650.000000000001
 30
0.0
 41
45.0
 42
45.0
 43
45.0
 50
270.0
  0
INSERT
  5
F419
330
F412
100
AcDbEntity
  8
01注記寸法
 62
     0
370
    -2
100
AcDbBlockReference
  2
_Open
 10
1515.0
 20
2650.000000000001
 30
0.0
 41
45.0
 42
45.0
 43
45.0
 50
90.0
  0
MTEXT
  5
F41A
330
F412
100
AcDbEntity
  8
01注記寸法
 62
     0
100
AcDbMText
 10
1477.5
 20
2150.000000000001
 30
0.0
 40
45.0
 41
0.0
 71
     5
 72
     1
  1
1000
 11
0.0
 21
1.0
 31
0.0
 73
     1
 44
1.0
  0
POINT
  5
F41B
330
F412
100
AcDbEntity
  8
Defpoints
 62
     0
100
AcDbPoint
 10
1805.0
 20
1650.000000000001
 30
0.0
  0
POINT
  5
F41C
330
F412
100
AcDbEntity
  8
Defpoints
 62
     0
100
AcDbPoint
 10
1815.0
 20
2650.000000000001
 30
0.0
  0
POINT
  5
F41D
330
F412
100
AcDbEntity
  8
Defpoints
 62
     0
100
AcDbPoint
 10
1515.0
 20
2650.000000000001
 30
0.0
  0
ENDBLK
  5
F414
330
F412
100
AcDbEntity
  8
0
100
AcDbBlockEnd
  0
BLOCK
  5
F437
330
F436
100
AcDbEntity
  8
0
100
AcDbBlockBegin
  2
*D1178
 70
     1
 10
0.0
 20
0.0
 30
0.0
  3
*D1178
  1

  0
LINE
  5
F439
330
F436
100
AcDbEntity
  8
01注記寸法
 62
     0
370
    -2
100
AcDbLine
 10
1792.5
 20
3620.000000000001
 30
0.0
 11
1650.0
 21
3620.000000000001
 31
0.0
  0
LINE
  5
F43A
330
F436
100
AcDbEntity
  8
01注記寸法
 62
     0
370
    -2
100
AcDbLine
 10
1928.0
 20
3595.000000000002
 30
0.0
 11
1650.0
 21
3595.000000000002
 31
0.0
  0
LINE
  5
F43B
330
F436
100
AcDbEntity
  8
01注記寸法
 62
     0
370
    -2
100
AcDbLine
 10
1665.0
 20
3620.000000000001
 30
0.0
 11
1665.0
 21
3792.290000000001
 31
0.0
  0
LINE
  5
F43C
330
F436
100
AcDbEntity
  8
01注記寸法
 62
     0
370
    -2
100
AcDbLine
 10
1665.0
 20
3620.000000000001
 30
0.0
 11
1665.0
 21
3595.000000000002
 31
0.0
  0
LINE
  5
F43D
330
F436
100
AcDbEntity
  8
01注記寸法
 62
     0
370
    -2
100
AcDbLine
 10
1665.0
 20
3665.000000000001
 30
0.0
 11
1665.0
 21
3710.000000000001
 31
0.0
  0
LINE
  5
F43E
330
F436
100
AcDbEntity
  8
01注記寸法
 62
     0
370
    -2
100
AcDbLine
 10
1665.0
 20
3550.000000000002
 30
0.0
 11
1665.0
 21
3505.000000000002
 31
0.0
  0
INSERT
  5
F43F
330
F436
100
AcDbEntity
  8
01注記寸法
 62
     0
370
    -2
100
AcDbBlockReference
  2
_Open
 10
1665.0
 20
3620.000000000001
 30
0.0
 41
45.0
 42
45.0
 43
45.0
 50
270.0
  0
INSERT
  5
F440
330
F436
100
AcDbEntity
  8
01注記寸法
 62
     0
370
    -2
100
AcDbBlockReference
  2
_Open
 10
1665.0
 20
3595.000000000002
 30
0.0
 41
45.0
 42
45.0
 43
45.0
 50
90.0
  0
MTEXT
  5
F441
330
F436
100
AcDbEntity
  8
01注記寸法
 62
     0
100
AcDbMText
 10
1627.5
 20
3751.145000000001
 30
0.0
 40
45.0
 41
0.0
 71
     5
 72
     1
  1
25
 11
0.0
 21
1.0
 31
0.0
 73
     1
 44
1.0
  0
POINT
  5
F442
330
F436
100
AcDbEntity
  8
Defpoints
 62
     0
100
AcDbPoint
 10
1815.0
 20
3620.000000000001
 30
0.0
  0
POINT
  5
F443
330
F436
100
AcDbEntity
  8
Defpoints
 62
     0
100
AcDbPoint
 10
1950.5
 20
3595.000000000002
 30
0.0
  0
POINT
  5
F444
330
F436
100
AcDbEntity
  8
Defpoints
 62
     0
100
AcDbPoint
 10
1665.0
 20
3595.000000000002
 30
0.0
  0
ENDBLK
  5
F438
330
F436
100
AcDbEntity
  8
0
100
AcDbBlockEnd
  0
BLOCK
  5
F447
330
F446
100
AcDbEntity
  8
0
100
AcDbBlockBegin
  2
*D1179
 70
     1
 10
0.0
 20
0.0
 30
0.0
  3
*D1179
  1

  0
LINE
  5
F449
330
F446
100
AcDbEntity
  8
01注記寸法
 62
     0
370
    -2
100
AcDbLine
 10
1928.0
 20
3595.000000000002
 30
0.0
 11
1650.0
 21
3595.000000000002
 31
0.0
  0
LINE
  5
F44A
330
F446
100
AcDbEntity
  8
01注記寸法
 62
     0
370
    -2
100
AcDbLine
 10
1928.0
 20
3265.000000000002
 30
0.0
 11
1650.0
 21
3265.000000000002
 31
0.0
  0
LINE
  5
F44B
330
F446
100
AcDbEntity
  8
01注記寸法
 62
     0
370
    -2
100
AcDbLine
 10
1665.0
 20
3550.000000000002
 30
0.0
 11
1665.0
 21
3310.000000000002
 31
0.0
  0
INSERT
  5
F44C
330
F446
100
AcDbEntity
  8
01注記寸法
 62
     0
370
    -2
100
AcDbBlockReference
  2
_Open
 10
1665.0
 20
3595.000000000002
 30
0.0
 41
45.0
 42
45.0
 43
45.0
 50
90.0
  0
INSERT
  5
F44D
330
F446
100
AcDbEntity
  8
01注記寸法
 62
     0
370
    -2
100
AcDbBlockReference
  2
_Open
 10
1665.0
 20
3265.000000000002
 30
0.0
 41
45.0
 42
45.0
 43
45.0
 50
270.0
  0
MTEXT
  5
F44E
330
F446
100
AcDbEntity
  8
01注記寸法
 62
     0
100
AcDbMText
 10
1627.5
 20
3430.000000000002
 30
0.0
 40
45.0
 41
0.0
 71
     5
 72
     1
  1
330
 11
0.0
 21
1.0
 31
0.0
 73
     1
 44
1.0
  0
POINT
  5
F44F
330
F446
100
AcDbEntity
  8
Defpoints
 62
     0
100
AcDbPoint
 10
1950.5
 20
3595.000000000002
 30
0.0
  0
POINT
  5
F450
330
F446
100
AcDbEntity
  8
Defpoints
 62
     0
100
AcDbPoint
 10
1950.5
 20
3265.000000000002
 30
0.0
  0
POINT
  5
F451
330
F446
100
AcDbEntity
  8
Defpoints
 62
     0
100
AcDbPoint
 10
1665.0
 20
3265.000000000002
 30
0.0
  0
ENDBLK
  5
F448
330
F446
100
AcDbEntity
  8
0
100
AcDbBlockEnd
  0
BLOCK
  5
F454
330
F453
100
AcDbEntity
  8
0
100
AcDbBlockBegin
  2
*D1180
 70
     1
 10
0.0
 20
0.0
 30
0.0
  3
*D1180
  1

  0
LINE
  5
F456
330
F453
100
AcDbEntity
  8
01注記寸法
 62
     0
370
    -2
100
AcDbLine
 10
1928.0
 20
3265.000000000002
 30
0.0
 11
1650.0
 21
3265.000000000002
 31
0.0
  0
LINE
  5
F457
330
F453
100
AcDbEntity
  8
01注記寸法
 62
     0
370
    -2
100
AcDbLine
 10
1792.5
 20
3240.000000000001
 30
0.0
 11
1650.0
 21
3240.000000000001
 31
0.0
  0
LINE
  5
F458
330
F453
100
AcDbEntity
  8
01注記寸法
 62
     0
370
    -2
100
AcDbLine
 10
1665.0
 20
3195.000000000001
 30
0.0
 11
1665.0
 21
3067.710000000001
 31
0.0
  0
LINE
  5
F459
330
F453
100
AcDbEntity
  8
01注記寸法
 62
     0
370
    -2
100
AcDbLine
 10
1665.0
 20
3265.000000000002
 30
0.0
 11
1665.0
 21
3240.000000000001
 31
0.0
  0
LINE
  5
F45A
330
F453
100
AcDbEntity
  8
01注記寸法
 62
     0
370
    -2
100
AcDbLine
 10
1665.0
 20
3310.000000000002
 30
0.0
 11
1665.0
 21
3355.000000000002
 31
0.0
  0
INSERT
  5
F45B
330
F453
100
AcDbEntity
  8
01注記寸法
 62
     0
370
    -2
100
AcDbBlockReference
  2
_Open
 10
1665.0
 20
3265.000000000002
 30
0.0
 41
45.0
 42
45.0
 43
45.0
 50
270.0
  0
INSERT
  5
F45C
330
F453
100
AcDbEntity
  8
01注記寸法
 62
     0
370
    -2
100
AcDbBlockReference
  2
_Open
 10
1665.0
 20
3240.000000000001
 30
0.0
 41
45.0
 42
45.0
 43
45.0
 50
90.0
  0
MTEXT
  5
F45D
330
F453
100
AcDbEntity
  8
01注記寸法
 62
     0
100
AcDbMText
 10
1627.5
 20
3108.855000000001
 30
0.0
 40
45.0
 41
0.0
 71
     5
 72
     1
  1
25
 11
0.0
 21
1.0
 31
0.0
 73
     1
 44
1.0
  0
POINT
  5
F45E
330
F453
100
AcDbEntity
  8
Defpoints
 62
     0
100
AcDbPoint
 10
1950.5
 20
3265.000000000002
 30
0.0
  0
POINT
  5
F45F
330
F453
100
AcDbEntity
  8
Defpoints
 62
     0
100
AcDbPoint
 10
1815.0
 20
3240.000000000001
 30
0.0
  0
POINT
  5
F460
330
F453
100
AcDbEntity
  8
Defpoints
 62
     0
100
AcDbPoint
 10
1665.0
 20
3240.000000000001
 30
0.0
  0
ENDBLK
  5
F455
330
F453
100
AcDbEntity
  8
0
100
AcDbBlockEnd
  0
BLOCK
  5
F463
330
F462
100
AcDbEntity
  8
0
100
AcDbBlockBegin
  2
*D1181
 70
     1
 10
0.0
 20
0.0
 30
0.0
  3
*D1181
  1

  0
LINE
  5
F465
330
F462
100
AcDbEntity
  8
01注記寸法
 62
     0
370
    -2
100
AcDbLine
 10
1792.5
 20
3240.000000000001
 30
0.0
 11
1500.0
 21
3240.000000000001
 31
0.0
  0
LINE
  5
F466
330
F462
100
AcDbEntity
  8
01注記寸法
 62
     0
370
    -2
100
AcDbLine
 10
1792.5
 20
3620.000000000001
 30
0.0
 11
1500.0
 21
3620.000000000001
 31
0.0
  0
LINE
  5
F467
330
F462
100
AcDbEntity
  8
01注記寸法
 62
     0
370
    -2
100
AcDbLine
 10
1515.0
 20
3285.000000000001
 30
0.0
 11
1515.0
 21
3575.000000000001
 31
0.0
  0
INSERT
  5
F468
330
F462
100
AcDbEntity
  8
01注記寸法
 62
     0
370
    -2
100
AcDbBlockReference
  2
_Open
 10
1515.0
 20
3240.000000000001
 30
0.0
 41
45.0
 42
45.0
 43
45.0
 50
270.0
  0
INSERT
  5
F469
330
F462
100
AcDbEntity
  8
01注記寸法
 62
     0
370
    -2
100
AcDbBlockReference
  2
_Open
 10
1515.0
 20
3620.000000000001
 30
0.0
 41
45.0
 42
45.0
 43
45.0
 50
90.0
  0
MTEXT
  5
F46A
330
F462
100
AcDbEntity
  8
01注記寸法
 62
     0
100
AcDbMText
 10
1477.5
 20
3430.000000000001
 30
0.0
 40
45.0
 41
0.0
 71
     5
 72
     1
  1
380
 11
0.0
 21
1.0
 31
0.0
 73
     1
 44
1.0
  0
POINT
  5
F46B
330
F462
100
AcDbEntity
  8
Defpoints
 62
     0
100
AcDbPoint
 10
1815.0
 20
3240.000000000001
 30
0.0
  0
POINT
  5
F46C
330
F462
100
AcDbEntity
  8
Defpoints
 62
     0
100
AcDbPoint
 10
1815.0
 20
3620.000000000001
 30
0.0
  0
POINT
  5
F46D
330
F462
100
AcDbEntity
  8
Defpoints
 62
     0
100
AcDbPoint
 10
1515.0
 20
3620.000000000001
 30
0.0
  0
ENDBLK
  5
F464
330
F462
100
AcDbEntity
  8
0
100
AcDbBlockEnd
  0
BLOCK
  5
F470
330
F46F
100
AcDbEntity
  8
0
100
AcDbBlockBegin
  2
*D1182
 70
     1
 10
0.0
 20
0.0
 30
0.0
  3
*D1182
  1

  0
LINE
  5
F472
330
F46F
100
AcDbEntity
  8
01注記寸法
 62
     0
370
    -2
100
AcDbLine
 10
1815.0
 20
3642.500000000001
 30
0.0
 11
1815.0
 21
3935.000000000001
 31
0.0
  0
LINE
  5
F473
330
F46F
100
AcDbEntity
  8
01注記寸法
 62
     0
370
    -2
100
AcDbLine
 10
1965.0
 20
3633.500000000001
 30
0.0
 11
1965.0
 21
3935.000000000001
 31
0.0
  0
LINE
  5
F474
330
F46F
100
AcDbEntity
  8
01注記寸法
 62
     0
370
    -2
100
AcDbLine
 10
1860.0
 20
3920.000000000001
 30
0.0
 11
1920.0
 21
3920.000000000001
 31
0.0
  0
INSERT
  5
F475
330
F46F
100
AcDbEntity
  8
01注記寸法
 62
     0
370
    -2
100
AcDbBlockReference
  2
_Open
 10
1815.0
 20
3920.000000000001
 30
0.0
 41
45.0
 42
45.0
 43
45.0
 50
180.0
  0
INSERT
  5
F476
330
F46F
100
AcDbEntity
  8
01注記寸法
 62
     0
370
    -2
100
AcDbBlockReference
  2
_Open
 10
1965.0
 20
3920.000000000001
 30
0.0
 41
45.0
 42
45.0
 43
45.0
  0
MTEXT
  5
F477
330
F46F
100
AcDbEntity
  8
01注記寸法
 62
     0
100
AcDbMText
 10
1890.0
 20
3957.500000000001
 30
0.0
 40
45.0
 41
0.0
 71
     5
 72
     1
  1
150
 73
     1
 44
1.0
  0
POINT
  5
F478
330
F46F
100
AcDbEntity
  8
Defpoints
 62
     0
100
AcDbPoint
 10
1815.0
 20
3620.000000000001
 30
0.0
  0
POINT
  5
F479
330
F46F
100
AcDbEntity
  8
Defpoints
 62
     0
100
AcDbPoint
 10
1965.0
 20
3611.000000000001
 30
0.0
  0
POINT
  5
F47A
330
F46F
100
AcDbEntity
  8
Defpoints
 62
     0
100
AcDbPoint
 10
1965.0
 20
3920.000000000001
 30
0.0
  0
ENDBLK
  5
F471
330
F46F
100
AcDbEntity
  8
0
100
AcDbBlockEnd
  0
BLOCK
  5
F47D
330
F47C
100
AcDbEntity
  8
0
100
AcDbBlockBegin
  2
*D1183
 70
     1
 10
0.0
 20
0.0
 30
0.0
  3
*D1183
  1

  0
LINE
  5
F47F
330
F47C
100
AcDbEntity
  8
01注記寸法
 62
     0
370
    -2
100
AcDbLine
 10
1965.0
 20
3633.500000000001
 30
0.0
 11
1965.0
 21
3935.000000000001
 31
0.0
  0
LINE
  5
F480
330
F47C
100
AcDbEntity
  8
01注記寸法
 62
     0
370
    -2
100
AcDbLine
 10
2465.0
 20
3844.055857430831
 30
0.0
 11
2465.0
 21
3935.000000000001
 31
0.0
  0
LINE
  5
F481
330
F47C
100
AcDbEntity
  8
01注記寸法
 62
     0
370
    -2
100
AcDbLine
 10
2010.0
 20
3920.000000000001
 30
0.0
 11
2420.0
 21
3920.000000000001
 31
0.0
  0
INSERT
  5
F482
330
F47C
100
AcDbEntity
  8
01注記寸法
 62
     0
370
    -2
100
AcDbBlockReference
  2
_Open
 10
1965.0
 20
3920.000000000001
 30
0.0
 41
45.0
 42
45.0
 43
45.0
 50
180.0
  0
INSERT
  5
F483
330
F47C
100
AcDbEntity
  8
01注記寸法
 62
     0
370
    -2
100
AcDbBlockReference
  2
_Open
 10
2465.0
 20
3920.000000000001
 30
0.0
 41
45.0
 42
45.0
 43
45.0
  0
MTEXT
  5
F484
330
F47C
100
AcDbEntity
  8
01注記寸法
 62
     0
100
AcDbMText
 10
2215.0
 20
3957.500000000001
 30
0.0
 40
45.0
 41
0.0
 71
     5
 72
     1
  1
500
 73
     1
 44
1.0
  0
POINT
  5
F485
330
F47C
100
AcDbEntity
  8
Defpoints
 62
     0
100
AcDbPoint
 10
1965.0
 20
3611.000000000001
 30
0.0
  0
POINT
  5
F486
330
F47C
100
AcDbEntity
  8
Defpoints
 62
     0
100
AcDbPoint
 10
2465.0
 20
3821.555857430831
 30
0.0
  0
POINT
  5
F487
330
F47C
100
AcDbEntity
  8
Defpoints
 62
     0
100
AcDbPoint
 10
2465.0
 20
3920.000000000001
 30
0.0
  0
ENDBLK
  5
F47E
330
F47C
100
AcDbEntity
  8
0
100
AcDbBlockEnd
  0
BLOCK
  5
F48A
330
F489
100
AcDbEntity
  8
0
100
AcDbBlockBegin
  2
*D1184
 70
     1
 10
0.0
 20
0.0
 30
0.0
  3
*D1184
  1

  0
LINE
  5
F48C
330
F489
100
AcDbEntity
  8
01注記寸法
 62
     0
370
    -2
100
AcDbLine
 10
2465.0
 20
3844.055857430831
 30
0.0
 11
2465.0
 21
3935.000000000001
 31
0.0
  0
LINE
  5
F48D
330
F489
100
AcDbEntity
  8
01注記寸法
 62
     0
370
    -2
100
AcDbLine
 10
2615.0
 20
3642.500000000001
 30
0.0
 11
2615.0
 21
3935.000000000001
 31
0.0
  0
LINE
  5
F48E
330
F489
100
AcDbEntity
  8
01注記寸法
 62
     0
370
    -2
100
AcDbLine
 10
2510.0
 20
3920.000000000001
 30
0.0
 11
2570.0
 21
3920.000000000001
 31
0.0
  0
INSERT
  5
F48F
330
F489
100
AcDbEntity
  8
01注記寸法
 62
     0
370
    -2
100
AcDbBlockReference
  2
_Open
 10
2465.0
 20
3920.000000000001
 30
0.0
 41
45.0
 42
45.0
 43
45.0
 50
180.0
  0
INSERT
  5
F490
330
F489
100
AcDbEntity
  8
01注記寸法
 62
     0
370
    -2
100
AcDbBlockReference
  2
_Open
 10
2615.0
 20
3920.000000000001
 30
0.0
 41
45.0
 42
45.0
 43
45.0
  0
MTEXT
  5
F491
330
F489
100
AcDbEntity
  8
01注記寸法
 62
     0
100
AcDbMText
 10
2540.0
 20
3957.500000000001
 30
0.0
 40
45.0
 41
0.0
 71
     5
 72
     1
  1
150
 73
     1
 44
1.0
  0
POINT
  5
F492
330
F489
100
AcDbEntity
  8
Defpoints
 62
     0
100
AcDbPoint
 10
2465.0
 20
3821.555857430831
 30
0.0
  0
POINT
  5
F493
330
F489
100
AcDbEntity
  8
Defpoints
 62
     0
100
AcDbPoint
 10
2615.0
 20
3620.000000000001
 30
0.0
  0
POINT
  5
F494
330
F489
100
AcDbEntity
  8
Defpoints
 62
     0
100
AcDbPoint
 10
2615.0
 20
3920.000000000001
 30
0.0
  0
ENDBLK
  5
F48B
330
F489
100
AcDbEntity
  8
0
100
AcDbBlockEnd
  0
BLOCK
  5
F499
330
F498
100
AcDbEntity
  8
0
100
AcDbBlockBegin
  2
*D1185
 70
     1
 10
0.0
 20
0.0
 30
0.0
  3
*D1185
  1

  0
LINE
  5
F49B
330
F498
100
AcDbEntity
  8
01注記寸法
 62
     0
370
    -2
100
AcDbLine
 10
1815.0
 20
3642.500000000001
 30
0.0
 11
1815.0
 21
4085.000000000001
 31
0.0
  0
LINE
  5
F49C
330
F498
100
AcDbEntity
  8
01注記寸法
 62
     0
370
    -2
100
AcDbLine
 10
2615.0
 20
3642.500000000001
 30
0.0
 11
2615.0
 21
4085.000000000001
 31
0.0
  0
LINE
  5
F49D
330
F498
100
AcDbEntity
  8
01注記寸法
 62
     0
370
    -2
100
AcDbLine
 10
1860.0
 20
4070.000000000001
 30
0.0
 11
2570.0
 21
4070.000000000001
 31
0.0
  0
INSERT
  5
F49E
330
F498
100
AcDbEntity
  8
01注記寸法
 62
     0
370
    -2
100
AcDbBlockReference
  2
_Open
 10
1815.0
 20
4070.000000000001
 30
0.0
 41
45.0
 42
45.0
 43
45.0
 50
180.0
  0
INSERT
  5
F49F
330
F498
100
AcDbEntity
  8
01注記寸法
 62
     0
370
    -2
100
AcDbBlockReference
  2
_Open
 10
2615.0
 20
4070.000000000001
 30
0.0
 41
45.0
 42
45.0
 43
45.0
  0
MTEXT
  5
F4A0
330
F498
100
AcDbEntity
  8
01注記寸法
 62
     0
100
AcDbMText
 10
2215.0
 20
4107.500000000002
 30
0.0
 40
45.0
 41
0.0
 71
     5
 72
     1
  1
800
 73
     1
 44
1.0
  0
POINT
  5
F4A1
330
F498
100
AcDbEntity
  8
Defpoints
 62
     0
100
AcDbPoint
 10
1815.0
 20
3620.000000000001
 30
0.0
  0
POINT
  5
F4A2
330
F498
100
AcDbEntity
  8
Defpoints
 62
     0
100
AcDbPoint
 10
2615.0
 20
3620.000000000001
 30
0.0
  0
POINT
  5
F4A3
330
F498
100
AcDbEntity
  8
Defpoints
 62
     0
100
AcDbPoint
 10
2615.0
 20
4070.000000000001
 30
0.0
  0
ENDBLK
  5
F49A
330
F498
100
AcDbEntity
  8
0
100
AcDbBlockEnd
  0
BLOCK
  5
F4AA
330
F4A9
100
AcDbEntity
  8
0
100
AcDbBlockBegin
  2
*D1186
 70
     1
 10
0.0
 20
0.0
 30
0.0
  3
*D1186
  1

  0
LINE
  5
F4AC
330
F4A9
100
AcDbEntity
  8
01注記寸法
 62
     0
370
    -2
100
AcDbLine
 10
2637.5
 20
3620.000000000001
 30
0.0
 11
2779.999999999999
 21
3620.000000000001
 31
0.0
  0
LINE
  5
F4AD
330
F4A9
100
AcDbEntity
  8
01注記寸法
 62
     0
370
    -2
100
AcDbLine
 10
2555.5
 20
3585.000000000002
 30
0.0
 11
2779.999999999999
 21
3585.000000000002
 31
0.0
  0
LINE
  5
F4AE
330
F4A9
100
AcDbEntity
  8
01注記寸法
 62
     0
370
    -2
100
AcDbLine
 10
2764.999999999999
 20
3620.000000000001
 30
0.0
 11
2764.999999999999
 21
3792.515000000002
 31
0.0
  0
LINE
  5
F4AF
330
F4A9
100
AcDbEntity
  8
01注記寸法
 62
     0
370
    -2
100
AcDbLine
 10
2764.999999999999
 20
3620.000000000001
 30
0.0
 11
2764.999999999999
 21
3585.000000000002
 31
0.0
  0
LINE
  5
F4B0
330
F4A9
100
AcDbEntity
  8
01注記寸法
 62
     0
370
    -2
100
AcDbLine
 10
2764.999999999999
 20
3665.000000000001
 30
0.0
 11
2764.999999999999
 21
3710.000000000001
 31
0.0
  0
LINE
  5
F4B1
330
F4A9
100
AcDbEntity
  8
01注記寸法
 62
     0
370
    -2
100
AcDbLine
 10
2764.999999999999
 20
3540.000000000002
 30
0.0
 11
2764.999999999999
 21
3495.000000000002
 31
0.0
  0
INSERT
  5
F4B2
330
F4A9
100
AcDbEntity
  8
01注記寸法
 62
     0
370
    -2
100
AcDbBlockReference
  2
_Open
 10
2764.999999999999
 20
3620.000000000001
 30
0.0
 41
45.0
 42
45.0
 43
45.0
 50
270.0
  0
INSERT
  5
F4B3
330
F4A9
100
AcDbEntity
  8
01注記寸法
 62
     0
370
    -2
100
AcDbBlockReference
  2
_Open
 10
2764.999999999999
 20
3585.000000000002
 30
0.0
 41
45.0
 42
45.0
 43
45.0
 50
90.0
  0
MTEXT
  5
F4B4
330
F4A9
100
AcDbEntity
  8
01注記寸法
 62
     0
100
AcDbMText
 10
2727.499999999999
 20
3751.257500000002
 30
0.0
 40
45.0
 41
0.0
 71
     5
 72
     1
  1
35
 11
0.0
 21
1.0
 31
0.0
 73
     1
 44
1.0
  0
POINT
  5
F4B5
330
F4A9
100
AcDbEntity
  8
Defpoints
 62
     0
100
AcDbPoint
 10
2615.0
 20
3620.000000000001
 30
0.0
  0
POINT
  5
F4B6
330
F4A9
100
AcDbEntity
  8
Defpoints
 62
     0
100
AcDbPoint
 10
2533.0
 20
3585.000000000002
 30
0.0
  0
POINT
  5
F4B7
330
F4A9
100
AcDbEntity
  8
Defpoints
 62
     0
100
AcDbPoint
 10
2764.999999999999
 20
3585.000000000002
 30
0.0
  0
ENDBLK
  5
F4AB
330
F4A9
100
AcDbEntity
  8
0
100
AcDbBlockEnd
  0
BLOCK
  5
F4BA
330
F4B9
100
AcDbEntity
  8
0
100
AcDbBlockBegin
  2
*D1187
 70
     1
 10
0.0
 20
0.0
 30
0.0
  3
*D1187
  1

  0
LINE
  5
F4BC
330
F4B9
100
AcDbEntity
  8
01注記寸法
 62
     0
370
    -2
100
AcDbLine
 10
2555.5
 20
3585.000000000002
 30
0.0
 11
2779.999999999999
 21
3585.000000000002
 31
0.0
  0
LINE
  5
F4BD
330
F4B9
100
AcDbEntity
  8
01注記寸法
 62
     0
370
    -2
100
AcDbLine
 10
2555.5
 20
3275.000000000002
 30
0.0
 11
2779.999999999999
 21
3275.000000000002
 31
0.0
  0
LINE
  5
F4BE
330
F4B9
100
AcDbEntity
  8
01注記寸法
 62
     0
370
    -2
100
AcDbLine
 10
2764.999999999999
 20
3540.000000000002
 30
0.0
 11
2764.999999999999
 21
3320.000000000002
 31
0.0
  0
INSERT
  5
F4BF
330
F4B9
100
AcDbEntity
  8
01注記寸法
 62
     0
370
    -2
100
AcDbBlockReference
  2
_Open
 10
2764.999999999999
 20
3585.000000000002
 30
0.0
 41
45.0
 42
45.0
 43
45.0
 50
90.0
  0
INSERT
  5
F4C0
330
F4B9
100
AcDbEntity
  8
01注記寸法
 62
     0
370
    -2
100
AcDbBlockReference
  2
_Open
 10
2764.999999999999
 20
3275.000000000002
 30
0.0
 41
45.0
 42
45.0
 43
45.0
 50
270.0
  0
MTEXT
  5
F4C1
330
F4B9
100
AcDbEntity
  8
01注記寸法
 62
     0
100
AcDbMText
 10
2726.014999999999
 20
3430.000000000002
 30
0.0
 40
45.0
 41
0.0
 71
     5
 72
     1
  1
※ 310
 11
0.0
 21
1.0
 31
0.0
 73
     1
 44
1.0
  0
POINT
  5
F4C2
330
F4B9
100
AcDbEntity
  8
Defpoints
 62
     0
100
AcDbPoint
 10
2533.0
 20
3585.000000000002
 30
0.0
  0
POINT
  5
F4C3
330
F4B9
100
AcDbEntity
  8
Defpoints
 62
     0
100
AcDbPoint
 10
2533.0
 20
3275.000000000002
 30
0.0
  0
POINT
  5
F4C4
330
F4B9
100
AcDbEntity
  8
Defpoints
 62
     0
100
AcDbPoint
 10
2764.999999999999
 20
3275.000000000002
 30
0.0
  0
ENDBLK
  5
F4BB
330
F4B9
100
AcDbEntity
  8
0
100
AcDbBlockEnd
  0
BLOCK
  5
F4C7
330
F4C6
100
AcDbEntity
  8
0
100
AcDbBlockBegin
  2
*D1188
 70
     1
 10
0.0
 20
0.0
 30
0.0
  3
*D1188
  1

  0
LINE
  5
F4C9
330
F4C6
100
AcDbEntity
  8
01注記寸法
 62
     0
370
    -2
100
AcDbLine
 10
2555.5
 20
3275.000000000002
 30
0.0
 11
2779.999999999999
 21
3275.000000000002
 31
0.0
  0
LINE
  5
F4CA
330
F4C6
100
AcDbEntity
  8
01注記寸法
 62
     0
370
    -2
100
AcDbLine
 10
2637.5
 20
3240.000000000001
 30
0.0
 11
2779.999999999999
 21
3240.000000000001
 31
0.0
  0
LINE
  5
F4CB
330
F4C6
100
AcDbEntity
  8
01注記寸法
 62
     0
370
    -2
100
AcDbLine
 10
2764.999999999999
 20
3195.000000000001
 30
0.0
 11
2764.999999999999
 21
3067.485000000001
 31
0.0
  0
LINE
  5
F4CC
330
F4C6
100
AcDbEntity
  8
01注記寸法
 62
     0
370
    -2
100
AcDbLine
 10
2764.999999999999
 20
3275.000000000002
 30
0.0
 11
2764.999999999999
 21
3240.000000000001
 31
0.0
  0
LINE
  5
F4CD
330
F4C6
100
AcDbEntity
  8
01注記寸法
 62
     0
370
    -2
100
AcDbLine
 10
2764.999999999999
 20
3320.000000000002
 30
0.0
 11
2764.999999999999
 21
3365.000000000002
 31
0.0
  0
INSERT
  5
F4CE
330
F4C6
100
AcDbEntity
  8
01注記寸法
 62
     0
370
    -2
100
AcDbBlockReference
  2
_Open
 10
2764.999999999999
 20
3275.000000000002
 30
0.0
 41
45.0
 42
45.0
 43
45.0
 50
270.0
  0
INSERT
  5
F4CF
330
F4C6
100
AcDbEntity
  8
01注記寸法
 62
     0
370
    -2
100
AcDbBlockReference
  2
_Open
 10
2764.999999999999
 20
3240.000000000001
 30
0.0
 41
45.0
 42
45.0
 43
45.0
 50
90.0
  0
MTEXT
  5
F4D0
330
F4C6
100
AcDbEntity
  8
01注記寸法
 62
     0
100
AcDbMText
 10
2727.499999999999
 20
3108.742500000001
 30
0.0
 40
45.0
 41
0.0
 71
     5
 72
     1
  1
35
 11
0.0
 21
1.0
 31
0.0
 73
     1
 44
1.0
  0
POINT
  5
F4D1
330
F4C6
100
AcDbEntity
  8
Defpoints
 62
     0
100
AcDbPoint
 10
2533.0
 20
3275.000000000002
 30
0.0
  0
POINT
  5
F4D2
330
F4C6
100
AcDbEntity
  8
Defpoints
 62
     0
100
AcDbPoint
 10
2615.0
 20
3240.000000000001
 30
0.0
  0
POINT
  5
F4D3
330
F4C6
100
AcDbEntity
  8
Defpoints
 62
     0
100
AcDbPoint
 10
2764.999999999999
 20
3240.000000000001
 30
0.0
  0
ENDBLK
  5
F4C8
330
F4C6
100
AcDbEntity
  8
0
100
AcDbBlockEnd
  0
BLOCK
  5
F4D6
330
F4D5
100
AcDbEntity
  8
0
100
AcDbBlockBegin
  2
*D1189
 70
     1
 10
0.0
 20
0.0
 30
0.0
  3
*D1189
  1

  0
LINE
  5
F4D8
330
F4D5
100
AcDbEntity
  8
01注記寸法
 62
     0
370
    -2
100
AcDbLine
 10
1815.0
 20
3018.088630511265
 30
0.0
 11
1815.0
 21
2925.000000000001
 31
0.0
  0
LINE
  5
F4D9
330
F4D5
100
AcDbEntity
  8
01注記寸法
 62
     0
370
    -2
100
AcDbLine
 10
1915.0
 20
3018.088630511265
 30
0.0
 11
1915.0
 21
2925.000000000001
 31
0.0
  0
LINE
  5
F4DA
330
F4D5
100
AcDbEntity
  8
01注記寸法
 62
     0
370
    -2
100
AcDbLine
 10
1815.0
 20
2940.000000000001
 30
0.0
 11
1915.0
 21
2940.000000000001
 31
0.0
  0
LINE
  5
F4DB
330
F4D5
100
AcDbEntity
  8
01注記寸法
 62
     0
370
    -2
100
AcDbLine
 10
1770.0
 20
2940.000000000001
 30
0.0
 11
1725.0
 21
2940.000000000001
 31
0.0
  0
LINE
  5
F4DC
330
F4D5
100
AcDbEntity
  8
01注記寸法
 62
     0
370
    -2
100
AcDbLine
 10
1960.0
 20
2940.000000000001
 30
0.0
 11
2005.0
 21
2940.000000000001
 31
0.0
  0
INSERT
  5
F4DD
330
F4D5
100
AcDbEntity
  8
01注記寸法
 62
     0
370
    -2
100
AcDbBlockReference
  2
_Open
 10
1815.0
 20
2940.000000000001
 30
0.0
 41
45.0
 42
45.0
 43
45.0
  0
INSERT
  5
F4DE
330
F4D5
100
AcDbEntity
  8
01注記寸法
 62
     0
370
    -2
100
AcDbBlockReference
  2
_Open
 10
1915.0
 20
2940.000000000001
 30
0.0
 41
45.0
 42
45.0
 43
45.0
 50
180.0
  0
MTEXT
  5
F4DF
330
F4D5
100
AcDbEntity
  8
01注記寸法
 62
     0
100
AcDbMText
 10
1865.0
 20
2977.500000000001
 30
0.0
 40
45.0
 41
0.0
 71
     5
 72
     1
  1
100
 73
     1
 44
1.0
  0
POINT
  5
F4E0
330
F4D5
100
AcDbEntity
  8
Defpoints
 62
     0
100
AcDbPoint
 10
1815.0
 20
3040.588630511265
 30
0.0
  0
POINT
  5
F4E1
330
F4D5
100
AcDbEntity
  8
Defpoints
 62
     0
100
AcDbPoint
 10
1915.0
 20
3040.588630511265
 30
0.0
  0
POINT
  5
F4E2
330
F4D5
100
AcDbEntity
  8
Defpoints
 62
     0
100
AcDbPoint
 10
1915.0
 20
2940.000000000001
 30
0.0
  0
ENDBLK
  5
F4D7
330
F4D5
100
AcDbEntity
  8
0
100
AcDbBlockEnd
  0
BLOCK
  5
F4E5
330
F4E4
100
AcDbEntity
  8
0
100
AcDbBlockBegin
  2
*D1190
 70
     1
 10
0.0
 20
0.0
 30
0.0
  3
*D1190
  1

  0
LINE
  5
F4E7
330
F4E4
100
AcDbEntity
  8
01注記寸法
 62
     0
370
    -2
100
AcDbLine
 10
1915.0
 20
3018.088630511265
 30
0.0
 11
1915.0
 21
2925.000000000001
 31
0.0
  0
LINE
  5
F4E8
330
F4E4
100
AcDbEntity
  8
01注記寸法
 62
     0
370
    -2
100
AcDbLine
 10
2515.0
 20
3234.500000000002
 30
0.0
 11
2515.0
 21
2925.000000000001
 31
0.0
  0
LINE
  5
F4E9
330
F4E4
100
AcDbEntity
  8
01注記寸法
 62
     0
370
    -2
100
AcDbLine
 10
1960.0
 20
2940.000000000001
 30
0.0
 11
2470.0
 21
2940.000000000001
 31
0.0
  0
INSERT
  5
F4EA
330
F4E4
100
AcDbEntity
  8
01注記寸法
 62
     0
370
    -2
100
AcDbBlockReference
  2
_Open
 10
1915.0
 20
2940.000000000001
 30
0.0
 41
45.0
 42
45.0
 43
45.0
 50
180.0
  0
INSERT
  5
F4EB
330
F4E4
100
AcDbEntity
  8
01注記寸法
 62
     0
370
    -2
100
AcDbBlockReference
  2
_Open
 10
2515.0
 20
2940.000000000001
 30
0.0
 41
45.0
 42
45.0
 43
45.0
  0
MTEXT
  5
F4EC
330
F4E4
100
AcDbEntity
  8
01注記寸法
 62
     0
100
AcDbMText
 10
2215.0
 20
2978.985000000001
 30
0.0
 40
45.0
 41
0.0
 71
     5
 72
     1
  1
※ 600
 73
     1
 44
1.0
  0
POINT
  5
F4ED
330
F4E4
100
AcDbEntity
  8
Defpoints
 62
     0
100
AcDbPoint
 10
1915.0
 20
3040.588630511265
 30
0.0
  0
POINT
  5
F4EE
330
F4E4
100
AcDbEntity
  8
Defpoints
 62
     0
100
AcDbPoint
 10
2515.0
 20
3257.000000000002
 30
0.0
  0
POINT
  5
F4EF
330
F4E4
100
AcDbEntity
  8
Defpoints
 62
     0
100
AcDbPoint
 10
2515.0
 20
2940.000000000001
 30
0.0
  0
ENDBLK
  5
F4E6
330
F4E4
100
AcDbEntity
  8
0
100
AcDbBlockEnd
  0
BLOCK
  5
F4F2
330
F4F1
100
AcDbEntity
  8
0
100
AcDbBlockBegin
  2
*D1191
 70
     1
 10
0.0
 20
0.0
 30
0.0
  3
*D1191
  1

  0
LINE
  5
F4F4
330
F4F1
100
AcDbEntity
  8
01注記寸法
 62
     0
370
    -2
100
AcDbLine
 10
2515.0
 20
3234.500000000002
 30
0.0
 11
2515.0
 21
2925.000000000001
 31
0.0
  0
LINE
  5
F4F5
330
F4F1
100
AcDbEntity
  8
01注記寸法
 62
     0
370
    -2
100
AcDbLine
 10
2615.0
 20
3217.500000000001
 30
0.0
 11
2615.0
 21
2925.000000000001
 31
0.0
  0
LINE
  5
F4F6
330
F4F1
100
AcDbEntity
  8
01注記寸法
 62
     0
370
    -2
100
AcDbLine
 10
2515.0
 20
2940.000000000001
 30
0.0
 11
2615.0
 21
2940.000000000001
 31
0.0
  0
LINE
  5
F4F7
330
F4F1
100
AcDbEntity
  8
01注記寸法
 62
     0
370
    -2
100
AcDbLine
 10
2470.0
 20
2940.000000000001
 30
0.0
 11
2425.0
 21
2940.000000000001
 31
0.0
  0
LINE
  5
F4F8
330
F4F1
100
AcDbEntity
  8
01注記寸法
 62
     0
370
    -2
100
AcDbLine
 10
2660.0
 20
2940.000000000001
 30
0.0
 11
2705.0
 21
2940.000000000001
 31
0.0
  0
INSERT
  5
F4F9
330
F4F1
100
AcDbEntity
  8
01注記寸法
 62
     0
370
    -2
100
AcDbBlockReference
  2
_Open
 10
2515.0
 20
2940.000000000001
 30
0.0
 41
45.0
 42
45.0
 43
45.0
  0
INSERT
  5
F4FA
330
F4F1
100
AcDbEntity
  8
01注記寸法
 62
     0
370
    -2
100
AcDbBlockReference
  2
_Open
 10
2615.0
 20
2940.000000000001
 30
0.0
 41
45.0
 42
45.0
 43
45.0
 50
180.0
  0
MTEXT
  5
F4FB
330
F4F1
100
AcDbEntity
  8
01注記寸法
 62
     0
100
AcDbMText
 10
2565.0
 20
2977.500000000001
 30
0.0
 40
45.0
 41
0.0
 71
     5
 72
     1
  1
100
 73
     1
 44
1.0
  0
POINT
  5
F4FC
330
F4F1
100
AcDbEntity
  8
Defpoints
 62
     0
100
AcDbPoint
 10
2515.0
 20
3257.000000000002
 30
0.0
  0
POINT
  5
F4FD
330
F4F1
100
AcDbEntity
  8
Defpoints
 62
     0
100
AcDbPoint
 10
2615.0
 20
3240.000000000001
 30
0.0
  0
POINT
  5
F4FE
330
F4F1
100
AcDbEntity
  8
Defpoints
 62
     0
100
AcDbPoint
 10
2615.0
 20
2940.000000000001
 30
0.0
  0
ENDBLK
  5
F4F3
330
F4F1
100
AcDbEntity
  8
0
100
AcDbBlockEnd
  0
BLOCK
  5
F523
330
F522
100
AcDbEntity
  8
0
100
AcDbBlockBegin
  2
*D1193
 70
     1
 10
0.0
 20
0.0
 30
0.0
  3
*D1193
  1

  0
LINE
  5
F525
330
F522
100
AcDbEntity
  8
01注記寸法
 62
     0
370
    -2
100
AcDbLine
 10
1867.5
 20
1015.000000000002
 30
0.0
 11
1725.0
 21
1015.000000000002
 31
0.0
  0
LINE
  5
F526
330
F522
100
AcDbEntity
  8
01注記寸法
 62
     0
370
    -2
100
AcDbLine
 10
1914.5
 20
950.0000000000018
 30
0.0
 11
1725.0
 21
950.0000000000018
 31
0.0
  0
LINE
  5
F527
330
F522
100
AcDbEntity
  8
01注記寸法
 62
     0
370
    -2
100
AcDbLine
 10
1740.0
 20
1015.000000000002
 30
0.0
 11
1740.0
 21
950.0000000000018
 31
0.0
  0
LINE
  5
F528
330
F522
100
AcDbEntity
  8
01注記寸法
 62
     0
370
    -2
100
AcDbLine
 10
1740.0
 20
1060.000000000002
 30
0.0
 11
1740.0
 21
1105.000000000002
 31
0.0
  0
LINE
  5
F529
330
F522
100
AcDbEntity
  8
01注記寸法
 62
     0
370
    -2
100
AcDbLine
 10
1740.0
 20
905.0000000000018
 30
0.0
 11
1740.0
 21
860.0000000000018
 31
0.0
  0
INSERT
  5
F52A
330
F522
100
AcDbEntity
  8
01注記寸法
 62
     0
370
    -2
100
AcDbBlockReference
  2
_Open
 10
1740.0
 20
1015.000000000002
 30
0.0
 41
45.0
 42
45.0
 43
45.0
 50
270.0
  0
INSERT
  5
F52B
330
F522
100
AcDbEntity
  8
01注記寸法
 62
     0
370
    -2
100
AcDbBlockReference
  2
_Open
 10
1740.0
 20
950.0000000000018
 30
0.0
 41
45.0
 42
45.0
 43
45.0
 50
90.0
  0
MTEXT
  5
F52C
330
F522
100
AcDbEntity
  8
01注記寸法
 62
     0
100
AcDbMText
 10
1702.5
 20
982.5000000000018
 30
0.0
 40
45.0
 41
0.0
 71
     5
 72
     1
  1
65
 11
0.0
 21
1.0
 31
0.0
 73
     1
 44
1.0
  0
POINT
  5
F52D
330
F522
100
AcDbEntity
  8
Defpoints
 62
     0
100
AcDbPoint
 10
1890.0
 20
1015.000000000002
 30
0.0
  0
POINT
  5
F52E
330
F522
100
AcDbEntity
  8
Defpoints
 62
     0
100
AcDbPoint
 10
1937.0
 20
950.0000000000018
 30
0.0
  0
POINT
  5
F52F
330
F522
100
AcDbEntity
  8
Defpoints
 62
     0
100
AcDbPoint
 10
1740.0
 20
950.0000000000018
 30
0.0
  0
ENDBLK
  5
F524
330
F522
100
AcDbEntity
  8
0
100
AcDbBlockEnd
  0
BLOCK
  5
F532
330
F531
100
AcDbEntity
  8
0
100
AcDbBlockBegin
  2
*D1194
 70
     1
 10
0.0
 20
0.0
 30
0.0
  3
*D1194
  1

  0
LINE
  5
F534
330
F531
100
AcDbEntity
  8
01注記寸法
 62
     0
370
    -2
100
AcDbLine
 10
1914.5
 20
950.0000000000018
 30
0.0
 11
1725.0
 21
950.0000000000018
 31
0.0
  0
LINE
  5
F535
330
F531
100
AcDbEntity
  8
01注記寸法
 62
     0
370
    -2
100
AcDbLine
 10
1914.5
 20
700.0000000000018
 30
0.0
 11
1725.0
 21
700.0000000000018
 31
0.0
  0
LINE
  5
F536
330
F531
100
AcDbEntity
  8
01注記寸法
 62
     0
370
    -2
100
AcDbLine
 10
1740.0
 20
905.0000000000018
 30
0.0
 11
1740.0
 21
745.0000000000018
 31
0.0
  0
INSERT
  5
F537
330
F531
100
AcDbEntity
  8
01注記寸法
 62
     0
370
    -2
100
AcDbBlockReference
  2
_Open
 10
1740.0
 20
950.0000000000018
 30
0.0
 41
45.0
 42
45.0
 43
45.0
 50
90.0
  0
INSERT
  5
F538
330
F531
100
AcDbEntity
  8
01注記寸法
 62
     0
370
    -2
100
AcDbBlockReference
  2
_Open
 10
1740.0
 20
700.0000000000018
 30
0.0
 41
45.0
 42
45.0
 43
45.0
 50
270.0
  0
MTEXT
  5
F539
330
F531
100
AcDbEntity
  8
01注記寸法
 62
     0
100
AcDbMText
 10
1702.5
 20
825.0000000000018
 30
0.0
 40
45.0
 41
0.0
 71
     5
 72
     1
  1
250
 11
0.0
 21
1.0
 31
0.0
 73
     1
 44
1.0
  0
POINT
  5
F53A
330
F531
100
AcDbEntity
  8
Defpoints
 62
     0
100
AcDbPoint
 10
1937.0
 20
950.0000000000018
 30
0.0
  0
POINT
  5
F53B
330
F531
100
AcDbEntity
  8
Defpoints
 62
     0
100
AcDbPoint
 10
1937.0
 20
700.0000000000018
 30
0.0
  0
POINT
  5
F53C
330
F531
100
AcDbEntity
  8
Defpoints
 62
     0
100
AcDbPoint
 10
1740.0
 20
700.0000000000018
 30
0.0
  0
ENDBLK
  5
F533
330
F531
100
AcDbEntity
  8
0
100
AcDbBlockEnd
  0
BLOCK
  5
F53F
330
F53E
100
AcDbEntity
  8
0
100
AcDbBlockBegin
  2
*D1195
 70
     1
 10
0.0
 20
0.0
 30
0.0
  3
*D1195
  1

  0
LINE
  5
F541
330
F53E
100
AcDbEntity
  8
01注記寸法
 62
     0
370
    -2
100
AcDbLine
 10
1914.5
 20
700.0000000000018
 30
0.0
 11
1725.0
 21
700.0000000000018
 31
0.0
  0
LINE
  5
F542
330
F53E
100
AcDbEntity
  8
01注記寸法
 62
     0
370
    -2
100
AcDbLine
 10
1867.5
 20
635.0000000000018
 30
0.0
 11
1725.0
 21
635.0000000000018
 31
0.0
  0
LINE
  5
F543
330
F53E
100
AcDbEntity
  8
01注記寸法
 62
     0
370
    -2
100
AcDbLine
 10
1740.0
 20
700.0000000000018
 30
0.0
 11
1740.0
 21
635.0000000000018
 31
0.0
  0
LINE
  5
F544
330
F53E
100
AcDbEntity
  8
01注記寸法
 62
     0
370
    -2
100
AcDbLine
 10
1740.0
 20
745.0000000000018
 30
0.0
 11
1740.0
 21
790.0000000000018
 31
0.0
  0
LINE
  5
F545
330
F53E
100
AcDbEntity
  8
01注記寸法
 62
     0
370
    -2
100
AcDbLine
 10
1740.0
 20
590.0000000000018
 30
0.0
 11
1740.0
 21
545.0000000000018
 31
0.0
  0
INSERT
  5
F546
330
F53E
100
AcDbEntity
  8
01注記寸法
 62
     0
370
    -2
100
AcDbBlockReference
  2
_Open
 10
1740.0
 20
700.0000000000018
 30
0.0
 41
45.0
 42
45.0
 43
45.0
 50
270.0
  0
INSERT
  5
F547
330
F53E
100
AcDbEntity
  8
01注記寸法
 62
     0
370
    -2
100
AcDbBlockReference
  2
_Open
 10
1740.0
 20
635.0000000000018
 30
0.0
 41
45.0
 42
45.0
 43
45.0
 50
90.0
  0
MTEXT
  5
F548
330
F53E
100
AcDbEntity
  8
01注記寸法
 62
     0
100
AcDbMText
 10
1702.5
 20
667.5000000000018
 30
0.0
 40
45.0
 41
0.0
 71
     5
 72
     1
  1
65
 11
0.0
 21
1.0
 31
0.0
 73
     1
 44
1.0
  0
POINT
  5
F549
330
F53E
100
AcDbEntity
  8
Defpoints
 62
     0
100
AcDbPoint
 10
1937.0
 20
700.0000000000018
 30
0.0
  0
POINT
  5
F54A
330
F53E
100
AcDbEntity
  8
Defpoints
 62
     0
100
AcDbPoint
 10
1890.0
 20
635.0000000000018
 30
0.0
  0
POINT
  5
F54B
330
F53E
100
AcDbEntity
  8
Defpoints
 62
     0
100
AcDbPoint
 10
1740.0
 20
635.0000000000018
 30
0.0
  0
ENDBLK
  5
F540
330
F53E
100
AcDbEntity
  8
0
100
AcDbBlockEnd
  0
BLOCK
  5
F54E
330
F54D
100
AcDbEntity
  8
0
100
AcDbBlockBegin
  2
*D1196
 70
     1
 10
0.0
 20
0.0
 30
0.0
  3
*D1196
  1

  0
LINE
  5
F550
330
F54D
100
AcDbEntity
  8
01注記寸法
 62
     0
370
    -2
100
AcDbLine
 10
1890.0
 20
1037.500000000002
 30
0.0
 11
1890.0
 21
1180.000000000002
 31
0.0
  0
LINE
  5
F551
330
F54D
100
AcDbEntity
  8
01注記寸法
 62
     0
370
    -2
100
AcDbLine
 10
1955.0
 20
990.5000000000018
 30
0.0
 11
1955.0
 21
1180.000000000002
 31
0.0
  0
LINE
  5
F552
330
F54D
100
AcDbEntity
  8
01注記寸法
 62
     0
370
    -2
100
AcDbLine
 10
1890.0
 20
1165.000000000002
 30
0.0
 11
1955.0
 21
1165.000000000002
 31
0.0
  0
LINE
  5
F553
330
F54D
100
AcDbEntity
  8
01注記寸法
 62
     0
370
    -2
100
AcDbLine
 10
1845.0
 20
1165.000000000002
 30
0.0
 11
1800.0
 21
1165.000000000002
 31
0.0
  0
LINE
  5
F554
330
F54D
100
AcDbEntity
  8
01注記寸法
 62
     0
370
    -2
100
AcDbLine
 10
2000.0
 20
1165.000000000002
 30
0.0
 11
2045.0
 21
1165.000000000002
 31
0.0
  0
INSERT
  5
F555
330
F54D
100
AcDbEntity
  8
01注記寸法
 62
     0
370
    -2
100
AcDbBlockReference
  2
_Open
 10
1890.0
 20
1165.000000000002
 30
0.0
 41
45.0
 42
45.0
 43
45.0
  0
INSERT
  5
F556
330
F54D
100
AcDbEntity
  8
01注記寸法
 62
     0
370
    -2
100
AcDbBlockReference
  2
_Open
 10
1955.0
 20
1165.000000000002
 30
0.0
 41
45.0
 42
45.0
 43
45.0
 50
180.0
  0
MTEXT
  5
F557
330
F54D
100
AcDbEntity
  8
01注記寸法
 62
     0
100
AcDbMText
 10
1922.5
 20
1202.500000000002
 30
0.0
 40
45.0
 41
0.0
 71
     5
 72
     1
  1
65
 73
     1
 44
1.0
  0
POINT
  5
F558
330
F54D
100
AcDbEntity
  8
Defpoints
 62
     0
100
AcDbPoint
 10
1890.0
 20
1015.000000000002
 30
0.0
  0
POINT
  5
F559
330
F54D
100
AcDbEntity
  8
Defpoints
 62
     0
100
AcDbPoint
 10
1955.0
 20
968.0000000000018
 30
0.0
  0
POINT
  5
F55A
330
F54D
100
AcDbEntity
  8
Defpoints
 62
     0
100
AcDbPoint
 10
1955.0
 20
1165.000000000002
 30
0.0
  0
ENDBLK
  5
F54F
330
F54D
100
AcDbEntity
  8
0
100
AcDbBlockEnd
  0
BLOCK
  5
F55D
330
F55C
100
AcDbEntity
  8
0
100
AcDbBlockBegin
  2
*D1197
 70
     1
 10
0.0
 20
0.0
 30
0.0
  3
*D1197
  1

  0
LINE
  5
F55F
330
F55C
100
AcDbEntity
  8
01注記寸法
 62
     0
370
    -2
100
AcDbLine
 10
1955.0
 20
990.5000000000018
 30
0.0
 11
1955.0
 21
1180.000000000002
 31
0.0
  0
LINE
  5
F560
330
F55C
100
AcDbEntity
  8
01注記寸法
 62
     0
370
    -2
100
AcDbLine
 10
2625.0
 20
990.5000000000018
 30
0.0
 11
2625.0
 21
1180.000000000002
 31
0.0
  0
LINE
  5
F561
330
F55C
100
AcDbEntity
  8
01注記寸法
 62
     0
370
    -2
100
AcDbLine
 10
2000.0
 20
1165.000000000002
 30
0.0
 11
2580.0
 21
1165.000000000002
 31
0.0
  0
INSERT
  5
F562
330
F55C
100
AcDbEntity
  8
01注記寸法
 62
     0
370
    -2
100
AcDbBlockReference
  2
_Open
 10
1955.0
 20
1165.000000000002
 30
0.0
 41
45.0
 42
45.0
 43
45.0
 50
180.0
  0
INSERT
  5
F563
330
F55C
100
AcDbEntity
  8
01注記寸法
 62
     0
370
    -2
100
AcDbBlockReference
  2
_Open
 10
2625.0
 20
1165.000000000002
 30
0.0
 41
45.0
 42
45.0
 43
45.0
  0
MTEXT
  5
F564
330
F55C
100
AcDbEntity
  8
01注記寸法
 62
     0
100
AcDbMText
 10
2290.0
 20
1202.500000000002
 30
0.0
 40
45.0
 41
0.0
 71
     5
 72
     1
  1
670
 73
     1
 44
1.0
  0
POINT
  5
F565
330
F55C
100
AcDbEntity
  8
Defpoints
 62
     0
100
AcDbPoint
 10
1955.0
 20
968.0000000000018
 30
0.0
  0
POINT
  5
F566
330
F55C
100
AcDbEntity
  8
Defpoints
 62
     0
100
AcDbPoint
 10
2625.0
 20
968.0000000000018
 30
0.0
  0
POINT
  5
F567
330
F55C
100
AcDbEntity
  8
Defpoints
 62
     0
100
AcDbPoint
 10
2625.0
 20
1165.000000000002
 30
0.0
  0
ENDBLK
  5
F55E
330
F55C
100
AcDbEntity
  8
0
100
AcDbBlockEnd
  0
BLOCK
  5
F56A
330
F569
100
AcDbEntity
  8
0
100
AcDbBlockBegin
  2
*D1198
 70
     1
 10
0.0
 20
0.0
 30
0.0
  3
*D1198
  1

  0
LINE
  5
F56C
330
F569
100
AcDbEntity
  8
01注記寸法
 62
     0
370
    -2
100
AcDbLine
 10
2625.0
 20
990.5000000000018
 30
0.0
 11
2625.0
 21
1180.000000000002
 31
0.0
  0
LINE
  5
F56D
330
F569
100
AcDbEntity
  8
01注記寸法
 62
     0
370
    -2
100
AcDbLine
 10
2690.0
 20
1037.500000000002
 30
0.0
 11
2690.0
 21
1180.000000000002
 31
0.0
  0
LINE
  5
F56E
330
F569
100
AcDbEntity
  8
01注記寸法
 62
     0
370
    -2
100
AcDbLine
 10
2625.0
 20
1165.000000000002
 30
0.0
 11
2690.0
 21
1165.000000000002
 31
0.0
  0
LINE
  5
F56F
330
F569
100
AcDbEntity
  8
01注記寸法
 62
     0
370
    -2
100
AcDbLine
 10
2580.0
 20
1165.000000000002
 30
0.0
 11
2535.0
 21
1165.000000000002
 31
0.0
  0
LINE
  5
F570
330
F569
100
AcDbEntity
  8
01注記寸法
 62
     0
370
    -2
100
AcDbLine
 10
2735.0
 20
1165.000000000002
 30
0.0
 11
2780.0
 21
1165.000000000002
 31
0.0
  0
INSERT
  5
F571
330
F569
100
AcDbEntity
  8
01注記寸法
 62
     0
370
    -2
100
AcDbBlockReference
  2
_Open
 10
2625.0
 20
1165.000000000002
 30
0.0
 41
45.0
 42
45.0
 43
45.0
  0
INSERT
  5
F572
330
F569
100
AcDbEntity
  8
01注記寸法
 62
     0
370
    -2
100
AcDbBlockReference
  2
_Open
 10
2690.0
 20
1165.000000000002
 30
0.0
 41
45.0
 42
45.0
 43
45.0
 50
180.0
  0
MTEXT
  5
F573
330
F569
100
AcDbEntity
  8
01注記寸法
 62
     0
100
AcDbMText
 10
2657.5
 20
1202.500000000002
 30
0.0
 40
45.0
 41
0.0
 71
     5
 72
     1
  1
65
 73
     1
 44
1.0
  0
POINT
  5
F574
330
F569
100
AcDbEntity
  8
Defpoints
 62
     0
100
AcDbPoint
 10
2625.0
 20
968.0000000000018
 30
0.0
  0
POINT
  5
F575
330
F569
100
AcDbEntity
  8
Defpoints
 62
     0
100
AcDbPoint
 10
2690.0
 20
1015.000000000002
 30
0.0
  0
POINT
  5
F576
330
F569
100
AcDbEntity
  8
Defpoints
 62
     0
100
AcDbPoint
 10
2690.0
 20
1165.000000000002
 30
0.0
  0
ENDBLK
  5
F56B
330
F569
100
AcDbEntity
  8
0
100
AcDbBlockEnd
  0
BLOCK
  5
F579
330
F578
100
AcDbEntity
  8
0
100
AcDbBlockBegin
  2
*D1199
 70
     1
 10
0.0
 20
0.0
 30
0.0
  3
*D1199
  1

  0
LINE
  5
F57B
330
F578
100
AcDbEntity
  8
08非表示
 62
     0
370
    -2
100
AcDbLine
 10
1867.5
 20
1015.000000000002
 30
0.0
 11
1575.0
 21
1015.000000000002
 31
0.0
  0
LINE
  5
F57C
330
F578
100
AcDbEntity
  8
08非表示
 62
     0
370
    -2
100
AcDbLine
 10
1867.5
 20
635.0000000000018
 30
0.0
 11
1575.0
 21
635.0000000000018
 31
0.0
  0
LINE
  5
F57D
330
F578
100
AcDbEntity
  8
08非表示
 62
     0
370
    -2
100
AcDbLine
 10
1590.0
 20
970.0000000000018
 30
0.0
 11
1590.0
 21
680.0000000000018
 31
0.0
  0
INSERT
  5
F57E
330
F578
100
AcDbEntity
  8
08非表示
 62
     0
370
    -2
100
AcDbBlockReference
  2
_Open
 10
1590.0
 20
1015.000000000002
 30
0.0
 41
45.0
 42
45.0
 43
45.0
 50
90.0
  0
INSERT
  5
F57F
330
F578
100
AcDbEntity
  8
08非表示
 62
     0
370
    -2
100
AcDbBlockReference
  2
_Open
 10
1590.0
 20
635.0000000000018
 30
0.0
 41
45.0
 42
45.0
 43
45.0
 50
270.0
  0
MTEXT
  5
F580
330
F578
100
AcDbEntity
  8
08非表示
 62
     0
100
AcDbMText
 10
1552.5
 20
825.0000000000018
 30
0.0
 40
45.0
 41
0.0
 71
     5
 72
     1
  1
380
 11
0.0
 21
1.0
 31
0.0
 73
     1
 44
1.0
  0
POINT
  5
F581
330
F578
100
AcDbEntity
  8
Defpoints
 62
     0
100
AcDbPoint
 10
1890.0
 20
1015.000000000002
 30
0.0
  0
POINT
  5
F582
330
F578
100
AcDbEntity
  8
Defpoints
 62
     0
100
AcDbPoint
 10
1890.0
 20
635.0000000000018
 30
0.0
  0
POINT
  5
F583
330
F578
100
AcDbEntity
  8
Defpoints
 62
     0
100
AcDbPoint
 10
1590.0
 20
635.0000000000018
 30
0.0
  0
ENDBLK
  5
F57A
330
F578
100
AcDbEntity
  8
0
100
AcDbBlockEnd
  0
BLOCK
  5
F586
330
F585
100
AcDbEntity
  8
0
100
AcDbBlockBegin
  2
*D1200
 70
     1
 10
0.0
 20
0.0
 30
0.0
  3
*D1200
  1

  0
LINE
  5
F588
330
F585
100
AcDbEntity
  8
08非表示
 62
     0
370
    -2
100
AcDbLine
 10
1890.0
 20
1037.500000000002
 30
0.0
 11
1890.0
 21
1330.000000000002
 31
0.0
  0
LINE
  5
F589
330
F585
100
AcDbEntity
  8
08非表示
 62
     0
370
    -2
100
AcDbLine
 10
2690.0
 20
1037.500000000002
 30
0.0
 11
2690.0
 21
1330.000000000002
 31
0.0
  0
LINE
  5
F58A
330
F585
100
AcDbEntity
  8
08非表示
 62
     0
370
    -2
100
AcDbLine
 10
1935.0
 20
1315.000000000002
 30
0.0
 11
2645.0
 21
1315.000000000002
 31
0.0
  0
INSERT
  5
F58B
330
F585
100
AcDbEntity
  8
08非表示
 62
     0
370
    -2
100
AcDbBlockReference
  2
_Open
 10
1890.0
 20
1315.000000000002
 30
0.0
 41
45.0
 42
45.0
 43
45.0
 50
180.0
  0
INSERT
  5
F58C
330
F585
100
AcDbEntity
  8
08非表示
 62
     0
370
    -2
100
AcDbBlockReference
  2
_Open
 10
2690.0
 20
1315.000000000002
 30
0.0
 41
45.0
 42
45.0
 43
45.0
  0
MTEXT
  5
F58D
330
F585
100
AcDbEntity
  8
08非表示
 62
     0
100
AcDbMText
 10
2290.0
 20
1352.500000000002
 30
0.0
 40
45.0
 41
0.0
 71
     5
 72
     1
  1
800
 73
     1
 44
1.0
  0
POINT
  5
F58E
330
F585
100
AcDbEntity
  8
Defpoints
 62
     0
100
AcDbPoint
 10
1890.0
 20
1015.000000000002
 30
0.0
  0
POINT
  5
F58F
330
F585
100
AcDbEntity
  8
Defpoints
 62
     0
100
AcDbPoint
 10
2690.0
 20
1015.000000000002
 30
0.0
  0
POINT
  5
F590
330
F585
100
AcDbEntity
  8
Defpoints
 62
     0
100
AcDbPoint
 10
2690.0
 20
1315.000000000002
 30
0.0
  0
ENDBLK
  5
F587
330
F585
100
AcDbEntity
  8
0
100
AcDbBlockEnd
  0
ENDSEC
  0
SECTION
  2
ENTITIES
  0
LWPOLYLINE
  5
E6DB
330
1F
100
AcDbEntity
  8
02実線
100
AcDbPolyline
 90
        4
 70
     1
 43
0.0
 10
1815.0
 20
3240.000000000001
 10
1815.0
 20
3620.000000000001
 10
2615.0
 20
3620.000000000001
 10
2615.0
 20
3240.000000000001
  0
LWPOLYLINE
  5
E6DC
330
1F
100
AcDbEntity
  8
03破線
100
AcDbPolyline
 90
        8
 70
     1
 43
0.0
 10
1821.0
 20
3252.500000000001
 10
1821.0
 20
3607.500000000001
 42
-0.4142135623730948
 10
1827.5
 20
3614.000000000001
 10
2602.5
 20
3614.000000000001
 42
-0.4142135623730948
 10
2609.0
 20
3607.500000000001
 10
2609.0
 20
3252.500000000001
 42
-0.4142135623730948
 10
2602.5
 20
3246.000000000001
 10
1827.5
 20
3246.000000000001
 42
-0.4142135623730948
  0
LWPOLYLINE
  5
E6DD
330
1F
100
AcDbEntity
  8
02実線
100
AcDbPolyline
 90
        4
 70
     1
 43
0.0
 10
1865.0
 20
3290.000000000001
 10
1865.0
 20
3570.000000000001
 10
2565.0
 20
3570.000000000001
 10
2565.0
 20
3290.000000000001
  0
LWPOLYLINE
  5
E6DE
330
1F
100
AcDbEntity
  8
02実線
100
AcDbPolyline
 90
        4
 70
     0
 43
0.0
 10
1815.0
 20
1656.000000000001
 10
1815.0
 20
2650.000000000001
 10
2615.0
 20
2650.000000000001
 10
2615.0
 20
1656.000000000001
  0
LWPOLYLINE
  5
E6DF
330
1F
100
AcDbEntity
  8
03破線
100
AcDbPolyline
 90
        6
 70
     0
 43
0.0
 10
1821.0
 20
1656.000000000001
 10
1821.0
 20
2637.500000000001
 42
-0.4142135623730948
 10
1827.5
 20
2644.000000000001
 10
2602.5
 20
2644.000000000001
 42
-0.4142135623730948
 10
2609.0
 20
2637.500000000001
 10
2609.0
 20
1656.000000000001
  0
LWPOLYLINE
  5
E6E0
330
1F
100
AcDbEntity
  8
02実線
100
AcDbPolyline
 90
        4
 70
     0
 43
0.0
 10
1865.0
 20
1656.000000000001
 10
1865.0
 20
2600.000000000001
 10
2565.0
 20
2600.000000000001
 10
2565.0
 20
1656.000000000001
  0
LWPOLYLINE
  5
E6E1
330
1F
100
AcDbEntity
  8
02実線
100
AcDbPolyline
 90
        4
 70
     1
 43
0.0
 10
1805.0
 20
1650.000000000001
 10
1805.0
 20
1656.000000000001
 10
1905.0
 20
1656.000000000001
 10
1905.0
 20
1650.000000000001
  0
LINE
  5
E6E2
330
1F
100
AcDbEntity
  8
04一点鎖線
  6
CENTER
100
AcDbLine
 10
1880.0
 20
1640.000000000001
 30
0.0
 11
1880.0
 21
1666.000000000001
 31
0.0
  0
LWPOLYLINE
  5
E6E3
330
1F
100
AcDbEntity
  8
02実線
100
AcDbPolyline
 90
        4
 70
     1
 43
0.0
 10
2625.0
 20
1650.000000000001
 10
2625.0
 20
1656.000000000001
 10
2525.0
 20
1656.000000000001
 10
2525.0
 20
1650.000000000001
  0
LINE
  5
E6E4
330
1F
100
AcDbEntity
  8
04一点鎖線
  6
CENTER
100
AcDbLine
 10
2550.0
 20
1640.000000000001
 30
0.0
 11
2550.0
 21
1666.000000000001
 31
0.0
  0
INSERT
  5
E6E8
330
1F
100
AcDbEntity
  8
03破線
100
AcDbBlockReference
  2
L50x50xt6-破線
 10
1815.0
 20
1850.000000000001
 30
0.0
  0
INSERT
  5
E6E9
330
1F
100
AcDbEntity
  8
03破線
100
AcDbBlockReference
  2
L50x50xt6-破線
 10
2615.0
 20
1850.000000000001
 30
0.0
 41
-1.0
  0
INSERT
  5
E6EA
330
1F
100
AcDbEntity
  8
03破線
100
AcDbBlockReference
  2
L50x50xt6-破線
 10
1815.0
 20
2650.000000000001
 30
0.0
  0
INSERT
  5
E6EB
330
1F
100
AcDbEntity
  8
03破線
100
AcDbBlockReference
  2
L50x50xt6-破線
 10
2615.0
 20
2650.000000000001
 30
0.0
 41
-1.0
  0
INSERT
  5
E706
330
1F
100
AcDbEntity
  8
03破線
100
AcDbBlockReference
  2
L50x50xt6-破線
 10
1815.0
 20
3620.000000000001
 30
0.0
  0
INSERT
  5
E707
330
1F
100
AcDbEntity
  8
03破線
100
AcDbBlockReference
  2
L50x50xt6-破線
 10
2615.0
 20
3620.000000000001
 30
0.0
 41
-1.0
  0
INSERT
  5
E70A
330
1F
100
AcDbEntity
  8
03破線
100
AcDbBlockReference
  2
L50x50xt6-破線
 10
1815.0
 20
3240.000000000001
 30
0.0
 41
-1.0
 50
180.0
  0
INSERT
  5
E70B
330
1F
100
AcDbEntity
  8
03破線
100
AcDbBlockReference
  2
L50x50xt6-破線
 10
2615.0
 20
3240.000000000001
 30
0.0
 50
180.0
  0
LWPOLYLINE
  5
E729
330
1F
100
AcDbEntity
  8
02実線
100
AcDbPolyline
 90
        4
 70
     1
 43
0.0
 10
2175.0
 20
2612.500000000001
 10
2175.0
 20
2637.500000000001
 10
2255.0
 20
2637.500000000001
 10
2255.0
 20
2612.500000000001
  0
LWPOLYLINE
  5
E7AE
330
1F
100
AcDbEntity
  8
02実線
100
AcDbPolyline
 90
        4
 70
     0
 43
0.0
 10
3205.0
 20
1656.000000000001
 10
3205.0
 20
2650.000000000001
 10
3585.0
 20
2650.000000000001
 10
3585.0
 20
1656.000000000001
  0
LWPOLYLINE
  5
E7AF
330
1F
100
AcDbEntity
  8
03破線
100
AcDbPolyline
 90
        6
 70
     0
 43
0.0
 10
3211.0
 20
1656.000000000001
 10
3211.0
 20
2637.500000000001
 42
-0.4142135623730948
 10
3217.5
 20
2644.000000000001
 10
3572.5
 20
2644.000000000001
 42
-0.4142135623730948
 10
3579.0
 20
2637.500000000001
 10
3579.0
 20
1656.000000000001
  0
LWPOLYLINE
  5
E7B0
330
1F
100
AcDbEntity
  8
02実線
100
AcDbPolyline
 90
        4
 70
     0
 43
0.0
 10
3255.0
 20
1656.000000000001
 10
3255.0
 20
2600.000000000001
 10
3535.0
 20
2600.000000000001
 10
3535.0
 20
1656.000000000001
  0
LWPOLYLINE
  5
E7B1
330
1F
100
AcDbEntity
  8
02実線
100
AcDbPolyline
 90
        4
 70
     1
 43
0.0
 10
3195.0
 20
1650.000000000001
 10
3195.0
 20
1656.000000000001
 10
3295.0
 20
1656.000000000001
 10
3295.0
 20
1650.000000000001
  0
LINE
  5
E7B2
330
1F
100
AcDbEntity
  8
04一点鎖線
  6
CENTER
100
AcDbLine
 10
3270.0
 20
1640.000000000001
 30
0.0
 11
3270.0
 21
1666.000000000001
 31
0.0
  0
LWPOLYLINE
  5
E7B3
330
1F
100
AcDbEntity
  8
02実線
100
AcDbPolyline
 90
        4
 70
     1
 43
0.0
 10
3595.0
 20
1650.000000000001
 10
3595.0
 20
1656.000000000001
 10
3495.0
 20
1656.000000000001
 10
3495.0
 20
1650.000000000001
  0
LINE
  5
E7B4
330
1F
100
AcDbEntity
  8
04一点鎖線
  6
CENTER
100
AcDbLine
 10
3520.0
 20
1640.000000000001
 30
0.0
 11
3520.0
 21
1666.000000000001
 31
0.0
  0
LINE
  5
E7B5
330
1F
100
AcDbEntity
  8
02実線
100
AcDbLine
 10
3535.0
 20
1850.000000000001
 30
0.0
 11
3255.0
 21
1850.000000000001
 31
0.0
  0
LINE
  5
E7B6
330
1F
100
AcDbEntity
  8
03破線
100
AcDbLine
 10
3535.0
 20
1844.000000000001
 30
0.0
 11
3255.0
 21
1844.000000000001
 31
0.0
  0
LINE
  5
E7B7
330
1F
100
AcDbEntity
  8
02実線
100
AcDbLine
 10
3535.0
 20
1800.000000000001
 30
0.0
 11
3255.0
 21
1800.000000000001
 31
0.0
  0
INSERT
  5
E7B8
330
1F
100
AcDbEntity
  8
03破線
100
AcDbBlockReference
  2
L50x50xt6-破線
 10
3205.0
 20
1850.000000000001
 30
0.0
  0
INSERT
  5
E7B9
330
1F
100
AcDbEntity
  8
03破線
100
AcDbBlockReference
  2
L50x50xt6-破線
 10
3585.0
 20
1850.000000000001
 30
0.0
 41
-1.0
  0
INSERT
  5
E7BA
330
1F
100
AcDbEntity
  8
03破線
100
AcDbBlockReference
  2
L50x50xt6-破線
 10
3205.0
 20
2650.000000000001
 30
0.0
  0
INSERT
  5
E7BB
330
1F
100
AcDbEntity
  8
03破線
100
AcDbBlockReference
  2
L50x50xt6-破線
 10
3585.0
 20
2650.000000000001
 30
0.0
 41
-1.0
  0
LINE
  5
E8A3
330
1F
100
AcDbEntity
  8
02実線
100
AcDbLine
 10
2565.0
 20
1800.000000000001
 30
0.0
 11
1865.0
 21
1800.000000000001
 31
0.0
  0
LINE
  5
E8A4
330
1F
100
AcDbEntity
  8
02実線
100
AcDbLine
 10
2565.0
 20
1850.000000000001
 30
0.0
 11
1865.0
 21
1850.000000000001
 31
0.0
  0
LINE
  5
E8A5
330
1F
100
AcDbEntity
  8
03破線
100
AcDbLine
 10
2565.0
 20
1844.000000000001
 30
0.0
 11
1865.0
 21
1844.000000000001
 31
0.0
  0
INSERT
  5
F343
330
1F
100
AcDbEntity
  8
02実線
100
AcDbBlockReference
  2
hole-φ16
 10
1915.0
 20
3585.000000000001
 30
0.0
  0
INSERT
  5
F345
330
1F
100
AcDbEntity
  8
02実線
100
AcDbBlockReference
  2
hole-φ12
 10
1965.0
 20
3595.000000000001
 30
0.0
  0
INSERT
  5
F347
330
1F
100
AcDbEntity
  8
02実線
100
AcDbBlockReference
  2
hole-φ16
 10
2515.0
 20
3585.000000000001
 30
0.0
  0
INSERT
  5
F349
330
1F
100
AcDbEntity
  8
02実線
100
AcDbBlockReference
  2
hole-φ12
 10
2465.0
 20
3595.000000000001
 30
0.0
  0
INSERT
  5
F34C
330
1F
100
AcDbEntity
  8
02実線
100
AcDbBlockReference
  2
hole-φ16
 10
1915.0
 20
3275.000000000001
 30
0.0
  0
INSERT
  5
F34E
330
1F
100
AcDbEntity
  8
02実線
100
AcDbBlockReference
  2
hole-φ12
 10
1965.0
 20
3265.000000000001
 30
0.0
  0
INSERT
  5
F350
330
1F
100
AcDbEntity
  8
02実線
100
AcDbBlockReference
  2
hole-φ16
 10
2515.0
 20
3275.000000000001
 30
0.0
  0
INSERT
  5
F352
330
1F
100
AcDbEntity
  8
02実線
100
AcDbBlockReference
  2
hole-φ12
 10
2465.0
 20
3265.000000000001
 30
0.0
  0
LWPOLYLINE
  5
F3F4
102
{ACAD_REACTORS
330
F3F8
102
}
330
1F
100
AcDbEntity
  8
03破線
100
AcDbPolyline
 90
        4
 70
     1
 43
0.0
 10
1927.5
 20
2644.000000000001
 10
1927.5
 20
2650.000000000001
 10
2002.5
 20
2650.000000000001
 10
2002.5
 20
2644.000000000001
  0
LINE
  5
F3F6
102
{ACAD_REACTORS
330
F3F8
102
}
330
1F
100
AcDbEntity
  8
08非表示
100
AcDbLine
 10
1927.5
 20
2647.000000000001
 30
0.0
 11
2002.5
 21
2647.000000000001
 31
0.0
  0
LINE
  5
F3F7
102
{ACAD_REACTORS
330
F3F8
102
}
330
1F
100
AcDbEntity
  8
08非表示
100
AcDbLine
 10
1965.0
 20
2650.000000000001
 30
0.0
 11
1965.0
 21
2644.000000000001
 31
0.0
  0
LWPOLYLINE
  5
F42F
102
{ACAD_REACTORS
330
F432
102
}
330
1F
100
AcDbEntity
  8
03破線
100
AcDbPolyline
 90
        4
 70
     1
 43
0.0
 10
2502.5
 20
2644.000000000001
 10
2502.5
 20
2650.000000000001
 10
2427.5
 20
2650.000000000001
 10
2427.5
 20
2644.000000000001
  0
LINE
  5
F430
102
{ACAD_REACTORS
330
F432
102
}
330
1F
100
AcDbEntity
  8
08非表示
100
AcDbLine
 10
2502.5
 20
2647.000000000001
 30
0.0
 11
2427.5
 21
2647.000000000001
 31
0.0
  0
LINE
  5
F431
102
{ACAD_REACTORS
330
F432
102
}
330
1F
100
AcDbEntity
  8
08非表示
100
AcDbLine
 10
2465.0
 20
2650.000000000001
 30
0.0
 11
2465.0
 21
2644.000000000001
 31
0.0
  0
LWPOLYLINE
  5
F433
330
1F
100
AcDbEntity
  8
02実線
100
AcDbPolyline
 90
        4
 70
     1
 43
0.0
 10
1927.5
 20
3290.000000000001
 10
1927.5
 20
3570.000000000001
 10
2002.5
 20
3570.000000000001
 10
2002.5
 20
3290.000000000001
  0
LWPOLYLINE
  5
F434
330
1F
100
AcDbEntity
  8
02実線
100
AcDbPolyline
 90
        4
 70
     1
 43
0.0
 10
2502.5
 20
3290.000000000001
 10
2502.5
 20
3570.000000000001
 10
2427.5
 20
3570.000000000001
 10
2427.5
 20
3290.000000000001
  0
LINE
  5
F506
330
1F
100
AcDbEntity
  8
04一点鎖線
100
AcDbLine
 10
1915.0
 20
2629.000000000001
 30
0.0
 11
1915.0
 21
2665.000000000001
 31
0.0
  0
LINE
  5
F507
330
1F
100
AcDbEntity
  8
04一点鎖線
100
AcDbLine
 10
1965.0
 20
2629.000000000001
 30
0.0
 11
1965.0
 21
2665.000000000001
 31
0.0
  0
LINE
  5
F508
330
1F
100
AcDbEntity
  8
04一点鎖線
100
AcDbLine
 10
2515.0
 20
2629.000000000001
 30
0.0
 11
2515.0
 21
2665.000000000001
 31
0.0
  0
LINE
  5
F509
330
1F
100
AcDbEntity
  8
04一点鎖線
100
AcDbLine
 10
2465.0
 20
2629.000000000001
 30
0.0
 11
2465.0
 21
2665.000000000001
 31
0.0
  0
LINE
  5
F50B
330
1F
100
AcDbEntity
  8
04一点鎖線
100
AcDbLine
 10
3230.0
 20
2629.000000000001
 30
0.0
 11
3230.0
 21
2665.000000000001
 31
0.0
  0
LINE
  5
F50C
330
1F
100
AcDbEntity
  8
04一点鎖線
100
AcDbLine
 10
3240.0
 20
2629.000000000001
 30
0.0
 11
3240.0
 21
2665.000000000001
 31
0.0
  0
LINE
  5
F50D
330
1F
100
AcDbEntity
  8
04一点鎖線
100
AcDbLine
 10
3560.0
 20
2629.000000000001
 30
0.0
 11
3560.0
 21
2665.000000000001
 31
0.0
  0
LINE
  5
F50E
330
1F
100
AcDbEntity
  8
04一点鎖線
100
AcDbLine
 10
3550.0
 20
2629.000000000001
 30
0.0
 11
3550.0
 21
2665.000000000001
 31
0.0
  0
VIEWPORT
  5
9F0D
330
1B
100
AcDbEntity
 67
     1
  8
0
100
AcDbViewport
 10
202.5
 20
128.5
 30
0.0
 40
486.0
 41
308.4
 68
     1
 69
     1
 12
202.5
 22
128.5
 13
0.0
 23
0.0
 14
0.5
 24
0.5
 15
0.0
 25
0.0
 16
0.0
 26
0.0
 36
1.0
 17
0.0
 27
0.0
 37
0.0
 42
50.0
 43
0.0
 44
0.0
 45
308.4
 50
0.0
 51
0.0
 72
   100
 90
   557152
  1

281
     0
 71
     1
 74
     0
110
0.0
120
0.0
130
0.0
111
1.0
121
0.0
131
0.0
112
0.0
122
1.0
132
0.0
 79
     0
146
0.0
  0
VIEWPORT
  5
9F0E
330
1B
100
AcDbEntity
 67
     1
  8
0
100
AcDbViewport
 10
202.5
 20
128.5
 30
0.0
 40
324.0
 41
205.6
 68
     2
 69
     2
 12
-3224.9849078482
 22
3553.815758143106
 13
0.0
 23
0.0
 14
0.5
 24
0.5
 15
0.0
 25
0.0
 16
0.0
 26
0.0
 36
1.0
 17
0.0
 27
0.0
 37
0.0
 42
50.0
 43
0.0
 44
0.0
 45
10712.16027781073
 50
0.0
 51
0.0
 72
   100
 90
   557152
  1

281
     0
 71
     1
 74
     0
110
0.0
120
0.0
130
0.0
111
1.0
121
0.0
131
0.0
112
0.0
122
1.0
132
0.0
 79
     0
146
0.0
  0
ENDSEC
  0
SECTION
  2
OBJECTS
  0
DICTIONARY
  5
C
330
0
100
AcDbDictionary
281
     1
  3
ACAD_DETAILVIEWSTYLE
350
F3EF
  3
ACAD_GROUP
350
D
  3
ACAD_IMAGE_VARS
350
6A88
  3
ACAD_LAYOUT
350
1A
  3
ACAD_MLINESTYLE
350
17
  3
ACAD_PLOTSETTINGS
350
19
  3
ACAD_PLOTSTYLENAME
350
E
  3
ACAD_SCALELIST
350
6A4E
  3
ACAD_SECTIONVIEWSTYLE
350
F3F0
  3
AcadDim
350
C4B1
  3
AcDbVariableDictionary
350
79E
  3
APPDATA
350
6A87
  3
DWGPROPS
350
F608
  0
DICTIONARY
  5
7A6F
330
2
100
AcDbDictionary
280
     1
281
     1
  3
ACAD_LAYERSTATES
360
7A70
  3
ACLYDICTIONARY
360
A99D
  0
DICTIONARY
  5
969E
330
1F
100
AcDbDictionary
280
     1
281
     1
  3
ACAD_SORTENTS
360
969F
  0
DICTIONARY
  5
F3EF
102
{ACAD_REACTORS
330
C
102
}
330
C
100
AcDbDictionary
281
     1
  0
DICTIONARY
  5
D
102
{ACAD_REACTORS
330
C
102
}
330
C
100
AcDbDictionary
281
     1
  3
*A1
350
F3F8
  3
*A2
350
F432
  0
RASTERVARIABLES
  5
6A88
102
{ACAD_REACTORS
330
C
102
}
330
C
100
AcDbRasterVariables
 90
        0
 70
     1
 71
     1
 72
     1
  0
DICTIONARY
  5
1A
102
{ACAD_REACTORS
330
C
102
}
330
C
100
AcDbDictionary
281
     1
  3
Layout1
350
1E
  3
Model
350
22
  0
DICTIONARY
  5
17
102
{ACAD_REACTORS
330
C
102
}
330
C
100
AcDbDictionary
281
     1
  3
Standard
350
18
  0
DICTIONARY
  5
19
102
{ACAD_REACTORS
330
C
102
}
330
C
100
AcDbDictionary
281
     1
  0
ACDBDICTIONARYWDFLT
  5
E
102
{ACAD_REACTORS
330
C
102
}
330
C
100
AcDbDictionary
281
     1
  3
Normal
350
F
100
AcDbDictionaryWithDefault
340
F
  0
DICTIONARY
  5
6A4E
102
{ACAD_REACTORS
330
C
102
}
330
C
100
AcDbDictionary
281
     1
  3
A0
350
6A4F
  3
A1
350
6A50
  3
A2
350
6A51
  3
A3
350
6A52
  3
A4
350
6A53
  3
A5
350
6A54
  3
A6
350
6A55
  3
A7
350
6A56
  3
A8
350
6A57
  3
A9
350
6A58
  3
B0
350
6A59
  3
B1
350
6A5A
  3
B2
350
6A5B
  3
B3
350
6A5C
  3
B4
350
6A5D
  3
B5
350
6A5E
  3
B6
350
6A5F
  3
B7
350
6A60
  3
B8
350
6A61
  3
B9
350
6A62
  3
C0
350
6A63
  3
C1
350
6A64
  3
C2
350
6A65
  3
C3
350
6A66
  3
C4
350
6A67
  3
C5
350
6A68
  3
C6
350
6A69
  3
C7
350
6A6A
  3
C8
350
6A6B
  3
C9
350
6A6C
  3
D0
350
6A6D
  3
D1
350
6A6E
  3
D2
350
6A6F
  0
DICTIONARY
  5
F3F0
102
{ACAD_REACTORS
330
C
102
}
330
C
100
AcDbDictionary
281
     1
  0
XRECORD
  5
C4B1
102
{ACAD_REACTORS
330
C
102
}
330
C
100
AcDbXrecord
280
     1
340
0
 72
     0
 71
     0
 70
     0
 69
     0
 68
     1
 67
     3
 66
     0
 65
     0
 64
     0
 63
     3
 62
     1
 61
     0
 60
     0
 40
0.0
  0
DICTIONARY
  5
79E
102
{ACAD_REACTORS
330
C
102
}
330
C
100
AcDbDictionary
281
     1
  3
DIMASSOC
350
79F
  3
SORTENTS
350
264F
  0
DICTIONARY
  5
6A87
102
{ACAD_REACTORS
330
C
102
}
330
C
100
AcDbDictionary
281
     1
  0
XRECORD
  5
F608
102
{ACAD_REACTORS
330
C
102
}
330
C
100
AcDbXrecord
280
     1
  1
DWGPROPS COOKIE
  2

  3

  4

  6

  7

  8
2328
  9

300
=
301
=
302
=
303
=
304
=
305
=
306
=
307
=
308
=
309
=
 40
0.0
 41
2455859.030048461
 42
2458376.0359464
  1

 90
        0
  0
DICTIONARY
  5
7A70
102
{ACAD_REACTORS
330
7A6F
102
}
330
7A6F
100
AcDbDictionary
281
     1
  0
DICTIONARY
  5
A99D
102
{ACAD_REACTORS
330
7A6F
102
}
330
7A6F
100
AcDbDictionary
281
     1
1001
ACAD
1000
<All
  0
SORTENTSTABLE
  5
969F
102
{ACAD_REACTORS
330
969E
102
}
330
969E
100
AcDbSortentsTable
330
1F
331
0
  5
7ECC
331
0
  5
7E90
331
0
  5
7E94
331
0
  5
7EA4
331
0
  5
7EA7
331
0
  5
7EA8
331
0
  5
7EA9
331
0
  5
7EAA
331
0
  5
7EAB
331
0
  5
7EAC
331
0
  5
7EAD
331
0
  5
7EAE
331
0
  5
7EAF
331
0
  5
7EB0
331
0
  5
7EB1
331
0
  5
7EB2
331
0
  5
7EB3
331
0
  5
7EB4
331
0
  5
7EB5
331
0
  5
7EB6
331
0
  5
7EB9
331
0
  5
7EBA
331
0
  5
7EBB
331
0
  5
7EBC
331
0
  5
7ECB
331
0
  5
7E6F
331
0
  5
7E74
331
0
  5
7E76
331
0
  5
7E78
331
0
  5
7E79
331
0
  5
7E7B
331
0
  5
7E7C
331
0
  5
7E7D
331
0
  5
7E7E
331
0
  5
7ED0
331
0
  5
7ED1
331
0
  5
7ED2
331
0
  5
7ED4
331
0
  5
7ED5
331
0
  5
7ED6
331
0
  5
7ED7
331
0
  5
7EDB
331
0
  5
7EDC
331
0
  5
7EDD
331
0
  5
7EDE
331
0
  5
7EDF
331
0
  5
7EE0
331
0
  5
7EE2
331
0
  5
7EE3
331
0
  5
7EE4
331
0
  5
7EE8
331
0
  5
7EE9
331
0
  5
7EEA
331
0
  5
7EEB
331
0
  5
7EED
331
0
  5
7EEE
331
0
  5
7EEF
331
0
  5
7EF3
331
0
  5
7EF4
331
0
  5
7EF5
331
0
  5
7EF6
331
0
  5
7EF8
331
0
  5
7EF9
331
0
  5
7EFA
331
0
  5
7EFE
331
0
  5
7EFF
331
0
  5
7F00
331
0
  5
7F01
331
0
  5
7F03
331
0
  5
7F04
331
0
  5
7F05
331
0
  5
7F09
331
0
  5
7F0A
331
0
  5
7F0B
331
0
  5
7F0C
331
0
  5
7F0D
331
0
  5
7F12
331
0
  5
7F13
331
0
  5
7F16
331
0
  5
7F17
331
0
  5
7F1C
331
0
  5
7F1E
331
0
  5
7F47
331
0
  5
7F49
331
0
  5
7F4A
331
0
  5
7F4B
331
0
  5
7F4C
331
0
  5
7F4D
331
0
  5
7F4E
331
0
  5
7F50
331
0
  5
7F51
331
0
  5
7F52
331
0
  5
7F53
331
0
  5
7F54
331
0
  5
7F55
331
0
  5
7F56
331
0
  5
7F57
331
0
  5
7F58
331
0
  5
7F59
331
0
  5
7F5A
331
0
  5
7F5C
331
0
  5
7F8F
331
0
  5
7F90
331
0
  5
7F91
331
0
  5
7F92
331
0
  5
7F93
331
0
  5
7F94
331
0
  5
7F95
331
0
  5
7F96
331
0
  5
7F97
331
0
  5
7F98
331
0
  5
7FC2
331
0
  5
7FC3
331
0
  5
7FCA
331
0
  5
7FCB
331
0
  5
7FDE
331
0
  5
7FDF
331
0
  5
8081
331
0
  5
8082
331
0
  5
8083
331
0
  5
8084
331
0
  5
8192
331
0
  5
8193
331
0
  5
8194
331
0
  5
8195
331
0
  5
8196
331
0
  5
8197
331
0
  5
8198
331
0
  5
819A
331
0
  5
819C
331
0
  5
819D
331
0
  5
819F
331
0
  5
81A1
331
0
  5
81A4
331
0
  5
81A5
331
0
  5
81A6
331
0
  5
81A7
331
0
  5
81AA
331
0
  5
81AB
331
0
  5
81AC
331
0
  5
81AD
331
0
  5
81AE
331
0
  5
81AF
331
0
  5
81B0
331
0
  5
81B1
331
0
  5
81B2
331
0
  5
81BA
331
0
  5
81BB
331
0
  5
81BD
331
0
  5
81BE
331
0
  5
81BF
331
0
  5
81C0
331
0
  5
81C1
331
0
  5
81C2
331
0
  5
81C3
331
0
  5
81C4
331
0
  5
81C5
331
0
  5
81C6
331
0
  5
81C7
331
0
  5
81C8
331
0
  5
81CA
331
0
  5
81CB
331
0
  5
81E8
331
0
  5
81F8
331
0
  5
821A
331
0
  5
821C
331
0
  5
86AE
331
0
  5
86AF
331
0
  5
86B0
331
0
  5
86B1
331
0
  5
86B2
331
0
  5
86B3
331
0
  5
86B4
331
0
  5
86B5
331
0
  5
86B8
331
0
  5
86B9
331
0
  5
86C4
331
0
  5
86C5
331
0
  5
86F1
331
0
  5
86F2
331
0
  5
86F3
331
0
  5
86F4
331
0
  5
86F5
331
0
  5
86FF
331
0
  5
885D
331
0
  5
885E
331
0
  5
885F
331
0
  5
8864
331
0
  5
8865
331
0
  5
8867
331
0
  5
8869
331
0
  5
8871
331
0
  5
8879
331
0
  5
887A
331
0
  5
887B
331
0
  5
887C
331
0
  5
896C
331
0
  5
896D
331
0
  5
896E
331
0
  5
8C5E
331
0
  5
8C5F
331
0
  5
8C61
331
0
  5
8C63
331
0
  5
8E22
331
0
  5
7E8F
331
0
  5
9719
331
0
  5
971A
331
0
  5
971B
331
0
  5
971C
331
0
  5
9A64
331
0
  5
9A65
331
0
  5
9A69
331
0
  5
9A6A
331
0
  5
9A6B
331
0
  5
9A6C
331
0
  5
9A6D
331
0
  5
9A6E
331
0
  5
9A6F
331
0
  5
9A71
331
0
  5
9A72
331
0
  5
9A73
331
0
  5
9A75
331
0
  5
9A76
331
0
  5
9A77
331
0
  5
9A78
331
0
  5
9A7A
331
0
  5
9A7C
331
0
  5
9A7D
331
0
  5
9A7E
331
0
  5
9A7F
331
0
  5
9A80
331
0
  5
9A81
331
0
  5
9A82
331
0
  5
9A83
331
0
  5
9A84
331
0
  5
9A85
331
0
  5
9A86
331
0
  5
9A87
331
0
  5
9A88
331
0
  5
9A89
331
0
  5
9A8A
331
0
  5
9A8B
331
0
  5
9A8C
331
0
  5
9A8D
331
0
  5
9A8E
331
0
  5
9A8F
331
0
  5
9A90
331
0
  5
9A91
331
0
  5
9A92
331
0
  5
9A93
331
0
  5
9A94
331
0
  5
9A95
331
0
  5
9A96
331
0
  5
9A97
331
0
  5
9A98
331
0
  5
9A99
331
0
  5
9A9A
331
0
  5
9A9B
331
0
  5
9A9C
331
0
  5
9AA4
331
0
  5
9AA5
331
0
  5
9AA6
331
0
  5
9AA7
331
0
  5
9AA8
331
0
  5
9AAB
331
0
  5
9AAC
331
0
  5
9AAD
331
0
  5
9AAE
331
0
  5
9AAF
331
0
  5
9AB0
331
0
  5
9AB1
331
0
  5
9AB2
331
0
  5
9AB3
331
0
  5
9AB4
331
0
  5
9AB5
331
0
  5
9AB6
331
0
  5
9AB7
331
0
  5
9AB8
331
0
  5
9AB9
331
0
  5
9ABA
331
0
  5
9ABB
331
0
  5
9ABC
331
0
  5
9AD7
331
0
  5
9AD8
331
0
  5
9AD9
331
0
  5
9ADA
331
0
  5
9ADB
331
0
  5
9ADC
331
0
  5
9ADD
331
0
  5
9ADE
331
0
  5
A028
331
0
  5
A40F
331
0
  5
A9BF
331
0
  5
A9C1
331
0
  5
A9C2
331
0
  5
A9C3
331
0
  5
A9E5
331
0
  5
A9E7
331
0
  5
AA1F
331
0
  5
AA20
331
0
  5
AA21
331
0
  5
AA23
331
0
  5
AA27
331
0
  5
AA28
331
0
  5
AA2A
331
0
  5
AA77
331
0
  5
ACC9
331
0
  5
ACCA
331
0
  5
AD48
331
0
  5
AD49
331
0
  5
AD4A
331
0
  5
AD4B
331
0
  5
ADA6
331
0
  5
ADA7
331
0
  5
ADA8
331
0
  5
ADA9
331
0
  5
ADAA
331
0
  5
ADAB
331
0
  5
ADAC
331
0
  5
ADAE
331
0
  5
AFCB
331
0
  5
B87A
331
0
  5
B87B
331
0
  5
B87C
331
0
  5
B87D
331
0
  5
B87E
331
0
  5
BFAF
331
0
  5
BFB0
331
0
  5
BFB1
331
0
  5
D033
331
0
  5
D035
331
0
  5
D039
331
0
  5
D061
331
0
  5
D062
331
0
  5
D063
331
0
  5
D064
331
0
  5
D065
331
0
  5
D5FD
331
0
  5
D635
331
0
  5
7E7F
331
0
  5
7E84
331
0
  5
7E85
331
0
  5
7E86
331
0
  5
7E87
331
0
  5
7E8A
331
0
  5
7E8B
331
0
  5
7E8C
  0
GROUP
  5
F3F8
102
{ACAD_REACTORS
330
D
102
}
330
D
100
AcDbGroup
300

 70
     1
 71
     1
340
F3F4
340
F3F6
340
F3F7
  0
GROUP
  5
F432
102
{ACAD_REACTORS
330
D
102
}
330
D
100
AcDbGroup
300

 70
     1
 71
     1
340
F42F
340
F430
340
F431
  0
LAYOUT
  5
1E
102
{ACAD_REACTORS
330
1A
102
}
330
1A
100
AcDbPlotSettings
  1

  2
none_device
  4
ISO_A3_(420.00_x_297.00_MM)
  6

 40
7.5
 41
20.0
 42
7.5
 43
20.0
 44
420.0
 45
297.0
 46
0.0
 47
0.0
 48
0.0
 49
0.0
140
0.0
141
0.0
142
1.0
143
1.0
 70
   688
 72
     1
 73
     0
 74
     5
  7

 75
    16
147
1.0
148
0.0
149
0.0
100
AcDbLayout
  1
Layout1
 70
     1
 71
     1
 10
0.0
 20
0.0
 11
412.5
 21
277.0
 12
0.0
 22
0.0
 32
0.0
 14
1.000000000000000E+20
 24
1.000000000000000E+20
 34
1.000000000000000E+20
 15
-1.000000000000000E+20
 25
-1.000000000000000E+20
 35
-1.000000000000000E+20
146
0.0
 13
0.0
 23
0.0
 33
0.0
 16
1.0
 26
0.0
 36
0.0
 17
0.0
 27
1.0
 37
0.0
 76
     0
330
1B
331
9F0D
  0
LAYOUT
  5
22
102
{ACAD_REACTORS
330
1A
102
}
330
1A
100
AcDbPlotSettings
  1

  2
none_device
  4
A3
  6

 40
3.174999952316284
 41
3.174999952316284
 42
3.17498779296875
 43
3.17498779296875
 44
297.0318298339844
 45
420.1583251953125
 46
-3.16
 47
-3.1
 48
-90.0
 49
-90.0
140
329.9999999999998
141
207.0
142
1.0
143
1.0
 70
 11940
 72
     1
 73
     1
 74
     4
  7
monochrome.ctb
 75
     0
147
1.0
148
90.0
149
90.0
100
AcDbLayout
  1
Model
 70
     1
 71
     0
 10
0.0
 20
0.0
 11
6300.0
 21
4455.0
 12
0.0
 22
0.0
 32
0.0
 14
1805.0
 24
1640.000000000001
 34
0.0
 15
3595.0
 25
3620.000000000001
 35
0.0
146
0.0
 13
0.0
 23
0.0
 33
0.0
 16
1.0
 26
0.0
 36
0.0
 17
0.0
 27
1.0
 37
0.0
 76
     0
330
1F
331
7A57
  0
MLINESTYLE
  5
18
102
{ACAD_REACTORS
330
17
102
}
330
17
100
AcDbMlineStyle
  2
STANDARD
 70
     0
  3

 62
   256
 51
90.0
 52
90.0
 71
     2
 49
0.5
 62
   256
  6
BYLAYER
 49
-0.5
 62
   256
  6
BYLAYER
  0
ACDBPLACEHOLDER
  5
F
102
{ACAD_REACTORS
330
E
102
}
330
E
  0
SCALE
  5
6A4F
102
{ACAD_REACTORS
330
6A4E
102
}
330
6A4E
100
AcDbScale
 70
     0
300
1:1
140
1.0
141
1.0
290
     1
  0
SCALE
  5
6A50
102
{ACAD_REACTORS
330
6A4E
102
}
330
6A4E
100
AcDbScale
 70
     0
300
1:2
140
1.0
141
2.0
290
     0
  0
SCALE
  5
6A51
102
{ACAD_REACTORS
330
6A4E
102
}
330
6A4E
100
AcDbScale
 70
     0
300
1:4
140
1.0
141
4.0
290
     0
  0
SCALE
  5
6A52
102
{ACAD_REACTORS
330
6A4E
102
}
330
6A4E
100
AcDbScale
 70
     0
300
1:5
140
1.0
141
5.0
290
     0
  0
SCALE
  5
6A53
102
{ACAD_REACTORS
330
6A4E
102
}
330
6A4E
100
AcDbScale
 70
     0
300
1:8
140
1.0
141
8.0
290
     0
  0
SCALE
  5
6A54
102
{ACAD_REACTORS
330
6A4E
102
}
330
6A4E
100
AcDbScale
 70
     0
300
1:10
140
1.0
141
10.0
290
     0
  0
SCALE
  5
6A55
102
{ACAD_REACTORS
330
6A4E
102
}
330
6A4E
100
AcDbScale
 70
     0
300
1:16
140
1.0
141
16.0
290
     0
  0
SCALE
  5
6A56
102
{ACAD_REACTORS
330
6A4E
102
}
330
6A4E
100
AcDbScale
 70
     0
300
1:20
140
1.0
141
20.0
290
     0
  0
SCALE
  5
6A57
102
{ACAD_REACTORS
330
6A4E
102
}
330
6A4E
100
AcDbScale
 70
     0
300
1:30
140
1.0
141
30.0
290
     0
  0
SCALE
  5
6A58
102
{ACAD_REACTORS
330
6A4E
102
}
330
6A4E
100
AcDbScale
 70
     0
300
1:40
140
1.0
141
40.0
290
     0
  0
SCALE
  5
6A59
102
{ACAD_REACTORS
330
6A4E
102
}
330
6A4E
100
AcDbScale
 70
     0
300
1:50
140
1.0
141
50.0
290
     0
  0
SCALE
  5
6A5A
102
{ACAD_REACTORS
330
6A4E
102
}
330
6A4E
100
AcDbScale
 70
     0
300
1:100
140
1.0
141
100.0
290
     0
  0
SCALE
  5
6A5B
102
{ACAD_REACTORS
330
6A4E
102
}
330
6A4E
100
AcDbScale
 70
     0
300
2:1
140
2.0
141
1.0
290
     0
  0
SCALE
  5
6A5C
102
{ACAD_REACTORS
330
6A4E
102
}
330
6A4E
100
AcDbScale
 70
     0
300
4:1
140
4.0
141
1.0
290
     0
  0
SCALE
  5
6A5D
102
{ACAD_REACTORS
330
6A4E
102
}
330
6A4E
100
AcDbScale
 70
     0
300
8:1
140
8.0
141
1.0
290
     0
  0
SCALE
  5
6A5E
102
{ACAD_REACTORS
330
6A4E
102
}
330
6A4E
100
AcDbScale
 70
     0
300
10:1
140
10.0
141
1.0
290
     0
  0
SCALE
  5
6A5F
102
{ACAD_REACTORS
330
6A4E
102
}
330
6A4E
100
AcDbScale
 70
     0
300
100:1
140
100.0
141
1.0
290
     0
  0
SCALE
  5
6A60
102
{ACAD_REACTORS
330
6A4E
102
}
330
6A4E
100
AcDbScale
 70
     0
300
1/128" = 1'-0"
140
0.0078125
141
12.0
290
     0
  0
SCALE
  5
6A61
102
{ACAD_REACTORS
330
6A4E
102
}
330
6A4E
100
AcDbScale
 70
     0
300
1/64" = 1'-0"
140
0.015625
141
12.0
290
     0
  0
SCALE
  5
6A62
102
{ACAD_REACTORS
330
6A4E
102
}
330
6A4E
100
AcDbScale
 70
     0
300
1/32" = 1'-0"
140
0.03125
141
12.0
290
     0
  0
SCALE
  5
6A63
102
{ACAD_REACTORS
330
6A4E
102
}
330
6A4E
100
AcDbScale
 70
     0
300
1/16" = 1'-0"
140
0.0625
141
12.0
290
     0
  0
SCALE
  5
6A64
102
{ACAD_REACTORS
330
6A4E
102
}
330
6A4E
100
AcDbScale
 70
     0
300
3/32" = 1'-0"
140
0.09375
141
12.0
290
     0
  0
SCALE
  5
6A65
102
{ACAD_REACTORS
330
6A4E
102
}
330
6A4E
100
AcDbScale
 70
     0
300
1/8" = 1'-0"
140
0.125
141
12.0
290
     0
  0
SCALE
  5
6A66
102
{ACAD_REACTORS
330
6A4E
102
}
330
6A4E
100
AcDbScale
 70
     0
300
3/16" = 1'-0"
140
0.1875
141
12.0
290
     0
  0
SCALE
  5
6A67
102
{ACAD_REACTORS
330
6A4E
102
}
330
6A4E
100
AcDbScale
 70
     0
300
1/4" = 1'-0"
140
0.25
141
12.0
290
     0
  0
SCALE
  5
6A68
102
{ACAD_REACTORS
330
6A4E
102
}
330
6A4E
100
AcDbScale
 70
     0
300
3/8" = 1'-0"
140
0.375
141
12.0
290
     0
  0
SCALE
  5
6A69
102
{ACAD_REACTORS
330
6A4E
102
}
330
6A4E
100
AcDbScale
 70
     0
300
1/2" = 1'-0"
140
0.5
141
12.0
290
     0
  0
SCALE
  5
6A6A
102
{ACAD_REACTORS
330
6A4E
102
}
330
6A4E
100
AcDbScale
 70
     0
300
3/4" = 1'-0"
140
0.75
141
12.0
290
     0
  0
SCALE
  5
6A6B
102
{ACAD_REACTORS
330
6A4E
102
}
330
6A4E
100
AcDbScale
 70
     0
300
1" = 1'-0"
140
1.0
141
12.0
290
     0
  0
SCALE
  5
6A6C
102
{ACAD_REACTORS
330
6A4E
102
}
330
6A4E
100
AcDbScale
 70
     0
300
1-1/2" = 1'-0"
140
1.5
141
12.0
290
     0
  0
SCALE
  5
6A6D
102
{ACAD_REACTORS
330
6A4E
102
}
330
6A4E
100
AcDbScale
 70
     0
300
3" = 1'-0"
140
3.0
141
12.0
290
     0
  0
SCALE
  5
6A6E
102
{ACAD_REACTORS
330
6A4E
102
}
330
6A4E
100
AcDbScale
 70
     0
300
6" = 1'-0"
140
6.0
141
12.0
290
     0
  0
SCALE
  5
6A6F
102
{ACAD_REACTORS
330
6A4E
102
}
330
6A4E
100
AcDbScale
 70
     0
300
1'-0" = 1'-0"
140
12.0
141
12.0
290
     0
  0
DICTIONARYVAR
  5
79F
102
{ACAD_REACTORS
330
79E
102
}
330
79E
100
DictionaryVariables
280
     0
  1
1
  0
DICTIONARYVAR
  5
264F
102
{ACAD_REACTORS
330
79E
102
}
330
79E
100
DictionaryVariables
280
     0
  1
96
  0
ENDSEC
  0
EOF
