  0
SECTION
  2
HEADER
  9
$ACADVER
  1
AC1015
  9
$ACADMAINTVER
 70
     6
  9
$DWGCODEPAGE
  3
ANSI_932
  9
$INSBASE
 10
0.0
 20
0.0
 30
0.0
  9
$EXTMIN
 10
1045.0
 20
1590.000000000002
 30
0.0
  9
$EXTMAX
 10
4110.0
 20
3854.999999999999
 30
0.0
  9
$LIMMIN
 10
0.0
 20
0.0
  9
$LIMMAX
 10
6300.0
 20
4455.0
  9
$ORTHOMODE
 70
     1
  9
$REGENMODE
 70
     1
  9
$FILLMODE
 70
     1
  9
$QTEXTMODE
 70
     0
  9
$MIRRTEXT
 70
     1
  9
$LTSCALE
 40
4.5
  9
$ATTMODE
 70
     1
  9
$TEXTSIZE
 40
45.0
  9
$TRACEWID
 40
1.0
  9
$TEXTSTYLE
  7
Standard
  9
$CLAYER
  8
01注記寸法
  9
$CELTYPE
  6
ByLayer
  9
$CECOLOR
 62
   256
  9
$CELTSCALE
 40
1.0
  9
$DISPSILH
 70
     0
  9
$DIMSCALE
 40
15.0
  9
$DIMASZ
 40
3.0
  9
$DIMEXO
 40
1.5
  9
$DIMDLI
 40
10.0
  9
$DIMRND
 40
0.0
  9
$DIMDLE
 40
0.0
  9
$DIMEXE
 40
1.0
  9
$DIMTP
 40
0.0
  9
$DIMTM
 40
0.0
  9
$DIMTXT
 40
3.0
  9
$DIMCEN
 40
1.5
  9
$DIMTSZ
 40
0.0
  9
$DIMTOL
 70
     0
  9
$DIMLIM
 70
     0
  9
$DIMTIH
 70
     0
  9
$DIMTOH
 70
     0
  9
$DIMSE1
 70
     0
  9
$DIMSE2
 70
     0
  9
$DIMTAD
 70
     1
  9
$DIMZIN
 70
     8
  9
$DIMBLK
  1
Open
  9
$DIMASO
 70
     1
  9
$DIMSHO
 70
     1
  9
$DIMPOST
  1

  9
$DIMAPOST
  1

  9
$DIMALT
 70
     0
  9
$DIMALTD
 70
     3
  9
$DIMALTF
 40
0.03937007874016
  9
$DIMLFAC
 40
1.0
  9
$DIMTOFL
 70
     1
  9
$DIMTVP
 40
0.0
  9
$DIMTIX
 70
     0
  9
$DIMSOXD
 70
     0
  9
$DIMSAH
 70
     0
  9
$DIMBLK1
  1

  9
$DIMBLK2
  1

  9
$DIMSTYLE
  2
NEMY-15
  9
$DIMCLRD
 70
     0
  9
$DIMCLRE
 70
     0
  9
$DIMCLRT
 70
     0
  9
$DIMTFAC
 40
1.0
  9
$DIMGAP
 40
1.0
  9
$DIMJUST
 70
     0
  9
$DIMSD1
 70
     0
  9
$DIMSD2
 70
     0
  9
$DIMTOLJ
 70
     0
  9
$DIMTZIN
 70
     8
  9
$DIMALTZ
 70
     0
  9
$DIMALTTZ
 70
     0
  9
$DIMUPT
 70
     0
  9
$DIMDEC
 70
     1
  9
$DIMTDEC
 70
     1
  9
$DIMALTU
 70
     2
  9
$DIMALTTD
 70
     3
  9
$DIMTXSTY
  7
Standard
  9
$DIMAUNIT
 70
     0
  9
$DIMADEC
 70
     0
  9
$DIMALTRND
 40
0.0
  9
$DIMAZIN
 70
     0
  9
$DIMDSEP
 70
    46
  9
$DIMATFIT
 70
     3
  9
$DIMFRAC
 70
     0
  9
$DIMLDRBLK
  1
Open
  9
$DIMLUNIT
 70
     2
  9
$DIMLWD
 70
    -2
  9
$DIMLWE
 70
    -2
  9
$DIMTMOVE
 70
     0
  9
$LUNITS
 70
     2
  9
$LUPREC
 70
     4
  9
$SKETCHINC
 40
1.0
  9
$FILLETRAD
 40
8.0
  9
$AUNITS
 70
     0
  9
$AUPREC
 70
     0
  9
$MENU
  1
.
  9
$ELEVATION
 40
0.0
  9
$PELEVATION
 40
0.0
  9
$THICKNESS
 40
0.0
  9
$LIMCHECK
 70
     0
  9
$CHAMFERA
 40
1.0
  9
$CHAMFERB
 40
1.0
  9
$CHAMFERC
 40
20.0
  9
$CHAMFERD
 40
0.0
  9
$SKPOLY
 70
     0
  9
$TDCREATE
 40
2455859.405048461
  9
$TDUCREATE
 40
2455859.030048461
  9
$TDUPDATE
 40
2458376.40410456
  9
$TDUUPDATE
 40
2458376.02910456
  9
$TDINDWG
 40
1.17562
  9
$TDUSRTIMER
 40
2458376.028410255
  9
$USRTIMER
 70
     1
  9
$ANGBASE
 50
0.0
  9
$ANGDIR
 70
     0
  9
$PDMODE
 70
     0
  9
$PDSIZE
 40
0.0
  9
$PLINEWID
 40
0.0
  9
$SPLFRAME
 70
     0
  9
$SPLINETYPE
 70
     6
  9
$SPLINESEGS
 70
     8
  9
$HANDSEED
  5
10346
  9
$SURFTAB1
 70
     6
  9
$SURFTAB2
 70
     6
  9
$SURFTYPE
 70
     6
  9
$SURFU
 70
     6
  9
$SURFV
 70
     6
  9
$UCSBASE
  2

  9
$UCSNAME
  2

  9
$UCSORG
 10
0.0
 20
0.0
 30
0.0
  9
$UCSXDIR
 10
1.0
 20
0.0
 30
0.0
  9
$UCSYDIR
 10
0.0
 20
1.0
 30
0.0
  9
$UCSORTHOREF
  2

  9
$UCSORTHOVIEW
 70
     0
  9
$UCSORGTOP
 10
0.0
 20
0.0
 30
0.0
  9
$UCSORGBOTTOM
 10
0.0
 20
0.0
 30
0.0
  9
$UCSORGLEFT
 10
0.0
 20
0.0
 30
0.0
  9
$UCSORGRIGHT
 10
0.0
 20
0.0
 30
0.0
  9
$UCSORGFRONT
 10
0.0
 20
0.0
 30
0.0
  9
$UCSORGBACK
 10
0.0
 20
0.0
 30
0.0
  9
$PUCSBASE
  2

  9
$PUCSNAME
  2

  9
$PUCSORG
 10
0.0
 20
0.0
 30
0.0
  9
$PUCSXDIR
 10
1.0
 20
0.0
 30
0.0
  9
$PUCSYDIR
 10
0.0
 20
1.0
 30
0.0
  9
$PUCSORTHOREF
  2

  9
$PUCSORTHOVIEW
 70
     0
  9
$PUCSORGTOP
 10
0.0
 20
0.0
 30
0.0
  9
$PUCSORGBOTTOM
 10
0.0
 20
0.0
 30
0.0
  9
$PUCSORGLEFT
 10
0.0
 20
0.0
 30
0.0
  9
$PUCSORGRIGHT
 10
0.0
 20
0.0
 30
0.0
  9
$PUCSORGFRONT
 10
0.0
 20
0.0
 30
0.0
  9
$PUCSORGBACK
 10
0.0
 20
0.0
 30
0.0
  9
$USERI1
 70
     0
  9
$USERI2
 70
     0
  9
$USERI3
 70
     0
  9
$USERI4
 70
     0
  9
$USERI5
 70
     0
  9
$USERR1
 40
0.0
  9
$USERR2
 40
0.0
  9
$USERR3
 40
0.0
  9
$USERR4
 40
0.0
  9
$USERR5
 40
0.0
  9
$WORLDVIEW
 70
     1
  9
$SHADEDGE
 70
     3
  9
$SHADEDIF
 70
    70
  9
$TILEMODE
 70
     1
  9
$MAXACTVP
 70
    64
  9
$PINSBASE
 10
0.0
 20
0.0
 30
0.0
  9
$PLIMCHECK
 70
     0
  9
$PEXTMIN
 10
1.000000000000000E+20
 20
1.000000000000000E+20
 30
1.000000000000000E+20
  9
$PEXTMAX
 10
-1.000000000000000E+20
 20
-1.000000000000000E+20
 30
-1.000000000000000E+20
  9
$PLIMMIN
 10
-7.5
 20
-20.0
  9
$PLIMMAX
 10
412.5
 20
277.0
  9
$UNITMODE
 70
     0
  9
$VISRETAIN
 70
     1
  9
$PLINEGEN
 70
     0
  9
$PSLTSCALE
 70
     1
  9
$TREEDEPTH
 70
  3020
  9
$CMLSTYLE
  2
Standard
  9
$CMLJUST
 70
     0
  9
$CMLSCALE
 40
20.0
  9
$PROXYGRAPHICS
 70
     1
  9
$MEASUREMENT
 70
     1
  9
$CELWEIGHT
370
    -1
  9
$ENDCAPS
280
     0
  9
$JOINSTYLE
280
     0
  9
$LWDISPLAY
290
     0
  9
$INSUNITS
 70
     4
  9
$HYPERLINKBASE
  1

  9
$STYLESHEET
  1
monochrome.ctb
  9
$XEDIT
290
     1
  9
$CEPSNTYPE
380
     0
  9
$PSTYLEMODE
290
     1
  9
$FINGERPRINTGUID
  2
{FDEAD578-A652-11D2-9A35-0060089B3A3F}
  9
$VERSIONGUID
  2
{11DB8456-EC16-47A0-BA21-BBDA07550E8A}
  9
$EXTNAMES
290
     1
  9
$PSVPSCALE
 40
0.0
  9
$OLESTARTUP
290
     0
  0
ENDSEC
  0
SECTION
  2
CLASSES
  0
CLASS
  1
ACDBDICTIONARYWDFLT
  2
AcDbDictionaryWithDefault
  3
ObjectDBX Classes
 90
        0
280
     0
281
     0
  0
CLASS
  1
ACDBPLACEHOLDER
  2
AcDbPlaceHolder
  3
ObjectDBX Classes
 90
        0
280
     0
281
     0
  0
CLASS
  1
LAYOUT
  2
AcDbLayout
  3
ObjectDBX Classes
 90
        0
280
     0
281
     0
  0
CLASS
  1
DICTIONARYVAR
  2
AcDbDictionaryVar
  3
ObjectDBX Classes
 90
        0
280
     0
281
     0
  0
CLASS
  1
SCALE
  2
AcDbScale
  3
ObjectDBX Classes
 90
     1153
280
     0
281
     0
  0
CLASS
  1
MATERIAL
  2
AcDbMaterial
  3
ObjectDBX Classes
 90
     1153
280
     0
281
     0
  0
CLASS
  1
VISUALSTYLE
  2
AcDbVisualStyle
  3
ObjectDBX Classes
 90
     4095
280
     0
281
     0
  0
CLASS
  1
TABLESTYLE
  2
AcDbTableStyle
  3
ObjectDBX Classes
 90
     4095
280
     0
281
     0
  0
CLASS
  1
RASTERVARIABLES
  2
AcDbRasterVariables
  3
ISM
 90
        0
280
     0
281
     0
  0
CLASS
  1
SORTENTSTABLE
  2
AcDbSortentsTable
  3
ObjectDBX Classes
 90
        0
280
     0
281
     0
  0
CLASS
  1
SUN
  2
AcDbSun
  3
SCENEOE
 90
     1153
280
     0
281
     0
  0
CLASS
  1
MLEADERSTYLE
  2
AcDbMLeaderStyle
  3
ACDB_MLEADERSTYLE_CLASS
 90
     4095
280
     0
281
     0
  0
ENDSEC
  0
SECTION
  2
TABLES
  0
TABLE
  2
VPORT
  5
8
330
0
100
AcDbSymbolTable
 70
     2
  0
VPORT
  5
7A57
330
8
100
AcDbSymbolTableRecord
100
AcDbViewportTableRecord
  2
*Active
 70
     0
 10
0.0
 20
0.0
 11
1.0
 21
1.0
 12
2116.167017065274
 22
2577.590121558358
 13
0.0
 23
0.0
 14
10.0
 24
10.0
 15
10.0
 25
10.0
 16
0.0
 26
0.0
 36
1.0
 17
0.0
 27
0.0
 37
0.0
 40
3843.359999999999
 41
2.293577981651376
 42
50.0
 43
0.0
 44
0.0
 50
0.0
 51
0.0
 71
    16
 72
   100
 73
     1
 74
     2
 75
     0
 76
     0
 77
     0
 78
     0
281
     0
 65
     1
110
0.0
120
0.0
130
0.0
111
1.0
121
0.0
131
0.0
112
0.0
122
1.0
132
0.0
 79
     0
146
0.0
  0
ENDTAB
  0
TABLE
  2
LTYPE
  5
5
330
0
100
AcDbSymbolTable
 70
     5
  0
LTYPE
  5
14
330
5
100
AcDbSymbolTableRecord
100
AcDbLinetypeTableRecord
  2
ByBlock
 70
     0
  3

 72
    65
 73
     0
 40
0.0
  0
LTYPE
  5
15
330
5
100
AcDbSymbolTableRecord
100
AcDbLinetypeTableRecord
  2
ByLayer
 70
     0
  3

 72
    65
 73
     0
 40
0.0
  0
LTYPE
  5
16
330
5
100
AcDbSymbolTableRecord
100
AcDbLinetypeTableRecord
  2
Continuous
 70
     0
  3
Solid line
 72
    65
 73
     0
 40
0.0
  0
LTYPE
  5
BA
330
5
100
AcDbSymbolTableRecord
100
AcDbLinetypeTableRecord
  2
HIDDEN
 70
     0
  3
Hidden __ __ __ __ __ __ __ __ __ __ __ __ __ _
 72
    65
 73
     2
 40
9.524999999999999
 49
6.35
 74
     0
 49
-3.175
 74
     0
  0
LTYPE
  5
BB
330
5
100
AcDbSymbolTableRecord
100
AcDbLinetypeTableRecord
  2
PHANTOM
 70
     0
  3
Phantom ______  __  __  ______  __  __  ______
 72
    65
 73
     6
 40
63.5
 49
31.75
 74
     0
 49
-6.35
 74
     0
 49
6.35
 74
     0
 49
-6.35
 74
     0
 49
6.35
 74
     0
 49
-6.35
 74
     0
  0
LTYPE
  5
BC
330
5
100
AcDbSymbolTableRecord
100
AcDbLinetypeTableRecord
  2
CENTER
 70
     0
  3
Center ____ _ ____ _ ____ _ ____ _ ____ _ ____
 72
    65
 73
     4
 40
50.8
 49
31.75
 74
     0
 49
-6.35
 74
     0
 49
6.35
 74
     0
 49
-6.35
 74
     0
  0
LTYPE
  5
47C
330
5
100
AcDbSymbolTableRecord
100
AcDbLinetypeTableRecord
  2
DOT
 70
     0
  3
Dot . . . . . . . . . . . . . . . . . . . . . .
 72
    65
 73
     2
 40
6.35
 49
0.0
 74
     0
 49
-6.35
 74
     0
  0
ENDTAB
  0
TABLE
  2
LAYER
  5
2
102
{ACAD_XDICTIONARY
360
7A6F
102
}
330
0
100
AcDbSymbolTable
 70
    22
  0
LAYER
  5
10
330
2
100
AcDbSymbolTableRecord
100
AcDbLayerTableRecord
  2
0
 70
     0
 62
     7
  6
Continuous
370
    -3
390
F
  0
LAYER
  5
45
330
2
100
AcDbSymbolTableRecord
100
AcDbLayerTableRecord
  2
01注記寸法
 70
     0
 62
     7
  6
Continuous
370
     9
390
F
  0
LAYER
  5
46
330
2
100
AcDbSymbolTableRecord
100
AcDbLayerTableRecord
  2
02実線
 70
     0
 62
     2
  6
Continuous
370
    15
390
F
  0
LAYER
  5
5F
330
2
100
AcDbSymbolTableRecord
100
AcDbLayerTableRecord
  2
Defpoints
 70
     0
 62
     7
  6
Continuous
290
     0
370
    -3
390
F
  0
LAYER
  5
7E52
330
2
100
AcDbSymbolTableRecord
100
AcDbLayerTableRecord
  2
03破線
 70
     0
 62
     3
  6
HIDDEN
370
     9
390
F
  0
LAYER
  5
7E55
330
2
100
AcDbSymbolTableRecord
100
AcDbLayerTableRecord
  2
04一点鎖線
 70
     0
 62
    70
  6
CENTER
370
     9
390
F
  0
LAYER
  5
7E58
330
2
100
AcDbSymbolTableRecord
100
AcDbLayerTableRecord
  2
05二点鎖線
 70
     0
 62
   110
  6
PHANTOM
370
     9
390
F
  0
LAYER
  5
7E5B
330
2
100
AcDbSymbolTableRecord
100
AcDbLayerTableRecord
  2
06点線
 70
     0
 62
    96
  6
DOT
370
     9
390
F
  0
LAYER
  5
7E5E
330
2
100
AcDbSymbolTableRecord
100
AcDbLayerTableRecord
  2
07その他
 70
     0
 62
     6
  6
Continuous
370
    13
390
F
  0
LAYER
  5
7E60
330
2
100
AcDbSymbolTableRecord
100
AcDbLayerTableRecord
  2
08非表示
 70
     0
 62
     4
  6
Continuous
290
     0
370
     0
390
F
  0
LAYER
  5
7E62
330
2
100
AcDbSymbolTableRecord
100
AcDbLayerTableRecord
  2
09図枠
 70
     0
 62
     1
  6
Continuous
370
    30
390
F
  0
LAYER
  5
835A
330
2
100
AcDbSymbolTableRecord
100
AcDbLayerTableRecord
  2
10副資材
 70
     0
 62
    51
  6
Continuous
290
     0
370
    -3
390
F
1001
AcAecLayerStandard
1000

1000

  0
LAYER
  5
8CAC
330
2
100
AcDbSymbolTableRecord
100
AcDbLayerTableRecord
  2
11機器
 70
     0
 62
    11
  6
Continuous
290
     0
370
    -3
390
F
1001
AcAecLayerStandard
1000

1000

  0
LAYER
  5
8CB1
330
2
100
AcDbSymbolTableRecord
100
AcDbLayerTableRecord
  2
12防振架台
 70
     0
 62
   190
  6
Continuous
290
     0
370
    -3
390
F
1001
AcAecLayerStandard
1000

1000

  0
LAYER
  5
A15B
330
2
100
AcDbSymbolTableRecord
100
AcDbLayerTableRecord
  2
13製作用注記
 70
     0
 62
     5
  6
Continuous
290
     0
370
     9
390
F
1001
AcAecLayerStandard
1000

1000

  0
ENDTAB
  0
TABLE
  2
STYLE
  5
3
330
0
100
AcDbSymbolTable
 70
     3
  0
STYLE
  5
11
330
3
100
AcDbSymbolTableRecord
100
AcDbTextStyleTableRecord
  2
Standard
 70
     0
 40
0.0
 41
1.0
 50
0.0
 71
     0
 42
45.0
  3
MSGOTHIC.TTC
  4

1001
ACAD
1000
MS Gothic
1071
    32817
  0
STYLE
  5
47B
330
3
100
AcDbSymbolTableRecord
100
AcDbTextStyleTableRecord
  2

 70
     1
 40
0.0
 41
1.0
 50
0.0
 71
     0
 42
3.0
  3
ltypeshp.shx
  4

  0
ENDTAB
  0
TABLE
  2
VIEW
  5
6
330
0
100
AcDbSymbolTable
 70
     0
  0
ENDTAB
  0
TABLE
  2
UCS
  5
7
330
0
100
AcDbSymbolTable
 70
     0
  0
ENDTAB
  0
TABLE
  2
APPID
  5
9
330
0
100
AcDbSymbolTable
 70
     6
  0
APPID
  5
12
330
9
100
AcDbSymbolTableRecord
100
AcDbRegAppTableRecord
  2
ACAD
 70
     0
  0
APPID
  5
6A9E
330
9
100
AcDbSymbolTableRecord
100
AcDbRegAppTableRecord
  2
ACAD_DSTYLE_DIMRADIAL_EXTENSION
 70
     0
  0
APPID
  5
742C
330
9
100
AcDbSymbolTableRecord
100
AcDbRegAppTableRecord
  2
ACAD_PSEXT
 70
     0
  0
APPID
  5
742D
330
9
100
AcDbSymbolTableRecord
100
AcDbRegAppTableRecord
  2
ACAD_DSTYLE_DIMJAG
 70
     0
  0
APPID
  5
742E
330
9
100
AcDbSymbolTableRecord
100
AcDbRegAppTableRecord
  2
ACAD_DSTYLE_DIMTALN
 70
     0
  0
APPID
  5
835C
330
9
100
AcDbSymbolTableRecord
100
AcDbRegAppTableRecord
  2
AcAecLayerStandard
 70
     0
  0
ENDTAB
  0
TABLE
  2
DIMSTYLE
  5
A
330
0
100
AcDbSymbolTable
 70
    24
100
AcDbDimStyleTable
  0
DIMSTYLE
105
73
330
A
100
AcDbSymbolTableRecord
100
AcDbDimStyleTableRecord
  2
NEMY-1
 70
     0
 41
3.0
 42
1.5
 43
10.0
 44
1.0
 73
     0
 74
     0
 77
     1
 78
     8
140
3.0
141
1.5
143
0.03937007874016
147
1.0
171
     3
172
     1
178
     0
271
     1
272
     1
274
     3
283
     0
284
     8
340
11
341
8F
342
8F
  0
DIMSTYLE
105
4DCE
330
A
100
AcDbSymbolTableRecord
100
AcDbDimStyleTableRecord
  2
NEMY-2
 70
     0
 40
2.0
 41
3.0
 42
1.5
 43
10.0
 44
1.0
 73
     0
 74
     0
 77
     1
 78
     8
140
3.0
141
1.5
143
0.03937007874016
147
1.0
171
     3
172
     1
178
     0
271
     1
272
     1
274
     3
283
     0
284
     8
340
11
341
8F
342
8F
  0
DIMSTYLE
105
4DCF
330
A
100
AcDbSymbolTableRecord
100
AcDbDimStyleTableRecord
  2
NEMY-3
 70
     0
 40
3.0
 41
3.0
 42
1.5
 43
10.0
 44
1.0
 73
     0
 74
     0
 77
     1
 78
     8
140
3.0
141
1.5
143
0.03937007874016
147
1.0
171
     3
172
     1
178
     0
271
     1
272
     1
274
     3
283
     0
284
     8
340
11
341
8F
342
8F
  0
DIMSTYLE
105
4DD0
330
A
100
AcDbSymbolTableRecord
100
AcDbDimStyleTableRecord
  2
NEMY-5
 70
     0
 40
5.0
 41
3.0
 42
1.5
 43
10.0
 44
1.0
 73
     0
 74
     0
 77
     1
 78
     8
140
3.0
141
1.5
143
0.03937007874016
147
1.0
171
     3
172
     1
178
     0
271
     1
272
     1
274
     3
283
     0
284
     8
340
11
341
8F
342
8F
  0
DIMSTYLE
105
4DD1
330
A
100
AcDbSymbolTableRecord
100
AcDbDimStyleTableRecord
  2
NEMY-8
 70
     0
 40
8.0
 41
3.0
 42
1.5
 43
10.0
 44
1.0
 73
     0
 74
     0
 77
     1
 78
     8
140
3.0
141
1.5
143
0.03937007874016
147
1.0
171
     3
172
     1
178
     0
271
     1
272
     1
274
     3
283
     0
284
     8
340
11
341
8F
342
8F
  0
DIMSTYLE
105
4DD2
102
{ACAD_REACTORS
102
}
330
A
100
AcDbSymbolTableRecord
100
AcDbDimStyleTableRecord
  2
NEMY-15
 70
     0
 40
15.0
 41
3.0
 42
1.5
 43
10.0
 44
1.0
 73
     0
 74
     0
 77
     1
 78
     8
140
3.0
141
1.5
143
0.03937007874016
147
1.0
171
     3
172
     1
178
     0
271
     1
272
     1
274
     3
283
     0
284
     8
340
11
341
8F
342
8F
  0
DIMSTYLE
105
4DD3
330
A
100
AcDbSymbolTableRecord
100
AcDbDimStyleTableRecord
  2
NEMY-10
 70
     0
 40
10.0
 41
3.0
 42
1.5
 43
10.0
 44
1.0
 73
     0
 74
     0
 77
     1
 78
     8
140
3.0
141
1.5
143
0.03937007874016
147
1.0
171
     3
172
     1
178
     0
271
     1
272
     1
274
     3
283
     0
284
     8
340
11
341
8F
342
8F
  0
DIMSTYLE
105
4DD4
330
A
100
AcDbSymbolTableRecord
100
AcDbDimStyleTableRecord
  2
NEMY-25
 70
     0
 40
25.0
 41
3.0
 42
1.5
 43
10.0
 44
1.0
 73
     0
 74
     0
 77
     1
 78
     8
140
3.0
141
1.5
143
0.03937007874016
147
1.0
171
     3
172
     1
178
     0
271
     1
272
     1
274
     3
283
     0
284
     8
340
11
341
8F
342
8F
  0
DIMSTYLE
105
4DD5
330
A
100
AcDbSymbolTableRecord
100
AcDbDimStyleTableRecord
  2
NEMY-30
 70
     0
 40
30.0
 41
3.0
 42
1.5
 43
10.0
 44
1.0
 73
     0
 74
     0
 77
     1
 78
     8
140
3.0
141
1.5
143
0.03937007874016
147
1.0
171
     3
172
     1
178
     0
271
     1
272
     1
274
     3
283
     0
284
     8
340
11
341
8F
342
8F
  0
DIMSTYLE
105
4DD6
330
A
100
AcDbSymbolTableRecord
100
AcDbDimStyleTableRecord
  2
NEMY-50
 70
     0
 40
50.0
 41
3.0
 42
1.5
 43
10.0
 44
1.0
 73
     0
 74
     0
 77
     1
 78
     8
140
3.0
141
1.5
143
0.03937007874016
147
1.0
171
     3
172
     1
178
     0
271
     1
272
     1
274
     3
283
     0
284
     8
340
11
341
8F
342
8F
  0
DIMSTYLE
105
4E6F
330
A
100
AcDbSymbolTableRecord
100
AcDbDimStyleTableRecord
  2
NEMY-20
 70
     0
 40
20.0
 41
3.0
 42
1.5
 43
10.0
 44
1.0
 73
     0
 74
     0
 77
     1
 78
     8
140
3.0
141
1.5
143
0.03937007874016
147
1.0
171
     3
172
     1
178
     0
271
     1
272
     1
274
     3
283
     0
284
     8
340
11
341
8F
342
8F
  0
DIMSTYLE
105
4F44
330
A
100
AcDbSymbolTableRecord
100
AcDbDimStyleTableRecord
  2
NEMY-10$3
 70
     0
 40
10.0
 41
3.0
 42
1.5
 43
10.0
 44
1.0
 77
     1
 78
     8
140
3.0
141
1.5
143
0.03937007874016
147
1.0
171
     3
172
     1
178
     0
271
     1
272
     1
274
     3
283
     0
284
     8
340
11
341
8F
342
8F
  0
DIMSTYLE
105
4F45
330
A
100
AcDbSymbolTableRecord
100
AcDbDimStyleTableRecord
  2
NEMY-1$3
 70
     0
 41
3.0
 42
1.5
 43
10.0
 44
1.0
 77
     1
 78
     8
140
3.0
141
1.5
143
0.03937007874016
147
1.0
171
     3
172
     1
178
     0
271
     1
272
     1
274
     3
283
     0
284
     8
340
11
341
8F
342
8F
  0
DIMSTYLE
105
4F46
330
A
100
AcDbSymbolTableRecord
100
AcDbDimStyleTableRecord
  2
NEMY-12
 70
     0
 40
12.0
 41
3.0
 42
1.5
 43
10.0
 44
1.0
 73
     0
 74
     0
 77
     1
 78
     8
140
3.0
141
1.5
143
0.03937007874016
147
1.0
171
     3
172
     1
178
     0
271
     1
272
     1
274
     3
283
     0
284
     8
340
11
341
8F
342
8F
  0
DIMSTYLE
105
4F47
330
A
100
AcDbSymbolTableRecord
100
AcDbDimStyleTableRecord
  2
NEMY-12$3
 70
     0
 40
12.0
 41
3.0
 42
1.5
 43
10.0
 44
1.0
 77
     1
 78
     8
140
3.0
141
1.5
143
0.03937007874016
147
1.0
171
     3
172
     1
178
     0
271
     1
272
     1
274
     3
283
     0
284
     8
340
11
341
8F
342
8F
  0
DIMSTYLE
105
5E6E
330
A
100
AcDbSymbolTableRecord
100
AcDbDimStyleTableRecord
  2
NEMY-8$3
 70
     0
 40
8.0
 41
3.0
 42
1.5
 43
10.0
 44
1.0
 77
     1
 78
     8
140
3.0
141
1.5
143
0.03937007874016
147
1.0
171
     3
172
     1
178
     0
271
     1
272
     1
274
     3
283
     0
284
     8
340
11
341
8F
342
8F
  0
DIMSTYLE
105
5E6F
330
A
100
AcDbSymbolTableRecord
100
AcDbDimStyleTableRecord
  2
NEMY-50$3
 70
     0
 40
50.0
 41
3.0
 42
1.5
 43
10.0
 44
1.0
 77
     1
 78
     8
140
3.0
141
1.5
143
0.03937007874016
147
1.0
171
     3
172
     1
178
     0
271
     1
272
     1
274
     3
283
     0
284
     8
340
11
341
8F
342
8F
  0
DIMSTYLE
105
5E70
330
A
100
AcDbSymbolTableRecord
100
AcDbDimStyleTableRecord
  2
NEMY-5$3
 70
     0
 40
5.0
 41
3.0
 42
1.5
 43
10.0
 44
1.0
 77
     1
 78
     8
140
3.0
141
1.5
143
0.03937007874016
147
1.0
171
     3
172
     1
178
     0
271
     1
272
     1
274
     3
283
     0
284
     8
340
11
341
8F
342
8F
  0
DIMSTYLE
105
5E71
330
A
100
AcDbSymbolTableRecord
100
AcDbDimStyleTableRecord
  2
NEMY-30$3
 70
     0
 40
30.0
 41
3.0
 42
1.5
 43
10.0
 44
1.0
 77
     1
 78
     8
140
3.0
141
1.5
143
0.03937007874016
147
1.0
171
     3
172
     1
178
     0
271
     1
272
     1
274
     3
283
     0
284
     8
340
11
341
8F
342
8F
  0
DIMSTYLE
105
5E72
330
A
100
AcDbSymbolTableRecord
100
AcDbDimStyleTableRecord
  2
NEMY-3$3
 70
     0
 40
3.0
 41
3.0
 42
1.5
 43
10.0
 44
1.0
 77
     1
 78
     8
140
3.0
141
1.5
143
0.03937007874016
147
1.0
171
     3
172
     1
178
     0
271
     1
272
     1
274
     3
283
     0
284
     8
340
11
341
8F
342
8F
  0
DIMSTYLE
105
5E73
330
A
100
AcDbSymbolTableRecord
100
AcDbDimStyleTableRecord
  2
NEMY-25$3
 70
     0
 40
25.0
 41
3.0
 42
1.5
 43
10.0
 44
1.0
 77
     1
 78
     8
140
3.0
141
1.5
143
0.03937007874016
147
1.0
171
     3
172
     1
178
     0
271
     1
272
     1
274
     3
283
     0
284
     8
340
11
341
8F
342
8F
  0
DIMSTYLE
105
5E74
330
A
100
AcDbSymbolTableRecord
100
AcDbDimStyleTableRecord
  2
NEMY-20$3
 70
     0
 40
20.0
 41
3.0
 42
1.5
 43
10.0
 44
1.0
 77
     1
 78
     8
140
3.0
141
1.5
143
0.03937007874016
147
1.0
171
     3
172
     1
178
     0
271
     1
272
     1
274
     3
283
     0
284
     8
340
11
341
8F
342
8F
  0
DIMSTYLE
105
5E75
330
A
100
AcDbSymbolTableRecord
100
AcDbDimStyleTableRecord
  2
NEMY-2$3
 70
     0
 40
2.0
 41
3.0
 42
1.5
 43
10.0
 44
1.0
 77
     1
 78
     8
140
3.0
141
1.5
143
0.03937007874016
147
1.0
171
     3
172
     1
178
     0
271
     1
272
     1
274
     3
283
     0
284
     8
340
11
341
8F
342
8F
  0
DIMSTYLE
105
5E76
330
A
100
AcDbSymbolTableRecord
100
AcDbDimStyleTableRecord
  2
NEMY-15$3
 70
     0
 40
15.0
 41
3.0
 42
1.5
 43
10.0
 44
1.0
 77
     1
 78
     8
140
3.0
141
1.5
143
0.03937007874016
147
1.0
171
     3
172
     1
178
     0
271
     1
272
     1
274
     3
283
     0
284
     8
340
11
341
8F
342
8F
  0
ENDTAB
  0
TABLE
  2
BLOCK_RECORD
  5
1
330
0
100
AcDbSymbolTable
 70
  1309
  0
BLOCK_RECORD
  5
1F
102
{ACAD_XDICTIONARY
360
969E
102
}
330
1
100
AcDbSymbolTableRecord
100
AcDbBlockTableRecord
  2
*Model_Space
340
22
  0
BLOCK_RECORD
  5
1B
330
1
100
AcDbSymbolTableRecord
100
AcDbBlockTableRecord
  2
*Paper_Space
340
1E
  0
BLOCK_RECORD
  5
8F
330
1
100
AcDbSymbolTableRecord
100
AcDbBlockTableRecord
  2
_Open
340
0
102
{BLKREFS
331
B1B8
331
B1C4
331
B1D0
331
B1EA
331
B211
331
B21D
331
B244
331
B250
331
10095
331
100B0
331
100CA
331
100E4
331
100F0
331
1010A
331
10116
331
10122
331
1013C
331
10164
331
10170
331
10311
331
1031D
331
B1B9
331
B1C5
331
B1D1
331
B1EB
331
B212
331
B21E
331
B245
331
B251
331
10096
331
100B1
331
100CB
331
100E5
331
100F1
331
1010B
331
10117
331
10123
331
1013D
331
10165
331
10171
331
10312
331
100BE
331
100D8
331
100FE
331
10130
331
1014A
331
10158
331
1017E
331
1024C
331
10258
331
10305
331
B1AC
331
B1DF
331
B205
331
B238
331
100A4
331
100BF
331
100D9
331
100FF
331
10131
331
1014B
331
10159
331
1017F
331
1024D
331
10259
331
10306
331
B1AD
331
B1E0
331
B206
331
B239
331
100A5
102
}
  0
BLOCK_RECORD
  5
825E
330
1
100
AcDbSymbolTableRecord
100
AcDbBlockTableRecord
  2
L65x65xt6-破線
340
0
102
{BLKREFS
331
FEB2
331
FEB3
331
FEB4
331
FEB5
331
FEB7
331
FEB8
331
FEB9
331
FEBA
331
FEC2
331
FEC3
331
FF59
331
FF5A
331
FF5B
331
FF5C
331
FF82
331
FF8B
331
FF8C
102
}
  0
BLOCK_RECORD
  5
82C5
330
1
100
AcDbSymbolTableRecord
100
AcDbBlockTableRecord
  2
L65x65xt6
340
0
102
{BLKREFS
331
832B
331
833D
102
}
  0
BLOCK_RECORD
  5
82F2
330
1
100
AcDbSymbolTableRecord
100
AcDbBlockTableRecord
  2
hole-φ16
340
0
102
{BLKREFS
331
FF9F
331
FFCB
331
0
331
0
102
}
  0
BLOCK_RECORD
  5
82F9
330
1
100
AcDbSymbolTableRecord
100
AcDbBlockTableRecord
  2
hole-φ20
340
0
102
{BLKREFS
331
0
331
0
331
0
331
0
331
0
331
0
102
}
  0
BLOCK_RECORD
  5
8329
330
1
100
AcDbSymbolTableRecord
100
AcDbBlockTableRecord
  2
AH-アンカーL65
340
0
102
{BLKREFS
331
0
331
0
331
0
331
0
331
0
102
}
  0
BLOCK_RECORD
  5
833B
330
1
100
AcDbSymbolTableRecord
100
AcDbBlockTableRecord
  2
AH-アンカーL65_中柱
340
0
102
{BLKREFS
331
0
331
0
331
0
102
}
  0
BLOCK_RECORD
  5
836D
330
1
100
AcDbSymbolTableRecord
100
AcDbBlockTableRecord
  2
平W-M12
340
0
102
{BLKREFS
331
FF9E
331
FFA0
331
FFC4
102
}
  0
BLOCK_RECORD
  5
B1A3
330
1
100
AcDbSymbolTableRecord
100
AcDbBlockTableRecord
  2
*D382
340
0
  0
BLOCK_RECORD
  5
B1B2
330
1
100
AcDbSymbolTableRecord
100
AcDbBlockTableRecord
  2
*D383
340
0
  0
BLOCK_RECORD
  5
B1BE
330
1
100
AcDbSymbolTableRecord
100
AcDbBlockTableRecord
  2
*D384
340
0
  0
BLOCK_RECORD
  5
B1CA
330
1
100
AcDbSymbolTableRecord
100
AcDbBlockTableRecord
  2
*D385
340
0
  0
BLOCK_RECORD
  5
B1D6
330
1
100
AcDbSymbolTableRecord
100
AcDbBlockTableRecord
  2
*D386
340
0
  0
BLOCK_RECORD
  5
B1E4
330
1
100
AcDbSymbolTableRecord
100
AcDbBlockTableRecord
  2
*D387
340
0
  0
BLOCK_RECORD
  5
B1FC
330
1
100
AcDbSymbolTableRecord
100
AcDbBlockTableRecord
  2
*D389
340
0
  0
BLOCK_RECORD
  5
B20B
330
1
100
AcDbSymbolTableRecord
100
AcDbBlockTableRecord
  2
*D390
340
0
  0
BLOCK_RECORD
  5
B217
330
1
100
AcDbSymbolTableRecord
100
AcDbBlockTableRecord
  2
*D391
340
0
  0
BLOCK_RECORD
  5
B22F
330
1
100
AcDbSymbolTableRecord
100
AcDbBlockTableRecord
  2
*D393
340
0
  0
BLOCK_RECORD
  5
B23E
330
1
100
AcDbSymbolTableRecord
100
AcDbBlockTableRecord
  2
*D394
340
0
  0
BLOCK_RECORD
  5
B24A
330
1
100
AcDbSymbolTableRecord
100
AcDbBlockTableRecord
  2
*D395
340
0
  0
BLOCK_RECORD
  5
1008F
330
1
100
AcDbSymbolTableRecord
100
AcDbBlockTableRecord
  2
*D1273
340
0
  0
BLOCK_RECORD
  5
1009B
330
1
100
AcDbSymbolTableRecord
100
AcDbBlockTableRecord
  2
*D1274
340
0
  0
BLOCK_RECORD
  5
100AA
330
1
100
AcDbSymbolTableRecord
100
AcDbBlockTableRecord
  2
*D1275
340
0
  0
BLOCK_RECORD
  5
100B6
330
1
100
AcDbSymbolTableRecord
100
AcDbBlockTableRecord
  2
*D1276
340
0
  0
BLOCK_RECORD
  5
100C4
330
1
100
AcDbSymbolTableRecord
100
AcDbBlockTableRecord
  2
*D1277
340
0
  0
BLOCK_RECORD
  5
100D0
330
1
100
AcDbSymbolTableRecord
100
AcDbBlockTableRecord
  2
*D1278
340
0
  0
BLOCK_RECORD
  5
100DE
330
1
100
AcDbSymbolTableRecord
100
AcDbBlockTableRecord
  2
*D1279
340
0
  0
BLOCK_RECORD
  5
100EA
330
1
100
AcDbSymbolTableRecord
100
AcDbBlockTableRecord
  2
*D1280
340
0
  0
BLOCK_RECORD
  5
100F6
330
1
100
AcDbSymbolTableRecord
100
AcDbBlockTableRecord
  2
*D1281
340
0
  0
BLOCK_RECORD
  5
10104
330
1
100
AcDbSymbolTableRecord
100
AcDbBlockTableRecord
  2
*D1282
340
0
  0
BLOCK_RECORD
  5
10110
330
1
100
AcDbSymbolTableRecord
100
AcDbBlockTableRecord
  2
*D1283
340
0
  0
BLOCK_RECORD
  5
1011C
330
1
100
AcDbSymbolTableRecord
100
AcDbBlockTableRecord
  2
*D1284
340
0
  0
BLOCK_RECORD
  5
10128
330
1
100
AcDbSymbolTableRecord
100
AcDbBlockTableRecord
  2
*D1285
340
0
  0
BLOCK_RECORD
  5
10136
330
1
100
AcDbSymbolTableRecord
100
AcDbBlockTableRecord
  2
*D1286
340
0
  0
BLOCK_RECORD
  5
10142
330
1
100
AcDbSymbolTableRecord
100
AcDbBlockTableRecord
  2
*D1287
340
0
  0
BLOCK_RECORD
  5
10150
330
1
100
AcDbSymbolTableRecord
100
AcDbBlockTableRecord
  2
*D1288
340
0
  0
BLOCK_RECORD
  5
1015E
330
1
100
AcDbSymbolTableRecord
100
AcDbBlockTableRecord
  2
*D1289
340
0
  0
BLOCK_RECORD
  5
1016A
330
1
100
AcDbSymbolTableRecord
100
AcDbBlockTableRecord
  2
*D1290
340
0
  0
BLOCK_RECORD
  5
10176
330
1
100
AcDbSymbolTableRecord
100
AcDbBlockTableRecord
  2
*D1291
340
0
  0
BLOCK_RECORD
  5
10227
330
1
100
AcDbSymbolTableRecord
100
AcDbBlockTableRecord
  2
1-MDL323
340
0
102
{BLKREFS
331
0
102
}
  0
BLOCK_RECORD
  5
10244
330
1
100
AcDbSymbolTableRecord
100
AcDbBlockTableRecord
  2
*D1299
340
0
  0
BLOCK_RECORD
  5
10250
330
1
100
AcDbSymbolTableRecord
100
AcDbBlockTableRecord
  2
*D1300
340
0
  0
BLOCK_RECORD
  5
102FD
330
1
100
AcDbSymbolTableRecord
100
AcDbBlockTableRecord
  2
*D1306
340
0
  0
BLOCK_RECORD
  5
1030B
330
1
100
AcDbSymbolTableRecord
100
AcDbBlockTableRecord
  2
*D1307
340
0
  0
BLOCK_RECORD
  5
10317
330
1
100
AcDbSymbolTableRecord
100
AcDbBlockTableRecord
  2
*D1308
340
0
  0
ENDTAB
  0
ENDSEC
  0
SECTION
  2
BLOCKS
  0
BLOCK
  5
20
330
1F
100
AcDbEntity
  8
0
100
AcDbBlockBegin
  2
*Model_Space
 70
     0
 10
0.0
 20
0.0
 30
0.0
  3
*Model_Space
  1

  0
ENDBLK
  5
21
330
1F
100
AcDbEntity
  8
0
100
AcDbBlockEnd
  0
BLOCK
  5
1C
330
1B
100
AcDbEntity
 67
     1
  8
0
100
AcDbBlockBegin
  2
*Paper_Space
 70
     0
 10
0.0
 20
0.0
 30
0.0
  3
*Paper_Space
  1

  0
ENDBLK
  5
1D
330
1B
100
AcDbEntity
 67
     1
  8
0
100
AcDbBlockEnd
  0
BLOCK
  5
93
330
8F
100
AcDbEntity
  8
0
100
AcDbBlockBegin
  2
_Open
 70
     0
 10
0.0
 20
0.0
 30
0.0
  3
_Open
  1

  0
LINE
  5
90
330
8F
100
AcDbEntity
  8
01注記寸法
 62
     0
370
    -2
100
AcDbLine
 10
-1.0
 20
0.1666666666666667
 30
0.0
 11
0.0
 21
0.0
 31
0.0
  0
LINE
  5
91
330
8F
100
AcDbEntity
  8
01注記寸法
 62
     0
370
    -2
100
AcDbLine
 10
-1.0
 20
-0.1666666666666667
 30
0.0
 11
0.0
 21
0.0
 31
0.0
  0
LINE
  5
92
330
8F
100
AcDbEntity
  8
01注記寸法
 62
     0
370
    -2
100
AcDbLine
 10
0.0
 20
0.0
 30
0.0
 11
-1.0
 21
0.0
 31
0.0
  0
ENDBLK
  5
94
330
8F
100
AcDbEntity
  8
0
100
AcDbBlockEnd
  0
BLOCK
  5
825F
330
825E
100
AcDbEntity
  8
0
100
AcDbBlockBegin
  2
L65x65xt6-破線
 70
     0
 10
0.0
 20
0.0
 30
0.0
  3
L65x65xt6-破線
  1

  0
LINE
  5
8260
330
825E
100
AcDbEntity
  8
03破線
  6
HIDDEN
100
AcDbLine
 10
61.0
 20
-6.0
 30
0.0
 11
14.5
 21
-6.0
 31
0.0
  0
LINE
  5
8261
330
825E
100
AcDbEntity
  8
03破線
  6
HIDDEN
100
AcDbLine
 10
0.0
 20
0.0
 30
0.0
 11
0.0
 21
-65.0
 31
0.0
  0
LINE
  5
8262
330
825E
100
AcDbEntity
  8
03破線
  6
HIDDEN
100
AcDbLine
 10
65.0
 20
0.0
 30
0.0
 11
0.0
 21
0.0
 31
0.0
  0
LINE
  5
8263
330
825E
100
AcDbEntity
  8
03破線
  6
HIDDEN
100
AcDbLine
 10
65.0
 20
0.0
 30
0.0
 11
65.0
 21
-2.0
 31
0.0
  0
LINE
  5
8264
330
825E
100
AcDbEntity
  8
03破線
  6
HIDDEN
100
AcDbLine
 10
2.0
 20
-65.0
 30
0.0
 11
0.0
 21
-65.0
 31
0.0
  0
ARC
  5
8265
330
825E
100
AcDbEntity
  8
03破線
  6
HIDDEN
100
AcDbCircle
 10
61.0
 20
-2.0
 30
0.0
 40
4.000000000000002
100
AcDbArc
 50
270.0
 51
0.0
  0
LINE
  5
8266
330
825E
100
AcDbEntity
  8
03破線
  6
HIDDEN
100
AcDbLine
 10
6.0
 20
-14.5
 30
0.0
 11
6.0
 21
-61.0
 31
0.0
  0
ARC
  5
8267
330
825E
100
AcDbEntity
  8
03破線
  6
HIDDEN
100
AcDbCircle
 10
2.0
 20
-61.0
 30
0.0
 40
4.000000000000002
100
AcDbArc
 50
270.0
 51
0.0
  0
ARC
  5
8268
330
825E
100
AcDbEntity
  8
03破線
  6
HIDDEN
100
AcDbCircle
 10
14.5
 20
-14.5
 30
0.0
 40
8.500000000000004
100
AcDbArc
 50
90.0
 51
180.0
  0
ENDBLK
  5
8269
330
825E
100
AcDbEntity
  8
0
100
AcDbBlockEnd
  0
BLOCK
  5
82C6
330
82C5
100
AcDbEntity
  8
0
100
AcDbBlockBegin
  2
L65x65xt6
 70
     0
 10
0.0
 20
0.0
 30
0.0
  3
L65x65xt6
  1

  0
ARC
  5
82C7
330
82C5
100
AcDbEntity
  8
02実線
100
AcDbCircle
 10
14.5
 20
-14.5
 30
0.0
 40
8.500000000000004
100
AcDbArc
 50
90.0
 51
180.0
  0
ARC
  5
82C8
330
82C5
100
AcDbEntity
  8
02実線
100
AcDbCircle
 10
2.0
 20
-61.0
 30
0.0
 40
4.000000000000002
100
AcDbArc
 50
270.0
 51
0.0
  0
LINE
  5
82C9
330
82C5
100
AcDbEntity
  8
02実線
100
AcDbLine
 10
6.0
 20
-14.5
 30
0.0
 11
6.0
 21
-61.0
 31
0.0
  0
ARC
  5
82CA
330
82C5
100
AcDbEntity
  8
02実線
100
AcDbCircle
 10
61.0
 20
-2.0
 30
0.0
 40
4.000000000000002
100
AcDbArc
 50
270.0
 51
0.0
  0
LINE
  5
82CB
330
82C5
100
AcDbEntity
  8
02実線
100
AcDbLine
 10
2.0
 20
-65.0
 30
0.0
 11
0.0
 21
-65.0
 31
0.0
  0
LINE
  5
82CC
330
82C5
100
AcDbEntity
  8
02実線
100
AcDbLine
 10
65.0
 20
0.0
 30
0.0
 11
65.0
 21
-2.0
 31
0.0
  0
LINE
  5
82CD
330
82C5
100
AcDbEntity
  8
02実線
100
AcDbLine
 10
65.0
 20
0.0
 30
0.0
 11
0.0
 21
0.0
 31
0.0
  0
LINE
  5
82CE
330
82C5
100
AcDbEntity
  8
02実線
100
AcDbLine
 10
0.0
 20
0.0
 30
0.0
 11
0.0
 21
-65.0
 31
0.0
  0
LINE
  5
82CF
330
82C5
100
AcDbEntity
  8
02実線
100
AcDbLine
 10
61.0
 20
-6.0
 30
0.0
 11
14.5
 21
-6.0
 31
0.0
  0
ENDBLK
  5
82D0
330
82C5
100
AcDbEntity
  8
0
100
AcDbBlockEnd
  0
BLOCK
  5
82F3
330
82F2
100
AcDbEntity
  8
0
100
AcDbBlockBegin
  2
hole-φ16
 70
     0
 10
0.0
 20
0.0
 30
0.0
  3
hole-φ16
  1

  0
CIRCLE
  5
82F4
330
82F2
100
AcDbEntity
  8
02実線
100
AcDbCircle
 10
0.0
 20
0.0
 30
0.0
 40
8.0
  0
LINE
  5
82F5
330
82F2
100
AcDbEntity
  8
04一点鎖線
  6
CENTER
 48
0.2
100
AcDbLine
 10
0.0
 20
-20.0
 30
0.0
 11
0.0
 21
20.0
 31
0.0
  0
LINE
  5
82F6
330
82F2
100
AcDbEntity
  8
04一点鎖線
  6
CENTER
 48
0.2
100
AcDbLine
 10
-20.0
 20
0.0
 30
0.0
 11
20.0
 21
0.0
 31
0.0
  0
ENDBLK
  5
82F7
330
82F2
100
AcDbEntity
  8
0
100
AcDbBlockEnd
  0
BLOCK
  5
82FA
330
82F9
100
AcDbEntity
  8
0
100
AcDbBlockBegin
  2
hole-φ20
 70
     0
 10
0.0
 20
0.0
 30
0.0
  3
hole-φ20
  1

  0
CIRCLE
  5
82FB
330
82F9
100
AcDbEntity
  8
02実線
100
AcDbCircle
 10
0.0
 20
0.0
 30
0.0
 40
10.0
  0
LINE
  5
82FC
330
82F9
100
AcDbEntity
  8
04一点鎖線
  6
CENTER
 48
0.25
100
AcDbLine
 10
0.0
 20
-20.0
 30
0.0
 11
0.0
 21
20.0
 31
0.0
  0
LINE
  5
82FD
330
82F9
100
AcDbEntity
  8
04一点鎖線
  6
CENTER
 48
0.25
100
AcDbLine
 10
-20.0
 20
0.0
 30
0.0
 11
20.0
 21
0.0
 31
0.0
  0
ENDBLK
  5
82FE
330
82F9
100
AcDbEntity
  8
0
100
AcDbBlockEnd
  0
BLOCK
  5
832A
330
8329
100
AcDbEntity
  8
0
100
AcDbBlockBegin
  2
AH-アンカーL65
 70
     0
 10
0.0
 20
0.0
 30
0.0
  3
AH-アンカーL65
  1

  0
INSERT
  5
832B
330
8329
100
AcDbEntity
  8
02実線
100
AcDbBlockReference
  2
L65x65xt6
 10
0.0
 20
0.0
 30
0.0
 50
180.0
  0
LWPOLYLINE
  5
8338
330
8329
100
AcDbEntity
  8
02実線
100
AcDbPolyline
 90
        8
 70
     1
 43
0.0
 10
-90.0
 20
0.0
 10
-90.0
 20
79.99999999999977
 10
-80.0
 20
89.99999999999977
 10
0.0
 20
89.99999999999977
 10
10.0
 20
79.99999999999977
 10
10.0
 20
0.0
 10
0.0
 20
-10.0
 10
-80.0
 20
-10.0
  0
LINE
  5
8C8B
330
8329
100
AcDbEntity
  8
08非表示
100
AcDbLine
 10
-60.0
 20
65.0
 30
0.0
 11
-70.0
 21
65.0
 31
0.0
  0
LINE
  5
8C8C
330
8329
100
AcDbEntity
  8
08非表示
100
AcDbLine
 10
-65.0
 20
60.0
 30
0.0
 11
-65.0
 21
70.0
 31
0.0
  0
ENDBLK
  5
8339
330
8329
100
AcDbEntity
  8
0
100
AcDbBlockEnd
  0
BLOCK
  5
833C
330
833B
100
AcDbEntity
  8
0
100
AcDbBlockBegin
  2
AH-アンカーL65_中柱
 70
     0
 10
0.0
 20
0.0
 30
0.0
  3
AH-アンカーL65_中柱
  1

  0
INSERT
  5
833D
330
833B
100
AcDbEntity
  8
02実線
100
AcDbBlockReference
  2
L65x65xt6
 10
32.5
 20
0.0
 30
0.0
 50
180.0
  0
LWPOLYLINE
  5
833E
330
833B
100
AcDbEntity
  8
02実線
100
AcDbPolyline
 90
        8
 70
     1
 43
0.0
 10
-50.0
 20
0.0
 10
-50.0
 20
79.99999999999977
 10
-40.0
 20
89.99999999999977
 10
40.0
 20
89.99999999999977
 10
50.0
 20
79.99999999999977
 10
50.0
 20
0.0
 10
40.0
 20
-10.0
 10
-40.0
 20
-10.0
  0
LINE
  5
8C95
330
833B
100
AcDbEntity
  8
08非表示
100
AcDbLine
 10
0.0
 20
60.0
 30
0.0
 11
0.0
 21
70.0
 31
0.0
  0
LINE
  5
8C96
330
833B
100
AcDbEntity
  8
08非表示
100
AcDbLine
 10
-5.0
 20
65.0
 30
0.0
 11
5.0
 21
65.0
 31
0.0
  0
ENDBLK
  5
833F
330
833B
100
AcDbEntity
  8
0
100
AcDbBlockEnd
  0
BLOCK
  5
836E
330
836D
100
AcDbEntity
  8
0
100
AcDbBlockBegin
  2
平W-M12
 70
     0
 10
0.0
 20
0.0
 30
0.0
  3
平W-M12
  1

  0
CIRCLE
  5
836F
330
836D
100
AcDbEntity
  8
10副資材
100
AcDbCircle
 10
0.0
 20
0.0
 30
0.0
 40
6.0
  0
CIRCLE
  5
8370
330
836D
100
AcDbEntity
  8
10副資材
100
AcDbCircle
 10
0.0
 20
0.0
 30
0.0
 40
13.0
  0
TEXT
  5
8371
330
836D
100
AcDbEntity
  8
10副資材
100
AcDbText
 10
-3.899921878130408
 20
-11.29716620919794
 30
0.0
 40
4.0
  1
M12
 72
     1
 11
0.000078121869592
 21
-9.29716620919794
 31
0.0
100
AcDbText
 73
     2
  0
ENDBLK
  5
8372
330
836D
100
AcDbEntity
  8
0
100
AcDbBlockEnd
  0
BLOCK
  5
B1A4
330
B1A3
100
AcDbEntity
  8
0
100
AcDbBlockBegin
  2
*D382
 70
     1
 10
0.0
 20
0.0
 30
0.0
  3
*D382
  1

  0
LINE
  5
B1A6
330
B1A3
100
AcDbEntity
  8
01注記寸法
 62
     0
370
    -2
100
AcDbLine
 10
4222.500058089473
 20
510.0
 30
0.0
 11
4034.999997229161
 21
510.0
 31
0.0
  0
LINE
  5
B1A7
330
B1A3
100
AcDbEntity
  8
01注記寸法
 62
     0
370
    -2
100
AcDbLine
 10
4256.25
 20
555.0
 30
0.0
 11
4034.999997229161
 21
555.0
 31
0.0
  0
LINE
  5
B1A8
330
B1A3
100
AcDbEntity
  8
01注記寸法
 62
     0
370
    -2
100
AcDbLine
 10
4049.999997229161
 20
510.0
 30
0.0
 11
4049.999997229161
 21
337.9124999999995
 31
0.0
  0
LINE
  5
B1A9
330
B1A3
100
AcDbEntity
  8
01注記寸法
 62
     0
370
    -2
100
AcDbLine
 10
4049.999997229161
 20
510.0
 30
0.0
 11
4049.999997229161
 21
555.0
 31
0.0
  0
LINE
  5
B1AA
330
B1A3
100
AcDbEntity
  8
01注記寸法
 62
     0
370
    -2
100
AcDbLine
 10
4049.999997229161
 20
465.0
 30
0.0
 11
4049.999997229161
 21
420.0
 31
0.0
  0
LINE
  5
B1AB
330
B1A3
100
AcDbEntity
  8
01注記寸法
 62
     0
370
    -2
100
AcDbLine
 10
4049.999997229161
 20
600.0
 30
0.0
 11
4049.999997229161
 21
645.0
 31
0.0
  0
INSERT
  5
B1AC
330
B1A3
100
AcDbEntity
  8
01注記寸法
 62
     0
370
    -2
100
AcDbBlockReference
  2
_Open
 10
4049.999997229161
 20
510.0
 30
0.0
 41
45.0
 42
45.0
 43
45.0
 50
90.0
  0
INSERT
  5
B1AD
330
B1A3
100
AcDbEntity
  8
01注記寸法
 62
     0
370
    -2
100
AcDbBlockReference
  2
_Open
 10
4049.999997229161
 20
555.0
 30
0.0
 41
45.0
 42
45.0
 43
45.0
 50
270.0
  0
MTEXT
  5
B1AE
330
B1A3
100
AcDbEntity
  8
01注記寸法
 62
     0
100
AcDbMText
 10
4012.499997229161
 20
378.1574999999993
 30
0.0
 40
45.0
 41
0.0
 71
     5
 72
     1
  1
10
 11
0.0
 21
1.0
 31
0.0
 73
     1
 44
1.0
  0
POINT
  5
B1AF
330
B1A3
100
AcDbEntity
  8
Defpoints
 62
     0
100
AcDbPoint
 10
4245.000058089473
 20
510.0
 30
0.0
  0
POINT
  5
B1B0
330
B1A3
100
AcDbEntity
  8
Defpoints
 62
     0
100
AcDbPoint
 10
4278.75
 20
555.0
 30
0.0
  0
POINT
  5
B1B1
330
B1A3
100
AcDbEntity
  8
Defpoints
 62
     0
100
AcDbPoint
 10
4049.999997229161
 20
555.0
 30
0.0
  0
ENDBLK
  5
B1A5
330
B1A3
100
AcDbEntity
  8
0
100
AcDbBlockEnd
  0
BLOCK
  5
B1B3
330
B1B2
100
AcDbEntity
  8
0
100
AcDbBlockBegin
  2
*D383
 70
     1
 10
0.0
 20
0.0
 30
0.0
  3
*D383
  1

  0
LINE
  5
B1B5
330
B1B2
100
AcDbEntity
  8
01注記寸法
 62
     0
370
    -2
100
AcDbLine
 10
4256.25
 20
555.0
 30
0.0
 11
4034.999997229161
 21
555.0
 31
0.0
  0
LINE
  5
B1B6
330
B1B2
100
AcDbEntity
  8
01注記寸法
 62
     0
370
    -2
100
AcDbLine
 10
4312.5
 20
847.5
 30
0.0
 11
4034.999997229161
 21
847.5
 31
0.0
  0
LINE
  5
B1B7
330
B1B2
100
AcDbEntity
  8
01注記寸法
 62
     0
370
    -2
100
AcDbLine
 10
4049.999997229161
 20
600.0
 30
0.0
 11
4049.999997229161
 21
802.5
 31
0.0
  0
INSERT
  5
B1B8
330
B1B2
100
AcDbEntity
  8
01注記寸法
 62
     0
370
    -2
100
AcDbBlockReference
  2
_Open
 10
4049.999997229161
 20
555.0
 30
0.0
 41
45.0
 42
45.0
 43
45.0
 50
270.0
  0
INSERT
  5
B1B9
330
B1B2
100
AcDbEntity
  8
01注記寸法
 62
     0
370
    -2
100
AcDbBlockReference
  2
_Open
 10
4049.999997229161
 20
847.5
 30
0.0
 41
45.0
 42
45.0
 43
45.0
 50
90.0
  0
MTEXT
  5
B1BA
330
B1B2
100
AcDbEntity
  8
01注記寸法
 62
     0
100
AcDbMText
 10
4012.499997229161
 20
701.25
 30
0.0
 40
45.0
 41
0.0
 71
     5
 72
     1
  1
65
 11
0.0
 21
1.0
 31
0.0
 73
     1
 44
1.0
  0
POINT
  5
B1BB
330
B1B2
100
AcDbEntity
  8
Defpoints
 62
     0
100
AcDbPoint
 10
4278.75
 20
555.0
 30
0.0
  0
POINT
  5
B1BC
330
B1B2
100
AcDbEntity
  8
Defpoints
 62
     0
100
AcDbPoint
 10
4335.0
 20
847.5
 30
0.0
  0
POINT
  5
B1BD
330
B1B2
100
AcDbEntity
  8
Defpoints
 62
     0
100
AcDbPoint
 10
4049.999997229161
 20
847.5
 30
0.0
  0
ENDBLK
  5
B1B4
330
B1B2
100
AcDbEntity
  8
0
100
AcDbBlockEnd
  0
BLOCK
  5
B1BF
330
B1BE
100
AcDbEntity
  8
0
100
AcDbBlockBegin
  2
*D384
 70
     1
 10
0.0
 20
0.0
 30
0.0
  3
*D384
  1

  0
LINE
  5
B1C1
330
B1BE
100
AcDbEntity
  8
01注記寸法
 62
     0
370
    -2
100
AcDbLine
 10
4222.500058089473
 20
510.0
 30
0.0
 11
3884.999965264007
 21
510.0
 31
0.0
  0
LINE
  5
B1C2
330
B1BE
100
AcDbEntity
  8
01注記寸法
 62
     0
370
    -2
100
AcDbLine
 10
4222.500058089473
 20
960.0
 30
0.0
 11
3884.999965264007
 21
960.0
 31
0.0
  0
LINE
  5
B1C3
330
B1BE
100
AcDbEntity
  8
01注記寸法
 62
     0
370
    -2
100
AcDbLine
 10
3899.999965264007
 20
555.0
 30
0.0
 11
3899.999965264007
 21
915.0
 31
0.0
  0
INSERT
  5
B1C4
330
B1BE
100
AcDbEntity
  8
01注記寸法
 62
     0
370
    -2
100
AcDbBlockReference
  2
_Open
 10
3899.999965264007
 20
510.0
 30
0.0
 41
45.0
 42
45.0
 43
45.0
 50
270.0
  0
INSERT
  5
B1C5
330
B1BE
100
AcDbEntity
  8
01注記寸法
 62
     0
370
    -2
100
AcDbBlockReference
  2
_Open
 10
3899.999965264007
 20
960.0
 30
0.0
 41
45.0
 42
45.0
 43
45.0
 50
90.0
  0
MTEXT
  5
B1C6
330
B1BE
100
AcDbEntity
  8
01注記寸法
 62
     0
100
AcDbMText
 10
3862.499965264007
 20
735.0
 30
0.0
 40
45.0
 41
0.0
 71
     5
 72
     1
  1
100
 11
0.0
 21
1.0
 31
0.0
 73
     1
 44
1.0
  0
POINT
  5
B1C7
330
B1BE
100
AcDbEntity
  8
Defpoints
 62
     0
100
AcDbPoint
 10
4245.000058089473
 20
510.0
 30
0.0
  0
POINT
  5
B1C8
330
B1BE
100
AcDbEntity
  8
Defpoints
 62
     0
100
AcDbPoint
 10
4245.000058089473
 20
960.0
 30
0.0
  0
POINT
  5
B1C9
330
B1BE
100
AcDbEntity
  8
Defpoints
 62
     0
100
AcDbPoint
 10
3899.999965264007
 20
960.0
 30
0.0
  0
ENDBLK
  5
B1C0
330
B1BE
100
AcDbEntity
  8
0
100
AcDbBlockEnd
  0
BLOCK
  5
B1CB
330
B1CA
100
AcDbEntity
  8
0
100
AcDbBlockBegin
  2
*D385
 70
     1
 10
0.0
 20
0.0
 30
0.0
  3
*D385
  1

  0
LINE
  5
B1CD
330
B1CA
100
AcDbEntity
  8
01注記寸法
 62
     0
370
    -2
100
AcDbLine
 10
4650.000058089473
 20
937.5
 30
0.0
 11
4650.000058089473
 21
1215.000069354372
 31
0.0
  0
LINE
  5
B1CE
330
B1CA
100
AcDbEntity
  8
01注記寸法
 62
     0
370
    -2
100
AcDbLine
 10
4425.0
 20
960.0
 30
0.0
 11
4425.0
 21
1215.000069354372
 31
0.0
  0
LINE
  5
B1CF
330
B1CA
100
AcDbEntity
  8
01注記寸法
 62
     0
370
    -2
100
AcDbLine
 10
4605.000058089473
 20
1200.000069354372
 30
0.0
 11
4470.0
 21
1200.000069354372
 31
0.0
  0
INSERT
  5
B1D0
330
B1CA
100
AcDbEntity
  8
01注記寸法
 62
     0
370
    -2
100
AcDbBlockReference
  2
_Open
 10
4650.000058089473
 20
1200.000069354372
 30
0.0
 41
45.0
 42
45.0
 43
45.0
  0
INSERT
  5
B1D1
330
B1CA
100
AcDbEntity
  8
01注記寸法
 62
     0
370
    -2
100
AcDbBlockReference
  2
_Open
 10
4425.0
 20
1200.000069354372
 30
0.0
 41
45.0
 42
45.0
 43
45.0
 50
180.0
  0
MTEXT
  5
B1D2
330
B1CA
100
AcDbEntity
  8
01注記寸法
 62
     0
100
AcDbMText
 10
4537.500029044737
 20
1237.500069354372
 30
0.0
 40
45.0
 41
0.0
 71
     5
 72
     1
  1
50
 73
     1
 44
1.0
  0
POINT
  5
B1D3
330
B1CA
100
AcDbEntity
  8
Defpoints
 62
     0
100
AcDbPoint
 10
4650.000058089473
 20
915.0
 30
0.0
  0
POINT
  5
B1D4
330
B1CA
100
AcDbEntity
  8
Defpoints
 62
     0
100
AcDbPoint
 10
4425.0
 20
937.5
 30
0.0
  0
POINT
  5
B1D5
330
B1CA
100
AcDbEntity
  8
Defpoints
 62
     0
100
AcDbPoint
 10
4425.0
 20
1200.000069354372
 30
0.0
  0
ENDBLK
  5
B1CC
330
B1CA
100
AcDbEntity
  8
0
100
AcDbBlockEnd
  0
BLOCK
  5
B1D7
330
B1D6
100
AcDbEntity
  8
0
100
AcDbBlockBegin
  2
*D386
 70
     1
 10
0.0
 20
0.0
 30
0.0
  3
*D386
  1

  0
LINE
  5
B1D9
330
B1D6
100
AcDbEntity
  8
01注記寸法
 62
     0
370
    -2
100
AcDbLine
 10
4650.000058089472
 20
937.4999999999986
 30
0.0
 11
4650.000058089472
 21
1125.000042266473
 31
0.0
  0
LINE
  5
B1DA
330
B1D6
100
AcDbEntity
  8
01注記寸法
 62
     0
370
    -2
100
AcDbLine
 10
4571.25
 20
870.0
 30
0.0
 11
4571.25
 21
1125.000042266473
 31
0.0
  0
LINE
  5
B1DB
330
B1D6
100
AcDbEntity
  8
01注記寸法
 62
     0
370
    -2
100
AcDbLine
 10
4650.000058089472
 20
1110.000042266473
 30
0.0
 11
4879.102558089472
 21
1110.000042266473
 31
0.0
  0
LINE
  5
B1DC
330
B1D6
100
AcDbEntity
  8
01注記寸法
 62
     0
370
    -2
100
AcDbLine
 10
4650.000058089472
 20
1110.000042266473
 30
0.0
 11
4571.25
 21
1110.000042266473
 31
0.0
  0
LINE
  5
B1DD
330
B1D6
100
AcDbEntity
  8
01注記寸法
 62
     0
370
    -2
100
AcDbLine
 10
4695.000058089472
 20
1110.000042266473
 30
0.0
 11
4740.000058089472
 21
1110.000042266473
 31
0.0
  0
LINE
  5
B1DE
330
B1D6
100
AcDbEntity
  8
01注記寸法
 62
     0
370
    -2
100
AcDbLine
 10
4526.25
 20
1110.000042266473
 30
0.0
 11
4481.25
 21
1110.000042266473
 31
0.0
  0
INSERT
  5
B1DF
330
B1D6
100
AcDbEntity
  8
01注記寸法
 62
     0
370
    -2
100
AcDbBlockReference
  2
_Open
 10
4650.000058089472
 20
1110.000042266473
 30
0.0
 41
45.0
 42
45.0
 43
45.0
 50
180.0
  0
INSERT
  5
B1E0
330
B1D6
100
AcDbEntity
  8
01注記寸法
 62
     0
370
    -2
100
AcDbBlockReference
  2
_Open
 10
4571.25
 20
1110.000042266473
 30
0.0
 41
45.0
 42
45.0
 43
45.0
  0
MTEXT
  5
B1E1
330
B1D6
100
AcDbEntity
  8
01注記寸法
 62
     0
100
AcDbMText
 10
4810.192558089472
 20
1147.500042266473
 30
0.0
 40
45.0
 41
0.0
 71
     5
 72
     1
  1
17.5
 73
     1
 44
1.0
  0
POINT
  5
B1E2
330
B1D6
100
AcDbEntity
  8
Defpoints
 62
     0
100
AcDbPoint
 10
4650.000058089472
 20
914.9999999999986
 30
0.0
  0
POINT
  5
B1E3
330
B1D6
100
AcDbEntity
  8
Defpoints
 62
     0
100
AcDbPoint
 10
4571.25
 20
847.5
 30
0.0
  0
POINT
  5
B256
330
B1D6
100
AcDbEntity
  8
Defpoints
 62
     0
100
AcDbPoint
 10
4571.25
 20
1110.000042266473
 30
0.0
  0
ENDBLK
  5
B1D8
330
B1D6
100
AcDbEntity
  8
0
100
AcDbBlockEnd
  0
BLOCK
  5
B1E5
330
B1E4
100
AcDbEntity
  8
0
100
AcDbBlockBegin
  2
*D387
 70
     1
 10
0.0
 20
0.0
 30
0.0
  3
*D387
  1

  0
LINE
  5
B1E7
330
B1E4
100
AcDbEntity
  8
01注記寸法
 62
     0
370
    -2
100
AcDbLine
 10
4650.000058089472
 20
937.4999999999986
 30
0.0
 11
4650.000058089472
 21
1305.000069354372
 31
0.0
  0
LINE
  5
B1E8
330
B1E4
100
AcDbEntity
  8
01注記寸法
 62
     0
370
    -2
100
AcDbLine
 10
4200.000058089472
 20
937.4999999999986
 30
0.0
 11
4200.000058089472
 21
1305.000069354372
 31
0.0
  0
LINE
  5
B1E9
330
B1E4
100
AcDbEntity
  8
01注記寸法
 62
     0
370
    -2
100
AcDbLine
 10
4605.000058089472
 20
1290.000069354372
 30
0.0
 11
4245.000058089472
 21
1290.000069354372
 31
0.0
  0
INSERT
  5
B1EA
330
B1E4
100
AcDbEntity
  8
01注記寸法
 62
     0
370
    -2
100
AcDbBlockReference
  2
_Open
 10
4650.000058089472
 20
1290.000069354372
 30
0.0
 41
45.0
 42
45.0
 43
45.0
  0
INSERT
  5
B1EB
330
B1E4
100
AcDbEntity
  8
01注記寸法
 62
     0
370
    -2
100
AcDbBlockReference
  2
_Open
 10
4200.000058089472
 20
1290.000069354372
 30
0.0
 41
45.0
 42
45.0
 43
45.0
 50
180.0
  0
MTEXT
  5
B1EC
330
B1E4
100
AcDbEntity
  8
01注記寸法
 62
     0
100
AcDbMText
 10
4425.000058089472
 20
1327.500069354372
 30
0.0
 40
45.0
 41
0.0
 71
     5
 72
     1
  1
100
 73
     1
 44
1.0
  0
POINT
  5
B1ED
330
B1E4
100
AcDbEntity
  8
Defpoints
 62
     0
100
AcDbPoint
 10
4650.000058089472
 20
914.9999999999986
 30
0.0
  0
POINT
  5
B1EE
330
B1E4
100
AcDbEntity
  8
Defpoints
 62
     0
100
AcDbPoint
 10
4200.000058089472
 20
914.9999999999986
 30
0.0
  0
POINT
  5
B1EF
330
B1E4
100
AcDbEntity
  8
Defpoints
 62
     0
100
AcDbPoint
 10
4200.000058089472
 20
1290.000069354372
 30
0.0
  0
ENDBLK
  5
B1E6
330
B1E4
100
AcDbEntity
  8
0
100
AcDbBlockEnd
  0
BLOCK
  5
B1FD
330
B1FC
100
AcDbEntity
  8
0
100
AcDbBlockBegin
  2
*D389
 70
     1
 10
0.0
 20
0.0
 30
0.0
  3
*D389
  1

  0
LINE
  5
B1FF
330
B1FC
100
AcDbEntity
  8
01注記寸法
 62
     0
370
    -2
100
AcDbLine
 10
3600.0
 20
937.5
 30
0.0
 11
3600.0
 21
1125.000042266473
 31
0.0
  0
LINE
  5
B200
330
B1FC
100
AcDbEntity
  8
01注記寸法
 62
     0
370
    -2
100
AcDbLine
 10
3555.0
 20
870.0
 30
0.0
 11
3555.0
 21
1125.000042266473
 31
0.0
  0
LINE
  5
B201
330
B1FC
100
AcDbEntity
  8
01注記寸法
 62
     0
370
    -2
100
AcDbLine
 10
3600.0
 20
1110.000042266473
 30
0.0
 11
3772.087500000001
 21
1110.000042266473
 31
0.0
  0
LINE
  5
B202
330
B1FC
100
AcDbEntity
  8
01注記寸法
 62
     0
370
    -2
100
AcDbLine
 10
3600.0
 20
1110.000042266473
 30
0.0
 11
3555.0
 21
1110.000042266473
 31
0.0
  0
LINE
  5
B203
330
B1FC
100
AcDbEntity
  8
01注記寸法
 62
     0
370
    -2
100
AcDbLine
 10
3645.0
 20
1110.000042266473
 30
0.0
 11
3690.0
 21
1110.000042266473
 31
0.0
  0
LINE
  5
B204
330
B1FC
100
AcDbEntity
  8
01注記寸法
 62
     0
370
    -2
100
AcDbLine
 10
3510.0
 20
1110.000042266473
 30
0.0
 11
3465.0
 21
1110.000042266473
 31
0.0
  0
INSERT
  5
B205
330
B1FC
100
AcDbEntity
  8
01注記寸法
 62
     0
370
    -2
100
AcDbBlockReference
  2
_Open
 10
3600.0
 20
1110.000042266473
 30
0.0
 41
45.0
 42
45.0
 43
45.0
 50
180.0
  0
INSERT
  5
B206
330
B1FC
100
AcDbEntity
  8
01注記寸法
 62
     0
370
    -2
100
AcDbBlockReference
  2
_Open
 10
3555.0
 20
1110.000042266473
 30
0.0
 41
45.0
 42
45.0
 43
45.0
  0
MTEXT
  5
B207
330
B1FC
100
AcDbEntity
  8
01注記寸法
 62
     0
100
AcDbMText
 10
3731.842500000001
 20
1147.500042266473
 30
0.0
 40
45.0
 41
0.0
 71
     5
 72
     1
  1
10
 73
     1
 44
1.0
  0
POINT
  5
B208
330
B1FC
100
AcDbEntity
  8
Defpoints
 62
     0
100
AcDbPoint
 10
3600.0
 20
915.0
 30
0.0
  0
POINT
  5
B209
330
B1FC
100
AcDbEntity
  8
Defpoints
 62
     0
100
AcDbPoint
 10
3555.0
 20
847.5
 30
0.0
  0
POINT
  5
B20A
330
B1FC
100
AcDbEntity
  8
Defpoints
 62
     0
100
AcDbPoint
 10
3555.0
 20
1110.000042266473
 30
0.0
  0
ENDBLK
  5
B1FE
330
B1FC
100
AcDbEntity
  8
0
100
AcDbBlockEnd
  0
BLOCK
  5
B20C
330
B20B
100
AcDbEntity
  8
0
100
AcDbBlockBegin
  2
*D390
 70
     1
 10
0.0
 20
0.0
 30
0.0
  3
*D390
  1

  0
LINE
  5
B20E
330
B20B
100
AcDbEntity
  8
01注記寸法
 62
     0
370
    -2
100
AcDbLine
 10
3555.0
 20
870.0
 30
0.0
 11
3555.0
 21
1125.000042266473
 31
0.0
  0
LINE
  5
B20F
330
B20B
100
AcDbEntity
  8
01注記寸法
 62
     0
370
    -2
100
AcDbLine
 10
3262.5
 20
960.0
 30
0.0
 11
3262.5
 21
1125.000042266473
 31
0.0
  0
LINE
  5
B210
330
B20B
100
AcDbEntity
  8
01注記寸法
 62
     0
370
    -2
100
AcDbLine
 10
3510.0
 20
1110.000042266473
 30
0.0
 11
3307.5
 21
1110.000042266473
 31
0.0
  0
INSERT
  5
B211
330
B20B
100
AcDbEntity
  8
01注記寸法
 62
     0
370
    -2
100
AcDbBlockReference
  2
_Open
 10
3555.0
 20
1110.000042266473
 30
0.0
 41
45.0
 42
45.0
 43
45.0
  0
INSERT
  5
B212
330
B20B
100
AcDbEntity
  8
01注記寸法
 62
     0
370
    -2
100
AcDbBlockReference
  2
_Open
 10
3262.5
 20
1110.000042266473
 30
0.0
 41
45.0
 42
45.0
 43
45.0
 50
180.0
  0
MTEXT
  5
B213
330
B20B
100
AcDbEntity
  8
01注記寸法
 62
     0
100
AcDbMText
 10
3408.75
 20
1147.500042266473
 30
0.0
 40
45.0
 41
0.0
 71
     5
 72
     1
  1
65
 73
     1
 44
1.0
  0
POINT
  5
B214
330
B20B
100
AcDbEntity
  8
Defpoints
 62
     0
100
AcDbPoint
 10
3555.0
 20
847.5
 30
0.0
  0
POINT
  5
B215
330
B20B
100
AcDbEntity
  8
Defpoints
 62
     0
100
AcDbPoint
 10
3262.5
 20
937.5
 30
0.0
  0
POINT
  5
B216
330
B20B
100
AcDbEntity
  8
Defpoints
 62
     0
100
AcDbPoint
 10
3262.5
 20
1110.000042266473
 30
0.0
  0
ENDBLK
  5
B20D
330
B20B
100
AcDbEntity
  8
0
100
AcDbBlockEnd
  0
BLOCK
  5
B218
330
B217
100
AcDbEntity
  8
0
100
AcDbBlockBegin
  2
*D391
 70
     1
 10
0.0
 20
0.0
 30
0.0
  3
*D391
  1

  0
LINE
  5
B21A
330
B217
100
AcDbEntity
  8
01注記寸法
 62
     0
370
    -2
100
AcDbLine
 10
3600.0
 20
937.5
 30
0.0
 11
3600.0
 21
1305.000069354372
 31
0.0
  0
LINE
  5
B21B
330
B217
100
AcDbEntity
  8
01注記寸法
 62
     0
370
    -2
100
AcDbLine
 10
3150.0
 20
937.5
 30
0.0
 11
3150.0
 21
1305.000069354372
 31
0.0
  0
LINE
  5
B21C
330
B217
100
AcDbEntity
  8
01注記寸法
 62
     0
370
    -2
100
AcDbLine
 10
3555.0
 20
1290.000069354372
 30
0.0
 11
3195.0
 21
1290.000069354372
 31
0.0
  0
INSERT
  5
B21D
330
B217
100
AcDbEntity
  8
01注記寸法
 62
     0
370
    -2
100
AcDbBlockReference
  2
_Open
 10
3600.0
 20
1290.000069354372
 30
0.0
 41
45.0
 42
45.0
 43
45.0
  0
INSERT
  5
B21E
330
B217
100
AcDbEntity
  8
01注記寸法
 62
     0
370
    -2
100
AcDbBlockReference
  2
_Open
 10
3150.0
 20
1290.000069354372
 30
0.0
 41
45.0
 42
45.0
 43
45.0
 50
180.0
  0
MTEXT
  5
B21F
330
B217
100
AcDbEntity
  8
01注記寸法
 62
     0
100
AcDbMText
 10
3375.0
 20
1327.500069354372
 30
0.0
 40
45.0
 41
0.0
 71
     5
 72
     1
  1
100
 73
     1
 44
1.0
  0
POINT
  5
B220
330
B217
100
AcDbEntity
  8
Defpoints
 62
     0
100
AcDbPoint
 10
3600.0
 20
915.0
 30
0.0
  0
POINT
  5
B221
330
B217
100
AcDbEntity
  8
Defpoints
 62
     0
100
AcDbPoint
 10
3150.0
 20
915.0
 30
0.0
  0
POINT
  5
B222
330
B217
100
AcDbEntity
  8
Defpoints
 62
     0
100
AcDbPoint
 10
3150.0
 20
1290.000069354372
 30
0.0
  0
ENDBLK
  5
B219
330
B217
100
AcDbEntity
  8
0
100
AcDbBlockEnd
  0
BLOCK
  5
B230
330
B22F
100
AcDbEntity
  8
0
100
AcDbBlockBegin
  2
*D393
 70
     1
 10
0.0
 20
0.0
 30
0.0
  3
*D393
  1

  0
LINE
  5
B232
330
B22F
100
AcDbEntity
  8
01注記寸法
 62
     0
370
    -2
100
AcDbLine
 10
3172.5
 20
510.0
 30
0.0
 11
2984.999939139687
 21
510.0
 31
0.0
  0
LINE
  5
B233
330
B22F
100
AcDbEntity
  8
01注記寸法
 62
     0
370
    -2
100
AcDbLine
 10
3240.0
 20
555.0
 30
0.0
 11
2984.999939139687
 21
555.0
 31
0.0
  0
LINE
  5
B234
330
B22F
100
AcDbEntity
  8
01注記寸法
 62
     0
370
    -2
100
AcDbLine
 10
2999.999939139687
 20
510.0
 30
0.0
 11
2999.999939139687
 21
337.9124999999995
 31
0.0
  0
LINE
  5
B235
330
B22F
100
AcDbEntity
  8
01注記寸法
 62
     0
370
    -2
100
AcDbLine
 10
2999.999939139687
 20
510.0
 30
0.0
 11
2999.999939139687
 21
555.0
 31
0.0
  0
LINE
  5
B236
330
B22F
100
AcDbEntity
  8
01注記寸法
 62
     0
370
    -2
100
AcDbLine
 10
2999.999939139687
 20
465.0
 30
0.0
 11
2999.999939139687
 21
420.0
 31
0.0
  0
LINE
  5
B237
330
B22F
100
AcDbEntity
  8
01注記寸法
 62
     0
370
    -2
100
AcDbLine
 10
2999.999939139687
 20
600.0
 30
0.0
 11
2999.999939139687
 21
645.0
 31
0.0
  0
INSERT
  5
B238
330
B22F
100
AcDbEntity
  8
01注記寸法
 62
     0
370
    -2
100
AcDbBlockReference
  2
_Open
 10
2999.999939139687
 20
510.0
 30
0.0
 41
45.0
 42
45.0
 43
45.0
 50
90.0
  0
INSERT
  5
B239
330
B22F
100
AcDbEntity
  8
01注記寸法
 62
     0
370
    -2
100
AcDbBlockReference
  2
_Open
 10
2999.999939139687
 20
555.0
 30
0.0
 41
45.0
 42
45.0
 43
45.0
 50
270.0
  0
MTEXT
  5
B23A
330
B22F
100
AcDbEntity
  8
01注記寸法
 62
     0
100
AcDbMText
 10
2962.499939139687
 20
378.1574999999993
 30
0.0
 40
45.0
 41
0.0
 71
     5
 72
     1
  1
10
 11
0.0
 21
1.0
 31
0.0
 73
     1
 44
1.0
  0
POINT
  5
B23B
330
B22F
100
AcDbEntity
  8
Defpoints
 62
     0
100
AcDbPoint
 10
3195.0
 20
510.0
 30
0.0
  0
POINT
  5
B23C
330
B22F
100
AcDbEntity
  8
Defpoints
 62
     0
100
AcDbPoint
 10
3262.5
 20
555.0
 30
0.0
  0
POINT
  5
B23D
330
B22F
100
AcDbEntity
  8
Defpoints
 62
     0
100
AcDbPoint
 10
2999.999939139687
 20
555.0
 30
0.0
  0
ENDBLK
  5
B231
330
B22F
100
AcDbEntity
  8
0
100
AcDbBlockEnd
  0
BLOCK
  5
B23F
330
B23E
100
AcDbEntity
  8
0
100
AcDbBlockBegin
  2
*D394
 70
     1
 10
0.0
 20
0.0
 30
0.0
  3
*D394
  1

  0
LINE
  5
B241
330
B23E
100
AcDbEntity
  8
01注記寸法
 62
     0
370
    -2
100
AcDbLine
 10
3240.0
 20
555.0
 30
0.0
 11
2984.999939139687
 21
555.0
 31
0.0
  0
LINE
  5
B242
330
B23E
100
AcDbEntity
  8
01注記寸法
 62
     0
370
    -2
100
AcDbLine
 10
3150.0
 20
847.5
 30
0.0
 11
2984.999939139687
 21
847.5
 31
0.0
  0
LINE
  5
B243
330
B23E
100
AcDbEntity
  8
01注記寸法
 62
     0
370
    -2
100
AcDbLine
 10
2999.999939139687
 20
600.0
 30
0.0
 11
2999.999939139687
 21
802.5
 31
0.0
  0
INSERT
  5
B244
330
B23E
100
AcDbEntity
  8
01注記寸法
 62
     0
370
    -2
100
AcDbBlockReference
  2
_Open
 10
2999.999939139687
 20
555.0
 30
0.0
 41
45.0
 42
45.0
 43
45.0
 50
270.0
  0
INSERT
  5
B245
330
B23E
100
AcDbEntity
  8
01注記寸法
 62
     0
370
    -2
100
AcDbBlockReference
  2
_Open
 10
2999.999939139687
 20
847.5
 30
0.0
 41
45.0
 42
45.0
 43
45.0
 50
90.0
  0
MTEXT
  5
B246
330
B23E
100
AcDbEntity
  8
01注記寸法
 62
     0
100
AcDbMText
 10
2962.499939139687
 20
701.25
 30
0.0
 40
45.0
 41
0.0
 71
     5
 72
     1
  1
65
 11
0.0
 21
1.0
 31
0.0
 73
     1
 44
1.0
  0
POINT
  5
B247
330
B23E
100
AcDbEntity
  8
Defpoints
 62
     0
100
AcDbPoint
 10
3262.5
 20
555.0
 30
0.0
  0
POINT
  5
B248
330
B23E
100
AcDbEntity
  8
Defpoints
 62
     0
100
AcDbPoint
 10
3172.5
 20
847.5
 30
0.0
  0
POINT
  5
B249
330
B23E
100
AcDbEntity
  8
Defpoints
 62
     0
100
AcDbPoint
 10
2999.999939139687
 20
847.5
 30
0.0
  0
ENDBLK
  5
B240
330
B23E
100
AcDbEntity
  8
0
100
AcDbBlockEnd
  0
BLOCK
  5
B24B
330
B24A
100
AcDbEntity
  8
0
100
AcDbBlockBegin
  2
*D395
 70
     1
 10
0.0
 20
0.0
 30
0.0
  3
*D395
  1

  0
LINE
  5
B24D
330
B24A
100
AcDbEntity
  8
01注記寸法
 62
     0
370
    -2
100
AcDbLine
 10
3172.5
 20
510.0
 30
0.0
 11
2834.999907174534
 21
510.0
 31
0.0
  0
LINE
  5
B24E
330
B24A
100
AcDbEntity
  8
01注記寸法
 62
     0
370
    -2
100
AcDbLine
 10
3172.5
 20
960.0
 30
0.0
 11
2834.999907174534
 21
960.0
 31
0.0
  0
LINE
  5
B24F
330
B24A
100
AcDbEntity
  8
01注記寸法
 62
     0
370
    -2
100
AcDbLine
 10
2849.999907174534
 20
555.0
 30
0.0
 11
2849.999907174534
 21
915.0
 31
0.0
  0
INSERT
  5
B250
330
B24A
100
AcDbEntity
  8
01注記寸法
 62
     0
370
    -2
100
AcDbBlockReference
  2
_Open
 10
2849.999907174534
 20
510.0
 30
0.0
 41
45.0
 42
45.0
 43
45.0
 50
270.0
  0
INSERT
  5
B251
330
B24A
100
AcDbEntity
  8
01注記寸法
 62
     0
370
    -2
100
AcDbBlockReference
  2
_Open
 10
2849.999907174534
 20
960.0
 30
0.0
 41
45.0
 42
45.0
 43
45.0
 50
90.0
  0
MTEXT
  5
B252
330
B24A
100
AcDbEntity
  8
01注記寸法
 62
     0
100
AcDbMText
 10
2812.499907174534
 20
735.0
 30
0.0
 40
45.0
 41
0.0
 71
     5
 72
     1
  1
100
 11
0.0
 21
1.0
 31
0.0
 73
     1
 44
1.0
  0
POINT
  5
B253
330
B24A
100
AcDbEntity
  8
Defpoints
 62
     0
100
AcDbPoint
 10
3195.0
 20
510.0
 30
0.0
  0
POINT
  5
B254
330
B24A
100
AcDbEntity
  8
Defpoints
 62
     0
100
AcDbPoint
 10
3195.0
 20
960.0
 30
0.0
  0
POINT
  5
B255
330
B24A
100
AcDbEntity
  8
Defpoints
 62
     0
100
AcDbPoint
 10
2849.999907174534
 20
960.0
 30
0.0
  0
ENDBLK
  5
B24C
330
B24A
100
AcDbEntity
  8
0
100
AcDbBlockEnd
  0
BLOCK
  5
10090
330
1008F
100
AcDbEntity
  8
0
100
AcDbBlockBegin
  2
*D1273
 70
     1
 10
0.0
 20
0.0
 30
0.0
  3
*D1273
  1

  0
LINE
  5
10092
330
1008F
100
AcDbEntity
  8
08非表示
 62
     0
370
    -2
100
AcDbLine
 10
3250.0
 20
2615.000000000002
 30
0.0
 11
3250.0
 21
2710.000000000002
 31
0.0
  0
LINE
  5
10093
330
1008F
100
AcDbEntity
  8
08非表示
 62
     0
370
    -2
100
AcDbLine
 10
4100.0
 20
2615.000000000002
 30
0.0
 11
4100.0
 21
2710.000000000002
 31
0.0
  0
LINE
  5
10094
330
1008F
100
AcDbEntity
  8
08非表示
 62
     0
370
    -2
100
AcDbLine
 10
3280.0
 20
2700.000000000002
 30
0.0
 11
4070.0
 21
2700.000000000002
 31
0.0
  0
INSERT
  5
10095
330
1008F
100
AcDbEntity
  8
08非表示
 62
     0
370
    -2
100
AcDbBlockReference
  2
_Open
 10
3250.0
 20
2700.000000000002
 30
0.0
 41
30.0
 42
30.0
 43
30.0
 50
180.0
  0
INSERT
  5
10096
330
1008F
100
AcDbEntity
  8
08非表示
 62
     0
370
    -2
100
AcDbBlockReference
  2
_Open
 10
4100.0
 20
2700.000000000002
 30
0.0
 41
30.0
 42
30.0
 43
30.0
  0
MTEXT
  5
10097
330
1008F
100
AcDbEntity
  8
08非表示
 62
     0
100
AcDbMText
 10
3675.0
 20
2725.000000000002
 30
0.0
 40
30.0
 41
0.0
 71
     5
 72
     1
  1
850
 73
     1
 44
1.0
  0
POINT
  5
10098
330
1008F
100
AcDbEntity
  8
Defpoints
 62
     0
100
AcDbPoint
 10
3250.0
 20
2600.000000000002
 30
0.0
  0
POINT
  5
10099
330
1008F
100
AcDbEntity
  8
Defpoints
 62
     0
100
AcDbPoint
 10
4100.0
 20
2600.000000000002
 30
0.0
  0
POINT
  5
1009A
330
1008F
100
AcDbEntity
  8
Defpoints
 62
     0
100
AcDbPoint
 10
4100.0
 20
2700.000000000002
 30
0.0
  0
ENDBLK
  5
10091
330
1008F
100
AcDbEntity
  8
0
100
AcDbBlockEnd
  0
BLOCK
  5
1009C
330
1009B
100
AcDbEntity
  8
0
100
AcDbBlockBegin
  2
*D1274
 70
     1
 10
0.0
 20
0.0
 30
0.0
  3
*D1274
  1

  0
LINE
  5
1009E
330
1009B
100
AcDbEntity
  8
01注記寸法
 62
     0
370
    -2
100
AcDbLine
 10
1032.5
 20
3854.999999999998
 30
0.0
 11
890.0
 21
3854.999999999998
 31
0.0
  0
LINE
  5
1009F
330
1009B
100
AcDbEntity
  8
01注記寸法
 62
     0
370
    -2
100
AcDbLine
 10
1104.5
 20
3824.999999999998
 30
0.0
 11
890.0
 21
3824.999999999998
 31
0.0
  0
LINE
  5
100A0
330
1009B
100
AcDbEntity
  8
01注記寸法
 62
     0
370
    -2
100
AcDbLine
 10
905.0
 20
3854.999999999998
 30
0.0
 11
905.0
 21
4028.684999999999
 31
0.0
  0
LINE
  5
100A1
330
1009B
100
AcDbEntity
  8
01注記寸法
 62
     0
370
    -2
100
AcDbLine
 10
905.0
 20
3854.999999999998
 30
0.0
 11
905.0
 21
3824.999999999998
 31
0.0
  0
LINE
  5
100A2
330
1009B
100
AcDbEntity
  8
01注記寸法
 62
     0
370
    -2
100
AcDbLine
 10
905.0
 20
3899.999999999998
 30
0.0
 11
905.0
 21
3944.999999999998
 31
0.0
  0
LINE
  5
100A3
330
1009B
100
AcDbEntity
  8
01注記寸法
 62
     0
370
    -2
100
AcDbLine
 10
905.0
 20
3779.999999999998
 30
0.0
 11
905.0
 21
3734.999999999998
 31
0.0
  0
INSERT
  5
100A4
330
1009B
100
AcDbEntity
  8
01注記寸法
 62
     0
370
    -2
100
AcDbBlockReference
  2
_Open
 10
905.0
 20
3854.999999999998
 30
0.0
 41
45.0
 42
45.0
 43
45.0
 50
270.0
  0
INSERT
  5
100A5
330
1009B
100
AcDbEntity
  8
01注記寸法
 62
     0
370
    -2
100
AcDbBlockReference
  2
_Open
 10
905.0
 20
3824.999999999998
 30
0.0
 41
45.0
 42
45.0
 43
45.0
 50
90.0
  0
MTEXT
  5
100A6
330
1009B
100
AcDbEntity
  8
01注記寸法
 62
     0
100
AcDbMText
 10
867.5
 20
3986.842499999999
 30
0.0
 40
45.0
 41
0.0
 71
     5
 72
     1
  1
30
 11
0.0
 21
1.0
 31
0.0
 73
     1
 44
1.0
  0
POINT
  5
100A7
330
1009B
100
AcDbEntity
  8
Defpoints
 62
     0
100
AcDbPoint
 10
1055.0
 20
3854.999999999998
 30
0.0
  0
POINT
  5
100A8
330
1009B
100
AcDbEntity
  8
Defpoints
 62
     0
100
AcDbPoint
 10
1127.0
 20
3824.999999999998
 30
0.0
  0
POINT
  5
100A9
330
1009B
100
AcDbEntity
  8
Defpoints
 62
     0
100
AcDbPoint
 10
905.0
 20
3824.999999999998
 30
0.0
  0
ENDBLK
  5
1009D
330
1009B
100
AcDbEntity
  8
0
100
AcDbBlockEnd
  0
BLOCK
  5
100AB
330
100AA
100
AcDbEntity
  8
0
100
AcDbBlockBegin
  2
*D1275
 70
     1
 10
0.0
 20
0.0
 30
0.0
  3
*D1275
  1

  0
LINE
  5
100AD
330
100AA
100
AcDbEntity
  8
01注記寸法
 62
     0
370
    -2
100
AcDbLine
 10
1104.5
 20
3824.999999999998
 30
0.0
 11
890.0
 21
3824.999999999998
 31
0.0
  0
LINE
  5
100AE
330
100AA
100
AcDbEntity
  8
01注記寸法
 62
     0
370
    -2
100
AcDbLine
 10
1104.5
 20
3034.999999999998
 30
0.0
 11
890.0
 21
3034.999999999998
 31
0.0
  0
LINE
  5
100AF
330
100AA
100
AcDbEntity
  8
01注記寸法
 62
     0
370
    -2
100
AcDbLine
 10
905.0
 20
3779.999999999998
 30
0.0
 11
905.0
 21
3079.999999999998
 31
0.0
  0
INSERT
  5
100B0
330
100AA
100
AcDbEntity
  8
01注記寸法
 62
     0
370
    -2
100
AcDbBlockReference
  2
_Open
 10
905.0
 20
3824.999999999998
 30
0.0
 41
45.0
 42
45.0
 43
45.0
 50
90.0
  0
INSERT
  5
100B1
330
100AA
100
AcDbEntity
  8
01注記寸法
 62
     0
370
    -2
100
AcDbBlockReference
  2
_Open
 10
905.0
 20
3034.999999999998
 30
0.0
 41
45.0
 42
45.0
 43
45.0
 50
270.0
  0
MTEXT
  5
100B2
330
100AA
100
AcDbEntity
  8
01注記寸法
 62
     0
100
AcDbMText
 10
867.5
 20
3429.999999999998
 30
0.0
 40
45.0
 41
0.0
 71
     5
 72
     1
  1
790
 11
0.0
 21
1.0
 31
0.0
 73
     1
 44
1.0
  0
POINT
  5
100B3
330
100AA
100
AcDbEntity
  8
Defpoints
 62
     0
100
AcDbPoint
 10
1127.0
 20
3824.999999999998
 30
0.0
  0
POINT
  5
100B4
330
100AA
100
AcDbEntity
  8
Defpoints
 62
     0
100
AcDbPoint
 10
1127.0
 20
3034.999999999998
 30
0.0
  0
POINT
  5
100B5
330
100AA
100
AcDbEntity
  8
Defpoints
 62
     0
100
AcDbPoint
 10
905.0
 20
3034.999999999998
 30
0.0
  0
ENDBLK
  5
100AC
330
100AA
100
AcDbEntity
  8
0
100
AcDbBlockEnd
  0
BLOCK
  5
100B7
330
100B6
100
AcDbEntity
  8
0
100
AcDbBlockBegin
  2
*D1276
 70
     1
 10
0.0
 20
0.0
 30
0.0
  3
*D1276
  1

  0
LINE
  5
100B9
330
100B6
100
AcDbEntity
  8
01注記寸法
 62
     0
370
    -2
100
AcDbLine
 10
1104.5
 20
3034.999999999998
 30
0.0
 11
890.0
 21
3034.999999999998
 31
0.0
  0
LINE
  5
100BA
330
100B6
100
AcDbEntity
  8
01注記寸法
 62
     0
370
    -2
100
AcDbLine
 10
1032.5
 20
3004.999999999998
 30
0.0
 11
890.0
 21
3004.999999999998
 31
0.0
  0
LINE
  5
100BB
330
100B6
100
AcDbEntity
  8
01注記寸法
 62
     0
370
    -2
100
AcDbLine
 10
905.0
 20
2959.999999999998
 30
0.0
 11
905.0
 21
2831.314999999998
 31
0.0
  0
LINE
  5
100BC
330
100B6
100
AcDbEntity
  8
01注記寸法
 62
     0
370
    -2
100
AcDbLine
 10
905.0
 20
3034.999999999998
 30
0.0
 11
905.0
 21
3004.999999999998
 31
0.0
  0
LINE
  5
100BD
330
100B6
100
AcDbEntity
  8
01注記寸法
 62
     0
370
    -2
100
AcDbLine
 10
905.0
 20
3079.999999999998
 30
0.0
 11
905.0
 21
3124.999999999998
 31
0.0
  0
INSERT
  5
100BE
330
100B6
100
AcDbEntity
  8
01注記寸法
 62
     0
370
    -2
100
AcDbBlockReference
  2
_Open
 10
905.0
 20
3034.999999999998
 30
0.0
 41
45.0
 42
45.0
 43
45.0
 50
270.0
  0
INSERT
  5
100BF
330
100B6
100
AcDbEntity
  8
01注記寸法
 62
     0
370
    -2
100
AcDbBlockReference
  2
_Open
 10
905.0
 20
3004.999999999998
 30
0.0
 41
45.0
 42
45.0
 43
45.0
 50
90.0
  0
MTEXT
  5
100C0
330
100B6
100
AcDbEntity
  8
01注記寸法
 62
     0
100
AcDbMText
 10
867.5
 20
2873.157499999998
 30
0.0
 40
45.0
 41
0.0
 71
     5
 72
     1
  1
30
 11
0.0
 21
1.0
 31
0.0
 73
     1
 44
1.0
  0
POINT
  5
100C1
330
100B6
100
AcDbEntity
  8
Defpoints
 62
     0
100
AcDbPoint
 10
1127.0
 20
3034.999999999998
 30
0.0
  0
POINT
  5
100C2
330
100B6
100
AcDbEntity
  8
Defpoints
 62
     0
100
AcDbPoint
 10
1055.0
 20
3004.999999999998
 30
0.0
  0
POINT
  5
100C3
330
100B6
100
AcDbEntity
  8
Defpoints
 62
     0
100
AcDbPoint
 10
905.0
 20
3004.999999999998
 30
0.0
  0
ENDBLK
  5
100B8
330
100B6
100
AcDbEntity
  8
0
100
AcDbBlockEnd
  0
BLOCK
  5
100C5
330
100C4
100
AcDbEntity
  8
0
100
AcDbBlockBegin
  2
*D1277
 70
     1
 10
0.0
 20
0.0
 30
0.0
  3
*D1277
  1

  0
LINE
  5
100C7
330
100C4
100
AcDbEntity
  8
01注記寸法
 62
     0
370
    -2
100
AcDbLine
 10
1032.5
 20
3004.999999999998
 30
0.0
 11
740.0
 21
3004.999999999998
 31
0.0
  0
LINE
  5
100C8
330
100C4
100
AcDbEntity
  8
01注記寸法
 62
     0
370
    -2
100
AcDbLine
 10
1032.5
 20
3854.999999999998
 30
0.0
 11
740.0
 21
3854.999999999998
 31
0.0
  0
LINE
  5
100C9
330
100C4
100
AcDbEntity
  8
01注記寸法
 62
     0
370
    -2
100
AcDbLine
 10
755.0
 20
3049.999999999998
 30
0.0
 11
755.0
 21
3809.999999999998
 31
0.0
  0
INSERT
  5
100CA
330
100C4
100
AcDbEntity
  8
01注記寸法
 62
     0
370
    -2
100
AcDbBlockReference
  2
_Open
 10
755.0
 20
3004.999999999998
 30
0.0
 41
45.0
 42
45.0
 43
45.0
 50
270.0
  0
INSERT
  5
100CB
330
100C4
100
AcDbEntity
  8
01注記寸法
 62
     0
370
    -2
100
AcDbBlockReference
  2
_Open
 10
755.0
 20
3854.999999999998
 30
0.0
 41
45.0
 42
45.0
 43
45.0
 50
90.0
  0
MTEXT
  5
100CC
330
100C4
100
AcDbEntity
  8
01注記寸法
 62
     0
100
AcDbMText
 10
717.5
 20
3429.999999999998
 30
0.0
 40
45.0
 41
0.0
 71
     5
 72
     1
  1
850
 11
0.0
 21
1.0
 31
0.0
 73
     1
 44
1.0
  0
POINT
  5
100CD
330
100C4
100
AcDbEntity
  8
Defpoints
 62
     0
100
AcDbPoint
 10
1055.0
 20
3004.999999999998
 30
0.0
  0
POINT
  5
100CE
330
100C4
100
AcDbEntity
  8
Defpoints
 62
     0
100
AcDbPoint
 10
1055.0
 20
3854.999999999998
 30
0.0
  0
POINT
  5
100CF
330
100C4
100
AcDbEntity
  8
Defpoints
 62
     0
100
AcDbPoint
 10
755.0
 20
3854.999999999998
 30
0.0
  0
ENDBLK
  5
100C6
330
100C4
100
AcDbEntity
  8
0
100
AcDbBlockEnd
  0
BLOCK
  5
100D1
330
100D0
100
AcDbEntity
  8
0
100
AcDbBlockBegin
  2
*D1278
 70
     1
 10
0.0
 20
0.0
 30
0.0
  3
*D1278
  1

  0
LINE
  5
100D3
330
100D0
100
AcDbEntity
  8
01注記寸法
 62
     0
370
    -2
100
AcDbLine
 10
1055.0
 20
3877.499999999998
 30
0.0
 11
1055.0
 21
4019.999999999998
 31
0.0
  0
LINE
  5
100D4
330
100D0
100
AcDbEntity
  8
01注記寸法
 62
     0
370
    -2
100
AcDbLine
 10
1145.0
 20
3860.499999999998
 30
0.0
 11
1145.0
 21
4019.999999999998
 31
0.0
  0
LINE
  5
100D5
330
100D0
100
AcDbEntity
  8
01注記寸法
 62
     0
370
    -2
100
AcDbLine
 10
1055.0
 20
4004.999999999998
 30
0.0
 11
1145.0
 21
4004.999999999998
 31
0.0
  0
LINE
  5
100D6
330
100D0
100
AcDbEntity
  8
01注記寸法
 62
     0
370
    -2
100
AcDbLine
 10
1010.0
 20
4004.999999999998
 30
0.0
 11
965.0
 21
4004.999999999998
 31
0.0
  0
LINE
  5
100D7
330
100D0
100
AcDbEntity
  8
01注記寸法
 62
     0
370
    -2
100
AcDbLine
 10
1190.0
 20
4004.999999999998
 30
0.0
 11
1235.0
 21
4004.999999999998
 31
0.0
  0
INSERT
  5
100D8
330
100D0
100
AcDbEntity
  8
01注記寸法
 62
     0
370
    -2
100
AcDbBlockReference
  2
_Open
 10
1055.0
 20
4004.999999999998
 30
0.0
 41
45.0
 42
45.0
 43
45.0
  0
INSERT
  5
100D9
330
100D0
100
AcDbEntity
  8
01注記寸法
 62
     0
370
    -2
100
AcDbBlockReference
  2
_Open
 10
1145.0
 20
4004.999999999998
 30
0.0
 41
45.0
 42
45.0
 43
45.0
 50
180.0
  0
MTEXT
  5
100DA
330
100D0
100
AcDbEntity
  8
01注記寸法
 62
     0
100
AcDbMText
 10
1097.63545025
 20
4042.499999999998
 30
0.0
 40
45.0
 41
0.0
 71
     5
 72
     1
  1
90
 73
     1
 44
1.0
  0
POINT
  5
100DB
330
100D0
100
AcDbEntity
  8
Defpoints
 62
     0
100
AcDbPoint
 10
1055.0
 20
3854.999999999998
 30
0.0
  0
POINT
  5
100DC
330
100D0
100
AcDbEntity
  8
Defpoints
 62
     0
100
AcDbPoint
 10
1145.0
 20
3837.999999999998
 30
0.0
  0
POINT
  5
100DD
330
100D0
100
AcDbEntity
  8
Defpoints
 62
     0
100
AcDbPoint
 10
1145.0
 20
4004.999999999998
 30
0.0
  0
ENDBLK
  5
100D2
330
100D0
100
AcDbEntity
  8
0
100
AcDbBlockEnd
  0
BLOCK
  5
100DF
330
100DE
100
AcDbEntity
  8
0
100
AcDbBlockBegin
  2
*D1279
 70
     1
 10
0.0
 20
0.0
 30
0.0
  3
*D1279
  1

  0
LINE
  5
100E1
330
100DE
100
AcDbEntity
  8
01注記寸法
 62
     0
370
    -2
100
AcDbLine
 10
1145.0
 20
3860.499999999998
 30
0.0
 11
1145.0
 21
4019.999999999998
 31
0.0
  0
LINE
  5
100E2
330
100DE
100
AcDbEntity
  8
01注記寸法
 62
     0
370
    -2
100
AcDbLine
 10
1925.0
 20
3865.499999999998
 30
0.0
 11
1925.0
 21
4019.999999999998
 31
0.0
  0
LINE
  5
100E3
330
100DE
100
AcDbEntity
  8
01注記寸法
 62
     0
370
    -2
100
AcDbLine
 10
1190.0
 20
4004.999999999998
 30
0.0
 11
1880.0
 21
4004.999999999998
 31
0.0
  0
INSERT
  5
100E4
330
100DE
100
AcDbEntity
  8
01注記寸法
 62
     0
370
    -2
100
AcDbBlockReference
  2
_Open
 10
1145.0
 20
4004.999999999998
 30
0.0
 41
45.0
 42
45.0
 43
45.0
 50
180.0
  0
INSERT
  5
100E5
330
100DE
100
AcDbEntity
  8
01注記寸法
 62
     0
370
    -2
100
AcDbBlockReference
  2
_Open
 10
1925.0
 20
4004.999999999998
 30
0.0
 41
45.0
 42
45.0
 43
45.0
  0
MTEXT
  5
100E6
330
100DE
100
AcDbEntity
  8
01注記寸法
 62
     0
100
AcDbMText
 10
1535.0
 20
4042.499999999998
 30
0.0
 40
45.0
 41
0.0
 71
     5
 72
     1
  1
780
 73
     1
 44
1.0
  0
POINT
  5
100E7
330
100DE
100
AcDbEntity
  8
Defpoints
 62
     0
100
AcDbPoint
 10
1145.0
 20
3837.999999999998
 30
0.0
  0
POINT
  5
100E8
330
100DE
100
AcDbEntity
  8
Defpoints
 62
     0
100
AcDbPoint
 10
1925.0
 20
3842.999999999998
 30
0.0
  0
POINT
  5
100E9
330
100DE
100
AcDbEntity
  8
Defpoints
 62
     0
100
AcDbPoint
 10
1925.0
 20
4004.999999999998
 30
0.0
  0
ENDBLK
  5
100E0
330
100DE
100
AcDbEntity
  8
0
100
AcDbBlockEnd
  0
BLOCK
  5
100EB
330
100EA
100
AcDbEntity
  8
0
100
AcDbBlockBegin
  2
*D1280
 70
     1
 10
0.0
 20
0.0
 30
0.0
  3
*D1280
  1

  0
LINE
  5
100ED
330
100EA
100
AcDbEntity
  8
01注記寸法
 62
     0
370
    -2
100
AcDbLine
 10
1925.0
 20
3865.499999999998
 30
0.0
 11
1925.0
 21
4019.999999999998
 31
0.0
  0
LINE
  5
100EE
330
100EA
100
AcDbEntity
  8
01注記寸法
 62
     0
370
    -2
100
AcDbLine
 10
2705.0
 20
3860.499999999998
 30
0.0
 11
2705.0
 21
4019.999999999998
 31
0.0
  0
LINE
  5
100EF
330
100EA
100
AcDbEntity
  8
01注記寸法
 62
     0
370
    -2
100
AcDbLine
 10
1970.0
 20
4004.999999999998
 30
0.0
 11
2660.0
 21
4004.999999999998
 31
0.0
  0
INSERT
  5
100F0
330
100EA
100
AcDbEntity
  8
01注記寸法
 62
     0
370
    -2
100
AcDbBlockReference
  2
_Open
 10
1925.0
 20
4004.999999999998
 30
0.0
 41
45.0
 42
45.0
 43
45.0
 50
180.0
  0
INSERT
  5
100F1
330
100EA
100
AcDbEntity
  8
01注記寸法
 62
     0
370
    -2
100
AcDbBlockReference
  2
_Open
 10
2705.0
 20
4004.999999999998
 30
0.0
 41
45.0
 42
45.0
 43
45.0
  0
MTEXT
  5
100F2
330
100EA
100
AcDbEntity
  8
01注記寸法
 62
     0
100
AcDbMText
 10
2315.0
 20
4042.499999999998
 30
0.0
 40
45.0
 41
0.0
 71
     5
 72
     1
  1
780
 73
     1
 44
1.0
  0
POINT
  5
100F3
330
100EA
100
AcDbEntity
  8
Defpoints
 62
     0
100
AcDbPoint
 10
1925.0
 20
3842.999999999998
 30
0.0
  0
POINT
  5
100F4
330
100EA
100
AcDbEntity
  8
Defpoints
 62
     0
100
AcDbPoint
 10
2705.0
 20
3837.999999999998
 30
0.0
  0
POINT
  5
100F5
330
100EA
100
AcDbEntity
  8
Defpoints
 62
     0
100
AcDbPoint
 10
2705.0
 20
4004.999999999998
 30
0.0
  0
ENDBLK
  5
100EC
330
100EA
100
AcDbEntity
  8
0
100
AcDbBlockEnd
  0
BLOCK
  5
100F7
330
100F6
100
AcDbEntity
  8
0
100
AcDbBlockBegin
  2
*D1281
 70
     1
 10
0.0
 20
0.0
 30
0.0
  3
*D1281
  1

  0
LINE
  5
100F9
330
100F6
100
AcDbEntity
  8
01注記寸法
 62
     0
370
    -2
100
AcDbLine
 10
2705.0
 20
3860.499999999998
 30
0.0
 11
2705.0
 21
4019.999999999998
 31
0.0
  0
LINE
  5
100FA
330
100F6
100
AcDbEntity
  8
01注記寸法
 62
     0
370
    -2
100
AcDbLine
 10
2795.0
 20
3877.499999999998
 30
0.0
 11
2795.0
 21
4019.999999999998
 31
0.0
  0
LINE
  5
100FB
330
100F6
100
AcDbEntity
  8
01注記寸法
 62
     0
370
    -2
100
AcDbLine
 10
2705.0
 20
4004.999999999998
 30
0.0
 11
2795.0
 21
4004.999999999998
 31
0.0
  0
LINE
  5
100FC
330
100F6
100
AcDbEntity
  8
01注記寸法
 62
     0
370
    -2
100
AcDbLine
 10
2660.0
 20
4004.999999999998
 30
0.0
 11
2615.0
 21
4004.999999999998
 31
0.0
  0
LINE
  5
100FD
330
100F6
100
AcDbEntity
  8
01注記寸法
 62
     0
370
    -2
100
AcDbLine
 10
2840.0
 20
4004.999999999998
 30
0.0
 11
2885.0
 21
4004.999999999998
 31
0.0
  0
INSERT
  5
100FE
330
100F6
100
AcDbEntity
  8
01注記寸法
 62
     0
370
    -2
100
AcDbBlockReference
  2
_Open
 10
2705.0
 20
4004.999999999998
 30
0.0
 41
45.0
 42
45.0
 43
45.0
  0
INSERT
  5
100FF
330
100F6
100
AcDbEntity
  8
01注記寸法
 62
     0
370
    -2
100
AcDbBlockReference
  2
_Open
 10
2795.0
 20
4004.999999999998
 30
0.0
 41
45.0
 42
45.0
 43
45.0
 50
180.0
  0
MTEXT
  5
10100
330
100F6
100
AcDbEntity
  8
01注記寸法
 62
     0
100
AcDbMText
 10
2750.0
 20
4042.499999999998
 30
0.0
 40
45.0
 41
0.0
 71
     5
 72
     1
  1
90
 73
     1
 44
1.0
  0
POINT
  5
10101
330
100F6
100
AcDbEntity
  8
Defpoints
 62
     0
100
AcDbPoint
 10
2705.0
 20
3837.999999999998
 30
0.0
  0
POINT
  5
10102
330
100F6
100
AcDbEntity
  8
Defpoints
 62
     0
100
AcDbPoint
 10
2795.0
 20
3854.999999999998
 30
0.0
  0
POINT
  5
10103
330
100F6
100
AcDbEntity
  8
Defpoints
 62
     0
100
AcDbPoint
 10
2795.0
 20
4004.999999999998
 30
0.0
  0
ENDBLK
  5
100F8
330
100F6
100
AcDbEntity
  8
0
100
AcDbBlockEnd
  0
BLOCK
  5
10105
330
10104
100
AcDbEntity
  8
0
100
AcDbBlockBegin
  2
*D1282
 70
     1
 10
0.0
 20
0.0
 30
0.0
  3
*D1282
  1

  0
LINE
  5
10107
330
10104
100
AcDbEntity
  8
01注記寸法
 62
     0
370
    -2
100
AcDbLine
 10
1055.0
 20
3877.499999999998
 30
0.0
 11
1055.0
 21
4169.999999999998
 31
0.0
  0
LINE
  5
10108
330
10104
100
AcDbEntity
  8
01注記寸法
 62
     0
370
    -2
100
AcDbLine
 10
2795.0
 20
3877.499999999998
 30
0.0
 11
2795.0
 21
4169.999999999998
 31
0.0
  0
LINE
  5
10109
330
10104
100
AcDbEntity
  8
01注記寸法
 62
     0
370
    -2
100
AcDbLine
 10
1100.0
 20
4154.999999999998
 30
0.0
 11
2750.0
 21
4154.999999999998
 31
0.0
  0
INSERT
  5
1010A
330
10104
100
AcDbEntity
  8
01注記寸法
 62
     0
370
    -2
100
AcDbBlockReference
  2
_Open
 10
1055.0
 20
4154.999999999998
 30
0.0
 41
45.0
 42
45.0
 43
45.0
 50
180.0
  0
INSERT
  5
1010B
330
10104
100
AcDbEntity
  8
01注記寸法
 62
     0
370
    -2
100
AcDbBlockReference
  2
_Open
 10
2795.0
 20
4154.999999999998
 30
0.0
 41
45.0
 42
45.0
 43
45.0
  0
MTEXT
  5
1010C
330
10104
100
AcDbEntity
  8
01注記寸法
 62
     0
100
AcDbMText
 10
1925.0
 20
4192.499999999998
 30
0.0
 40
45.0
 41
0.0
 71
     5
 72
     1
  1
1740
 73
     1
 44
1.0
  0
POINT
  5
1010D
330
10104
100
AcDbEntity
  8
Defpoints
 62
     0
100
AcDbPoint
 10
1055.0
 20
3854.999999999998
 30
0.0
  0
POINT
  5
1010E
330
10104
100
AcDbEntity
  8
Defpoints
 62
     0
100
AcDbPoint
 10
2795.0
 20
3854.999999999998
 30
0.0
  0
POINT
  5
1010F
330
10104
100
AcDbEntity
  8
Defpoints
 62
     0
100
AcDbPoint
 10
2795.0
 20
4154.999999999998
 30
0.0
  0
ENDBLK
  5
10106
330
10104
100
AcDbEntity
  8
0
100
AcDbBlockEnd
  0
BLOCK
  5
10111
330
10110
100
AcDbEntity
  8
0
100
AcDbBlockBegin
  2
*D1283
 70
     1
 10
0.0
 20
0.0
 30
0.0
  3
*D1283
  1

  0
LINE
  5
10113
330
10110
100
AcDbEntity
  8
01注記寸法
 62
     0
370
    -2
100
AcDbLine
 10
1022.5
 20
1600.000000000002
 30
0.0
 11
890.0
 21
1600.000000000002
 31
0.0
  0
LINE
  5
10114
330
10110
100
AcDbEntity
  8
01注記寸法
 62
     0
370
    -2
100
AcDbLine
 10
1032.5
 20
1800.000000000002
 30
0.0
 11
890.0
 21
1800.000000000002
 31
0.0
  0
LINE
  5
10115
330
10110
100
AcDbEntity
  8
01注記寸法
 62
     0
370
    -2
100
AcDbLine
 10
905.0
 20
1645.000000000002
 30
0.0
 11
905.0
 21
1755.000000000002
 31
0.0
  0
INSERT
  5
10116
330
10110
100
AcDbEntity
  8
01注記寸法
 62
     0
370
    -2
100
AcDbBlockReference
  2
_Open
 10
905.0
 20
1600.000000000002
 30
0.0
 41
45.0
 42
45.0
 43
45.0
 50
270.0
  0
INSERT
  5
10117
330
10110
100
AcDbEntity
  8
01注記寸法
 62
     0
370
    -2
100
AcDbBlockReference
  2
_Open
 10
905.0
 20
1800.000000000002
 30
0.0
 41
45.0
 42
45.0
 43
45.0
 50
90.0
  0
MTEXT
  5
10118
330
10110
100
AcDbEntity
  8
01注記寸法
 62
     0
100
AcDbMText
 10
867.5
 20
1700.000000000002
 30
0.0
 40
45.0
 41
0.0
 71
     5
 72
     1
  1
200
 11
0.0
 21
1.0
 31
0.0
 73
     1
 44
1.0
  0
POINT
  5
10119
330
10110
100
AcDbEntity
  8
Defpoints
 62
     0
100
AcDbPoint
 10
1045.0
 20
1600.000000000002
 30
0.0
  0
POINT
  5
1011A
330
10110
100
AcDbEntity
  8
Defpoints
 62
     0
100
AcDbPoint
 10
1055.0
 20
1800.000000000002
 30
0.0
  0
POINT
  5
1011B
330
10110
100
AcDbEntity
  8
Defpoints
 62
     0
100
AcDbPoint
 10
905.0
 20
1800.000000000002
 30
0.0
  0
ENDBLK
  5
10112
330
10110
100
AcDbEntity
  8
0
100
AcDbBlockEnd
  0
BLOCK
  5
1011D
330
1011C
100
AcDbEntity
  8
0
100
AcDbBlockBegin
  2
*D1284
 70
     1
 10
0.0
 20
0.0
 30
0.0
  3
*D1284
  1

  0
LINE
  5
1011F
330
1011C
100
AcDbEntity
  8
01注記寸法
 62
     0
370
    -2
100
AcDbLine
 10
1022.5
 20
1600.000000000002
 30
0.0
 11
739.9999999999999
 21
1600.000000000002
 31
0.0
  0
LINE
  5
10120
330
1011C
100
AcDbEntity
  8
01注記寸法
 62
     0
370
    -2
100
AcDbLine
 10
1032.5
 20
2600.000000000002
 30
0.0
 11
740.0
 21
2600.000000000002
 31
0.0
  0
LINE
  5
10121
330
1011C
100
AcDbEntity
  8
01注記寸法
 62
     0
370
    -2
100
AcDbLine
 10
754.9999999999999
 20
1645.000000000002
 30
0.0
 11
755.0
 21
2555.000000000002
 31
0.0
  0
INSERT
  5
10122
330
1011C
100
AcDbEntity
  8
01注記寸法
 62
     0
370
    -2
100
AcDbBlockReference
  2
_Open
 10
754.9999999999999
 20
1600.000000000002
 30
0.0
 41
45.0
 42
45.0
 43
45.0
 50
270.0
  0
INSERT
  5
10123
330
1011C
100
AcDbEntity
  8
01注記寸法
 62
     0
370
    -2
100
AcDbBlockReference
  2
_Open
 10
755.0
 20
2600.000000000002
 30
0.0
 41
45.0
 42
45.0
 43
45.0
 50
90.0
  0
MTEXT
  5
10124
330
1011C
100
AcDbEntity
  8
01注記寸法
 62
     0
100
AcDbMText
 10
717.5
 20
2100.000000000002
 30
0.0
 40
45.0
 41
0.0
 71
     5
 72
     1
  1
1000
 11
1.136868377216160E-16
 21
1.0
 31
0.0
 73
     1
 44
1.0
  0
POINT
  5
10125
330
1011C
100
AcDbEntity
  8
Defpoints
 62
     0
100
AcDbPoint
 10
1045.0
 20
1600.000000000002
 30
0.0
  0
POINT
  5
10126
330
1011C
100
AcDbEntity
  8
Defpoints
 62
     0
100
AcDbPoint
 10
1055.0
 20
2600.000000000002
 30
0.0
  0
POINT
  5
10127
330
1011C
100
AcDbEntity
  8
Defpoints
 62
     0
100
AcDbPoint
 10
755.0
 20
2600.000000000002
 30
0.0
  0
ENDBLK
  5
1011E
330
1011C
100
AcDbEntity
  8
0
100
AcDbBlockEnd
  0
BLOCK
  5
10129
330
10128
100
AcDbEntity
  8
0
100
AcDbBlockBegin
  2
*D1285
 70
     1
 10
0.0
 20
0.0
 30
0.0
  3
*D1285
  1

  0
LINE
  5
1012B
330
10128
100
AcDbEntity
  8
01注記寸法
 62
     0
370
    -2
100
AcDbLine
 10
569.1970930211755
 20
1150.000000000002
 30
0.0
 11
426.6970930211755
 21
1150.000000000002
 31
0.0
  0
LINE
  5
1012C
330
10128
100
AcDbEntity
  8
01注記寸法
 62
     0
370
    -2
100
AcDbLine
 10
614.1970930211755
 20
1085.000000000002
 30
0.0
 11
426.6970930211755
 21
1085.000000000002
 31
0.0
  0
LINE
  5
1012D
330
10128
100
AcDbEntity
  8
01注記寸法
 62
     0
370
    -2
100
AcDbLine
 10
441.6970930211755
 20
1150.000000000002
 30
0.0
 11
441.6970930211755
 21
1085.000000000002
 31
0.0
  0
LINE
  5
1012E
330
10128
100
AcDbEntity
  8
01注記寸法
 62
     0
370
    -2
100
AcDbLine
 10
441.6970930211755
 20
1195.000000000002
 30
0.0
 11
441.6970930211755
 21
1240.000000000002
 31
0.0
  0
LINE
  5
1012F
330
10128
100
AcDbEntity
  8
01注記寸法
 62
     0
370
    -2
100
AcDbLine
 10
441.6970930211755
 20
1040.000000000002
 30
0.0
 11
441.6970930211755
 21
995.0000000000018
 31
0.0
  0
INSERT
  5
10130
330
10128
100
AcDbEntity
  8
01注記寸法
 62
     0
370
    -2
100
AcDbBlockReference
  2
_Open
 10
441.6970930211755
 20
1150.000000000002
 30
0.0
 41
45.0
 42
45.0
 43
45.0
 50
270.0
  0
INSERT
  5
10131
330
10128
100
AcDbEntity
  8
01注記寸法
 62
     0
370
    -2
100
AcDbBlockReference
  2
_Open
 10
441.6970930211755
 20
1085.000000000002
 30
0.0
 41
45.0
 42
45.0
 43
45.0
 50
90.0
  0
MTEXT
  5
10132
330
10128
100
AcDbEntity
  8
01注記寸法
 62
     0
100
AcDbMText
 10
404.1970930211755
 20
1117.500000000002
 30
0.0
 40
45.0
 41
0.0
 71
     5
 72
     1
  1
65
 11
0.0
 21
1.0
 31
0.0
 73
     1
 44
1.0
  0
POINT
  5
10133
330
10128
100
AcDbEntity
  8
Defpoints
 62
     0
100
AcDbPoint
 10
591.6970930211755
 20
1150.000000000002
 30
0.0
  0
POINT
  5
10134
330
10128
100
AcDbEntity
  8
Defpoints
 62
     0
100
AcDbPoint
 10
636.6970930211755
 20
1085.000000000002
 30
0.0
  0
POINT
  5
10135
330
10128
100
AcDbEntity
  8
Defpoints
 62
     0
100
AcDbPoint
 10
441.6970930211755
 20
1085.000000000002
 30
0.0
  0
ENDBLK
  5
1012A
330
10128
100
AcDbEntity
  8
0
100
AcDbBlockEnd
  0
BLOCK
  5
10137
330
10136
100
AcDbEntity
  8
0
100
AcDbBlockBegin
  2
*D1286
 70
     1
 10
0.0
 20
0.0
 30
0.0
  3
*D1286
  1

  0
LINE
  5
10139
330
10136
100
AcDbEntity
  8
01注記寸法
 62
     0
370
    -2
100
AcDbLine
 10
614.1970930211755
 20
1085.000000000002
 30
0.0
 11
426.6970930211756
 21
1085.000000000002
 31
0.0
  0
LINE
  5
1013A
330
10136
100
AcDbEntity
  8
01注記寸法
 62
     0
370
    -2
100
AcDbLine
 10
614.1970930211755
 20
365.0
 30
0.0
 11
426.6970930211755
 21
365.0
 31
0.0
  0
LINE
  5
1013B
330
10136
100
AcDbEntity
  8
01注記寸法
 62
     0
370
    -2
100
AcDbLine
 10
441.6970930211756
 20
1040.000000000002
 30
0.0
 11
441.6970930211755
 21
410.0
 31
0.0
  0
INSERT
  5
1013C
330
10136
100
AcDbEntity
  8
01注記寸法
 62
     0
370
    -2
100
AcDbBlockReference
  2
_Open
 10
441.6970930211756
 20
1085.000000000002
 30
0.0
 41
45.0
 42
45.0
 43
45.0
 50
90.0
  0
INSERT
  5
1013D
330
10136
100
AcDbEntity
  8
01注記寸法
 62
     0
370
    -2
100
AcDbBlockReference
  2
_Open
 10
441.6970930211755
 20
365.0
 30
0.0
 41
45.0
 42
45.0
 43
45.0
 50
270.0
  0
MTEXT
  5
1013E
330
10136
100
AcDbEntity
  8
01注記寸法
 62
     0
100
AcDbMText
 10
404.1970930211755
 20
725.0000000000009
 30
0.0
 40
45.0
 41
0.0
 71
     5
 72
     1
  1
720
 11
7.894919286223316E-17
 21
1.0
 31
0.0
 73
     1
 44
1.0
  0
POINT
  5
1013F
330
10136
100
AcDbEntity
  8
Defpoints
 62
     0
100
AcDbPoint
 10
636.6970930211755
 20
1085.000000000002
 30
0.0
  0
POINT
  5
10140
330
10136
100
AcDbEntity
  8
Defpoints
 62
     0
100
AcDbPoint
 10
636.6970930211755
 20
365.0
 30
0.0
  0
POINT
  5
10141
330
10136
100
AcDbEntity
  8
Defpoints
 62
     0
100
AcDbPoint
 10
441.6970930211755
 20
365.0
 30
0.0
  0
ENDBLK
  5
10138
330
10136
100
AcDbEntity
  8
0
100
AcDbBlockEnd
  0
BLOCK
  5
10143
330
10142
100
AcDbEntity
  8
0
100
AcDbBlockBegin
  2
*D1287
 70
     1
 10
0.0
 20
0.0
 30
0.0
  3
*D1287
  1

  0
LINE
  5
10145
330
10142
100
AcDbEntity
  8
01注記寸法
 62
     0
370
    -2
100
AcDbLine
 10
614.1970930211755
 20
365.0
 30
0.0
 11
426.6970930211755
 21
365.0
 31
0.0
  0
LINE
  5
10146
330
10142
100
AcDbEntity
  8
01注記寸法
 62
     0
370
    -2
100
AcDbLine
 10
569.1970930211755
 20
300.0000000000018
 30
0.0
 11
426.6970930211755
 21
300.0000000000018
 31
0.0
  0
LINE
  5
10147
330
10142
100
AcDbEntity
  8
01注記寸法
 62
     0
370
    -2
100
AcDbLine
 10
441.6970930211755
 20
365.0
 30
0.0
 11
441.6970930211755
 21
300.0000000000018
 31
0.0
  0
LINE
  5
10148
330
10142
100
AcDbEntity
  8
01注記寸法
 62
     0
370
    -2
100
AcDbLine
 10
441.6970930211755
 20
410.0
 30
0.0
 11
441.6970930211755
 21
455.0
 31
0.0
  0
LINE
  5
10149
330
10142
100
AcDbEntity
  8
01注記寸法
 62
     0
370
    -2
100
AcDbLine
 10
441.6970930211755
 20
255.0000000000018
 30
0.0
 11
441.6970930211755
 21
210.0000000000018
 31
0.0
  0
INSERT
  5
1014A
330
10142
100
AcDbEntity
  8
01注記寸法
 62
     0
370
    -2
100
AcDbBlockReference
  2
_Open
 10
441.6970930211755
 20
365.0
 30
0.0
 41
45.0
 42
45.0
 43
45.0
 50
270.0
  0
INSERT
  5
1014B
330
10142
100
AcDbEntity
  8
01注記寸法
 62
     0
370
    -2
100
AcDbBlockReference
  2
_Open
 10
441.6970930211755
 20
300.0000000000018
 30
0.0
 41
45.0
 42
45.0
 43
45.0
 50
90.0
  0
MTEXT
  5
1014C
330
10142
100
AcDbEntity
  8
01注記寸法
 62
     0
100
AcDbMText
 10
404.1970930211755
 20
332.5
 30
0.0
 40
45.0
 41
0.0
 71
     5
 72
     1
  1
65
 11
0.0
 21
1.0
 31
0.0
 73
     1
 44
1.0
  0
POINT
  5
1014D
330
10142
100
AcDbEntity
  8
Defpoints
 62
     0
100
AcDbPoint
 10
636.6970930211755
 20
365.0
 30
0.0
  0
POINT
  5
1014E
330
10142
100
AcDbEntity
  8
Defpoints
 62
     0
100
AcDbPoint
 10
591.6970930211755
 20
300.0000000000018
 30
0.0
  0
POINT
  5
1014F
330
10142
100
AcDbEntity
  8
Defpoints
 62
     0
100
AcDbPoint
 10
441.6970930211755
 20
300.0000000000018
 30
0.0
  0
ENDBLK
  5
10144
330
10142
100
AcDbEntity
  8
0
100
AcDbBlockEnd
  0
BLOCK
  5
10151
330
10150
100
AcDbEntity
  8
0
100
AcDbBlockBegin
  2
*D1288
 70
     1
 10
0.0
 20
0.0
 30
0.0
  3
*D1288
  1

  0
LINE
  5
10153
330
10150
100
AcDbEntity
  8
01注記寸法
 62
     0
370
    -2
100
AcDbLine
 10
591.6970930211755
 20
1172.500000000002
 30
0.0
 11
591.6970930211755
 21
1315.000000000002
 31
0.0
  0
LINE
  5
10154
330
10150
100
AcDbEntity
  8
01注記寸法
 62
     0
370
    -2
100
AcDbLine
 10
656.6970930211755
 20
1127.500000000002
 30
0.0
 11
656.6970930211755
 21
1315.000000000002
 31
0.0
  0
LINE
  5
10155
330
10150
100
AcDbEntity
  8
01注記寸法
 62
     0
370
    -2
100
AcDbLine
 10
591.6970930211755
 20
1300.000000000002
 30
0.0
 11
656.6970930211755
 21
1300.000000000002
 31
0.0
  0
LINE
  5
10156
330
10150
100
AcDbEntity
  8
01注記寸法
 62
     0
370
    -2
100
AcDbLine
 10
546.6970930211755
 20
1300.000000000002
 30
0.0
 11
501.6970930211755
 21
1300.000000000002
 31
0.0
  0
LINE
  5
10157
330
10150
100
AcDbEntity
  8
01注記寸法
 62
     0
370
    -2
100
AcDbLine
 10
701.6970930211755
 20
1300.000000000002
 30
0.0
 11
746.6970930211755
 21
1300.000000000002
 31
0.0
  0
INSERT
  5
10158
330
10150
100
AcDbEntity
  8
01注記寸法
 62
     0
370
    -2
100
AcDbBlockReference
  2
_Open
 10
591.6970930211755
 20
1300.000000000002
 30
0.0
 41
45.0
 42
45.0
 43
45.0
  0
INSERT
  5
10159
330
10150
100
AcDbEntity
  8
01注記寸法
 62
     0
370
    -2
100
AcDbBlockReference
  2
_Open
 10
656.6970930211755
 20
1300.000000000002
 30
0.0
 41
45.0
 42
45.0
 43
45.0
 50
180.0
  0
MTEXT
  5
1015A
330
10150
100
AcDbEntity
  8
01注記寸法
 62
     0
100
AcDbMText
 10
624.1970930211755
 20
1337.500000000002
 30
0.0
 40
45.0
 41
0.0
 71
     5
 72
     1
  1
65
 73
     1
 44
1.0
  0
POINT
  5
1015B
330
10150
100
AcDbEntity
  8
Defpoints
 62
     0
100
AcDbPoint
 10
591.6970930211755
 20
1150.000000000002
 30
0.0
  0
POINT
  5
1015C
330
10150
100
AcDbEntity
  8
Defpoints
 62
     0
100
AcDbPoint
 10
656.6970930211755
 20
1105.000000000002
 30
0.0
  0
POINT
  5
1015D
330
10150
100
AcDbEntity
  8
Defpoints
 62
     0
100
AcDbPoint
 10
656.6970930211755
 20
1300.000000000002
 30
0.0
  0
ENDBLK
  5
10152
330
10150
100
AcDbEntity
  8
0
100
AcDbBlockEnd
  0
BLOCK
  5
1015F
330
1015E
100
AcDbEntity
  8
0
100
AcDbBlockBegin
  2
*D1289
 70
     1
 10
0.0
 20
0.0
 30
0.0
  3
*D1289
  1

  0
LINE
  5
10161
330
1015E
100
AcDbEntity
  8
01注記寸法
 62
     0
370
    -2
100
AcDbLine
 10
656.6970930211755
 20
1127.500000000002
 30
0.0
 11
656.6970930211755
 21
1315.000000000002
 31
0.0
  0
LINE
  5
10162
330
1015E
100
AcDbEntity
  8
01注記寸法
 62
     0
370
    -2
100
AcDbLine
 10
1466.697093021176
 20
1127.500000000002
 30
0.0
 11
1466.697093021176
 21
1315.000000000002
 31
0.0
  0
LINE
  5
10163
330
1015E
100
AcDbEntity
  8
01注記寸法
 62
     0
370
    -2
100
AcDbLine
 10
701.6970930211755
 20
1300.000000000002
 30
0.0
 11
1421.697093021176
 21
1300.000000000002
 31
0.0
  0
INSERT
  5
10164
330
1015E
100
AcDbEntity
  8
01注記寸法
 62
     0
370
    -2
100
AcDbBlockReference
  2
_Open
 10
656.6970930211755
 20
1300.000000000002
 30
0.0
 41
45.0
 42
45.0
 43
45.0
 50
180.0
  0
INSERT
  5
10165
330
1015E
100
AcDbEntity
  8
01注記寸法
 62
     0
370
    -2
100
AcDbBlockReference
  2
_Open
 10
1466.697093021176
 20
1300.000000000002
 30
0.0
 41
45.0
 42
45.0
 43
45.0
  0
MTEXT
  5
10166
330
1015E
100
AcDbEntity
  8
01注記寸法
 62
     0
100
AcDbMText
 10
1061.697093021176
 20
1337.500000000002
 30
0.0
 40
45.0
 41
0.0
 71
     5
 72
     1
  1
810
 73
     1
 44
1.0
  0
POINT
  5
10167
330
1015E
100
AcDbEntity
  8
Defpoints
 62
     0
100
AcDbPoint
 10
656.6970930211755
 20
1105.000000000002
 30
0.0
  0
POINT
  5
10168
330
1015E
100
AcDbEntity
  8
Defpoints
 62
     0
100
AcDbPoint
 10
1466.697093021176
 20
1105.000000000002
 30
0.0
  0
POINT
  5
10169
330
1015E
100
AcDbEntity
  8
Defpoints
 62
     0
100
AcDbPoint
 10
1466.697093021176
 20
1300.000000000002
 30
0.0
  0
ENDBLK
  5
10160
330
1015E
100
AcDbEntity
  8
0
100
AcDbBlockEnd
  0
BLOCK
  5
1016B
330
1016A
100
AcDbEntity
  8
0
100
AcDbBlockBegin
  2
*D1290
 70
     1
 10
0.0
 20
0.0
 30
0.0
  3
*D1290
  1

  0
LINE
  5
1016D
330
1016A
100
AcDbEntity
  8
01注記寸法
 62
     0
370
    -2
100
AcDbLine
 10
1466.697093021176
 20
1127.500000000002
 30
0.0
 11
1466.697093021176
 21
1315.000000000002
 31
0.0
  0
LINE
  5
1016E
330
1016A
100
AcDbEntity
  8
01注記寸法
 62
     0
370
    -2
100
AcDbLine
 10
2276.697093021176
 20
1127.500000000002
 30
0.0
 11
2276.697093021176
 21
1315.000000000002
 31
0.0
  0
LINE
  5
1016F
330
1016A
100
AcDbEntity
  8
01注記寸法
 62
     0
370
    -2
100
AcDbLine
 10
1511.697093021176
 20
1300.000000000002
 30
0.0
 11
2231.697093021176
 21
1300.000000000002
 31
0.0
  0
INSERT
  5
10170
330
1016A
100
AcDbEntity
  8
01注記寸法
 62
     0
370
    -2
100
AcDbBlockReference
  2
_Open
 10
1466.697093021176
 20
1300.000000000002
 30
0.0
 41
45.0
 42
45.0
 43
45.0
 50
180.0
  0
INSERT
  5
10171
330
1016A
100
AcDbEntity
  8
01注記寸法
 62
     0
370
    -2
100
AcDbBlockReference
  2
_Open
 10
2276.697093021176
 20
1300.000000000002
 30
0.0
 41
45.0
 42
45.0
 43
45.0
  0
MTEXT
  5
10172
330
1016A
100
AcDbEntity
  8
01注記寸法
 62
     0
100
AcDbMText
 10
1871.697093021176
 20
1337.500000000002
 30
0.0
 40
45.0
 41
0.0
 71
     5
 72
     1
  1
810
 73
     1
 44
1.0
  0
POINT
  5
10173
330
1016A
100
AcDbEntity
  8
Defpoints
 62
     0
100
AcDbPoint
 10
1466.697093021176
 20
1105.000000000002
 30
0.0
  0
POINT
  5
10174
330
1016A
100
AcDbEntity
  8
Defpoints
 62
     0
100
AcDbPoint
 10
2276.697093021176
 20
1105.000000000002
 30
0.0
  0
POINT
  5
10175
330
1016A
100
AcDbEntity
  8
Defpoints
 62
     0
100
AcDbPoint
 10
2276.697093021176
 20
1300.000000000002
 30
0.0
  0
ENDBLK
  5
1016C
330
1016A
100
AcDbEntity
  8
0
100
AcDbBlockEnd
  0
BLOCK
  5
10177
330
10176
100
AcDbEntity
  8
0
100
AcDbBlockBegin
  2
*D1291
 70
     1
 10
0.0
 20
0.0
 30
0.0
  3
*D1291
  1

  0
LINE
  5
10179
330
10176
100
AcDbEntity
  8
01注記寸法
 62
     0
370
    -2
100
AcDbLine
 10
2276.697093021176
 20
1127.500000000002
 30
0.0
 11
2276.697093021176
 21
1315.000000000002
 31
0.0
  0
LINE
  5
1017A
330
10176
100
AcDbEntity
  8
01注記寸法
 62
     0
370
    -2
100
AcDbLine
 10
2341.697093021176
 20
1172.500000000002
 30
0.0
 11
2341.697093021176
 21
1315.000000000002
 31
0.0
  0
LINE
  5
1017B
330
10176
100
AcDbEntity
  8
01注記寸法
 62
     0
370
    -2
100
AcDbLine
 10
2276.697093021176
 20
1300.000000000002
 30
0.0
 11
2341.697093021176
 21
1300.000000000002
 31
0.0
  0
LINE
  5
1017C
330
10176
100
AcDbEntity
  8
01注記寸法
 62
     0
370
    -2
100
AcDbLine
 10
2231.697093021176
 20
1300.000000000002
 30
0.0
 11
2186.697093021176
 21
1300.000000000002
 31
0.0
  0
LINE
  5
1017D
330
10176
100
AcDbEntity
  8
01注記寸法
 62
     0
370
    -2
100
AcDbLine
 10
2386.697093021176
 20
1300.000000000002
 30
0.0
 11
2431.697093021176
 21
1300.000000000002
 31
0.0
  0
INSERT
  5
1017E
330
10176
100
AcDbEntity
  8
01注記寸法
 62
     0
370
    -2
100
AcDbBlockReference
  2
_Open
 10
2276.697093021176
 20
1300.000000000002
 30
0.0
 41
45.0
 42
45.0
 43
45.0
  0
INSERT
  5
1017F
330
10176
100
AcDbEntity
  8
01注記寸法
 62
     0
370
    -2
100
AcDbBlockReference
  2
_Open
 10
2341.697093021176
 20
1300.000000000002
 30
0.0
 41
45.0
 42
45.0
 43
45.0
 50
180.0
  0
MTEXT
  5
10180
330
10176
100
AcDbEntity
  8
01注記寸法
 62
     0
100
AcDbMText
 10
2309.197093021176
 20
1337.500000000002
 30
0.0
 40
45.0
 41
0.0
 71
     5
 72
     1
  1
65
 73
     1
 44
1.0
  0
POINT
  5
10181
330
10176
100
AcDbEntity
  8
Defpoints
 62
     0
100
AcDbPoint
 10
2276.697093021176
 20
1105.000000000002
 30
0.0
  0
POINT
  5
10182
330
10176
100
AcDbEntity
  8
Defpoints
 62
     0
100
AcDbPoint
 10
2341.697093021176
 20
1150.000000000002
 30
0.0
  0
POINT
  5
10183
330
10176
100
AcDbEntity
  8
Defpoints
 62
     0
100
AcDbPoint
 10
2341.697093021176
 20
1300.000000000002
 30
0.0
  0
ENDBLK
  5
10178
330
10176
100
AcDbEntity
  8
0
100
AcDbBlockEnd
  0
BLOCK
  5
10228
330
10227
100
AcDbEntity
  8
0
100
AcDbBlockBegin
  2
1-MDL323
 70
     0
 10
0.0
 20
0.0
 30
0.0
  3
1-MDL323
  1

  0
LWPOLYLINE
  5
10229
330
10227
100
AcDbEntity
  8
12防振架台
100
AcDbPolyline
 90
        4
 70
     1
 43
0.0
 10
0.0
 20
0.0
 10
0.0
 20
850.0000000000009
 10
1740.0
 20
850.0000000000009
 10
1740.0
 20
0.0
  0
LWPOLYLINE
  5
1022A
330
10227
100
AcDbEntity
  8
12防振架台
100
AcDbPolyline
 90
        4
 70
     1
 43
0.0
 10
60.0
 20
60.0
 10
60.0
 20
790.0000000000009
 10
1680.0
 20
790.0000000000009
 10
1680.0
 20
60.0
  0
LWPOLYLINE
  5
1022B
330
10227
100
AcDbEntity
  8
12防振架台
100
AcDbPolyline
 90
        4
 70
     1
 43
0.0
 10
840.0
 20
60.0
 10
840.0
 20
790.0000000000009
 10
900.0
 20
790.0000000000009
 10
900.0
 20
60.0
  0
CIRCLE
  5
1022C
330
10227
100
AcDbEntity
  8
12防振架台
100
AcDbCircle
 10
100.0
 20
30.0
 30
0.0
 40
8.0
  0
CIRCLE
  5
1022D
330
10227
100
AcDbEntity
  8
12防振架台
100
AcDbCircle
 10
100.0
 20
820.0000000000009
 30
0.0
 40
8.0
  0
CIRCLE
  5
1022E
330
10227
100
AcDbEntity
  8
12防振架台
100
AcDbCircle
 10
1640.0
 20
30.0
 30
0.0
 40
8.0
  0
CIRCLE
  5
1022F
330
10227
100
AcDbEntity
  8
12防振架台
100
AcDbCircle
 10
1640.0
 20
820.0000000000009
 30
0.0
 40
8.0
  0
LINE
  5
10230
330
10227
100
AcDbEntity
  8
12防振架台
  6
PHANTOM
100
AcDbLine
 10
60.0
 20
738.0
 30
0.0
 11
1680.0
 21
738.0
 31
0.0
  0
LINE
  5
10231
330
10227
100
AcDbEntity
  8
12防振架台
  6
PHANTOM
100
AcDbLine
 10
60.0
 20
112.0
 30
0.0
 11
1680.0
 21
112.0
 31
0.0
  0
CIRCLE
  5
10232
330
10227
100
AcDbEntity
  8
12防振架台
100
AcDbCircle
 10
1660.0
 20
30.0
 30
0.0
 40
8.0
  0
CIRCLE
  5
10233
330
10227
100
AcDbEntity
  8
12防振架台
100
AcDbCircle
 10
1660.0
 20
820.0
 30
0.0
 40
8.0
  0
CIRCLE
  5
10234
330
10227
100
AcDbEntity
  8
12防振架台
100
AcDbCircle
 10
80.0
 20
30.0
 30
0.0
 40
8.0
  0
CIRCLE
  5
10235
330
10227
100
AcDbEntity
  8
12防振架台
100
AcDbCircle
 10
80.0
 20
820.0
 30
0.0
 40
8.0
  0
CIRCLE
  5
10236
330
10227
100
AcDbEntity
  8
12防振架台
100
AcDbCircle
 10
870.0
 20
30.0
 30
0.0
 40
8.0
  0
CIRCLE
  5
10237
330
10227
100
AcDbEntity
  8
12防振架台
100
AcDbCircle
 10
870.0
 20
820.0
 30
0.0
 40
8.0
  0
ENDBLK
  5
10238
330
10227
100
AcDbEntity
  8
0
100
AcDbBlockEnd
  0
BLOCK
  5
10245
330
10244
100
AcDbEntity
  8
0
100
AcDbBlockBegin
  2
*D1299
 70
     1
 10
0.0
 20
0.0
 30
0.0
  3
*D1299
  1

  0
LINE
  5
10247
330
10244
100
AcDbEntity
  8
01注記寸法
 62
     0
370
    -2
100
AcDbLine
 10
2972.747806279924
 20
1052.631554470514
 30
0.0
 11
3089.627806279924
 21
1052.631554470514
 31
0.0
  0
LINE
  5
10248
330
10244
100
AcDbEntity
  8
01注記寸法
 62
     0
370
    -2
100
AcDbLine
 10
3089.627806279924
 20
1052.631554470514
 30
0.0
 11
3210.302071404526
 21
909.438487633636
 31
0.0
  0
LINE
  5
10249
330
10244
100
AcDbEntity
  8
01注記寸法
 62
     0
370
    -2
100
AcDbLine
 10
3314.697928595474
 20
785.561512366364
 30
0.0
 11
3343.696777815181
 21
751.1512414587892
 31
0.0
  0
MTEXT
  5
1024A
330
10244
100
AcDbEntity
  8
01注記寸法
 62
     0
100
AcDbMText
 10
3023.687806279924
 20
1093.776554470514
 30
0.0
 40
45.0
 41
0.0
 71
     5
 72
     1
  1
φ16
 73
     1
 44
1.0
  0
LINE
  5
1024B
330
10244
100
AcDbEntity
  8
01注記寸法
 62
     0
370
    -2
100
AcDbLine
 10
3285.699079375767
 20
819.9717832739389
 30
0.0
 11
3239.300920624233
 21
875.0282167260611
 31
0.0
  0
INSERT
  5
1024C
330
10244
100
AcDbEntity
  8
01注記寸法
 62
     0
370
    -2
100
AcDbBlockReference
  2
_Open
 10
3285.699079375767
 20
819.9717832739389
 30
0.0
 41
45.0
 42
45.0
 43
45.0
 50
130.1221184277505
  0
INSERT
  5
1024D
330
10244
100
AcDbEntity
  8
01注記寸法
 62
     0
370
    -2
100
AcDbBlockReference
  2
_Open
 10
3239.300920624233
 20
875.0282167260611
 30
0.0
 41
45.0
 42
45.0
 43
45.0
 50
310.1221184277505
  0
POINT
  5
1024E
330
10244
100
AcDbEntity
  8
Defpoints
 62
     0
100
AcDbPoint
 10
3239.300920624233
 20
875.0282167260611
 30
0.0
  0
POINT
  5
1024F
330
10244
100
AcDbEntity
  8
Defpoints
 62
     0
100
AcDbPoint
 10
3285.699079375767
 20
819.9717832739389
 30
0.0
  0
ENDBLK
  5
10246
330
10244
100
AcDbEntity
  8
0
100
AcDbBlockEnd
  0
BLOCK
  5
10251
330
10250
100
AcDbEntity
  8
0
100
AcDbBlockBegin
  2
*D1300
 70
     1
 10
0.0
 20
0.0
 30
0.0
  3
*D1300
  1

  0
LINE
  5
10253
330
10250
100
AcDbEntity
  8
01注記寸法
 62
     0
370
    -2
100
AcDbLine
 10
4231.948425990814
 20
1052.631554470514
 30
0.0
 11
4348.828425990816
 21
1052.631554470514
 31
0.0
  0
LINE
  5
10254
330
10250
100
AcDbEntity
  8
01注記寸法
 62
     0
370
    -2
100
AcDbLine
 10
4348.828425990816
 20
1052.631554470514
 30
0.0
 11
4396.803483850463
 21
923.433873871836
 31
0.0
  0
LINE
  5
10255
330
10250
100
AcDbEntity
  8
01注記寸法
 62
     0
370
    -2
100
AcDbLine
 10
4453.196632328482
 20
771.5661261281633
 30
0.0
 11
4468.861395794599
 21
729.3806406438096
 31
0.0
  0
MTEXT
  5
10256
330
10250
100
AcDbEntity
  8
01注記寸法
 62
     0
100
AcDbMText
 10
4282.888425990814
 20
1093.776554470514
 30
0.0
 40
45.0
 41
0.0
 71
     5
 72
     1
  1
φ16
 73
     1
 44
1.0
  0
LINE
  5
10257
330
10250
100
AcDbEntity
  8
01注記寸法
 62
     0
370
    -2
100
AcDbLine
 10
4437.531868862366
 20
813.7516116125171
 30
0.0
 11
4412.468247316579
 21
881.2483883874822
 31
0.0
  0
INSERT
  5
10258
330
10250
100
AcDbEntity
  8
01注記寸法
 62
     0
370
    -2
100
AcDbBlockReference
  2
_Open
 10
4437.531868862366
 20
813.7516116125171
 30
0.0
 41
45.0
 42
45.0
 43
45.0
 50
110.3715044189433
  0
INSERT
  5
10259
330
10250
100
AcDbEntity
  8
01注記寸法
 62
     0
370
    -2
100
AcDbBlockReference
  2
_Open
 10
4412.468247316579
 20
881.2483883874822
 30
0.0
 41
45.0
 42
45.0
 43
45.0
 50
290.3715044189432
  0
POINT
  5
1025A
330
10250
100
AcDbEntity
  8
Defpoints
 62
     0
100
AcDbPoint
 10
4412.468247316579
 20
881.2483883874822
 30
0.0
  0
POINT
  5
1025B
330
10250
100
AcDbEntity
  8
Defpoints
 62
     0
100
AcDbPoint
 10
4437.531868862366
 20
813.7516116125171
 30
0.0
  0
ENDBLK
  5
10252
330
10250
100
AcDbEntity
  8
0
100
AcDbBlockEnd
  0
BLOCK
  5
102FE
330
102FD
100
AcDbEntity
  8
0
100
AcDbBlockBegin
  2
*D1306
 70
     1
 10
0.0
 20
0.0
 30
0.0
  3
*D1306
  1

  0
LINE
  5
10300
330
102FD
100
AcDbEntity
  8
01注記寸法
 62
     0
370
    -2
100
AcDbLine
 10
3302.5
 20
3116.999999999998
 30
0.0
 11
3080.0
 21
3116.999999999998
 31
0.0
  0
LINE
  5
10301
330
102FD
100
AcDbEntity
  8
01注記寸法
 62
     0
370
    -2
100
AcDbLine
 10
3302.5
 20
3052.999999999998
 30
0.0
 11
3080.0
 21
3052.999999999998
 31
0.0
  0
LINE
  5
10302
330
102FD
100
AcDbEntity
  8
01注記寸法
 62
     0
370
    -2
100
AcDbLine
 10
3095.0
 20
3116.999999999998
 30
0.0
 11
3095.0
 21
3052.999999999998
 31
0.0
  0
LINE
  5
10303
330
102FD
100
AcDbEntity
  8
01注記寸法
 62
     0
370
    -2
100
AcDbLine
 10
3095.0
 20
3161.999999999998
 30
0.0
 11
3095.0
 21
3206.999999999998
 31
0.0
  0
LINE
  5
10304
330
102FD
100
AcDbEntity
  8
01注記寸法
 62
     0
370
    -2
100
AcDbLine
 10
3095.0
 20
3007.999999999998
 30
0.0
 11
3095.0
 21
2962.999999999998
 31
0.0
  0
INSERT
  5
10305
330
102FD
100
AcDbEntity
  8
01注記寸法
 62
     0
370
    -2
100
AcDbBlockReference
  2
_Open
 10
3095.0
 20
3116.999999999998
 30
0.0
 41
45.0
 42
45.0
 43
45.0
 50
270.0
  0
INSERT
  5
10306
330
102FD
100
AcDbEntity
  8
01注記寸法
 62
     0
370
    -2
100
AcDbBlockReference
  2
_Open
 10
3095.0
 20
3052.999999999998
 30
0.0
 41
45.0
 42
45.0
 43
45.0
 50
90.0
  0
MTEXT
  5
10307
330
102FD
100
AcDbEntity
  8
01注記寸法
 62
     0
100
AcDbMText
 10
3057.5
 20
3084.999999999998
 30
0.0
 40
45.0
 41
0.0
 71
     5
 72
     1
  1
16
 11
0.0
 21
1.0
 31
0.0
 73
     1
 44
1.0
  0
POINT
  5
10308
330
102FD
100
AcDbEntity
  8
Defpoints
 62
     0
100
AcDbPoint
 10
3325.0
 20
3116.999999999998
 30
0.0
  0
POINT
  5
10309
330
102FD
100
AcDbEntity
  8
Defpoints
 62
     0
100
AcDbPoint
 10
3325.0
 20
3052.999999999998
 30
0.0
  0
POINT
  5
1030A
330
102FD
100
AcDbEntity
  8
Defpoints
 62
     0
100
AcDbPoint
 10
3095.0
 20
3052.999999999998
 30
0.0
  0
ENDBLK
  5
102FF
330
102FD
100
AcDbEntity
  8
0
100
AcDbBlockEnd
  0
BLOCK
  5
1030C
330
1030B
100
AcDbEntity
  8
0
100
AcDbBlockBegin
  2
*D1307
 70
     1
 10
0.0
 20
0.0
 30
0.0
  3
*D1307
  1

  0
LINE
  5
1030E
330
1030B
100
AcDbEntity
  8
01注記寸法
 62
     0
370
    -2
100
AcDbLine
 10
3293.0
 20
3107.499999999998
 30
0.0
 11
3293.0
 21
3329.999999999998
 31
0.0
  0
LINE
  5
1030F
330
1030B
100
AcDbEntity
  8
01注記寸法
 62
     0
370
    -2
100
AcDbLine
 10
3437.0
 20
3107.499999999998
 30
0.0
 11
3437.0
 21
3329.999999999998
 31
0.0
  0
LINE
  5
10310
330
1030B
100
AcDbEntity
  8
01注記寸法
 62
     0
370
    -2
100
AcDbLine
 10
3338.0
 20
3314.999999999998
 30
0.0
 11
3392.0
 21
3314.999999999998
 31
0.0
  0
INSERT
  5
10311
330
1030B
100
AcDbEntity
  8
01注記寸法
 62
     0
370
    -2
100
AcDbBlockReference
  2
_Open
 10
3293.0
 20
3314.999999999998
 30
0.0
 41
45.0
 42
45.0
 43
45.0
 50
180.0
  0
INSERT
  5
10312
330
1030B
100
AcDbEntity
  8
01注記寸法
 62
     0
370
    -2
100
AcDbBlockReference
  2
_Open
 10
3437.0
 20
3314.999999999998
 30
0.0
 41
45.0
 42
45.0
 43
45.0
  0
MTEXT
  5
10313
330
1030B
100
AcDbEntity
  8
01注記寸法
 62
     0
100
AcDbMText
 10
3365.0
 20
3352.499999999998
 30
0.0
 40
45.0
 41
0.0
 71
     5
 72
     1
  1
36
 73
     1
 44
1.0
  0
POINT
  5
10314
330
1030B
100
AcDbEntity
  8
Defpoints
 62
     0
100
AcDbPoint
 10
3293.0
 20
3084.999999999998
 30
0.0
  0
POINT
  5
10315
330
1030B
100
AcDbEntity
  8
Defpoints
 62
     0
100
AcDbPoint
 10
3437.0
 20
3084.999999999998
 30
0.0
  0
POINT
  5
10316
330
1030B
100
AcDbEntity
  8
Defpoints
 62
     0
100
AcDbPoint
 10
3437.0
 20
3314.999999999998
 30
0.0
  0
ENDBLK
  5
1030D
330
1030B
100
AcDbEntity
  8
0
100
AcDbBlockEnd
  0
BLOCK
  5
10318
330
10317
100
AcDbEntity
  8
0
100
AcDbBlockBegin
  2
*D1308
 70
     1
 10
0.0
 20
0.0
 30
0.0
  3
*D1308
  1

  0
LINE
  5
1031A
330
10317
100
AcDbEntity
  8
01注記寸法
 62
     0
370
    -2
100
AcDbLine
 10
3464.405690450273
 20
3036.010573159848
 30
0.0
 11
3586.60010969659
 21
2935.24186705495
 31
0.0
  0
MTEXT
  5
1031B
330
10317
100
AcDbEntity
  8
01注記寸法
 62
     0
100
AcDbMText
 10
3566.720192821961
 20
3000.242470600669
 30
0.0
 40
45.0
 41
0.0
 71
     5
 72
     1
  1
2-R
 11
0.7715024733801612
 21
-0.6362263225993511
 31
0.0
 73
     1
 44
1.0
  0
LINE
  5
1031C
330
10317
100
AcDbEntity
  8
01注記寸法
 62
     0
370
    -2
100
AcDbLine
 10
3405.0
 20
3084.999999999998
 30
0.0
 11
3429.688079148166
 21
3064.640757676819
 31
0.0
  0
INSERT
  5
1031D
330
10317
100
AcDbEntity
  8
01注記寸法
 62
     0
370
    -2
100
AcDbBlockReference
  2
_Open
 10
3429.688079148166
 20
3064.640757676819
 30
0.0
 41
45.0
 42
45.0
 43
45.0
 50
140.4890020230029
  0
POINT
  5
1031E
330
10317
100
AcDbEntity
  8
Defpoints
 62
     0
100
AcDbPoint
 10
3429.688079148166
 20
3064.640757676819
 30
0.0
  0
POINT
  5
1031F
330
10317
100
AcDbEntity
  8
Defpoints
 62
     0
100
AcDbPoint
 10
3405.0
 20
3084.999999999998
 30
0.0
  0
ENDBLK
  5
10319
330
10317
100
AcDbEntity
  8
0
100
AcDbBlockEnd
  0
ENDSEC
  0
SECTION
  2
ENTITIES
  0
LWPOLYLINE
  5
FEA6
330
1F
100
AcDbEntity
  8
02実線
100
AcDbPolyline
 90
        4
 70
     1
 43
0.0
 10
1055.0
 20
3004.999999999998
 10
1055.0
 20
3854.999999999998
 10
2795.0
 20
3854.999999999998
 10
2795.0
 20
3004.999999999998
  0
LWPOLYLINE
  5
FEA7
330
1F
100
AcDbEntity
  8
03破線
100
AcDbPolyline
 90
        8
 70
     1
 43
0.0
 10
1061.0
 20
3019.499999999998
 10
1061.0
 20
3840.499999999998
 42
-0.414213562373095
 10
1069.5
 20
3848.999999999998
 10
2780.5
 20
3848.999999999998
 42
-0.414213562373095
 10
2789.0
 20
3840.499999999998
 10
2789.0
 20
3019.499999999998
 42
-0.414213562373095
 10
2780.5
 20
3010.999999999998
 10
1069.5
 20
3010.999999999998
 42
-0.414213562373095
  0
LWPOLYLINE
  5
FEA8
330
1F
100
AcDbEntity
  8
03破線
100
AcDbPolyline
 90
        6
 70
     0
 43
0.0
 10
1061.0
 20
1606.000000000002
 10
1061.0
 20
2585.500000000002
 42
-0.414213562373095
 10
1069.5
 20
2594.000000000002
 10
2780.5
 20
2594.000000000002
 42
-0.414213562373095
 10
2789.0
 20
2585.500000000002
 10
2789.0
 20
1606.000000000002
  0
LWPOLYLINE
  5
FEA9
330
1F
100
AcDbEntity
  8
02実線
100
AcDbPolyline
 90
        4
 70
     0
 43
0.0
 10
1055.0
 20
1606.000000000002
 10
1055.0
 20
2600.000000000002
 10
2795.0
 20
2600.000000000002
 10
2795.0
 20
1606.000000000002
  0
LWPOLYLINE
  5
FEAA
330
1F
100
AcDbEntity
  8
02実線
100
AcDbPolyline
 90
        4
 70
     1
 43
0.0
 10
1045.0
 20
1600.000000000002
 10
1045.0
 20
1606.000000000002
 10
1145.0
 20
1606.000000000002
 10
1145.0
 20
1600.000000000002
  0
LINE
  5
FEAB
330
1F
100
AcDbEntity
  8
04一点鎖線
  6
CENTER
100
AcDbLine
 10
1120.0
 20
1590.000000000002
 30
0.0
 11
1120.0
 21
1616.000000000002
 31
0.0
  0
LINE
  5
FEAC
330
1F
100
AcDbEntity
  8
04一点鎖線
  6
CENTER
100
AcDbLine
 10
2730.0
 20
1590.000000000002
 30
0.0
 11
2730.0
 21
1616.000000000002
 31
0.0
  0
LWPOLYLINE
  5
FEAD
330
1F
100
AcDbEntity
  8
02実線
100
AcDbPolyline
 90
        4
 70
     1
 43
0.0
 10
2805.0
 20
1600.000000000002
 10
2805.0
 20
1606.000000000002
 10
2705.0
 20
1606.000000000002
 10
2705.0
 20
1600.000000000002
  0
LINE
  5
FEAE
330
1F
100
AcDbEntity
  8
03破線
100
AcDbLine
 10
1120.0
 20
3134.999999999998
 30
0.0
 11
1061.0
 21
3134.999999999998
 31
0.0
  0
LINE
  5
FEAF
330
1F
100
AcDbEntity
  8
03破線
100
AcDbLine
 10
2730.0
 20
3134.999999999998
 30
0.0
 11
2789.0
 21
3134.999999999998
 31
0.0
  0
LINE
  5
FEB0
330
1F
100
AcDbEntity
  8
03破線
100
AcDbLine
 10
2789.0
 20
3128.999999999998
 30
0.0
 11
1061.0
 21
3128.999999999998
 31
0.0
  0
LWPOLYLINE
  5
FEB1
330
1F
100
AcDbEntity
  8
02実線
100
AcDbPolyline
 90
        4
 70
     0
 43
0.0
 10
1120.0
 20
1606.000000000002
 10
1120.0
 20
2535.000000000002
 10
2730.0
 20
2535.000000000002
 10
2730.0
 20
1606.000000000002
  0
INSERT
  5
FEB2
330
1F
100
AcDbEntity
  8
03破線
100
AcDbBlockReference
  2
L65x65xt6-破線
 10
1055.0
 20
1800.000000000002
 30
0.0
  0
INSERT
  5
FEB3
330
1F
100
AcDbEntity
  8
03破線
100
AcDbBlockReference
  2
L65x65xt6-破線
 10
1055.0
 20
2600.000000000002
 30
0.0
  0
INSERT
  5
FEB4
330
1F
100
AcDbEntity
  8
03破線
100
AcDbBlockReference
  2
L65x65xt6-破線
 10
2795.0
 20
2600.000000000002
 30
0.0
 41
-1.0
  0
INSERT
  5
FEB5
330
1F
100
AcDbEntity
  8
03破線
100
AcDbBlockReference
  2
L65x65xt6-破線
 10
2795.0
 20
1800.000000000002
 30
0.0
 41
-1.0
  0
LWPOLYLINE
  5
FEB6
330
1F
100
AcDbEntity
  8
02実線
100
AcDbPolyline
 90
        4
 70
     1
 43
0.0
 10
1120.0
 20
3069.999999999998
 10
1120.0
 20
3789.999999999998
 10
2730.0
 20
3789.999999999998
 10
2730.0
 20
3069.999999999998
  0
INSERT
  5
FEB7
330
1F
100
AcDbEntity
  8
03破線
100
AcDbBlockReference
  2
L65x65xt6-破線
 10
1055.0
 20
3854.999999999998
 30
0.0
  0
INSERT
  5
FEB8
330
1F
100
AcDbEntity
  8
03破線
100
AcDbBlockReference
  2
L65x65xt6-破線
 10
2795.0
 20
3854.999999999998
 30
0.0
 41
-1.0
  0
INSERT
  5
FEB9
330
1F
100
AcDbEntity
  8
03破線
100
AcDbBlockReference
  2
L65x65xt6-破線
 10
1055.0
 20
3004.999999999998
 30
0.0
 41
-1.0
 50
180.0
  0
INSERT
  5
FEBA
330
1F
100
AcDbEntity
  8
03破線
100
AcDbBlockReference
  2
L65x65xt6-破線
 10
2795.0
 20
3004.999999999998
 30
0.0
 50
180.0
  0
LWPOLYLINE
  5
FEBB
330
1F
100
AcDbEntity
  8
02実線
100
AcDbPolyline
 90
        4
 70
     1
 43
0.0
 10
1885.0
 20
2555.000000000002
 10
1885.0
 20
2580.000000000002
 10
1965.0
 20
2580.000000000002
 10
1965.0
 20
2555.000000000002
  0
LINE
  5
FEBC
330
1F
100
AcDbEntity
  8
02実線
100
AcDbLine
 10
1892.5
 20
1800.000000000002
 30
0.0
 11
1120.0
 21
1800.000000000002
 31
0.0
  0
LINE
  5
FEBD
330
1F
100
AcDbEntity
  8
03破線
100
AcDbLine
 10
1892.5
 20
1794.000000000002
 30
0.0
 11
1120.0
 21
1794.000000000002
 31
0.0
  0
LINE
  5
FEBE
330
1F
100
AcDbEntity
  8
02実線
100
AcDbLine
 10
1892.5
 20
1735.000000000002
 30
0.0
 11
1120.0
 21
1735.000000000002
 31
0.0
  0
LINE
  5
FEBF
330
1F
100
AcDbEntity
  8
02実線
100
AcDbLine
 10
2730.0
 20
1800.000000000002
 30
0.0
 11
1957.5
 21
1800.000000000002
 31
0.0
  0
LINE
  5
FEC0
330
1F
100
AcDbEntity
  8
02実線
100
AcDbLine
 10
2730.0
 20
1735.000000000002
 30
0.0
 11
1957.5
 21
1735.000000000002
 31
0.0
  0
LINE
  5
FEC1
330
1F
100
AcDbEntity
  8
03破線
100
AcDbLine
 10
2730.0
 20
1794.000000000002
 30
0.0
 11
1957.5
 21
1794.000000000002
 31
0.0
  0
INSERT
  5
FEC2
330
1F
100
AcDbEntity
  8
03破線
100
AcDbBlockReference
  2
L65x65xt6-破線
 10
1892.5
 20
3004.999999999998
 30
0.0
 41
-1.0
 50
180.0
  0
INSERT
  5
FEC3
330
1F
100
AcDbEntity
  8
03破線
100
AcDbBlockReference
  2
L65x65xt6-破線
 10
1892.5
 20
3854.999999999998
 30
0.0
  0
LWPOLYLINE
  5
FF4F
330
1F
100
AcDbEntity
  8
03破線
100
AcDbPolyline
 90
        6
 70
     0
 43
0.0
 10
3256.0
 20
1606.000000000002
 10
3256.0
 20
2585.500000000002
 42
-0.414213562373095
 10
3264.5
 20
2594.000000000002
 10
4085.5
 20
2594.000000000002
 42
-0.414213562373095
 10
4094.0
 20
2585.500000000002
 10
4094.0
 20
1606.000000000002
  0
LWPOLYLINE
  5
FF50
330
1F
100
AcDbEntity
  8
02実線
100
AcDbPolyline
 90
        4
 70
     0
 43
0.0
 10
3250.0
 20
1606.000000000002
 10
3250.0
 20
2600.000000000002
 10
4100.0
 20
2600.000000000002
 10
4100.0
 20
1606.000000000002
  0
LWPOLYLINE
  5
FF51
330
1F
100
AcDbEntity
  8
02実線
100
AcDbPolyline
 90
        4
 70
     1
 43
0.0
 10
3240.0
 20
1600.000000000002
 10
3240.0
 20
1606.000000000002
 10
3340.0
 20
1606.000000000002
 10
3340.0
 20
1600.000000000002
  0
LINE
  5
FF52
330
1F
100
AcDbEntity
  8
04一点鎖線
  6
CENTER
100
AcDbLine
 10
3315.0
 20
1590.000000000002
 30
0.0
 11
3315.0
 21
1616.000000000002
 31
0.0
  0
LINE
  5
FF53
330
1F
100
AcDbEntity
  8
04一点鎖線
  6
CENTER
100
AcDbLine
 10
4035.0
 20
1590.000000000002
 30
0.0
 11
4035.0
 21
1616.000000000002
 31
0.0
  0
LWPOLYLINE
  5
FF54
330
1F
100
AcDbEntity
  8
02実線
100
AcDbPolyline
 90
        4
 70
     1
 43
0.0
 10
4110.0
 20
1600.000000000002
 10
4110.0
 20
1606.000000000002
 10
4010.0
 20
1606.000000000002
 10
4010.0
 20
1600.000000000002
  0
LINE
  5
FF55
330
1F
100
AcDbEntity
  8
03破線
100
AcDbLine
 10
4035.0
 20
1794.000000000002
 30
0.0
 11
3315.0
 21
1794.000000000002
 31
0.0
  0
LINE
  5
FF56
330
1F
100
AcDbEntity
  8
02実線
100
AcDbLine
 10
4035.0
 20
1800.000000000002
 30
0.0
 11
3315.0
 21
1800.000000000002
 31
0.0
  0
LINE
  5
FF57
330
1F
100
AcDbEntity
  8
02実線
100
AcDbLine
 10
4035.0
 20
1735.000000000002
 30
0.0
 11
3315.0
 21
1735.000000000002
 31
0.0
  0
LWPOLYLINE
  5
FF58
330
1F
100
AcDbEntity
  8
02実線
100
AcDbPolyline
 90
        4
 70
     0
 43
0.0
 10
3315.0
 20
1606.000000000002
 10
3315.0
 20
2535.000000000002
 10
4035.0
 20
2535.000000000002
 10
4035.0
 20
1606.000000000002
  0
INSERT
  5
FF59
330
1F
100
AcDbEntity
  8
03破線
100
AcDbBlockReference
  2
L65x65xt6-破線
 10
3250.0
 20
1800.000000000002
 30
0.0
  0
INSERT
  5
FF5A
330
1F
100
AcDbEntity
  8
03破線
100
AcDbBlockReference
  2
L65x65xt6-破線
 10
3250.0
 20
2600.000000000002
 30
0.0
  0
INSERT
  5
FF5B
330
1F
100
AcDbEntity
  8
03破線
100
AcDbBlockReference
  2
L65x65xt6-破線
 10
4100.0
 20
2600.000000000002
 30
0.0
 41
-1.0
  0
INSERT
  5
FF5C
330
1F
100
AcDbEntity
  8
03破線
100
AcDbBlockReference
  2
L65x65xt6-破線
 10
4100.0
 20
1800.000000000002
 30
0.0
 41
-1.0
  0
LWPOLYLINE
  5
FF7C
330
1F
100
AcDbEntity
  8
02実線
100
AcDbPolyline
 90
        4
 70
     1
 43
0.0
 10
1120.0
 20
3069.999999999998
 10
1120.0
 20
3134.999999999998
 10
2730.0
 20
3134.999999999998
 10
2730.0
 20
3069.999999999998
  0
LINE
  5
FF7D
330
1F
100
AcDbEntity
  8
08非表示
100
AcDbLine
 10
1120.0
 20
3102.499999999998
 30
0.0
 11
2730.0
 21
3102.499999999998
 31
0.0
  0
LWPOLYLINE
  5
FF7F
330
1F
100
AcDbEntity
  8
02実線
100
AcDbPolyline
 90
        4
 70
     1
 43
0.0
 10
1875.0
 20
1600.000000000002
 10
1875.0
 20
1606.000000000002
 10
1975.0
 20
1606.000000000002
 10
1975.0
 20
1600.000000000002
  0
LINE
  5
FF80
330
1F
100
AcDbEntity
  8
04一点鎖線
  6
CENTER
100
AcDbLine
 10
1925.0
 20
1590.000000000002
 30
0.0
 11
1925.0
 21
1616.000000000002
 31
0.0
  0
LINE
  5
FF81
330
1F
100
AcDbEntity
  8
03破線
100
AcDbLine
 10
1898.5
 20
1606.000000000002
 30
0.0
 11
1898.5
 21
2594.000000000002
 31
0.0
  0
INSERT
  5
FF82
330
1F
100
AcDbEntity
  8
03破線
100
AcDbBlockReference
  2
L65x65xt6-破線
 10
1892.5
 20
1800.000000000002
 30
0.0
  0
LWPOLYLINE
  5
FF83
330
1F
100
AcDbEntity
  8
02実線
100
AcDbPolyline
 90
        4
 70
     1
 43
0.0
 10
1892.5
 20
1606.000000000002
 10
1892.5
 20
2535.000000000002
 10
1957.5
 20
2535.000000000002
 10
1957.5
 20
1606.000000000002
  0
LINE
  5
FF84
330
1F
100
AcDbEntity
  8
08非表示
100
AcDbLine
 10
1925.0
 20
2535.000000000002
 30
0.0
 11
1925.0
 21
1606.000000000002
 31
0.0
  0
LINE
  5
FF85
330
1F
100
AcDbEntity
  8
03破線
100
AcDbLine
 10
1892.5
 20
2535.000000000002
 30
0.0
 11
1892.5
 21
2594.000000000002
 31
0.0
  0
INSERT
  5
FF8B
330
1F
100
AcDbEntity
  8
03破線
100
AcDbBlockReference
  2
L65x65xt6-破線
 10
3380.0
 20
2600.000000000002
 30
0.0
 41
-1.0
  0
INSERT
  5
FF8C
330
1F
100
AcDbEntity
  8
03破線
100
AcDbBlockReference
  2
L65x65xt6-破線
 10
3970.0
 20
2600.000000000002
 30
0.0
  0
LINE
  5
FF8D
330
1F
100
AcDbEntity
  8
04一点鎖線
100
AcDbLine
 10
3280.0
 20
2583.283347876039
 30
0.0
 11
3280.0
 21
2616.716652123965
 31
0.0
  0
LINE
  5
FF8E
330
1F
100
AcDbEntity
  8
04一点鎖線
100
AcDbLine
 10
4070.0
 20
2583.283347876039
 30
0.0
 11
4070.0
 21
2616.716652123965
 31
0.0
  0
LINE
  5
FF8F
330
1F
100
AcDbEntity
  8
03破線
100
AcDbLine
 10
1120.0
 20
3724.999999999998
 30
0.0
 11
1061.0
 21
3724.999999999998
 31
0.0
  0
LINE
  5
FF90
330
1F
100
AcDbEntity
  8
03破線
100
AcDbLine
 10
2730.0
 20
3724.999999999998
 30
0.0
 11
2789.0
 21
3724.999999999998
 31
0.0
  0
LINE
  5
FF91
330
1F
100
AcDbEntity
  8
03破線
100
AcDbLine
 10
2789.0
 20
3730.999999999998
 30
0.0
 11
1061.0
 21
3730.999999999998
 31
0.0
  0
LWPOLYLINE
  5
FF92
330
1F
100
AcDbEntity
  8
02実線
100
AcDbPolyline
 90
        4
 70
     1
 43
0.0
 10
1120.0
 20
3789.999999999998
 10
1120.0
 20
3724.999999999998
 10
2730.0
 20
3724.999999999998
 10
2730.0
 20
3789.999999999998
  0
LINE
  5
FF93
330
1F
100
AcDbEntity
  8
08非表示
100
AcDbLine
 10
1120.0
 20
3757.499999999998
 30
0.0
 11
2730.0
 21
3757.499999999998
 31
0.0
  0
INSERT
  5
FF9E
330
1F
100
AcDbEntity
  8
10副資材
100
AcDbBlockReference
  2
平W-M12
 10
1135.0
 20
3824.999999999998
 30
0.0
  0
INSERT
  5
FF9F
330
1F
100
AcDbEntity
  8
02実線
100
AcDbBlockReference
  2
hole-φ16
 10
1925.0
 20
3824.999999999998
 30
0.0
  0
INSERT
  5
FFA0
330
1F
100
AcDbEntity
  8
10副資材
100
AcDbBlockReference
  2
平W-M12
 10
1925.0
 20
3824.999999999998
 30
0.0
  0
LINE
  5
FFA1
330
1F
100
AcDbEntity
  8
04一点鎖線
100
AcDbLine
 10
1145.270900499998
 20
2579.000000000002
 30
0.0
 11
1145.270900499998
 21
2615.000000000002
 31
0.0
  0
LINE
  5
FFA2
330
1F
100
AcDbEntity
  8
04一点鎖線
100
AcDbLine
 10
1925.2709005
 20
2579.000000000002
 30
0.0
 11
1925.2709005
 21
2615.000000000002
 31
0.0
  0
LINE
  5
FFA3
330
1F
100
AcDbEntity
  8
04一点鎖線
100
AcDbLine
 10
2705.2709005
 20
2579.000000000002
 30
0.0
 11
2705.2709005
 21
2615.000000000002
 31
0.0
  0
LWPOLYLINE
  5
FFC1
330
1F
100
AcDbEntity
  8
02実線
100
AcDbPolyline
 90
        5
 70
     0
 43
0.0
 10
1135.0
 20
3832.999999999998
 10
1155.0
 20
3832.999999999998
 42
-1.0
 10
1155.0
 20
3816.999999999998
 10
1135.0
 20
3816.999999999998
 42
-1.0
 10
1135.0
 20
3832.999999999998
  0
LINE
  5
FFC2
330
1F
100
AcDbEntity
  8
04一点鎖線
100
AcDbLine
 10
1145.0
 20
3811.999999999998
 30
0.0
 11
1145.0
 21
3837.999999999998
 31
0.0
  0
LINE
  5
FFC3
330
1F
100
AcDbEntity
  8
04一点鎖線
100
AcDbLine
 10
1168.0
 20
3824.999999999998
 30
0.0
 11
1122.0
 21
3824.999999999998
 31
0.0
  0
INSERT
  5
FFC4
330
1F
100
AcDbEntity
  8
10副資材
100
AcDbBlockReference
  2
平W-M12
 10
1155.0
 20
3824.999999999998
 30
0.0
  0
LWPOLYLINE
  5
FFC5
330
1F
100
AcDbEntity
  8
02実線
100
AcDbPolyline
 90
        5
 70
     0
 43
0.0
 10
2695.0
 20
3832.999999999998
 10
2715.0
 20
3832.999999999998
 42
-1.0
 10
2715.0
 20
3816.999999999998
 10
2695.0
 20
3816.999999999998
 42
-1.0
 10
2695.0
 20
3832.999999999998
  0
LINE
  5
FFC6
330
1F
100
AcDbEntity
  8
04一点鎖線
100
AcDbLine
 10
2705.0
 20
3811.999999999998
 30
0.0
 11
2705.0
 21
3837.999999999998
 31
0.0
  0
LINE
  5
FFC7
330
1F
100
AcDbEntity
  8
04一点鎖線
100
AcDbLine
 10
2728.0
 20
3824.999999999998
 30
0.0
 11
2682.0
 21
3824.999999999998
 31
0.0
  0
LWPOLYLINE
  5
FFC8
330
1F
100
AcDbEntity
  8
02実線
100
AcDbPolyline
 90
        5
 70
     0
 43
0.0
 10
1135.0
 20
3026.999999999998
 10
1155.0
 20
3026.999999999998
 42
1.0
 10
1155.0
 20
3042.999999999998
 10
1135.0
 20
3042.999999999998
 42
1.0
 10
1135.0
 20
3026.999999999998
  0
LINE
  5
FFC9
330
1F
100
AcDbEntity
  8
04一点鎖線
100
AcDbLine
 10
1145.0
 20
3047.999999999998
 30
0.0
 11
1145.0
 21
3021.999999999998
 31
0.0
  0
LINE
  5
FFCA
330
1F
100
AcDbEntity
  8
04一点鎖線
100
AcDbLine
 10
1168.0
 20
3034.999999999998
 30
0.0
 11
1122.0
 21
3034.999999999998
 31
0.0
  0
INSERT
  5
FFCB
330
1F
100
AcDbEntity
  8
02実線
100
AcDbBlockReference
  2
hole-φ16
 10
1925.0
 20
3034.999999999998
 30
0.0
 41
-1.0
 50
180.0
  0
LWPOLYLINE
  5
FFCC
330
1F
100
AcDbEntity
  8
02実線
100
AcDbPolyline
 90
        5
 70
     0
 43
0.0
 10
2695.0
 20
3026.999999999998
 10
2715.0
 20
3026.999999999998
 42
1.0
 10
2715.0
 20
3042.999999999998
 10
2695.0
 20
3042.999999999998
 42
1.0
 10
2695.0
 20
3026.999999999998
  0
LINE
  5
FFCD
330
1F
100
AcDbEntity
  8
04一点鎖線
100
AcDbLine
 10
2705.0
 20
3047.999999999998
 30
0.0
 11
2705.0
 21
3021.999999999998
 31
0.0
  0
LINE
  5
FFCE
330
1F
100
AcDbEntity
  8
04一点鎖線
100
AcDbLine
 10
2728.0
 20
3034.999999999998
 30
0.0
 11
2682.0
 21
3034.999999999998
 31
0.0
  0
VIEWPORT
  5
9F0D
330
1B
100
AcDbEntity
 67
     1
  8
0
100
AcDbViewport
 10
202.5
 20
128.5
 30
0.0
 40
486.0
 41
308.4
 68
     1
 69
     1
 12
202.5
 22
128.5
 13
0.0
 23
0.0
 14
0.5
 24
0.5
 15
0.0
 25
0.0
 16
0.0
 26
0.0
 36
1.0
 17
0.0
 27
0.0
 37
0.0
 42
50.0
 43
0.0
 44
0.0
 45
308.4
 50
0.0
 51
0.0
 72
   100
 90
   557152
  1

281
     0
 71
     1
 74
     0
110
0.0
120
0.0
130
0.0
111
1.0
121
0.0
131
0.0
112
0.0
122
1.0
132
0.0
 79
     0
146
0.0
  0
VIEWPORT
  5
9F0E
330
1B
100
AcDbEntity
 67
     1
  8
0
100
AcDbViewport
 10
202.5
 20
128.5
 30
0.0
 40
324.0
 41
205.6
 68
     2
 69
     2
 12
-3224.9849078482
 22
3553.815758143106
 13
0.0
 23
0.0
 14
0.5
 24
0.5
 15
0.0
 25
0.0
 16
0.0
 26
0.0
 36
1.0
 17
0.0
 27
0.0
 37
0.0
 42
50.0
 43
0.0
 44
0.0
 45
10712.16027781073
 50
0.0
 51
0.0
 72
   100
 90
   557152
  1

281
     0
 71
     1
 74
     0
110
0.0
120
0.0
130
0.0
111
1.0
121
0.0
131
0.0
112
0.0
122
1.0
132
0.0
 79
     0
146
0.0
  0
ENDSEC
  0
SECTION
  2
OBJECTS
  0
DICTIONARY
  5
C
330
0
100
AcDbDictionary
281
     1
  3
ACAD_DETAILVIEWSTYLE
350
1023D
  3
ACAD_GROUP
350
D
  3
ACAD_IMAGE_VARS
350
6A88
  3
ACAD_LAYOUT
350
1A
  3
ACAD_MLINESTYLE
350
17
  3
ACAD_PLOTSETTINGS
350
19
  3
ACAD_PLOTSTYLENAME
350
E
  3
ACAD_SCALELIST
350
6A4E
  3
ACAD_SECTIONVIEWSTYLE
350
1023E
  3
AcadDim
350
C4B1
  3
AcDbVariableDictionary
350
79E
  3
APPDATA
350
6A87
  3
DWGPROPS
350
10345
  0
DICTIONARY
  5
7A6F
330
2
100
AcDbDictionary
280
     1
281
     1
  3
ACAD_LAYERSTATES
360
7A70
  3
ACLYDICTIONARY
360
F959
  0
DICTIONARY
  5
969E
330
1F
100
AcDbDictionary
280
     1
281
     1
  3
ACAD_SORTENTS
360
969F
  0
DICTIONARY
  5
1023D
102
{ACAD_REACTORS
330
C
102
}
330
C
100
AcDbDictionary
281
     1
  0
DICTIONARY
  5
D
102
{ACAD_REACTORS
330
C
102
}
330
C
100
AcDbDictionary
281
     1
  0
RASTERVARIABLES
  5
6A88
102
{ACAD_REACTORS
330
C
102
}
330
C
100
AcDbRasterVariables
 90
        0
 70
     1
 71
     1
 72
     1
  0
DICTIONARY
  5
1A
102
{ACAD_REACTORS
330
C
102
}
330
C
100
AcDbDictionary
281
     1
  3
Layout1
350
1E
  3
Model
350
22
  0
DICTIONARY
  5
17
102
{ACAD_REACTORS
330
C
102
}
330
C
100
AcDbDictionary
281
     1
  3
Standard
350
18
  0
DICTIONARY
  5
19
102
{ACAD_REACTORS
330
C
102
}
330
C
100
AcDbDictionary
281
     1
  0
ACDBDICTIONARYWDFLT
  5
E
102
{ACAD_REACTORS
330
C
102
}
330
C
100
AcDbDictionary
281
     1
  3
Normal
350
F
100
AcDbDictionaryWithDefault
340
F
  0
DICTIONARY
  5
6A4E
102
{ACAD_REACTORS
330
C
102
}
330
C
100
AcDbDictionary
281
     1
  3
A0
350
6A4F
  3
A1
350
6A50
  3
A2
350
6A51
  3
A3
350
6A52
  3
A4
350
6A53
  3
A5
350
6A54
  3
A6
350
6A55
  3
A7
350
6A56
  3
A8
350
6A57
  3
A9
350
6A58
  3
B0
350
6A59
  3
B1
350
6A5A
  3
B2
350
6A5B
  3
B3
350
6A5C
  3
B4
350
6A5D
  3
B5
350
6A5E
  3
B6
350
6A5F
  3
B7
350
6A60
  3
B8
350
6A61
  3
B9
350
6A62
  3
C0
350
6A63
  3
C1
350
6A64
  3
C2
350
6A65
  3
C3
350
6A66
  3
C4
350
6A67
  3
C5
350
6A68
  3
C6
350
6A69
  3
C7
350
6A6A
  3
C8
350
6A6B
  3
C9
350
6A6C
  3
D0
350
6A6D
  3
D1
350
6A6E
  3
D2
350
6A6F
  0
DICTIONARY
  5
1023E
102
{ACAD_REACTORS
330
C
102
}
330
C
100
AcDbDictionary
281
     1
  0
XRECORD
  5
C4B1
102
{ACAD_REACTORS
330
C
102
}
330
C
100
AcDbXrecord
280
     1
340
0
 72
     0
 71
     0
 70
     0
 69
     0
 68
     1
 67
     3
 66
     0
 65
     0
 64
     0
 63
     3
 62
     1
 61
     0
 60
     0
 40
0.0
  0
DICTIONARY
  5
79E
102
{ACAD_REACTORS
330
C
102
}
330
C
100
AcDbDictionary
281
     1
  3
DIMASSOC
350
79F
  3
SORTENTS
350
264F
  0
DICTIONARY
  5
6A87
102
{ACAD_REACTORS
330
C
102
}
330
C
100
AcDbDictionary
281
     1
  0
XRECORD
  5
10345
102
{ACAD_REACTORS
330
C
102
}
330
C
100
AcDbXrecord
280
     1
  1
DWGPROPS COOKIE
  2

  3

  4

  6

  7

  8
2328
  9

300
=
301
=
302
=
303
=
304
=
305
=
306
=
307
=
308
=
309
=
 40
0.0
 41
2455859.030048461
 42
2458376.02910456
  1

 90
        0
  0
DICTIONARY
  5
7A70
102
{ACAD_REACTORS
330
7A6F
102
}
330
7A6F
100
AcDbDictionary
281
     1
  0
DICTIONARY
  5
F959
102
{ACAD_REACTORS
330
7A6F
102
}
330
7A6F
100
AcDbDictionary
281
     1
1001
ACAD
1000
<All
  0
SORTENTSTABLE
  5
969F
102
{ACAD_REACTORS
330
969E
102
}
330
969E
100
AcDbSortentsTable
330
1F
331
0
  5
7ECC
331
0
  5
7E90
331
0
  5
7E94
331
0
  5
7EA4
331
0
  5
7EA7
331
0
  5
7EA8
331
0
  5
7EA9
331
0
  5
7EAA
331
0
  5
7EAB
331
0
  5
7EAC
331
0
  5
7EAD
331
0
  5
7EAE
331
0
  5
7EAF
331
0
  5
7EB0
331
0
  5
7EB1
331
0
  5
7EB2
331
0
  5
7EB3
331
0
  5
7EB4
331
0
  5
7EB5
331
0
  5
7EB6
331
0
  5
7EB9
331
0
  5
7EBA
331
0
  5
7EBB
331
0
  5
7EBC
331
0
  5
7ECB
331
0
  5
7E6F
331
0
  5
7E74
331
0
  5
7E76
331
0
  5
7E78
331
0
  5
7E79
331
0
  5
7E7B
331
0
  5
7E7C
331
0
  5
7E7D
331
0
  5
7E7E
331
0
  5
7ED0
331
0
  5
7ED1
331
0
  5
7ED2
331
0
  5
7ED4
331
0
  5
7ED5
331
0
  5
7ED6
331
0
  5
7ED7
331
0
  5
7EDB
331
0
  5
7EDC
331
0
  5
7EDD
331
0
  5
7EDE
331
0
  5
7EDF
331
0
  5
7EE0
331
0
  5
7EE2
331
0
  5
7EE3
331
0
  5
7EE4
331
0
  5
7EE8
331
0
  5
7EE9
331
0
  5
7EEA
331
0
  5
7EEB
331
0
  5
7EED
331
0
  5
7EEE
331
0
  5
7EEF
331
0
  5
7EF3
331
0
  5
7EF4
331
0
  5
7EF5
331
0
  5
7EF6
331
0
  5
7EF8
331
0
  5
7EF9
331
0
  5
7EFA
331
0
  5
7EFE
331
0
  5
7EFF
331
0
  5
7F00
331
0
  5
7F01
331
0
  5
7F03
331
0
  5
7F04
331
0
  5
7F05
331
0
  5
7F09
331
0
  5
7F0A
331
0
  5
7F0B
331
0
  5
7F0C
331
0
  5
7F0D
331
0
  5
7F12
331
0
  5
7F13
331
0
  5
7F16
331
0
  5
7F17
331
0
  5
7F1C
331
0
  5
7F1E
331
0
  5
7F47
331
0
  5
7F49
331
0
  5
7F4A
331
0
  5
7F4B
331
0
  5
7F4C
331
0
  5
7F4D
331
0
  5
7F4E
331
0
  5
7F50
331
0
  5
7F51
331
0
  5
7F52
331
0
  5
7F53
331
0
  5
7F54
331
0
  5
7F55
331
0
  5
7F56
331
0
  5
7F57
331
0
  5
7F58
331
0
  5
7F59
331
0
  5
7F5A
331
0
  5
7F5C
331
0
  5
7F8F
331
0
  5
7F90
331
0
  5
7F91
331
0
  5
7F92
331
0
  5
7F93
331
0
  5
7F94
331
0
  5
7F95
331
0
  5
7F96
331
0
  5
7F97
331
0
  5
7F98
331
0
  5
7FC2
331
0
  5
7FC3
331
0
  5
7FCA
331
0
  5
7FCB
331
0
  5
7FDE
331
0
  5
7FDF
331
0
  5
8081
331
0
  5
8082
331
0
  5
8083
331
0
  5
8084
331
0
  5
8192
331
0
  5
8193
331
0
  5
8194
331
0
  5
8195
331
0
  5
8196
331
0
  5
8197
331
0
  5
8198
331
0
  5
819A
331
0
  5
819C
331
0
  5
819D
331
0
  5
819F
331
0
  5
81A1
331
0
  5
81A4
331
0
  5
81A5
331
0
  5
81A6
331
0
  5
81A7
331
0
  5
81AA
331
0
  5
81AB
331
0
  5
81AC
331
0
  5
81AD
331
0
  5
81AE
331
0
  5
81AF
331
0
  5
81B0
331
0
  5
81B1
331
0
  5
81B2
331
0
  5
81BA
331
0
  5
81BB
331
0
  5
81BD
331
0
  5
81BE
331
0
  5
81BF
331
0
  5
81C0
331
0
  5
81C1
331
0
  5
81C2
331
0
  5
81C3
331
0
  5
81C4
331
0
  5
81C5
331
0
  5
81C6
331
0
  5
81C7
331
0
  5
81C8
331
0
  5
81CA
331
0
  5
81CB
331
0
  5
81E8
331
0
  5
81F8
331
0
  5
821A
331
0
  5
821C
331
0
  5
86AE
331
0
  5
86AF
331
0
  5
86B0
331
0
  5
86B1
331
0
  5
86B2
331
0
  5
86B3
331
0
  5
86B4
331
0
  5
86B5
331
0
  5
86B8
331
0
  5
86B9
331
0
  5
86C4
331
0
  5
86C5
331
0
  5
86F1
331
0
  5
86F2
331
0
  5
86F3
331
0
  5
86F4
331
0
  5
86F5
331
0
  5
86FF
331
0
  5
885D
331
0
  5
885E
331
0
  5
885F
331
0
  5
8871
331
0
  5
8879
331
0
  5
887A
331
0
  5
887B
331
0
  5
887C
331
0
  5
896C
331
0
  5
896D
331
0
  5
896E
331
0
  5
8C5E
331
0
  5
8C5F
331
0
  5
8C61
331
0
  5
8C63
331
0
  5
8E22
331
0
  5
7E8F
331
0
  5
9719
331
0
  5
971A
331
0
  5
971B
331
0
  5
971C
331
0
  5
9A64
331
0
  5
9A69
331
0
  5
9A6A
331
0
  5
9A6B
331
0
  5
9A6D
331
0
  5
9A6E
331
0
  5
9A71
331
0
  5
9A72
331
0
  5
9A75
331
0
  5
9A76
331
0
  5
9A78
331
0
  5
9A7A
331
0
  5
9A7D
331
0
  5
9A7E
331
0
  5
9A7F
331
0
  5
9A80
331
0
  5
9A81
331
0
  5
9A83
331
0
  5
9A84
331
0
  5
9A85
331
0
  5
9A86
331
0
  5
9A87
331
0
  5
9A88
331
0
  5
9A8B
331
0
  5
9A8C
331
0
  5
9A8D
331
0
  5
9A8E
331
0
  5
9A8F
331
0
  5
9A90
331
0
  5
9A91
331
0
  5
9A92
331
0
  5
9A95
331
0
  5
9A96
331
0
  5
9A97
331
0
  5
9A98
331
0
  5
9A99
331
0
  5
9A9A
331
0
  5
9A9B
331
0
  5
9A9C
331
0
  5
9AA4
331
0
  5
9AA6
331
0
  5
9AA8
331
0
  5
9AAC
331
0
  5
9AAE
331
0
  5
9AAF
331
0
  5
9AB0
331
0
  5
9AB1
331
0
  5
9AB2
331
0
  5
9AB3
331
0
  5
9AB4
331
0
  5
9AB5
331
0
  5
9AB6
331
0
  5
9AB7
331
0
  5
9AB8
331
0
  5
9AB9
331
0
  5
9ABA
331
0
  5
9ABB
331
0
  5
9ABC
331
0
  5
9AD7
331
0
  5
9AD8
331
0
  5
9AD9
331
0
  5
9ADA
331
0
  5
9ADB
331
0
  5
9ADC
331
0
  5
9ADD
331
0
  5
9ADE
331
0
  5
A40F
331
0
  5
A9BF
331
0
  5
A9C1
331
0
  5
A9C2
331
0
  5
A9C3
331
0
  5
A9E5
331
0
  5
A9E7
331
0
  5
AA27
331
0
  5
AA28
331
0
  5
AA2B
331
0
  5
AA35
331
0
  5
B18E
331
0
  5
B18F
331
0
  5
B190
331
0
  5
B192
331
0
  5
B193
331
0
  5
B194
331
0
  5
B195
331
0
  5
B196
331
0
  5
B197
331
0
  5
B198
331
0
  5
B199
331
0
  5
B19A
331
0
  5
B19B
331
0
  5
B19C
331
0
  5
B19D
331
0
  5
B19E
331
0
  5
B19F
331
0
  5
B1A0
331
0
  5
B1A1
331
0
  5
B1A2
331
0
  5
B25C
331
0
  5
B25D
331
0
  5
B25E
331
0
  5
B260
331
0
  5
B26E
331
0
  5
B26F
331
0
  5
B27A
331
0
  5
B27B
331
0
  5
B87A
331
0
  5
B87B
331
0
  5
B87C
331
0
  5
B87D
331
0
  5
B87E
331
0
  5
D033
331
0
  5
D035
331
0
  5
D061
331
0
  5
D063
331
0
  5
D064
331
0
  5
D065
331
0
  5
D5FD
331
0
  5
D635
331
0
  5
7E7F
331
0
  5
7E84
331
0
  5
7E85
331
0
  5
7E86
331
0
  5
7E87
331
0
  5
7E8A
331
0
  5
7E8B
331
0
  5
7E8C
  0
LAYOUT
  5
1E
102
{ACAD_REACTORS
330
1A
102
}
330
1A
100
AcDbPlotSettings
  1

  2
none_device
  4
ISO_A3_(420.00_x_297.00_MM)
  6

 40
7.5
 41
20.0
 42
7.5
 43
20.0
 44
420.0
 45
297.0
 46
0.0
 47
0.0
 48
0.0
 49
0.0
140
0.0
141
0.0
142
1.0
143
1.0
 70
   688
 72
     1
 73
     0
 74
     5
  7

 75
    16
147
1.0
148
0.0
149
0.0
100
AcDbLayout
  1
Layout1
 70
     1
 71
     1
 10
0.0
 20
0.0
 11
412.5
 21
277.0
 12
0.0
 22
0.0
 32
0.0
 14
1.000000000000000E+20
 24
1.000000000000000E+20
 34
1.000000000000000E+20
 15
-1.000000000000000E+20
 25
-1.000000000000000E+20
 35
-1.000000000000000E+20
146
0.0
 13
0.0
 23
0.0
 33
0.0
 16
1.0
 26
0.0
 36
0.0
 17
0.0
 27
1.0
 37
0.0
 76
     0
330
1B
331
9F0D
  0
LAYOUT
  5
22
102
{ACAD_REACTORS
330
1A
102
}
330
1A
100
AcDbPlotSettings
  1

  2
none_device
  4
A3
  6

 40
3.174999952316284
 41
3.174999952316284
 42
3.17498779296875
 43
3.17498779296875
 44
297.0318298339844
 45
420.1583251953125
 46
-3.16
 47
-3.1
 48
-90.0
 49
-90.0
140
329.9999999999998
141
207.0
142
1.0
143
1.0
 70
 11940
 72
     1
 73
     1
 74
     4
  7
monochrome.ctb
 75
     0
147
1.0
148
90.0
149
90.0
100
AcDbLayout
  1
Model
 70
     1
 71
     0
 10
0.0
 20
0.0
 11
6300.0
 21
4455.0
 12
0.0
 22
0.0
 32
0.0
 14
1045.0
 24
1590.000000000002
 34
0.0
 15
4110.0
 25
3854.999999999999
 35
0.0
146
0.0
 13
0.0
 23
0.0
 33
0.0
 16
1.0
 26
0.0
 36
0.0
 17
0.0
 27
1.0
 37
0.0
 76
     0
330
1F
331
7A57
  0
MLINESTYLE
  5
18
102
{ACAD_REACTORS
330
17
102
}
330
17
100
AcDbMlineStyle
  2
STANDARD
 70
     0
  3

 62
   256
 51
90.0
 52
90.0
 71
     2
 49
0.5
 62
   256
  6
BYLAYER
 49
-0.5
 62
   256
  6
BYLAYER
  0
ACDBPLACEHOLDER
  5
F
102
{ACAD_REACTORS
330
E
102
}
330
E
  0
SCALE
  5
6A4F
102
{ACAD_REACTORS
330
6A4E
102
}
330
6A4E
100
AcDbScale
 70
     0
300
1:1
140
1.0
141
1.0
290
     1
  0
SCALE
  5
6A50
102
{ACAD_REACTORS
330
6A4E
102
}
330
6A4E
100
AcDbScale
 70
     0
300
1:2
140
1.0
141
2.0
290
     0
  0
SCALE
  5
6A51
102
{ACAD_REACTORS
330
6A4E
102
}
330
6A4E
100
AcDbScale
 70
     0
300
1:4
140
1.0
141
4.0
290
     0
  0
SCALE
  5
6A52
102
{ACAD_REACTORS
330
6A4E
102
}
330
6A4E
100
AcDbScale
 70
     0
300
1:5
140
1.0
141
5.0
290
     0
  0
SCALE
  5
6A53
102
{ACAD_REACTORS
330
6A4E
102
}
330
6A4E
100
AcDbScale
 70
     0
300
1:8
140
1.0
141
8.0
290
     0
  0
SCALE
  5
6A54
102
{ACAD_REACTORS
330
6A4E
102
}
330
6A4E
100
AcDbScale
 70
     0
300
1:10
140
1.0
141
10.0
290
     0
  0
SCALE
  5
6A55
102
{ACAD_REACTORS
330
6A4E
102
}
330
6A4E
100
AcDbScale
 70
     0
300
1:16
140
1.0
141
16.0
290
     0
  0
SCALE
  5
6A56
102
{ACAD_REACTORS
330
6A4E
102
}
330
6A4E
100
AcDbScale
 70
     0
300
1:20
140
1.0
141
20.0
290
     0
  0
SCALE
  5
6A57
102
{ACAD_REACTORS
330
6A4E
102
}
330
6A4E
100
AcDbScale
 70
     0
300
1:30
140
1.0
141
30.0
290
     0
  0
SCALE
  5
6A58
102
{ACAD_REACTORS
330
6A4E
102
}
330
6A4E
100
AcDbScale
 70
     0
300
1:40
140
1.0
141
40.0
290
     0
  0
SCALE
  5
6A59
102
{ACAD_REACTORS
330
6A4E
102
}
330
6A4E
100
AcDbScale
 70
     0
300
1:50
140
1.0
141
50.0
290
     0
  0
SCALE
  5
6A5A
102
{ACAD_REACTORS
330
6A4E
102
}
330
6A4E
100
AcDbScale
 70
     0
300
1:100
140
1.0
141
100.0
290
     0
  0
SCALE
  5
6A5B
102
{ACAD_REACTORS
330
6A4E
102
}
330
6A4E
100
AcDbScale
 70
     0
300
2:1
140
2.0
141
1.0
290
     0
  0
SCALE
  5
6A5C
102
{ACAD_REACTORS
330
6A4E
102
}
330
6A4E
100
AcDbScale
 70
     0
300
4:1
140
4.0
141
1.0
290
     0
  0
SCALE
  5
6A5D
102
{ACAD_REACTORS
330
6A4E
102
}
330
6A4E
100
AcDbScale
 70
     0
300
8:1
140
8.0
141
1.0
290
     0
  0
SCALE
  5
6A5E
102
{ACAD_REACTORS
330
6A4E
102
}
330
6A4E
100
AcDbScale
 70
     0
300
10:1
140
10.0
141
1.0
290
     0
  0
SCALE
  5
6A5F
102
{ACAD_REACTORS
330
6A4E
102
}
330
6A4E
100
AcDbScale
 70
     0
300
100:1
140
100.0
141
1.0
290
     0
  0
SCALE
  5
6A60
102
{ACAD_REACTORS
330
6A4E
102
}
330
6A4E
100
AcDbScale
 70
     0
300
1/128" = 1'-0"
140
0.0078125
141
12.0
290
     0
  0
SCALE
  5
6A61
102
{ACAD_REACTORS
330
6A4E
102
}
330
6A4E
100
AcDbScale
 70
     0
300
1/64" = 1'-0"
140
0.015625
141
12.0
290
     0
  0
SCALE
  5
6A62
102
{ACAD_REACTORS
330
6A4E
102
}
330
6A4E
100
AcDbScale
 70
     0
300
1/32" = 1'-0"
140
0.03125
141
12.0
290
     0
  0
SCALE
  5
6A63
102
{ACAD_REACTORS
330
6A4E
102
}
330
6A4E
100
AcDbScale
 70
     0
300
1/16" = 1'-0"
140
0.0625
141
12.0
290
     0
  0
SCALE
  5
6A64
102
{ACAD_REACTORS
330
6A4E
102
}
330
6A4E
100
AcDbScale
 70
     0
300
3/32" = 1'-0"
140
0.09375
141
12.0
290
     0
  0
SCALE
  5
6A65
102
{ACAD_REACTORS
330
6A4E
102
}
330
6A4E
100
AcDbScale
 70
     0
300
1/8" = 1'-0"
140
0.125
141
12.0
290
     0
  0
SCALE
  5
6A66
102
{ACAD_REACTORS
330
6A4E
102
}
330
6A4E
100
AcDbScale
 70
     0
300
3/16" = 1'-0"
140
0.1875
141
12.0
290
     0
  0
SCALE
  5
6A67
102
{ACAD_REACTORS
330
6A4E
102
}
330
6A4E
100
AcDbScale
 70
     0
300
1/4" = 1'-0"
140
0.25
141
12.0
290
     0
  0
SCALE
  5
6A68
102
{ACAD_REACTORS
330
6A4E
102
}
330
6A4E
100
AcDbScale
 70
     0
300
3/8" = 1'-0"
140
0.375
141
12.0
290
     0
  0
SCALE
  5
6A69
102
{ACAD_REACTORS
330
6A4E
102
}
330
6A4E
100
AcDbScale
 70
     0
300
1/2" = 1'-0"
140
0.5
141
12.0
290
     0
  0
SCALE
  5
6A6A
102
{ACAD_REACTORS
330
6A4E
102
}
330
6A4E
100
AcDbScale
 70
     0
300
3/4" = 1'-0"
140
0.75
141
12.0
290
     0
  0
SCALE
  5
6A6B
102
{ACAD_REACTORS
330
6A4E
102
}
330
6A4E
100
AcDbScale
 70
     0
300
1" = 1'-0"
140
1.0
141
12.0
290
     0
  0
SCALE
  5
6A6C
102
{ACAD_REACTORS
330
6A4E
102
}
330
6A4E
100
AcDbScale
 70
     0
300
1-1/2" = 1'-0"
140
1.5
141
12.0
290
     0
  0
SCALE
  5
6A6D
102
{ACAD_REACTORS
330
6A4E
102
}
330
6A4E
100
AcDbScale
 70
     0
300
3" = 1'-0"
140
3.0
141
12.0
290
     0
  0
SCALE
  5
6A6E
102
{ACAD_REACTORS
330
6A4E
102
}
330
6A4E
100
AcDbScale
 70
     0
300
6" = 1'-0"
140
6.0
141
12.0
290
     0
  0
SCALE
  5
6A6F
102
{ACAD_REACTORS
330
6A4E
102
}
330
6A4E
100
AcDbScale
 70
     0
300
1'-0" = 1'-0"
140
12.0
141
12.0
290
     0
  0
DICTIONARYVAR
  5
79F
102
{ACAD_REACTORS
330
79E
102
}
330
79E
100
DictionaryVariables
280
     0
  1
1
  0
DICTIONARYVAR
  5
264F
102
{ACAD_REACTORS
330
79E
102
}
330
79E
100
DictionaryVariables
280
     0
  1
96
  0
ENDSEC
  0
EOF
