  0
SECTION
  2
HEADER
  9
$ACADVER
  1
AC1015
  9
$ACADMAINTVER
 70
     6
  9
$DWGCODEPAGE
  3
ANSI_932
  9
$INSBASE
 10
0.0
 20
0.0
 30
0.0
  9
$EXTMIN
 10
0.0
 20
-600.0
 30
0.0
  9
$EXTMAX
 10
7200.0
 20
4455.0
 30
0.0
  9
$LIMMIN
 10
0.0
 20
0.0
  9
$LIMMAX
 10
6300.0
 20
4455.0
  9
$ORTHOMODE
 70
     1
  9
$REGENMODE
 70
     1
  9
$FILLMODE
 70
     1
  9
$QTEXTMODE
 70
     0
  9
$MIRRTEXT
 70
     1
  9
$LTSCALE
 40
4.5
  9
$ATTMODE
 70
     1
  9
$TEXTSIZE
 40
30.0
  9
$TRACEWID
 40
1.0
  9
$TEXTSTYLE
  7
Standard
  9
$CLAYER
  8
01注記寸法
  9
$CELTYPE
  6
ByLayer
  9
$CECOLOR
 62
   256
  9
$CELTSCALE
 40
1.0
  9
$DISPSILH
 70
     0
  9
$DIMSCALE
 40
15.0
  9
$DIMASZ
 40
3.0
  9
$DIMEXO
 40
1.5
  9
$DIMDLI
 40
10.0
  9
$DIMRND
 40
0.0
  9
$DIMDLE
 40
0.0
  9
$DIMEXE
 40
1.0
  9
$DIMTP
 40
0.0
  9
$DIMTM
 40
0.0
  9
$DIMTXT
 40
3.0
  9
$DIMCEN
 40
1.5
  9
$DIMTSZ
 40
0.0
  9
$DIMTOL
 70
     0
  9
$DIMLIM
 70
     0
  9
$DIMTIH
 70
     0
  9
$DIMTOH
 70
     0
  9
$DIMSE1
 70
     0
  9
$DIMSE2
 70
     0
  9
$DIMTAD
 70
     1
  9
$DIMZIN
 70
     8
  9
$DIMBLK
  1
Open
  9
$DIMASO
 70
     1
  9
$DIMSHO
 70
     1
  9
$DIMPOST
  1

  9
$DIMAPOST
  1

  9
$DIMALT
 70
     0
  9
$DIMALTD
 70
     3
  9
$DIMALTF
 40
0.03937007874016
  9
$DIMLFAC
 40
1.0
  9
$DIMTOFL
 70
     1
  9
$DIMTVP
 40
0.0
  9
$DIMTIX
 70
     0
  9
$DIMSOXD
 70
     0
  9
$DIMSAH
 70
     0
  9
$DIMBLK1
  1

  9
$DIMBLK2
  1

  9
$DIMSTYLE
  2
NEMY-15
  9
$DIMCLRD
 70
     0
  9
$DIMCLRE
 70
     0
  9
$DIMCLRT
 70
     0
  9
$DIMTFAC
 40
1.0
  9
$DIMGAP
 40
1.0
  9
$DIMJUST
 70
     0
  9
$DIMSD1
 70
     0
  9
$DIMSD2
 70
     0
  9
$DIMTOLJ
 70
     0
  9
$DIMTZIN
 70
     8
  9
$DIMALTZ
 70
     0
  9
$DIMALTTZ
 70
     0
  9
$DIMUPT
 70
     0
  9
$DIMDEC
 70
     1
  9
$DIMTDEC
 70
     1
  9
$DIMALTU
 70
     2
  9
$DIMALTTD
 70
     3
  9
$DIMTXSTY
  7
Standard
  9
$DIMAUNIT
 70
     0
  9
$DIMADEC
 70
     0
  9
$DIMALTRND
 40
0.0
  9
$DIMAZIN
 70
     0
  9
$DIMDSEP
 70
    46
  9
$DIMATFIT
 70
     3
  9
$DIMFRAC
 70
     0
  9
$DIMLDRBLK
  1
Open
  9
$DIMLUNIT
 70
     2
  9
$DIMLWD
 70
    -2
  9
$DIMLWE
 70
    -2
  9
$DIMTMOVE
 70
     0
  9
$LUNITS
 70
     2
  9
$LUPREC
 70
     4
  9
$SKETCHINC
 40
1.0
  9
$FILLETRAD
 40
6.5
  9
$AUNITS
 70
     0
  9
$AUPREC
 70
     0
  9
$MENU
  1
.
  9
$ELEVATION
 40
0.0
  9
$PELEVATION
 40
0.0
  9
$THICKNESS
 40
0.0
  9
$LIMCHECK
 70
     0
  9
$CHAMFERA
 40
0.0
  9
$CHAMFERB
 40
0.0
  9
$CHAMFERC
 40
20.0
  9
$CHAMFERD
 40
0.0
  9
$SKPOLY
 70
     0
  9
$TDCREATE
 40
2455859.405048461
  9
$TDUCREATE
 40
2455859.030048461
  9
$TDUPDATE
 40
2457983.450834109
  9
$TDUUPDATE
 40
2457983.075834109
  9
$TDINDWG
 40
0.625530625
  9
$TDUSRTIMER
 40
2457983.075756227
  9
$USRTIMER
 70
     1
  9
$ANGBASE
 50
0.0
  9
$ANGDIR
 70
     0
  9
$PDMODE
 70
     0
  9
$PDSIZE
 40
0.0
  9
$PLINEWID
 40
0.0
  9
$SPLFRAME
 70
     0
  9
$SPLINETYPE
 70
     6
  9
$SPLINESEGS
 70
     8
  9
$HANDSEED
  5
BE12
  9
$SURFTAB1
 70
     6
  9
$SURFTAB2
 70
     6
  9
$SURFTYPE
 70
     6
  9
$SURFU
 70
     6
  9
$SURFV
 70
     6
  9
$UCSBASE
  2

  9
$UCSNAME
  2

  9
$UCSORG
 10
0.0
 20
0.0
 30
0.0
  9
$UCSXDIR
 10
1.0
 20
0.0
 30
0.0
  9
$UCSYDIR
 10
0.0
 20
1.0
 30
0.0
  9
$UCSORTHOREF
  2

  9
$UCSORTHOVIEW
 70
     0
  9
$UCSORGTOP
 10
0.0
 20
0.0
 30
0.0
  9
$UCSORGBOTTOM
 10
0.0
 20
0.0
 30
0.0
  9
$UCSORGLEFT
 10
0.0
 20
0.0
 30
0.0
  9
$UCSORGRIGHT
 10
0.0
 20
0.0
 30
0.0
  9
$UCSORGFRONT
 10
0.0
 20
0.0
 30
0.0
  9
$UCSORGBACK
 10
0.0
 20
0.0
 30
0.0
  9
$PUCSBASE
  2

  9
$PUCSNAME
  2

  9
$PUCSORG
 10
0.0
 20
0.0
 30
0.0
  9
$PUCSXDIR
 10
1.0
 20
0.0
 30
0.0
  9
$PUCSYDIR
 10
0.0
 20
1.0
 30
0.0
  9
$PUCSORTHOREF
  2

  9
$PUCSORTHOVIEW
 70
     0
  9
$PUCSORGTOP
 10
0.0
 20
0.0
 30
0.0
  9
$PUCSORGBOTTOM
 10
0.0
 20
0.0
 30
0.0
  9
$PUCSORGLEFT
 10
0.0
 20
0.0
 30
0.0
  9
$PUCSORGRIGHT
 10
0.0
 20
0.0
 30
0.0
  9
$PUCSORGFRONT
 10
0.0
 20
0.0
 30
0.0
  9
$PUCSORGBACK
 10
0.0
 20
0.0
 30
0.0
  9
$USERI1
 70
     0
  9
$USERI2
 70
     0
  9
$USERI3
 70
     0
  9
$USERI4
 70
     0
  9
$USERI5
 70
     0
  9
$USERR1
 40
0.0
  9
$USERR2
 40
0.0
  9
$USERR3
 40
0.0
  9
$USERR4
 40
0.0
  9
$USERR5
 40
0.0
  9
$WORLDVIEW
 70
     1
  9
$SHADEDGE
 70
     3
  9
$SHADEDIF
 70
    70
  9
$TILEMODE
 70
     1
  9
$MAXACTVP
 70
    64
  9
$PINSBASE
 10
0.0
 20
0.0
 30
0.0
  9
$PLIMCHECK
 70
     0
  9
$PEXTMIN
 10
1.000000000000000E+20
 20
1.000000000000000E+20
 30
1.000000000000000E+20
  9
$PEXTMAX
 10
-1.000000000000000E+20
 20
-1.000000000000000E+20
 30
-1.000000000000000E+20
  9
$PLIMMIN
 10
-7.5
 20
-20.0
  9
$PLIMMAX
 10
412.5
 20
277.0
  9
$UNITMODE
 70
     0
  9
$VISRETAIN
 70
     1
  9
$PLINEGEN
 70
     0
  9
$PSLTSCALE
 70
     1
  9
$TREEDEPTH
 70
  3020
  9
$CMLSTYLE
  2
Standard
  9
$CMLJUST
 70
     0
  9
$CMLSCALE
 40
20.0
  9
$PROXYGRAPHICS
 70
     1
  9
$MEASUREMENT
 70
     1
  9
$CELWEIGHT
370
    -1
  9
$ENDCAPS
280
     0
  9
$JOINSTYLE
280
     0
  9
$LWDISPLAY
290
     0
  9
$INSUNITS
 70
     4
  9
$HYPERLINKBASE
  1

  9
$STYLESHEET
  1
monochrome.ctb
  9
$XEDIT
290
     1
  9
$CEPSNTYPE
380
     0
  9
$PSTYLEMODE
290
     1
  9
$FINGERPRINTGUID
  2
{FDEAD578-A652-11D2-9A35-0060089B3A3F}
  9
$VERSIONGUID
  2
{11DB8456-EC16-47A0-BA21-BBDA07550E8A}
  9
$EXTNAMES
290
     1
  9
$PSVPSCALE
 40
0.0
  9
$OLESTARTUP
290
     0
  0
ENDSEC
  0
SECTION
  2
CLASSES
  0
CLASS
  1
ACDBDICTIONARYWDFLT
  2
AcDbDictionaryWithDefault
  3
ObjectDBX Classes
 90
        0
280
     0
281
     0
  0
CLASS
  1
ACDBPLACEHOLDER
  2
AcDbPlaceHolder
  3
ObjectDBX Classes
 90
        0
280
     0
281
     0
  0
CLASS
  1
LAYOUT
  2
AcDbLayout
  3
ObjectDBX Classes
 90
        0
280
     0
281
     0
  0
CLASS
  1
DICTIONARYVAR
  2
AcDbDictionaryVar
  3
ObjectDBX Classes
 90
        0
280
     0
281
     0
  0
CLASS
  1
SCALE
  2
AcDbScale
  3
ObjectDBX Classes
 90
     1153
280
     0
281
     0
  0
CLASS
  1
MATERIAL
  2
AcDbMaterial
  3
ObjectDBX Classes
 90
     1153
280
     0
281
     0
  0
CLASS
  1
VISUALSTYLE
  2
AcDbVisualStyle
  3
ObjectDBX Classes
 90
     4095
280
     0
281
     0
  0
CLASS
  1
TABLESTYLE
  2
AcDbTableStyle
  3
ObjectDBX Classes
 90
     4095
280
     0
281
     0
  0
CLASS
  1
RASTERVARIABLES
  2
AcDbRasterVariables
  3
ISM
 90
        0
280
     0
281
     0
  0
CLASS
  1
SORTENTSTABLE
  2
AcDbSortentsTable
  3
ObjectDBX Classes
 90
        0
280
     0
281
     0
  0
CLASS
  1
SUN
  2
AcDbSun
  3
SCENEOE
 90
     1153
280
     0
281
     0
  0
ENDSEC
  0
SECTION
  2
TABLES
  0
TABLE
  2
VPORT
  5
8
330
0
100
AcDbSymbolTable
 70
     2
  0
VPORT
  5
7A57
330
8
100
AcDbSymbolTableRecord
100
AcDbViewportTableRecord
  2
*Active
 70
     0
 10
0.0
 20
0.0
 11
1.0
 21
1.0
 12
2761.722962035225
 22
1429.085677012063
 13
0.0
 23
0.0
 14
10.0
 24
10.0
 15
10.0
 25
10.0
 16
0.0
 26
0.0
 36
1.0
 17
0.0
 27
0.0
 37
0.0
 40
5966.494999194124
 41
1.300662251655629
 42
50.0
 43
0.0
 44
0.0
 50
0.0
 51
0.0
 71
    16
 72
   100
 73
     1
 74
     2
 75
     0
 76
     0
 77
     0
 78
     0
281
     0
 65
     1
110
0.0
120
0.0
130
0.0
111
1.0
121
0.0
131
0.0
112
0.0
122
1.0
132
0.0
 79
     0
146
0.0
  0
ENDTAB
  0
TABLE
  2
LTYPE
  5
5
330
0
100
AcDbSymbolTable
 70
     5
  0
LTYPE
  5
14
330
5
100
AcDbSymbolTableRecord
100
AcDbLinetypeTableRecord
  2
ByBlock
 70
     0
  3

 72
    65
 73
     0
 40
0.0
  0
LTYPE
  5
15
330
5
100
AcDbSymbolTableRecord
100
AcDbLinetypeTableRecord
  2
ByLayer
 70
     0
  3

 72
    65
 73
     0
 40
0.0
  0
LTYPE
  5
16
330
5
100
AcDbSymbolTableRecord
100
AcDbLinetypeTableRecord
  2
Continuous
 70
     0
  3
Solid line
 72
    65
 73
     0
 40
0.0
  0
LTYPE
  5
BA
330
5
100
AcDbSymbolTableRecord
100
AcDbLinetypeTableRecord
  2
HIDDEN
 70
     0
  3
Hidden __ __ __ __ __ __ __ __ __ __ __ __ __ _
 72
    65
 73
     2
 40
9.524999999999999
 49
6.35
 74
     0
 49
-3.175
 74
     0
  0
LTYPE
  5
BB
330
5
100
AcDbSymbolTableRecord
100
AcDbLinetypeTableRecord
  2
PHANTOM
 70
     0
  3
Phantom ______  __  __  ______  __  __  ______
 72
    65
 73
     6
 40
63.5
 49
31.75
 74
     0
 49
-6.35
 74
     0
 49
6.35
 74
     0
 49
-6.35
 74
     0
 49
6.35
 74
     0
 49
-6.35
 74
     0
  0
LTYPE
  5
BC
330
5
100
AcDbSymbolTableRecord
100
AcDbLinetypeTableRecord
  2
CENTER
 70
     0
  3
Center ____ _ ____ _ ____ _ ____ _ ____ _ ____
 72
    65
 73
     4
 40
50.8
 49
31.75
 74
     0
 49
-6.35
 74
     0
 49
6.35
 74
     0
 49
-6.35
 74
     0
  0
LTYPE
  5
47C
330
5
100
AcDbSymbolTableRecord
100
AcDbLinetypeTableRecord
  2
DOT
 70
     0
  3
Dot . . . . . . . . . . . . . . . . . . . . . .
 72
    65
 73
     2
 40
6.35
 49
0.0
 74
     0
 49
-6.35
 74
     0
  0
ENDTAB
  0
TABLE
  2
LAYER
  5
2
102
{ACAD_XDICTIONARY
360
7A6F
102
}
330
0
100
AcDbSymbolTable
 70
    22
  0
LAYER
  5
10
330
2
100
AcDbSymbolTableRecord
100
AcDbLayerTableRecord
  2
0
 70
     0
 62
     7
  6
Continuous
370
    -3
390
F
  0
LAYER
  5
45
330
2
100
AcDbSymbolTableRecord
100
AcDbLayerTableRecord
  2
01注記寸法
 70
     0
 62
     7
  6
Continuous
370
     9
390
F
  0
LAYER
  5
46
330
2
100
AcDbSymbolTableRecord
100
AcDbLayerTableRecord
  2
02実線
 70
     0
 62
     2
  6
Continuous
370
    15
390
F
  0
LAYER
  5
5F
330
2
100
AcDbSymbolTableRecord
100
AcDbLayerTableRecord
  2
Defpoints
 70
     0
 62
     7
  6
Continuous
290
     0
370
    -3
390
F
  0
LAYER
  5
7E52
330
2
100
AcDbSymbolTableRecord
100
AcDbLayerTableRecord
  2
03破線
 70
     0
 62
     3
  6
HIDDEN
370
     9
390
F
  0
LAYER
  5
7E55
330
2
100
AcDbSymbolTableRecord
100
AcDbLayerTableRecord
  2
04一点鎖線
 70
     0
 62
    70
  6
CENTER
370
     9
390
F
  0
LAYER
  5
7E58
330
2
100
AcDbSymbolTableRecord
100
AcDbLayerTableRecord
  2
05二点鎖線
 70
     0
 62
   110
  6
PHANTOM
370
     9
390
F
  0
LAYER
  5
7E5B
330
2
100
AcDbSymbolTableRecord
100
AcDbLayerTableRecord
  2
06点線
 70
     0
 62
    96
  6
DOT
370
     9
390
F
  0
LAYER
  5
7E5E
330
2
100
AcDbSymbolTableRecord
100
AcDbLayerTableRecord
  2
07その他
 70
     0
 62
     6
  6
Continuous
370
     5
390
F
  0
LAYER
  5
7E60
330
2
100
AcDbSymbolTableRecord
100
AcDbLayerTableRecord
  2
08非表示
 70
     0
 62
     4
  6
Continuous
290
     0
370
     0
390
F
  0
LAYER
  5
7E62
330
2
100
AcDbSymbolTableRecord
100
AcDbLayerTableRecord
  2
09図枠
 70
     0
 62
     1
  6
Continuous
370
    30
390
F
  0
LAYER
  5
835A
330
2
100
AcDbSymbolTableRecord
100
AcDbLayerTableRecord
  2
10副資材
 70
     0
 62
    51
  6
Continuous
290
     0
370
    -3
390
F
1001
AcAecLayerStandard
1000

1000

  0
LAYER
  5
8CAC
330
2
100
AcDbSymbolTableRecord
100
AcDbLayerTableRecord
  2
11機器
 70
     0
 62
    11
  6
Continuous
290
     0
370
    -3
390
F
1001
AcAecLayerStandard
1000

1000

  0
LAYER
  5
8CB1
330
2
100
AcDbSymbolTableRecord
100
AcDbLayerTableRecord
  2
12防振架台
 70
     0
 62
   190
  6
Continuous
290
     0
370
    -3
390
F
1001
AcAecLayerStandard
1000

1000

  0
LAYER
  5
A15B
330
2
100
AcDbSymbolTableRecord
100
AcDbLayerTableRecord
  2
13製作用注記
 70
     0
 62
     5
  6
Continuous
290
     0
370
     9
390
F
1001
AcAecLayerStandard
1000

1000

  0
ENDTAB
  0
TABLE
  2
STYLE
  5
3
330
0
100
AcDbSymbolTable
 70
     4
  0
STYLE
  5
11
330
3
100
AcDbSymbolTableRecord
100
AcDbTextStyleTableRecord
  2
Standard
 70
     0
 40
0.0
 41
1.0
 50
0.0
 71
     0
 42
30.0
  3
MSGOTHIC.TTC
  4

1001
ACAD
1000
MS Gothic
1071
    32817
  0
STYLE
  5
47B
330
3
100
AcDbSymbolTableRecord
100
AcDbTextStyleTableRecord
  2

 70
     1
 40
0.0
 41
1.0
 50
0.0
 71
     0
 42
3.0
  3
ltypeshp.shx
  4

  0
STYLE
  5
B718
330
3
100
AcDbSymbolTableRecord
100
AcDbTextStyleTableRecord
  2
STANDARD1
 70
     0
 40
60.0
 41
0.7
 50
0.0
 71
     0
 42
30.0
  3
MONOTXT.shx
  4
BIGFONT.shx
  0
ENDTAB
  0
TABLE
  2
VIEW
  5
6
330
0
100
AcDbSymbolTable
 70
     0
  0
ENDTAB
  0
TABLE
  2
UCS
  5
7
330
0
100
AcDbSymbolTable
 70
     0
  0
ENDTAB
  0
TABLE
  2
APPID
  5
9
330
0
100
AcDbSymbolTable
 70
     6
  0
APPID
  5
12
330
9
100
AcDbSymbolTableRecord
100
AcDbRegAppTableRecord
  2
ACAD
 70
     0
  0
APPID
  5
6A9E
330
9
100
AcDbSymbolTableRecord
100
AcDbRegAppTableRecord
  2
ACAD_DSTYLE_DIMRADIAL_EXTENSION
 70
     0
  0
APPID
  5
742C
330
9
100
AcDbSymbolTableRecord
100
AcDbRegAppTableRecord
  2
ACAD_PSEXT
 70
     0
  0
APPID
  5
742D
330
9
100
AcDbSymbolTableRecord
100
AcDbRegAppTableRecord
  2
ACAD_DSTYLE_DIMJAG
 70
     0
  0
APPID
  5
742E
330
9
100
AcDbSymbolTableRecord
100
AcDbRegAppTableRecord
  2
ACAD_DSTYLE_DIMTALN
 70
     0
  0
APPID
  5
835C
330
9
100
AcDbSymbolTableRecord
100
AcDbRegAppTableRecord
  2
AcAecLayerStandard
 70
     0
  0
ENDTAB
  0
TABLE
  2
DIMSTYLE
  5
A
330
0
100
AcDbSymbolTable
 70
    25
100
AcDbDimStyleTable
  0
DIMSTYLE
105
73
330
A
100
AcDbSymbolTableRecord
100
AcDbDimStyleTableRecord
  2
NEMY-1
 70
     0
 41
3.0
 42
1.5
 43
10.0
 44
1.0
 73
     0
 74
     0
 77
     1
 78
     8
140
3.0
141
1.5
143
0.03937007874016
147
1.0
171
     3
172
     1
178
     0
271
     1
272
     1
274
     3
283
     0
284
     8
340
11
341
8F
342
8F
  0
DIMSTYLE
105
4DCE
330
A
100
AcDbSymbolTableRecord
100
AcDbDimStyleTableRecord
  2
NEMY-2
 70
     0
 40
2.0
 41
3.0
 42
1.5
 43
10.0
 44
1.0
 73
     0
 74
     0
 77
     1
 78
     8
140
3.0
141
1.5
143
0.03937007874016
147
1.0
171
     3
172
     1
178
     0
271
     1
272
     1
274
     3
283
     0
284
     8
340
11
341
8F
342
8F
  0
DIMSTYLE
105
4DCF
330
A
100
AcDbSymbolTableRecord
100
AcDbDimStyleTableRecord
  2
NEMY-3
 70
     0
 40
3.0
 41
3.0
 42
1.5
 43
10.0
 44
1.0
 73
     0
 74
     0
 77
     1
 78
     8
140
3.0
141
1.5
143
0.03937007874016
147
1.0
171
     3
172
     1
178
     0
271
     1
272
     1
274
     3
283
     0
284
     8
340
11
341
8F
342
8F
  0
DIMSTYLE
105
4DD0
330
A
100
AcDbSymbolTableRecord
100
AcDbDimStyleTableRecord
  2
NEMY-5
 70
     0
 40
5.0
 41
3.0
 42
1.5
 43
10.0
 44
1.0
 73
     0
 74
     0
 77
     1
 78
     8
140
3.0
141
1.5
143
0.03937007874016
147
1.0
171
     3
172
     1
178
     0
271
     1
272
     1
274
     3
283
     0
284
     8
340
11
341
8F
342
8F
  0
DIMSTYLE
105
4DD1
330
A
100
AcDbSymbolTableRecord
100
AcDbDimStyleTableRecord
  2
NEMY-8
 70
     0
 40
8.0
 41
3.0
 42
1.5
 43
10.0
 44
1.0
 73
     0
 74
     0
 77
     1
 78
     8
140
3.0
141
1.5
143
0.03937007874016
147
1.0
171
     3
172
     1
178
     0
271
     1
272
     1
274
     3
283
     0
284
     8
340
11
341
8F
342
8F
  0
DIMSTYLE
105
4DD2
330
A
100
AcDbSymbolTableRecord
100
AcDbDimStyleTableRecord
  2
NEMY-15
 70
     0
 40
15.0
 41
3.0
 42
1.5
 43
10.0
 44
1.0
 73
     0
 74
     0
 77
     1
 78
     8
140
3.0
141
1.5
143
0.03937007874016
147
1.0
171
     3
172
     1
178
     0
271
     1
272
     1
274
     3
283
     0
284
     8
340
11
341
8F
342
8F
  0
DIMSTYLE
105
4DD3
330
A
100
AcDbSymbolTableRecord
100
AcDbDimStyleTableRecord
  2
NEMY-10
 70
     0
 40
10.0
 41
3.0
 42
1.5
 43
10.0
 44
1.0
 73
     0
 74
     0
 77
     1
 78
     8
140
3.0
141
1.5
143
0.03937007874016
147
1.0
171
     3
172
     1
178
     0
271
     1
272
     1
274
     3
283
     0
284
     8
340
11
341
8F
342
8F
  0
DIMSTYLE
105
4DD4
330
A
100
AcDbSymbolTableRecord
100
AcDbDimStyleTableRecord
  2
NEMY-25
 70
     0
 40
25.0
 41
3.0
 42
1.5
 43
10.0
 44
1.0
 73
     0
 74
     0
 77
     1
 78
     8
140
3.0
141
1.5
143
0.03937007874016
147
1.0
171
     3
172
     1
178
     0
271
     1
272
     1
274
     3
283
     0
284
     8
340
11
341
8F
342
8F
  0
DIMSTYLE
105
4DD5
330
A
100
AcDbSymbolTableRecord
100
AcDbDimStyleTableRecord
  2
NEMY-30
 70
     0
 40
30.0
 41
3.0
 42
1.5
 43
10.0
 44
1.0
 73
     0
 74
     0
 77
     1
 78
     8
140
3.0
141
1.5
143
0.03937007874016
147
1.0
171
     3
172
     1
178
     0
271
     1
272
     1
274
     3
283
     0
284
     8
340
11
341
8F
342
8F
  0
DIMSTYLE
105
4DD6
330
A
100
AcDbSymbolTableRecord
100
AcDbDimStyleTableRecord
  2
NEMY-50
 70
     0
 40
50.0
 41
3.0
 42
1.5
 43
10.0
 44
1.0
 73
     0
 74
     0
 77
     1
 78
     8
140
3.0
141
1.5
143
0.03937007874016
147
1.0
171
     3
172
     1
178
     0
271
     1
272
     1
274
     3
283
     0
284
     8
340
11
341
8F
342
8F
  0
DIMSTYLE
105
4E6F
330
A
100
AcDbSymbolTableRecord
100
AcDbDimStyleTableRecord
  2
NEMY-20
 70
     0
 40
20.0
 41
3.0
 42
1.5
 43
10.0
 44
1.0
 73
     0
 74
     0
 77
     1
 78
     8
140
3.0
141
1.5
143
0.03937007874016
147
1.0
171
     3
172
     1
178
     0
271
     1
272
     1
274
     3
283
     0
284
     8
340
11
341
8F
342
8F
  0
DIMSTYLE
105
4F44
330
A
100
AcDbSymbolTableRecord
100
AcDbDimStyleTableRecord
  2
NEMY-10$3
 70
     0
 40
10.0
 41
3.0
 42
1.5
 43
10.0
 44
1.0
 77
     1
 78
     8
140
3.0
141
1.5
143
0.03937007874016
147
1.0
171
     3
172
     1
178
     0
271
     1
272
     1
274
     3
283
     0
284
     8
340
11
341
8F
342
8F
  0
DIMSTYLE
105
4F45
330
A
100
AcDbSymbolTableRecord
100
AcDbDimStyleTableRecord
  2
NEMY-1$3
 70
     0
 41
3.0
 42
1.5
 43
10.0
 44
1.0
 77
     1
 78
     8
140
3.0
141
1.5
143
0.03937007874016
147
1.0
171
     3
172
     1
178
     0
271
     1
272
     1
274
     3
283
     0
284
     8
340
11
341
8F
342
8F
  0
DIMSTYLE
105
4F46
330
A
100
AcDbSymbolTableRecord
100
AcDbDimStyleTableRecord
  2
NEMY-12
 70
     0
 40
12.0
 41
3.0
 42
1.5
 43
10.0
 44
1.0
 73
     0
 74
     0
 77
     1
 78
     8
140
3.0
141
1.5
143
0.03937007874016
147
1.0
171
     3
172
     1
178
     0
271
     1
272
     1
274
     3
283
     0
284
     8
340
11
341
8F
342
8F
  0
DIMSTYLE
105
4F47
330
A
100
AcDbSymbolTableRecord
100
AcDbDimStyleTableRecord
  2
NEMY-12$3
 70
     0
 40
12.0
 41
3.0
 42
1.5
 43
10.0
 44
1.0
 77
     1
 78
     8
140
3.0
141
1.5
143
0.03937007874016
147
1.0
171
     3
172
     1
178
     0
271
     1
272
     1
274
     3
283
     0
284
     8
340
11
341
8F
342
8F
  0
DIMSTYLE
105
5E6E
330
A
100
AcDbSymbolTableRecord
100
AcDbDimStyleTableRecord
  2
NEMY-8$3
 70
     0
 40
8.0
 41
3.0
 42
1.5
 43
10.0
 44
1.0
 77
     1
 78
     8
140
3.0
141
1.5
143
0.03937007874016
147
1.0
171
     3
172
     1
178
     0
271
     1
272
     1
274
     3
283
     0
284
     8
340
11
341
8F
342
8F
  0
DIMSTYLE
105
5E6F
330
A
100
AcDbSymbolTableRecord
100
AcDbDimStyleTableRecord
  2
NEMY-50$3
 70
     0
 40
50.0
 41
3.0
 42
1.5
 43
10.0
 44
1.0
 77
     1
 78
     8
140
3.0
141
1.5
143
0.03937007874016
147
1.0
171
     3
172
     1
178
     0
271
     1
272
     1
274
     3
283
     0
284
     8
340
11
341
8F
342
8F
  0
DIMSTYLE
105
5E70
330
A
100
AcDbSymbolTableRecord
100
AcDbDimStyleTableRecord
  2
NEMY-5$3
 70
     0
 40
5.0
 41
3.0
 42
1.5
 43
10.0
 44
1.0
 77
     1
 78
     8
140
3.0
141
1.5
143
0.03937007874016
147
1.0
171
     3
172
     1
178
     0
271
     1
272
     1
274
     3
283
     0
284
     8
340
11
341
8F
342
8F
  0
DIMSTYLE
105
5E71
330
A
100
AcDbSymbolTableRecord
100
AcDbDimStyleTableRecord
  2
NEMY-30$3
 70
     0
 40
30.0
 41
3.0
 42
1.5
 43
10.0
 44
1.0
 77
     1
 78
     8
140
3.0
141
1.5
143
0.03937007874016
147
1.0
171
     3
172
     1
178
     0
271
     1
272
     1
274
     3
283
     0
284
     8
340
11
341
8F
342
8F
  0
DIMSTYLE
105
5E72
330
A
100
AcDbSymbolTableRecord
100
AcDbDimStyleTableRecord
  2
NEMY-3$3
 70
     0
 40
3.0
 41
3.0
 42
1.5
 43
10.0
 44
1.0
 77
     1
 78
     8
140
3.0
141
1.5
143
0.03937007874016
147
1.0
171
     3
172
     1
178
     0
271
     1
272
     1
274
     3
283
     0
284
     8
340
11
341
8F
342
8F
  0
DIMSTYLE
105
5E73
330
A
100
AcDbSymbolTableRecord
100
AcDbDimStyleTableRecord
  2
NEMY-25$3
 70
     0
 40
25.0
 41
3.0
 42
1.5
 43
10.0
 44
1.0
 77
     1
 78
     8
140
3.0
141
1.5
143
0.03937007874016
147
1.0
171
     3
172
     1
178
     0
271
     1
272
     1
274
     3
283
     0
284
     8
340
11
341
8F
342
8F
  0
DIMSTYLE
105
5E74
330
A
100
AcDbSymbolTableRecord
100
AcDbDimStyleTableRecord
  2
NEMY-20$3
 70
     0
 40
20.0
 41
3.0
 42
1.5
 43
10.0
 44
1.0
 77
     1
 78
     8
140
3.0
141
1.5
143
0.03937007874016
147
1.0
171
     3
172
     1
178
     0
271
     1
272
     1
274
     3
283
     0
284
     8
340
11
341
8F
342
8F
  0
DIMSTYLE
105
5E75
330
A
100
AcDbSymbolTableRecord
100
AcDbDimStyleTableRecord
  2
NEMY-2$3
 70
     0
 40
2.0
 41
3.0
 42
1.5
 43
10.0
 44
1.0
 77
     1
 78
     8
140
3.0
141
1.5
143
0.03937007874016
147
1.0
171
     3
172
     1
178
     0
271
     1
272
     1
274
     3
283
     0
284
     8
340
11
341
8F
342
8F
  0
DIMSTYLE
105
5E76
330
A
100
AcDbSymbolTableRecord
100
AcDbDimStyleTableRecord
  2
NEMY-15$3
 70
     0
 40
15.0
 41
3.0
 42
1.5
 43
10.0
 44
1.0
 77
     1
 78
     8
140
3.0
141
1.5
143
0.03937007874016
147
1.0
171
     3
172
     1
178
     0
271
     1
272
     1
274
     3
283
     0
284
     8
340
11
341
8F
342
8F
  0
DIMSTYLE
105
B717
330
A
100
AcDbSymbolTableRecord
100
AcDbDimStyleTableRecord
  2
STANDARD
 70
     0
178
     0
340
B718
  0
ENDTAB
  0
TABLE
  2
BLOCK_RECORD
  5
1
330
0
100
AcDbSymbolTable
 70
   502
  0
BLOCK_RECORD
  5
1F
102
{ACAD_XDICTIONARY
360
969E
102
}
330
1
100
AcDbSymbolTableRecord
100
AcDbBlockTableRecord
  2
*Model_Space
340
22
  0
BLOCK_RECORD
  5
1B
330
1
100
AcDbSymbolTableRecord
100
AcDbBlockTableRecord
  2
*Paper_Space
340
1E
  0
BLOCK_RECORD
  5
8F
330
1
100
AcDbSymbolTableRecord
100
AcDbBlockTableRecord
  2
_Open
340
0
102
{BLKREFS
331
B9BA
331
B9B9
331
B9C7
331
B9C6
331
B9D6
331
B9D5
331
B9E3
331
B9E2
331
B9F0
331
B9EF
331
B9FD
331
B9FC
331
BA0E
331
BA0D
331
BA1B
331
BA1A
331
BA2A
331
BA38
331
BA37
331
BA47
331
BA46
331
BA54
331
BA53
331
BA63
331
BA62
331
BA70
331
BA6F
331
BA7F
331
BA7E
331
BA8C
331
BA8B
331
BAA4
331
BAA3
331
BAB1
331
BAB0
331
BABE
331
BABD
331
BACB
331
BACA
331
BAEA
331
BAEB
331
BAF6
331
BAF7
331
BB16
331
BB17
331
BB22
331
BB23
102
}
  0
BLOCK_RECORD
  5
82F2
330
1
100
AcDbSymbolTableRecord
100
AcDbBlockTableRecord
  2
hole-φ16
340
0
102
{BLKREFS
331
B9A8
331
B9AA
331
B9AB
331
B9AC
102
}
  0
BLOCK_RECORD
  5
836D
330
1
100
AcDbSymbolTableRecord
100
AcDbBlockTableRecord
  2
平W-M12
340
0
102
{BLKREFS
331
B9AE
102
}
  0
BLOCK_RECORD
  5
841D
330
1
100
AcDbSymbolTableRecord
100
AcDbBlockTableRecord
  2
BH-端柱補強桟(L40x15xt3.2)
340
0
102
{BLKREFS
331
843A
102
}
  0
BLOCK_RECORD
  5
842A
330
1
100
AcDbSymbolTableRecord
100
AcDbBlockTableRecord
  2
BH-端柱(L60)-500H-正面
340
0
102
{BLKREFS
331
A550
331
A560
102
}
  0
BLOCK_RECORD
  5
843D
330
1
100
AcDbSymbolTableRecord
100
AcDbBlockTableRecord
  2
BH-端柱(L60)-500H-側面
340
0
102
{BLKREFS
331
A551
331
A561
102
}
  0
BLOCK_RECORD
  5
8522
330
1
100
AcDbSymbolTableRecord
100
AcDbBlockTableRecord
  2
BH-anchor-L60-背面
340
0
102
{BLKREFS
331
A593
331
A594
102
}
  0
BLOCK_RECORD
  5
8548
330
1
100
AcDbSymbolTableRecord
100
AcDbBlockTableRecord
  2
BH-anchor-L60-立面
340
0
102
{BLKREFS
331
A59B
331
A59C
102
}
  0
BLOCK_RECORD
  5
856D
330
1
100
AcDbSymbolTableRecord
100
AcDbBlockTableRecord
  2
BH-端柱(L60)-平面
340
0
102
{BLKREFS
331
A5A4
331
A5A6
331
A5A7
331
A5A8
102
}
  0
BLOCK_RECORD
  5
858C
330
1
100
AcDbSymbolTableRecord
100
AcDbBlockTableRecord
  2
BH-anchor-L60-平面(実線)
340
0
  0
BLOCK_RECORD
  5
85C2
330
1
100
AcDbSymbolTableRecord
100
AcDbBlockTableRecord
  2
BH-レベル調整(L60)
340
0
  0
BLOCK_RECORD
  5
85C5
330
1
100
AcDbSymbolTableRecord
100
AcDbBlockTableRecord
  2
BH-レベル調整ボルト
340
0
102
{BLKREFS
331
85C4
331
85C4
102
}
  0
BLOCK_RECORD
  5
9928
330
1
100
AcDbSymbolTableRecord
100
AcDbBlockTableRecord
  2
BH-筋交(柱L60)-500H
340
0
102
{BLKREFS
331
A54D
331
A662
102
}
  0
BLOCK_RECORD
  5
B8AD
330
1
100
AcDbSymbolTableRecord
100
AcDbBlockTableRecord
  2
ECOV-EN110MC
340
0
  0
ENDTAB
  0
ENDSEC
  0
SECTION
  2
BLOCKS
  0
BLOCK
  5
20
330
1F
100
AcDbEntity
  8
0
100
AcDbBlockBegin
  2
*Model_Space
 70
     0
 10
0.0
 20
0.0
 30
0.0
  3
*Model_Space
  1
*Model_Space
  0
ENDBLK
  5
21
330
1F
100
AcDbEntity
  8
0
100
AcDbBlockEnd
  0
BLOCK
  5
1C
330
1B
100
AcDbEntity
 67
     1
  8
0
100
AcDbBlockBegin
  2
*Paper_Space
 70
     0
 10
0.0
 20
0.0
 30
0.0
  3
*Paper_Space
  1
*Paper_Space
  0
ENDBLK
  5
1D
330
1B
100
AcDbEntity
 67
     1
  8
0
100
AcDbBlockEnd
  0
BLOCK
  5
93
330
8F
100
AcDbEntity
  8
0
100
AcDbBlockBegin
  2
_Open
 70
     0
 10
0.0
 20
0.0
 30
0.0
  3
_Open
  1
_Open
  0
LINE
  5
90
330
8F
100
AcDbEntity
  8
01注記寸法
 62
     0
370
    -2
100
AcDbLine
 10
-1.0
 20
0.1666666666666667
 30
0.0
 11
0.0
 21
0.0
 31
0.0
  0
LINE
  5
91
330
8F
100
AcDbEntity
  8
01注記寸法
 62
     0
370
    -2
100
AcDbLine
 10
-1.0
 20
-0.1666666666666667
 30
0.0
 11
0.0
 21
0.0
 31
0.0
  0
LINE
  5
92
330
8F
100
AcDbEntity
  8
01注記寸法
 62
     0
370
    -2
100
AcDbLine
 10
0.0
 20
0.0
 30
0.0
 11
-1.0
 21
0.0
 31
0.0
  0
ENDBLK
  5
94
330
8F
100
AcDbEntity
  8
0
100
AcDbBlockEnd
  0
BLOCK
  5
82F3
330
82F2
100
AcDbEntity
  8
0
100
AcDbBlockBegin
  2
hole-φ16
 70
     0
 10
0.0
 20
0.0
 30
0.0
  3
hole-φ16
  1
hole-φ16
  0
CIRCLE
  5
82F4
330
82F2
100
AcDbEntity
  8
02実線
100
AcDbCircle
 10
0.0
 20
0.0
 30
0.0
 40
8.0
  0
LINE
  5
82F5
330
82F2
100
AcDbEntity
  8
04一点鎖線
  6
CENTER
 48
0.2
100
AcDbLine
 10
0.0
 20
-18.0
 30
0.0
 11
0.0
 21
18.0
 31
0.0
  0
LINE
  5
82F6
330
82F2
100
AcDbEntity
  8
04一点鎖線
  6
CENTER
 48
0.2
100
AcDbLine
 10
-18.0
 20
0.0
 30
0.0
 11
18.0
 21
0.0
 31
0.0
  0
ENDBLK
  5
82F7
330
82F2
100
AcDbEntity
  8
0
100
AcDbBlockEnd
  0
BLOCK
  5
836E
330
836D
100
AcDbEntity
  8
0
100
AcDbBlockBegin
  2
平W-M12
 70
     0
 10
0.0
 20
0.0
 30
0.0
  3
平W-M12
  1
平W-M12
  0
CIRCLE
  5
836F
330
836D
100
AcDbEntity
  8
10副資材
100
AcDbCircle
 10
0.0
 20
0.0
 30
0.0
 40
6.0
  0
CIRCLE
  5
8370
330
836D
100
AcDbEntity
  8
10副資材
100
AcDbCircle
 10
0.0
 20
0.0
 30
0.0
 40
13.0
  0
TEXT
  5
8371
330
836D
100
AcDbEntity
  8
10副資材
100
AcDbText
 10
-3.899921878130408
 20
-11.29716620919794
 30
0.0
 40
4.0
  1
M12
 72
     1
 11
0.000078121869592
 21
-9.29716620919794
 31
0.0
100
AcDbText
 73
     2
  0
ENDBLK
  5
8372
330
836D
100
AcDbEntity
  8
0
100
AcDbBlockEnd
  0
BLOCK
  5
841E
330
841D
100
AcDbEntity
  8
0
100
AcDbBlockBegin
  2
BH-端柱補強桟(L40x15xt3.2)
 70
     0
 10
0.0
 20
0.0
 30
0.0
  3
BH-端柱補強桟(L40x15xt3.2)
  1
BH-端柱補強桟(L40x15xt3.2)
  0
LINE
  5
841F
330
841D
100
AcDbEntity
  8
03破線
  6
HIDDEN
 48
0.5
100
AcDbLine
 10
3.199999999999818
 20
-3.199999999999818
 30
0.0
 11
3.199999999999818
 21
-40.0
 31
0.0
  0
LINE
  5
8420
330
841D
100
AcDbEntity
  8
03破線
  6
HIDDEN
 48
0.5
100
AcDbLine
 10
15.0
 20
0.0
 30
0.0
 11
15.0
 21
-3.199999999999818
 31
0.0
  0
LINE
  5
8421
330
841D
100
AcDbEntity
  8
03破線
  6
HIDDEN
 48
0.5
100
AcDbLine
 10
15.0
 20
-3.199999999999818
 30
0.0
 11
3.199999999999818
 21
-3.199999999999818
 31
0.0
  0
LINE
  5
8422
330
841D
100
AcDbEntity
  8
03破線
  6
HIDDEN
 48
0.5
100
AcDbLine
 10
0.0
 20
0.0
 30
0.0
 11
0.0
 21
-40.0
 31
0.0
  0
LINE
  5
8423
330
841D
100
AcDbEntity
  8
03破線
  6
HIDDEN
 48
0.5
100
AcDbLine
 10
15.0
 20
0.0
 30
0.0
 11
0.0
 21
0.0
 31
0.0
  0
LINE
  5
8424
330
841D
100
AcDbEntity
  8
03破線
  6
HIDDEN
 48
0.5
100
AcDbLine
 10
3.199999999999818
 20
-40.0
 30
0.0
 11
0.0
 21
-40.0
 31
0.0
  0
ENDBLK
  5
8425
330
841D
100
AcDbEntity
  8
0
100
AcDbBlockEnd
  0
BLOCK
  5
842B
330
842A
100
AcDbEntity
  8
0
100
AcDbBlockBegin
  2
BH-端柱(L60)-500H-正面
 70
     0
 10
0.0
 20
0.0
 30
0.0
  3
BH-端柱(L60)-500H-正面
  1
BH-端柱(L60)-500H-正面
  0
LWPOLYLINE
  5
842C
330
842A
100
AcDbEntity
  8
02実線
100
AcDbPolyline
 90
        4
 70
     1
 43
0.0
 10
0.0
 20
0.0
 10
0.0
 20
497.0000000000005
 10
60.0
 20
497.0000000000005
 10
60.0
 20
0.0
  0
LINE
  5
842D
330
842A
100
AcDbEntity
  8
03破線
100
AcDbLine
 10
3.200000000000728
 20
0.0
 30
0.0
 11
3.200000000000728
 21
497.0000000000005
 31
0.0
  0
ARC
  5
842E
330
842A
100
AcDbEntity
  8
02実線
100
AcDbCircle
 10
22.00000000000091
 20
30.0
 30
0.0
 40
7.0
100
AcDbArc
 50
90.0
 51
270.0
  0
LINE
  5
842F
330
842A
100
AcDbEntity
  8
02実線
100
AcDbLine
 10
22.00000000000091
 20
23.0
 30
0.0
 11
42.00000000000091
 21
23.0
 31
0.0
  0
LINE
  5
8430
330
842A
100
AcDbEntity
  8
02実線
100
AcDbLine
 10
22.00000000000091
 20
37.0
 30
0.0
 11
42.00000000000091
 21
37.0
 31
0.0
  0
ARC
  5
8431
330
842A
100
AcDbEntity
  8
02実線
100
AcDbCircle
 10
42.00000000000091
 20
30.0
 30
0.0
 40
7.0
100
AcDbArc
 50
270.0
 51
90.0
  0
CIRCLE
  5
8432
330
842A
100
AcDbEntity
  8
02実線
100
AcDbCircle
 10
30.00000000000091
 20
215.0000000000002
 30
0.0
 40
6.5
  0
CIRCLE
  5
8433
330
842A
100
AcDbEntity
  8
02実線
100
AcDbCircle
 10
30.00000000000091
 20
466.0000000000005
 30
0.0
 40
6.5
  0
LINE
  5
8434
330
842A
100
AcDbEntity
  8
04一点鎖線
 48
0.2
100
AcDbLine
 10
59.0
 20
30.0
 30
0.0
 11
-10.0
 21
30.0
 31
0.0
  0
LINE
  5
8435
330
842A
100
AcDbEntity
  8
04一点鎖線
 48
0.2
100
AcDbLine
 10
46.5
 20
466.0000000000005
 30
0.0
 11
13.50000000000091
 21
466.0000000000005
 31
0.0
  0
LINE
  5
8436
330
842A
100
AcDbEntity
  8
04一点鎖線
 48
0.2
100
AcDbLine
 10
32.00000000000091
 20
13.0
 30
0.0
 11
32.00000000000091
 21
47.0
 31
0.0
  0
LINE
  5
8437
330
842A
100
AcDbEntity
  8
04一点鎖線
 48
0.2
100
AcDbLine
 10
30.00000000000182
 20
198.5000000000002
 30
0.0
 11
30.0
 21
231.5000000000002
 31
0.0
  0
LINE
  5
8438
330
842A
100
AcDbEntity
  8
04一点鎖線
 48
0.2
100
AcDbLine
 10
30.00000000000182
 20
449.5000000000005
 30
0.0
 11
30.0
 21
482.5000000000005
 31
0.0
  0
LINE
  5
8439
330
842A
100
AcDbEntity
  8
04一点鎖線
 48
0.2
100
AcDbLine
 10
46.5
 20
215.0000000000002
 30
0.0
 11
13.50000000000091
 21
215.0000000000002
 31
0.0
  0
INSERT
  5
843A
330
842A
100
AcDbEntity
  8
03破線
100
AcDbBlockReference
  2
BH-端柱補強桟(L40x15xt3.2)
 10
3.200000000000728
 20
250.0
 30
0.0
  0
ENDBLK
  5
843B
330
842A
100
AcDbEntity
  8
0
100
AcDbBlockEnd
  0
BLOCK
  5
843E
330
843D
100
AcDbEntity
  8
0
100
AcDbBlockBegin
  2
BH-端柱(L60)-500H-側面
 70
     0
 10
0.0
 20
0.0
 30
0.0
  3
BH-端柱(L60)-500H-側面
  1
BH-端柱(L60)-500H-側面
  0
ARC
  5
843F
330
843D
100
AcDbEntity
  8
02実線
100
AcDbCircle
 10
42.00000000000091
 20
29.99999999999886
 30
0.0
 40
7.0
100
AcDbArc
 50
270.0
 51
90.0
  0
LINE
  5
8440
330
843D
100
AcDbEntity
  8
02実線
100
AcDbLine
 10
22.00000000000091
 20
36.99999999999886
 30
0.0
 11
42.00000000000091
 21
36.99999999999886
 31
0.0
  0
LINE
  5
8441
330
843D
100
AcDbEntity
  8
02実線
100
AcDbLine
 10
22.00000000000091
 20
22.99999999999886
 30
0.0
 11
42.00000000000091
 21
22.99999999999886
 31
0.0
  0
ARC
  5
8442
330
843D
100
AcDbEntity
  8
02実線
100
AcDbCircle
 10
22.00000000000091
 20
29.99999999999886
 30
0.0
 40
7.0
100
AcDbArc
 50
90.0
 51
270.0
  0
LINE
  5
8443
330
843D
100
AcDbEntity
  8
03破線
100
AcDbLine
 10
3.200000000000728
 20
-0.0000000000011369
 30
0.0
 11
3.200000000000728
 21
496.9999999999993
 31
0.0
  0
LWPOLYLINE
  5
8444
330
843D
100
AcDbEntity
  8
02実線
100
AcDbPolyline
 90
        4
 70
     1
 43
0.0
 10
0.0
 20
0.0
 10
0.0
 20
497.0000000000002
 10
60.0
 20
497.0000000000002
 10
60.0
 20
0.0
  0
CIRCLE
  5
8445
330
843D
100
AcDbEntity
  8
02実線
100
AcDbCircle
 10
34.69999999999982
 20
469.9999999999993
 30
0.0
 40
6.5
  0
CIRCLE
  5
8446
330
843D
100
AcDbEntity
  8
02実線
100
AcDbCircle
 10
34.69999999999982
 20
399.9999999999991
 30
0.0
 40
6.5
  0
LINE
  5
8447
330
843D
100
AcDbEntity
  8
04一点鎖線
 48
0.2
100
AcDbLine
 10
59.00000000000091
 20
29.99999999999886
 30
0.0
 11
-10.0
 21
29.99999999999886
 31
0.0
  0
LINE
  5
8448
330
843D
100
AcDbEntity
  8
04一点鎖線
 48
0.2
100
AcDbLine
 10
32.00000000000091
 20
12.99999999999886
 30
0.0
 11
32.00000000000091
 21
46.99999999999886
 31
0.0
  0
LINE
  5
8449
330
843D
100
AcDbEntity
  8
04一点鎖線
 48
0.2
100
AcDbLine
 10
51.20000000000073
 20
469.9999999999989
 30
0.0
 11
18.20000000000073
 21
469.9999999999989
 31
0.0
  0
LINE
  5
844A
330
843D
100
AcDbEntity
  8
04一点鎖線
 48
0.2
100
AcDbLine
 10
51.19999999999982
 20
399.9999999999991
 30
0.0
 11
18.19999999999982
 21
399.9999999999991
 31
0.0
  0
LINE
  5
844B
330
843D
100
AcDbEntity
  8
04一点鎖線
 48
0.2
100
AcDbLine
 10
34.69999999999982
 20
383.4999999999991
 30
0.0
 11
34.69999999999982
 21
416.4999999999991
 31
0.0
  0
LINE
  5
844C
330
843D
100
AcDbEntity
  8
04一点鎖線
 48
0.2
100
AcDbLine
 10
34.70000000000073
 20
453.4999999999989
 30
0.0
 11
34.70000000000073
 21
486.4999999999989
 31
0.0
  0
ENDBLK
  5
844D
330
843D
100
AcDbEntity
  8
0
100
AcDbBlockEnd
  0
BLOCK
  5
8523
330
8522
100
AcDbEntity
  8
0
100
AcDbBlockBegin
  2
BH-anchor-L60-背面
 70
     0
 10
0.0
 20
0.0
 30
0.0
  3
BH-anchor-L60-背面
  1
BH-anchor-L60-背面
  0
LINE
  5
8524
330
8522
100
AcDbEntity
  8
04一点鎖線
 48
0.2
100
AcDbLine
 10
0.0
 20
-15.0
 30
0.0
 11
0.0
 21
19.5
 31
0.0
  0
LINE
  5
8525
330
8522
100
AcDbEntity
  8
03破線
100
AcDbLine
 10
-28.5
 20
4.5
 30
0.0
 11
28.5
 21
4.5
 31
0.0
  0
LINE
  5
8526
330
8522
100
AcDbEntity
  8
03破線
100
AcDbLine
 10
-28.5
 20
0.0
 30
0.0
 11
28.5
 21
0.0
 31
0.0
  0
LINE
  5
8527
330
8522
100
AcDbEntity
  8
03破線
100
AcDbLine
 10
-15.82435206036507
 20
56.11709862642329
 30
0.0
 11
4.175647939634928
 21
26.11709862642329
 31
0.0
  0
LINE
  5
8528
330
8522
100
AcDbEntity
  8
03破線
100
AcDbLine
 10
-4.175647939634928
 20
63.88290137357671
 30
0.0
 11
15.82435206036507
 21
33.88290137357671
 31
0.0
  0
ARC
  5
8529
330
8522
100
AcDbEntity
  8
03破線
100
AcDbCircle
 10
10.0
 20
30.0
 30
0.0
 40
7.0
100
AcDbArc
 50
213.6900675259766
 51
33.69006752597669
  0
ARC
  5
852A
330
8522
100
AcDbEntity
  8
03破線
100
AcDbCircle
 10
-10.0
 20
60.0
 30
0.0
 40
7.0
100
AcDbArc
 50
33.69006752597669
 51
213.6900675259766
  0
LINE
  5
852B
330
8522
100
AcDbEntity
  8
03破線
100
AcDbLine
 10
-23.5
 20
80.0
 30
0.0
 11
-28.5
 21
75.0
 31
0.0
  0
LINE
  5
852C
330
8522
100
AcDbEntity
  8
03破線
100
AcDbLine
 10
-28.5
 20
0.0
 30
0.0
 11
-28.5
 21
75.0
 31
0.0
  0
LINE
  5
852D
330
8522
100
AcDbEntity
  8
03破線
100
AcDbLine
 10
28.5
 20
75.0
 30
0.0
 11
23.5
 21
80.0
 31
0.0
  0
LINE
  5
852E
330
8522
100
AcDbEntity
  8
03破線
100
AcDbLine
 10
-23.5
 20
80.0
 30
0.0
 11
23.5
 21
80.0
 31
0.0
  0
LINE
  5
852F
330
8522
100
AcDbEntity
  8
03破線
100
AcDbLine
 10
28.5
 20
0.0
 30
0.0
 11
28.5
 21
75.0
 31
0.0
  0
ENDBLK
  5
8530
330
8522
100
AcDbEntity
  8
0
100
AcDbBlockEnd
  0
BLOCK
  5
8549
330
8548
100
AcDbEntity
  8
0
100
AcDbBlockBegin
  2
BH-anchor-L60-立面
 70
     0
 10
0.0
 20
0.0
 30
0.0
  3
BH-anchor-L60-立面
  1
BH-anchor-L60-立面
  0
LINE
  5
854A
330
8548
100
AcDbEntity
  8
04一点鎖線
 48
0.2
100
AcDbLine
 10
-22.5
 20
45.0
 30
0.0
 11
-47.0
 21
45.0
 31
0.0
  0
ARC
  5
854B
330
8548
100
AcDbEntity
  8
03破線
100
AcDbCircle
 10
-29.19999999999982
 20
7.799999999999727
 30
0.0
 40
3.300000000000002
100
AcDbArc
 50
180.0
 51
270.0
  0
ARC
  5
854C
330
8548
100
AcDbEntity
  8
03破線
100
AcDbCircle
 10
-29.19999999999982
 20
7.799999999999727
 30
0.0
 40
7.800000000000002
100
AcDbArc
 50
179.9999999999967
 51
270.0
  0
LINE
  5
854D
330
8548
100
AcDbEntity
  8
03破線
100
AcDbLine
 10
-37.0
 20
80.0
 30
0.0
 11
-32.5
 21
80.0
 31
0.0
  0
LINE
  5
854E
330
8548
100
AcDbEntity
  8
03破線
100
AcDbLine
 10
23.0
 20
4.5
 30
0.0
 11
23.0
 21
0.0
 31
0.0
  0
LINE
  5
854F
330
8548
100
AcDbEntity
  8
03破線
100
AcDbLine
 10
-32.5
 20
80.0
 30
0.0
 11
-32.5
 21
7.799999999999727
 31
0.0
  0
LINE
  5
8550
330
8548
100
AcDbEntity
  8
03破線
100
AcDbLine
 10
-29.19999999999982
 20
4.5
 30
0.0
 11
23.0
 21
4.5
 31
0.0
  0
LINE
  5
8551
330
8548
100
AcDbEntity
  8
03破線
100
AcDbLine
 10
-37.0
 20
80.0
 30
0.0
 11
-37.0
 21
7.799999999999727
 31
0.0
  0
LINE
  5
8552
330
8548
100
AcDbEntity
  8
03破線
100
AcDbLine
 10
-29.19999999999982
 20
0.0
 30
0.0
 11
23.0
 21
0.0
 31
0.0
  0
LINE
  5
8553
330
8548
100
AcDbEntity
  8
04一点鎖線
 48
0.2
100
AcDbLine
 10
0.0
 20
19.5
 30
0.0
 11
0.0
 21
-15.0
 31
0.0
  0
ENDBLK
  5
8554
330
8548
100
AcDbEntity
  8
0
100
AcDbBlockEnd
  0
BLOCK
  5
856E
330
856D
100
AcDbEntity
  8
0
100
AcDbBlockBegin
  2
BH-端柱(L60)-平面
 70
     0
 10
0.0
 20
0.0
 30
0.0
  3
BH-端柱(L60)-平面
  1
BH-端柱(L60)-平面
  0
LINE
  5
856F
330
856D
100
AcDbEntity
  8
02実線
100
AcDbLine
 10
60.0
 20
3.199999999999818
 30
0.0
 11
60.0
 21
0.0
 31
0.0
  0
LINE
  5
8570
330
856D
100
AcDbEntity
  8
02実線
100
AcDbLine
 10
3.200000000000728
 20
3.199999999999818
 30
0.0
 11
60.0
 21
3.199999999999818
 31
0.0
  0
LINE
  5
8571
330
856D
100
AcDbEntity
  8
02実線
100
AcDbLine
 10
0.0
 20
60.0
 30
0.0
 11
3.200000000000728
 21
60.0
 31
0.0
  0
LINE
  5
8572
330
856D
100
AcDbEntity
  8
02実線
100
AcDbLine
 10
0.0
 20
0.0
 30
0.0
 11
60.0
 21
0.0
 31
0.0
  0
LINE
  5
8573
330
856D
100
AcDbEntity
  8
02実線
100
AcDbLine
 10
0.0
 20
60.0
 30
0.0
 11
0.0
 21
0.0
 31
0.0
  0
LINE
  5
8574
330
856D
100
AcDbEntity
  8
02実線
100
AcDbLine
 10
3.200000000000728
 20
60.0
 30
0.0
 11
3.200000000000728
 21
3.199999999999818
 31
0.0
  0
LINE
  5
8575
330
856D
100
AcDbEntity
  8
08非表示
100
AcDbLine
 10
3.200000000000728
 20
4.699999999999818
 30
0.0
 11
60.0
 21
4.699999999999818
 31
0.0
  0
ENDBLK
  5
8576
330
856D
100
AcDbEntity
  8
0
100
AcDbBlockEnd
  0
BLOCK
  5
858D
330
858C
100
AcDbEntity
  8
0
100
AcDbBlockBegin
  2
BH-anchor-L60-平面(実線)
 70
     0
 10
0.0
 20
0.0
 30
0.0
  3
BH-anchor-L60-平面(実線)
  1
BH-anchor-L60-平面(実線)
  0
LINE
  5
858E
330
858C
100
AcDbEntity
  8
02実線
100
AcDbLine
 10
-32.5
 20
-28.5
 30
0.0
 11
-32.5
 21
28.5
 31
0.0
  0
LINE
  5
858F
330
858C
100
AcDbEntity
  8
02実線
100
AcDbLine
 10
-37.0
 20
-28.5
 30
0.0
 11
-37.0
 21
28.5
 31
0.0
  0
CIRCLE
  5
8590
330
858C
100
AcDbEntity
  8
02実線
100
AcDbCircle
 10
0.0
 20
0.0
 30
0.0
 40
8.0
  0
LINE
  5
8591
330
858C
100
AcDbEntity
  8
02実線
100
AcDbLine
 10
23.0
 20
18.5
 30
0.0
 11
13.0
 21
28.5
 31
0.0
  0
LINE
  5
8592
330
858C
100
AcDbEntity
  8
02実線
100
AcDbLine
 10
23.0
 20
-18.5
 30
0.0
 11
13.0
 21
-28.5
 31
0.0
  0
LINE
  5
8593
330
858C
100
AcDbEntity
  8
02実線
100
AcDbLine
 10
-37.0
 20
28.5
 30
0.0
 11
13.0
 21
28.5
 31
0.0
  0
LINE
  5
8594
330
858C
100
AcDbEntity
  8
02実線
100
AcDbLine
 10
-37.0
 20
-28.5
 30
0.0
 11
13.0
 21
-28.5
 31
0.0
  0
LINE
  5
8595
330
858C
100
AcDbEntity
  8
02実線
100
AcDbLine
 10
23.0
 20
-18.5
 30
0.0
 11
23.0
 21
18.5
 31
0.0
  0
ARC
  5
A0C7
330
858C
100
AcDbEntity
  8
08非表示
100
AcDbCircle
 10
-5.0
 20
0.0
 30
0.0
 40
8.0
100
AcDbArc
 50
90.0
 51
270.0
  0
ARC
  5
A0C8
330
858C
100
AcDbEntity
  8
08非表示
100
AcDbCircle
 10
5.0
 20
0.0
 30
0.0
 40
8.0
100
AcDbArc
 50
270.0
 51
90.0
  0
LINE
  5
A0C9
330
858C
100
AcDbEntity
  8
08非表示
100
AcDbLine
 10
5.0
 20
-8.0
 30
0.0
 11
-5.0
 21
-8.0
 31
0.0
  0
LINE
  5
A0CA
330
858C
100
AcDbEntity
  8
08非表示
100
AcDbLine
 10
5.0
 20
8.0
 30
0.0
 11
-5.0
 21
8.0
 31
0.0
  0
ENDBLK
  5
8596
330
858C
100
AcDbEntity
  8
0
100
AcDbBlockEnd
  0
BLOCK
  5
85C3
330
85C2
100
AcDbEntity
  8
0
100
AcDbBlockBegin
  2
BH-レベル調整(L60)
 70
     0
 10
0.0
 20
0.0
 30
0.0
  3
BH-レベル調整(L60)
  1
BH-レベル調整(L60)
  0
INSERT
  5
85C4
330
85C2
100
AcDbEntity
  8
02実線
100
AcDbBlockReference
  2
BH-レベル調整ボルト
 10
40.20000000000073
 20
45.0
 30
0.0
  0
LINE
  5
85EB
330
85C2
100
AcDbEntity
  8
04一点鎖線
  6
CENTER
 48
0.2
100
AcDbLine
 10
0.0
 20
19.5
 30
0.0
 11
0.0
 21
-15.0
 31
0.0
  0
LINE
  5
85EC
330
85C2
100
AcDbEntity
  8
02実線
100
AcDbLine
 10
29.19999999999891
 20
0.0
 30
0.0
 11
-23.0
 21
0.0
 31
0.0
  0
LINE
  5
85ED
330
85C2
100
AcDbEntity
  8
02実線
100
AcDbLine
 10
37.0
 20
80.0
 30
0.0
 11
37.0
 21
7.800000000000182
 31
0.0
  0
LINE
  5
85EE
330
85C2
100
AcDbEntity
  8
02実線
100
AcDbLine
 10
29.19999999999891
 20
4.5
 30
0.0
 11
-23.0
 21
4.5
 31
0.0
  0
LINE
  5
85EF
330
85C2
100
AcDbEntity
  8
02実線
100
AcDbLine
 10
32.5
 20
80.0
 30
0.0
 11
32.5
 21
7.800000000000182
 31
0.0
  0
LINE
  5
85F0
330
85C2
100
AcDbEntity
  8
02実線
100
AcDbLine
 10
-23.0
 20
4.5
 30
0.0
 11
-23.0
 21
0.0
 31
0.0
  0
LINE
  5
85F1
330
85C2
100
AcDbEntity
  8
02実線
100
AcDbLine
 10
37.0
 20
80.0
 30
0.0
 11
32.5
 21
80.0
 31
0.0
  0
ARC
  5
85F2
330
85C2
100
AcDbEntity
  8
02実線
100
AcDbCircle
 10
29.19999999999891
 20
7.800000000000182
 30
0.0
 40
7.800000000000002
100
AcDbArc
 50
270.0
 51
0.0
  0
ARC
  5
85F3
330
85C2
100
AcDbEntity
  8
02実線
100
AcDbCircle
 10
29.19999999999891
 20
7.800000000000182
 30
0.0
 40
3.300000000000002
100
AcDbArc
 50
270.0
 51
0.0
  0
LINE
  5
85F4
330
85C2
100
AcDbEntity
  8
08非表示
100
AcDbLine
 10
22.5
 20
45.0
 30
0.0
 11
47.0
 21
45.0
 31
0.0
  0
SPLINE
  5
85F5
330
85C2
100
AcDbEntity
  8
02実線
100
AcDbSpline
210
0.0
220
0.0
230
1.0
 70
     8
 71
     3
 72
    10
 73
     6
 74
     4
 42
0.000000001
 43
0.0000000001
 44
0.0
 40
0.0
 40
0.0
 40
0.0
 40
0.0
 40
27.96720411838188
 40
57.80924792660403
 40
76.63509842319104
 40
76.63509842319104
 40
76.63509842319104
 40
76.63509842319104
 10
-28.7211604831864
 20
95.37977920784851
 30
0.0
 10
-19.522582757233
 20
97.88194725263918
 30
0.0
 10
-0.508781517720891
 20
103.0540213807161
 30
0.0
 10
24.99811927644742
 20
91.22435902508
 30
0.0
 10
40.43889078411761
 20
97.68800056229534
 30
0.0
 10
46.41173304712538
 20
100.1882843937888
 30
0.0
 11
-28.7211604831864
 21
95.37977920784851
 31
0.0
 11
-1.072255664032127
 21
99.58722124554606
 31
0.0
 11
28.3798385998507
 21
94.77871605960627
 31
0.0
 11
46.41173304712538
 21
100.1882843937888
 31
0.0
  0
LWPOLYLINE
  5
85F6
330
85C2
100
AcDbEntity
  8
02実線
100
AcDbPolyline
 90
        2
 70
     0
 43
0.0
 10
-19.79999999999927
 20
97.69460151095063
 10
-19.79999999999927
 20
4.5
  0
LWPOLYLINE
  5
85F7
330
85C2
100
AcDbEntity
  8
02実線
100
AcDbPolyline
 90
        3
 70
     0
 43
0.0
 10
-19.79999999999927
 20
0.0
 10
40.20000000000073
 20
0.0
 10
40.20000000000073
 20
97.67689857127289
  0
LINE
  5
85F8
330
85C2
100
AcDbEntity
  8
02実線
100
AcDbLine
 10
37.0
 20
-0.0000000000009095
 30
0.0
 11
37.0
 21
96.55676652791863
 31
0.0
  0
ENDBLK
  5
85F9
330
85C2
100
AcDbEntity
  8
0
100
AcDbBlockEnd
  0
BLOCK
  5
85C6
330
85C5
100
AcDbEntity
  8
0
100
AcDbBlockBegin
  2
BH-レベル調整ボルト
 70
     0
 10
0.0
 20
0.0
 30
0.0
  3
BH-レベル調整ボルト
  1
BH-レベル調整ボルト
  0
LINE
  5
85C7
330
85C5
100
AcDbEntity
  8
04一点鎖線
  6
CENTER
 48
0.2
100
AcDbLine
 10
-28.39999999999964
 20
0.0
 30
0.0
 11
13.00000001115222
 21
0.0
 31
0.0
  0
LINE
  5
85C8
330
85C5
100
AcDbEntity
  8
02実線
100
AcDbLine
 10
-23.39999999999964
 20
-4.0
 30
0.0
 11
-17.3000000111515
 21
-4.0
 31
0.0
  0
LINE
  5
85C9
330
85C5
100
AcDbEntity
  8
02実線
100
AcDbLine
 10
-23.39999999999964
 20
4.0
 30
0.0
 11
-17.3000000111515
 21
4.0
 31
0.0
  0
LINE
  5
85CA
330
85C5
100
AcDbEntity
  8
02実線
100
AcDbLine
 10
-23.39999999999964
 20
-4.0
 30
0.0
 11
-23.39999999999964
 21
4.0
 31
0.0
  0
LINE
  5
85CB
330
85C5
100
AcDbEntity
  8
02実線
100
AcDbLine
 10
-22.39999999999964
 20
5.0
 30
0.0
 11
-17.3000000111515
 21
5.0
 31
0.0
  0
LINE
  5
85CC
330
85C5
100
AcDbEntity
  8
02実線
100
AcDbLine
 10
-22.39999999999964
 20
-5.0
 30
0.0
 11
-22.39999999999964
 21
5.0
 31
0.0
  0
LINE
  5
85CD
330
85C5
100
AcDbEntity
  8
02実線
100
AcDbLine
 10
-22.39999999999964
 20
-5.0
 30
0.0
 11
-17.3000000111515
 21
-5.0
 31
0.0
  0
LINE
  5
85CE
330
85C5
100
AcDbEntity
  8
02実線
100
AcDbLine
 10
-23.39999999999964
 20
-4.0
 30
0.0
 11
-22.39999999999964
 21
-5.0
 31
0.0
  0
LINE
  5
85CF
330
85C5
100
AcDbEntity
  8
02実線
100
AcDbLine
 10
-22.39999999999964
 20
5.0
 30
0.0
 11
-23.39999999999964
 21
4.0
 31
0.0
  0
LINE
  5
85D0
330
85C5
100
AcDbEntity
  8
02実線
100
AcDbLine
 10
-7.700000000000728
 20
11.0
 30
0.0
 11
-7.700000000000728
 21
-11.0
 31
0.0
  0
LINE
  5
85D1
330
85C5
100
AcDbEntity
  8
02実線
100
AcDbLine
 10
-9.299999999999272
 20
11.0
 30
0.0
 11
-7.700000000000728
 21
11.0
 31
0.0
  0
LINE
  5
85D2
330
85C5
100
AcDbEntity
  8
02実線
100
AcDbLine
 10
-9.299999999999272
 20
-11.0
 30
0.0
 11
-7.700000000000728
 21
-11.0
 31
0.0
  0
LINE
  5
85D3
330
85C5
100
AcDbEntity
  8
02実線
100
AcDbLine
 10
-9.299999999999272
 20
11.0
 30
0.0
 11
-9.299999999999272
 21
-11.0
 31
0.0
  0
LINE
  5
85D4
330
85C5
100
AcDbEntity
  8
02実線
100
AcDbLine
 10
-9.299999999999272
 20
9.237604307033962
 30
0.0
 11
-9.299999999999272
 21
-9.237604307033962
 31
0.0
  0
ARC
  5
85D5
330
85C5
100
AcDbEntity
  8
02実線
100
AcDbCircle
 10
-12.68119784648297
 20
6.927925269031675
 30
0.0
 40
4.618802164669552
100
AcDbArc
 50
149.9960184984644
 51
209.9960184984832
  0
ARC
  5
85D6
330
85C5
100
AcDbEntity
  8
02実線
100
AcDbCircle
 10
-12.68119784648297
 20
-6.927925269031675
 30
0.0
 40
4.618802164669552
100
AcDbArc
 50
150.0039815015167
 51
210.0039815015356
  0
ARC
  5
85D7
330
85C5
100
AcDbEntity
  8
02実線
100
AcDbCircle
 10
0.2513967268932902
 20
0.0
 30
0.0
 40
17.55139672689282
100
AcDbArc
 50
164.7424308899368
 51
195.2575691100632
  0
LINE
  5
85D8
330
85C5
100
AcDbEntity
  8
02実線
100
AcDbLine
 10
-9.299999999999272
 20
4.618802153516754
 30
0.0
 11
-16.68135832748158
 21
4.618802153516754
 31
0.0
  0
LINE
  5
85D9
330
85C5
100
AcDbEntity
  8
02実線
100
AcDbLine
 10
-17.3000000111515
 20
6.927925269031675
 30
0.0
 11
-17.3000000111515
 21
-6.927925269031675
 31
0.0
  0
LINE
  5
85DA
330
85C5
100
AcDbEntity
  8
02実線
100
AcDbLine
 10
-9.299999999999272
 20
-4.618802153516754
 30
0.0
 11
-16.68135832748158
 21
-4.618802153516754
 31
0.0
  0
LINE
  5
85DB
330
85C5
100
AcDbEntity
  8
02実線
100
AcDbLine
 10
-9.299999999999272
 20
-9.237604307033962
 30
0.0
 11
-16.68103736548437
 21
-9.237604307033962
 31
0.0
  0
LINE
  5
85DC
330
85C5
100
AcDbEntity
  8
02実線
100
AcDbLine
 10
-9.299999999999272
 20
9.237604307033962
 30
0.0
 11
-16.68103736548437
 21
9.237604307033962
 31
0.0
  0
LINE
  5
85DD
330
85C5
100
AcDbEntity
  8
02実線
100
AcDbLine
 10
0.0
 20
-11.0
 30
0.0
 11
1.600000000000364
 21
-11.0
 31
0.0
  0
LINE
  5
85DE
330
85C5
100
AcDbEntity
  8
02実線
100
AcDbLine
 10
0.0
 20
11.0
 30
0.0
 11
1.600000000000364
 21
11.0
 31
0.0
  0
LINE
  5
85DF
330
85C5
100
AcDbEntity
  8
02実線
100
AcDbLine
 10
1.600000000000364
 20
11.0
 30
0.0
 11
1.600000000000364
 21
-11.0
 31
0.0
  0
LINE
  5
85E0
330
85C5
100
AcDbEntity
  8
02実線
100
AcDbLine
 10
0.0
 20
11.0
 30
0.0
 11
0.0
 21
-11.0
 31
0.0
  0
LINE
  5
85E1
330
85C5
100
AcDbEntity
  8
02実線
100
AcDbLine
 10
1.600000000000364
 20
-4.618802153516754
 30
0.0
 11
7.381358327482303
 21
-4.618802153516754
 31
0.0
  0
LINE
  5
85E2
330
85C5
100
AcDbEntity
  8
02実線
100
AcDbLine
 10
1.600000000000364
 20
-9.237604307033962
 30
0.0
 11
7.38103736548328
 21
-9.237604307033962
 31
0.0
  0
LINE
  5
85E3
330
85C5
100
AcDbEntity
  8
02実線
100
AcDbLine
 10
8.000000011152224
 20
6.927925269031675
 30
0.0
 11
8.000000011152224
 21
-6.927925269031675
 31
0.0
  0
LINE
  5
85E4
330
85C5
100
AcDbEntity
  8
02実線
100
AcDbLine
 10
1.600000000000364
 20
4.618802153516754
 30
0.0
 11
7.381358327482303
 21
4.618802153516754
 31
0.0
  0
LINE
  5
85E5
330
85C5
100
AcDbEntity
  8
02実線
100
AcDbLine
 10
1.600000000000364
 20
9.237604307033962
 30
0.0
 11
7.38103736548328
 21
9.237604307033962
 31
0.0
  0
ARC
  5
85E6
330
85C5
100
AcDbEntity
  8
02実線
100
AcDbCircle
 10
-9.551396726892563
 20
0.0
 30
0.0
 40
17.55139672689282
100
AcDbArc
 50
344.7424308899368
 51
15.25756911006317
  0
ARC
  5
85E7
330
85C5
100
AcDbEntity
  8
02実線
100
AcDbCircle
 10
3.381197846481882
 20
-6.927925269031675
 30
0.0
 40
4.618802164669552
100
AcDbArc
 50
329.9960184984644
 51
29.99601849845809
  0
ARC
  5
85E8
330
85C5
100
AcDbEntity
  8
02実線
100
AcDbCircle
 10
3.381197846481882
 20
6.927925269031675
 30
0.0
 40
4.618802164669552
100
AcDbArc
 50
330.0039815015419
 51
30.00398150153562
  0
LINE
  5
85E9
330
85C5
100
AcDbEntity
  8
02実線
100
AcDbLine
 10
1.600000000000364
 20
9.237604307033962
 30
0.0
 11
1.600000000000364
 21
-9.237604307033962
 31
0.0
  0
ENDBLK
  5
85EA
330
85C5
100
AcDbEntity
  8
0
100
AcDbBlockEnd
  0
BLOCK
  5
9929
330
9928
100
AcDbEntity
  8
0
100
AcDbBlockBegin
  2
BH-筋交(柱L60)-500H
 70
     0
 10
0.0
 20
0.0
 30
0.0
  3
BH-筋交(柱L60)-500H
  1
BH-筋交(柱L60)-500H
  0
CIRCLE
  5
992B
330
9928
100
AcDbEntity
  8
03破線
100
AcDbCircle
 10
312.2304049160912
 20
250.0243473062876
 30
0.0
 40
6.499999999999988
  0
LINE
  5
992C
330
9928
100
AcDbEntity
  8
03破線
100
AcDbLine
 10
316.5633268549091
 20
268.6110572752962
 30
0.0
 11
-19.0843584298882
 21
-0.1651160789606365
 31
0.0
  0
CIRCLE
  5
992D
330
9928
100
AcDbEntity
  8
03破線
100
AcDbCircle
 10
0.0
 20
0.0
 30
0.0
 40
6.499999999999988
  0
LINE
  5
992E
330
9928
100
AcDbEntity
  8
03破線
100
AcDbLine
 10
-5.458031501695586
 20
-17.18167314688799
 30
0.0
 11
-21.08455320833764
 21
2.332727160368449
 31
0.0
  0
LINE
  5
992F
330
9928
100
AcDbEntity
  8
03破線
100
AcDbLine
 10
314.5631320764578
 20
271.1089005146271
 30
0.0
 11
330.1896537831008
 21
251.5945002073715
 31
0.0
  0
LINE
  5
9930
330
9928
100
AcDbEntity
  8
03破線
100
AcDbLine
 10
330.1896537831008
 20
251.5945002073715
 30
0.0
 11
329.4120780629773
 21
244.5663158045902
 31
0.0
  0
LINE
  5
9931
330
9928
100
AcDbEntity
  8
03破線
100
AcDbLine
 10
1.570152901083929
 20
-17.9592488670105
 30
0.0
 11
-5.458031501695586
 21
-17.18167314688799
 31
0.0
  0
LINE
  5
9932
330
9928
100
AcDbEntity
  8
03破線
100
AcDbLine
 10
329.4120780629773
 20
244.5663158045902
 30
0.0
 11
304.9776628862055
 21
225.0000000000005
 31
0.0
  0
LINE
  5
9933
330
9928
100
AcDbEntity
  8
03破線
100
AcDbLine
 10
-21.08455320833764
 20
2.332727160368449
 30
0.0
 11
30.0
 21
43.23964036371416
 31
0.0
  0
LINE
  5
9934
330
9928
100
AcDbEntity
  8
03破線
100
AcDbLine
 10
256.9823371137927
 20
225.0000000000005
 30
0.0
 11
314.5631320764578
 21
271.1089005146271
 31
0.0
  0
LINE
  5
9935
330
9928
100
AcDbEntity
  8
02実線
100
AcDbLine
 10
304.9776628862055
 20
225.0000000000005
 30
0.0
 11
30.0
 21
4.806483915593844
 31
0.0
  0
LINE
  5
9936
330
9928
100
AcDbEntity
  8
02実線
100
AcDbLine
 10
30.0
 20
43.23964036371416
 30
0.0
 11
256.9823371137927
 21
225.0000000000005
 31
0.0
  0
LINE
  5
9937
330
9928
100
AcDbEntity
  8
03破線
100
AcDbLine
 10
30.0
 20
4.806483915593844
 30
0.0
 11
1.570152901083929
 21
-17.9592488670105
 31
0.0
  0
ENDBLK
  5
992A
330
9928
100
AcDbEntity
  8
0
100
AcDbBlockEnd
  0
BLOCK
  5
B95C
330
B8AD
100
AcDbEntity
  8
0
100
AcDbBlockBegin
  2
ECOV-EN110MC
 70
     0
 10
0.0
 20
0.0
 30
0.0
  3
ECOV-EN110MC
  1
ECOV-EN110MC
  0
LINE
  5
B8AE
330
B8AD
100
AcDbEntity
  8
11機器
100
AcDbLine
 10
-504.9999999999973
 20
534.0000000000027
 30
0.0
 11
-504.9999999999973
 21
684.0000000000027
 31
0.0
  0
ARC
  5
B8AF
330
B8AD
100
AcDbEntity
  8
11機器
100
AcDbCircle
 10
-484.9999999999973
 20
534.0000000000027
 30
0.0
 40
20.0
100
AcDbArc
 50
180.0
 51
270.0
  0
LINE
  5
B8B0
330
B8AD
100
AcDbEntity
  8
11機器
100
AcDbLine
 10
-346.9999999999973
 20
534.0000000000027
 30
0.0
 11
-346.9999999999973
 21
684.0000000000027
 31
0.0
  0
ARC
  5
B8B1
330
B8AD
100
AcDbEntity
  8
11機器
100
AcDbCircle
 10
-366.9999999999973
 20
684.0000000000027
 30
0.0
 40
20.0
100
AcDbArc
 50
0.0
 51
90.0
  0
ARC
  5
B8B2
330
B8AD
100
AcDbEntity
  8
11機器
100
AcDbCircle
 10
-366.9999999999973
 20
534.0000000000027
 30
0.0
 40
20.0
100
AcDbArc
 50
270.0
 51
0.0
  0
LINE
  5
B8B3
330
B8AD
100
AcDbEntity
  8
11機器
100
AcDbLine
 10
567.7999999999993
 20
0.0
 30
0.0
 11
597.7999999999993
 21
30.0
 31
0.0
  0
LINE
  5
B8B4
330
B8AD
100
AcDbEntity
  8
11機器
100
AcDbLine
 10
597.8000000000002
 20
818.0000000000027
 30
0.0
 11
567.8000000000002
 21
848.0000000000018
 31
0.0
  0
LINE
  5
B8B5
330
B8AD
100
AcDbEntity
  8
11機器
100
AcDbLine
 10
601.2000000000016
 20
728.5000000000027
 30
0.0
 11
601.2000000000016
 21
740.1000000000004
 31
0.0
  0
LINE
  5
B8B6
330
B8AD
100
AcDbEntity
  8
11機器
100
AcDbLine
 10
601.2000000000007
 20
119.5000000000009
 30
0.0
 11
601.2000000000007
 21
107.9000000000024
 31
0.0
  0
LINE
  5
B8B7
330
B8AD
100
AcDbEntity
  8
11機器
100
AcDbLine
 10
598.0000000000009
 20
728.5000000000027
 30
0.0
 11
598.0000000000009
 21
740.1000000000004
 31
0.0
  0
LINE
  5
B8B8
330
B8AD
100
AcDbEntity
  8
11機器
100
AcDbLine
 10
598.0
 20
119.5000000000009
 30
0.0
 11
598.0
 21
107.9000000000024
 31
0.0
  0
LINE
  5
B8B9
330
B8AD
100
AcDbEntity
  8
11機器
100
AcDbLine
 10
597.8000000000002
 20
818.0000000000027
 30
0.0
 11
597.8000000000002
 21
743.5000000000027
 31
0.0
  0
LINE
  5
B8BA
330
B8AD
100
AcDbEntity
  8
11機器
100
AcDbLine
 10
597.7999999999993
 20
104.5000000000009
 30
0.0
 11
597.7999999999993
 21
30.0
 31
0.0
  0
LINE
  5
B8BB
330
B8AD
100
AcDbEntity
  8
11機器
100
AcDbLine
 10
591.2000000000016
 20
748.3000000000011
 30
0.0
 11
591.2000000000016
 21
740.3000000000011
 31
0.0
  0
LINE
  5
B8BC
330
B8AD
100
AcDbEntity
  8
11機器
100
AcDbLine
 10
591.2000000000007
 20
107.7000000000016
 30
0.0
 11
591.2000000000007
 21
99.70000000000164
 31
0.0
  0
LINE
  5
B8BD
330
B8AD
100
AcDbEntity
  8
11機器
100
AcDbLine
 10
556.2000000000007
 20
64.70000000000164
 30
0.0
 11
591.2000000000007
 21
99.70000000000164
 31
0.0
  0
LINE
  5
B8BE
330
B8AD
100
AcDbEntity
  8
11機器
100
AcDbLine
 10
591.2000000000016
 20
748.3000000000011
 30
0.0
 11
556.2000000000016
 21
783.3000000000011
 31
0.0
  0
LINE
  5
B8BF
330
B8AD
100
AcDbEntity
  8
11機器
100
AcDbLine
 10
540.0
 20
110.2000000000016
 30
0.0
 11
540.0000000000009
 21
737.8000000000011
 31
0.0
  0
LINE
  5
B8C0
330
B8AD
100
AcDbEntity
  8
11機器
100
AcDbLine
 10
533.0000000000009
 20
824.0000000000027
 30
0.0
 11
533.0000000000009
 21
814.0000000000027
 31
0.0
  0
LINE
  5
B8C1
330
B8AD
100
AcDbEntity
  8
11機器
100
AcDbLine
 10
533.0
 20
34.0
 30
0.0
 11
533.0
 21
24.0
 31
0.0
  0
LINE
  5
B8C2
330
B8AD
100
AcDbEntity
  8
11機器
100
AcDbLine
 10
517.0
 20
24.0
 30
0.0
 11
517.0
 21
34.0
 31
0.0
  0
LINE
  5
B8C3
330
B8AD
100
AcDbEntity
  8
11機器
100
AcDbLine
 10
517.0000000000009
 20
814.0000000000027
 30
0.0
 11
517.0000000000009
 21
824.0000000000027
 31
0.0
  0
LINE
  5
B8C4
330
B8AD
100
AcDbEntity
  8
11機器
100
AcDbLine
 10
505.0
 20
110.2000000000016
 30
0.0
 11
505.0000000000009
 21
737.8000000000011
 31
0.0
  0
LINE
  5
B8C5
330
B8AD
100
AcDbEntity
  8
11機器
100
AcDbLine
 10
487.2999999999993
 20
107.7000000000016
 30
0.0
 11
487.2999999999993
 21
110.0000000000009
 31
0.0
  0
LINE
  5
B8C6
330
B8AD
100
AcDbEntity
  8
11機器
100
AcDbLine
 10
487.3000000000002
 20
740.3000000000011
 30
0.0
 11
487.3000000000002
 21
738.0000000000027
 31
0.0
  0
LINE
  5
B8C7
330
B8AD
100
AcDbEntity
  8
11機器
100
AcDbLine
 10
567.8000000000002
 20
848.0000000000018
 30
0.0
 11
-567.7999999999984
 21
848.0000000000018
 31
0.0
  0
LINE
  5
B8C8
330
B8AD
100
AcDbEntity
  8
11機器
100
AcDbLine
 10
-366.9999999999973
 20
704.0000000000027
 30
0.0
 11
-484.9999999999973
 21
704.0000000000027
 31
0.0
  0
ARC
  5
B8C9
330
B8AD
100
AcDbEntity
  8
11機器
100
AcDbCircle
 10
-484.9999999999973
 20
684.0000000000027
 30
0.0
 40
20.0
100
AcDbArc
 50
90.0
 51
180.0
  0
LINE
  5
B8CA
330
B8AD
100
AcDbEntity
  8
11機器
100
AcDbLine
 10
-366.9999999999973
 20
514.0000000000027
 30
0.0
 11
-484.9999999999973
 21
514.0000000000027
 31
0.0
  0
LINE
  5
B8CB
330
B8AD
100
AcDbEntity
  8
11機器
100
AcDbLine
 10
556.2000000000016
 20
783.3000000000011
 30
0.0
 11
-556.1999999999998
 21
783.3000000000011
 31
0.0
  0
LINE
  5
B8CC
330
B8AD
100
AcDbEntity
  8
11機器
100
AcDbLine
 10
303.7999999999993
 20
107.7000000000016
 30
0.0
 11
303.7999999999993
 21
110.9000000000024
 31
0.0
  0
LINE
  5
B8CD
330
B8AD
100
AcDbEntity
  8
11機器
100
AcDbLine
 10
303.8000000000002
 20
740.3000000000011
 30
0.0
 11
303.8000000000002
 21
737.1000000000013
 31
0.0
  0
LINE
  5
B8CE
330
B8AD
100
AcDbEntity
  8
11機器
100
AcDbLine
 10
287.0
 20
111.1000000000031
 30
0.0
 11
287.0000000000009
 21
736.9000000000015
 31
0.0
  0
LINE
  5
B8CF
330
B8AD
100
AcDbEntity
  8
11機器
100
AcDbLine
 10
604.9999999999991
 20
743.5000000000027
 30
0.0
 11
591.2000000000016
 21
743.5000000000027
 31
0.0
  0
LINE
  5
B8D0
330
B8AD
100
AcDbEntity
  8
11機器
100
AcDbLine
 10
-604.9999999999973
 20
743.5000000000027
 30
0.0
 11
-591.1999999999998
 21
743.5000000000027
 31
0.0
  0
LINE
  5
B8D1
330
B8AD
100
AcDbEntity
  8
11機器
100
AcDbLine
 10
597.8000000000002
 20
740.3000000000011
 30
0.0
 11
-597.7999999999984
 21
740.300000000002
 31
0.0
  0
LINE
  5
B8D2
330
B8AD
100
AcDbEntity
  8
11機器
100
AcDbLine
 10
504.8000000000002
 20
738.0000000000027
 30
0.0
 11
487.3000000000002
 21
738.0000000000027
 31
0.0
  0
LINE
  5
B8D3
330
B8AD
100
AcDbEntity
  8
11機器
100
AcDbLine
 10
-504.7999999999984
 20
738.0000000000027
 30
0.0
 11
-487.2999999999984
 21
738.0000000000027
 31
0.0
  0
LINE
  5
B8D4
330
B8AD
100
AcDbEntity
  8
11機器
100
AcDbLine
 10
-120.1999999999998
 20
738.0000000000027
 30
0.0
 11
-137.6999999999998
 21
738.0000000000027
 31
0.0
  0
LINE
  5
B8D5
330
B8AD
100
AcDbEntity
  8
11機器
100
AcDbLine
 10
-347.1999999999998
 20
738.0000000000027
 30
0.0
 11
-364.6999999999998
 21
738.0000000000027
 31
0.0
  0
LINE
  5
B8D6
330
B8AD
100
AcDbEntity
  8
11機器
100
AcDbLine
 10
-119.9999999999991
 20
737.800000000002
 30
0.0
 11
-84.99999999999909
 21
737.800000000002
 31
0.0
  0
LINE
  5
B8D7
330
B8AD
100
AcDbEntity
  8
11機器
100
AcDbLine
 10
-311.9999999999991
 20
737.800000000002
 30
0.0
 11
-346.9999999999991
 21
737.800000000002
 31
0.0
  0
LINE
  5
B8D8
330
B8AD
100
AcDbEntity
  8
11機器
100
AcDbLine
 10
-504.9999999999991
 20
737.800000000002
 30
0.0
 11
-539.9999999999991
 21
737.800000000002
 31
0.0
  0
LINE
  5
B8D9
330
B8AD
100
AcDbEntity
  8
11機器
100
AcDbLine
 10
505.0000000000009
 20
737.8000000000011
 30
0.0
 11
540.0000000000009
 21
737.8000000000011
 31
0.0
  0
LINE
  5
B8DA
330
B8AD
100
AcDbEntity
  8
11機器
100
AcDbLine
 10
303.8000000000002
 20
737.1000000000013
 30
0.0
 11
287.2000000000016
 21
737.1000000000013
 31
0.0
  0
LINE
  5
B8DB
330
B8AD
100
AcDbEntity
  8
11機器
100
AcDbLine
 10
226.8000000000002
 20
737.1000000000013
 30
0.0
 11
210.2000000000016
 21
737.1000000000013
 31
0.0
  0
LINE
  5
B8DC
330
B8AD
100
AcDbEntity
  8
11機器
100
AcDbLine
 10
113.8000000000002
 20
737.1000000000013
 30
0.0
 11
97.20000000000164
 21
737.1000000000013
 31
0.0
  0
LINE
  5
B8DD
330
B8AD
100
AcDbEntity
  8
11機器
100
AcDbLine
 10
36.80000000000018
 20
737.1000000000013
 30
0.0
 11
20.20000000000164
 21
737.1000000000013
 31
0.0
  0
LINE
  5
B8DE
330
B8AD
100
AcDbEntity
  8
11機器
100
AcDbLine
 10
37.00000000000091
 20
736.9000000000024
 30
0.0
 11
97.00000000000091
 21
736.9000000000024
 31
0.0
  0
LINE
  5
B8DF
330
B8AD
100
AcDbEntity
  8
11機器
100
AcDbLine
 10
227.0000000000009
 20
736.9000000000024
 30
0.0
 11
287.0000000000009
 21
736.9000000000015
 31
0.0
  0
LINE
  5
B8E0
330
B8AD
100
AcDbEntity
  8
11機器
100
AcDbLine
 10
601.2000000000016
 20
728.5000000000027
 30
0.0
 11
598.0000000000009
 21
728.5000000000027
 31
0.0
  0
LINE
  5
B8E1
330
B8AD
100
AcDbEntity
  8
11機器
100
AcDbLine
 10
-601.1999999999998
 20
728.5000000000027
 30
0.0
 11
-597.9999999999991
 21
728.5000000000027
 31
0.0
  0
LINE
  5
B8E2
330
B8AD
100
AcDbEntity
  8
11機器
100
AcDbLine
 10
227.0000000000009
 20
111.1000000000031
 30
0.0
 11
227.0000000000009
 21
736.9000000000024
 31
0.0
  0
LINE
  5
B8E3
330
B8AD
100
AcDbEntity
  8
11機器
100
AcDbLine
 10
210.2000000000016
 20
107.7000000000016
 30
0.0
 11
210.2000000000016
 21
110.9000000000024
 31
0.0
  0
LINE
  5
B8E4
330
B8AD
100
AcDbEntity
  8
11機器
100
AcDbLine
 10
210.2000000000016
 20
740.300000000002
 30
0.0
 11
210.2000000000016
 21
737.1000000000013
 31
0.0
  0
LINE
  5
B8E5
330
B8AD
100
AcDbEntity
  8
11機器
100
AcDbLine
 10
113.8000000000002
 20
107.7000000000016
 30
0.0
 11
113.8000000000002
 21
110.9000000000024
 31
0.0
  0
LINE
  5
B8E6
330
B8AD
100
AcDbEntity
  8
11機器
100
AcDbLine
 10
113.8000000000002
 20
740.300000000002
 30
0.0
 11
113.8000000000002
 21
737.1000000000013
 31
0.0
  0
LINE
  5
B8E7
330
B8AD
100
AcDbEntity
  8
11機器
100
AcDbLine
 10
97.00000000000091
 20
111.1000000000031
 30
0.0
 11
97.00000000000091
 21
736.9000000000024
 31
0.0
  0
LINE
  5
B8E8
330
B8AD
100
AcDbEntity
  8
11機器
100
AcDbLine
 10
37.00000000000091
 20
111.1000000000031
 30
0.0
 11
37.00000000000091
 21
736.9000000000024
 31
0.0
  0
LINE
  5
B8E9
330
B8AD
100
AcDbEntity
  8
11機器
100
AcDbLine
 10
20.20000000000164
 20
107.7000000000016
 30
0.0
 11
20.20000000000164
 21
110.9000000000024
 31
0.0
  0
LINE
  5
B8EA
330
B8AD
100
AcDbEntity
  8
11機器
100
AcDbLine
 10
20.20000000000164
 20
740.300000000002
 30
0.0
 11
20.20000000000164
 21
737.1000000000013
 31
0.0
  0
LINE
  5
B8EB
330
B8AD
100
AcDbEntity
  8
11機器
100
AcDbLine
 10
-84.99999999999909
 20
110.2000000000016
 30
0.0
 11
-84.99999999999909
 21
737.800000000002
 31
0.0
  0
LINE
  5
B8EC
330
B8AD
100
AcDbEntity
  8
11機器
100
AcDbLine
 10
-119.9999999999991
 20
110.2000000000016
 30
0.0
 11
-119.9999999999991
 21
737.800000000002
 31
0.0
  0
LINE
  5
B8ED
330
B8AD
100
AcDbEntity
  8
11機器
100
AcDbLine
 10
-137.6999999999998
 20
107.7000000000016
 30
0.0
 11
-137.6999999999998
 21
110.0000000000009
 31
0.0
  0
LINE
  5
B8EE
330
B8AD
100
AcDbEntity
  8
11機器
100
AcDbLine
 10
-137.6999999999998
 20
740.300000000002
 30
0.0
 11
-137.6999999999998
 21
738.0000000000027
 31
0.0
  0
LINE
  5
B8EF
330
B8AD
100
AcDbEntity
  8
11機器
100
AcDbLine
 10
-311.9999999999991
 20
110.2000000000016
 30
0.0
 11
-311.9999999999991
 21
737.800000000002
 31
0.0
  0
LINE
  5
B8F0
330
B8AD
100
AcDbEntity
  8
11機器
100
AcDbLine
 10
-346.9999999999991
 20
110.2000000000016
 30
0.0
 11
-346.9999999999991
 21
737.800000000002
 31
0.0
  0
LINE
  5
B8F1
330
B8AD
100
AcDbEntity
  8
11機器
100
AcDbLine
 10
-364.6999999999998
 20
107.7000000000016
 30
0.0
 11
-364.6999999999998
 21
110.0000000000009
 31
0.0
  0
LINE
  5
B8F2
330
B8AD
100
AcDbEntity
  8
11機器
100
AcDbLine
 10
-364.6999999999998
 20
740.300000000002
 30
0.0
 11
-364.6999999999998
 21
738.0000000000027
 31
0.0
  0
LINE
  5
B8F3
330
B8AD
100
AcDbEntity
  8
11機器
100
AcDbLine
 10
601.2000000000007
 20
119.5000000000009
 30
0.0
 11
598.0
 21
119.5000000000009
 31
0.0
  0
LINE
  5
B8F4
330
B8AD
100
AcDbEntity
  8
11機器
100
AcDbLine
 10
-601.1999999999998
 20
119.5000000000009
 30
0.0
 11
-597.9999999999991
 21
119.5000000000009
 31
0.0
  0
LINE
  5
B8F5
330
B8AD
100
AcDbEntity
  8
11機器
100
AcDbLine
 10
37.00000000000091
 20
111.1000000000031
 30
0.0
 11
97.00000000000091
 21
111.1000000000031
 31
0.0
  0
LINE
  5
B8F6
330
B8AD
100
AcDbEntity
  8
11機器
100
AcDbLine
 10
227.0000000000009
 20
111.1000000000031
 30
0.0
 11
287.0
 21
111.1000000000031
 31
0.0
  0
LINE
  5
B8F7
330
B8AD
100
AcDbEntity
  8
11機器
100
AcDbLine
 10
303.7999999999993
 20
110.9000000000024
 30
0.0
 11
287.2000000000007
 21
110.9000000000024
 31
0.0
  0
LINE
  5
B8F8
330
B8AD
100
AcDbEntity
  8
11機器
100
AcDbLine
 10
226.8000000000002
 20
110.9000000000024
 30
0.0
 11
210.2000000000016
 21
110.9000000000024
 31
0.0
  0
LINE
  5
B8F9
330
B8AD
100
AcDbEntity
  8
11機器
100
AcDbLine
 10
113.8000000000002
 20
110.9000000000024
 30
0.0
 11
97.20000000000164
 21
110.9000000000024
 31
0.0
  0
LINE
  5
B8FA
330
B8AD
100
AcDbEntity
  8
11機器
100
AcDbLine
 10
36.80000000000018
 20
110.9000000000024
 30
0.0
 11
20.20000000000164
 21
110.9000000000024
 31
0.0
  0
LINE
  5
B8FB
330
B8AD
100
AcDbEntity
  8
11機器
100
AcDbLine
 10
-119.9999999999991
 20
110.2000000000016
 30
0.0
 11
-84.99999999999909
 21
110.2000000000016
 31
0.0
  0
LINE
  5
B8FC
330
B8AD
100
AcDbEntity
  8
11機器
100
AcDbLine
 10
-311.9999999999991
 20
110.2000000000016
 30
0.0
 11
-346.9999999999991
 21
110.2000000000016
 31
0.0
  0
LINE
  5
B8FD
330
B8AD
100
AcDbEntity
  8
11機器
100
AcDbLine
 10
-504.9999999999991
 20
110.2000000000016
 30
0.0
 11
-539.9999999999991
 21
110.2000000000016
 31
0.0
  0
LINE
  5
B8FE
330
B8AD
100
AcDbEntity
  8
11機器
100
AcDbLine
 10
505.0
 20
110.2000000000016
 30
0.0
 11
540.0
 21
110.2000000000016
 31
0.0
  0
LINE
  5
B8FF
330
B8AD
100
AcDbEntity
  8
11機器
100
AcDbLine
 10
504.7999999999993
 20
110.0000000000009
 30
0.0
 11
487.2999999999993
 21
110.0000000000009
 31
0.0
  0
LINE
  5
B900
330
B8AD
100
AcDbEntity
  8
11機器
100
AcDbLine
 10
-504.7999999999984
 20
110.0000000000009
 30
0.0
 11
-487.2999999999984
 21
110.0000000000009
 31
0.0
  0
LINE
  5
B901
330
B8AD
100
AcDbEntity
  8
11機器
100
AcDbLine
 10
-120.1999999999998
 20
110.0000000000009
 30
0.0
 11
-137.6999999999998
 21
110.0000000000009
 31
0.0
  0
LINE
  5
B902
330
B8AD
100
AcDbEntity
  8
11機器
100
AcDbLine
 10
-347.1999999999998
 20
110.0000000000009
 30
0.0
 11
-364.6999999999998
 21
110.0000000000009
 31
0.0
  0
LINE
  5
B903
330
B8AD
100
AcDbEntity
  8
11機器
100
AcDbLine
 10
-597.7999999999984
 20
107.7000000000016
 30
0.0
 11
597.7999999999993
 21
107.7000000000016
 31
0.0
  0
LINE
  5
B904
330
B8AD
100
AcDbEntity
  8
11機器
100
AcDbLine
 10
604.9999999999982
 20
104.5000000000009
 30
0.0
 11
591.2000000000007
 21
104.5000000000009
 31
0.0
  0
LINE
  5
B905
330
B8AD
100
AcDbEntity
  8
11機器
100
AcDbLine
 10
-604.9999999999973
 20
104.5000000000009
 30
0.0
 11
-591.1999999999998
 21
104.5000000000009
 31
0.0
  0
LINE
  5
B906
330
B8AD
100
AcDbEntity
  8
11機器
100
AcDbLine
 10
-556.1999999999998
 20
64.70000000000164
 30
0.0
 11
556.2000000000007
 21
64.70000000000164
 31
0.0
  0
LINE
  5
B907
330
B8AD
100
AcDbEntity
  8
11機器
100
AcDbLine
 10
-567.7999999999984
 20
0.0
 30
0.0
 11
567.7999999999993
 21
0.0
 31
0.0
  0
LINE
  5
B908
330
B8AD
100
AcDbEntity
  8
11機器
100
AcDbLine
 10
-487.2999999999984
 20
107.7000000000016
 30
0.0
 11
-487.2999999999984
 21
110.0000000000009
 31
0.0
  0
LINE
  5
B909
330
B8AD
100
AcDbEntity
  8
11機器
100
AcDbLine
 10
-487.2999999999984
 20
740.300000000002
 30
0.0
 11
-487.2999999999984
 21
738.0000000000027
 31
0.0
  0
LINE
  5
B90A
330
B8AD
100
AcDbEntity
  8
11機器
100
AcDbLine
 10
-504.9999999999991
 20
737.800000000002
 30
0.0
 11
-504.9999999999991
 21
110.2000000000016
 31
0.0
  0
LINE
  5
B90B
330
B8AD
100
AcDbEntity
  8
11機器
100
AcDbLine
 10
-516.9999999999991
 20
824.0000000000027
 30
0.0
 11
-516.9999999999991
 21
814.0000000000027
 31
0.0
  0
LINE
  5
B90C
330
B8AD
100
AcDbEntity
  8
11機器
100
AcDbLine
 10
-516.9999999999991
 20
34.0
 30
0.0
 11
-516.9999999999991
 21
24.0
 31
0.0
  0
LINE
  5
B90D
330
B8AD
100
AcDbEntity
  8
11機器
100
AcDbLine
 10
-532.9999999999991
 20
24.0
 30
0.0
 11
-532.9999999999991
 21
34.0
 31
0.0
  0
LINE
  5
B90E
330
B8AD
100
AcDbEntity
  8
11機器
100
AcDbLine
 10
-532.9999999999991
 20
814.0000000000027
 30
0.0
 11
-532.9999999999991
 21
824.0000000000027
 31
0.0
  0
LINE
  5
B90F
330
B8AD
100
AcDbEntity
  8
11機器
100
AcDbLine
 10
-539.9999999999991
 20
737.800000000002
 30
0.0
 11
-539.9999999999991
 21
110.2000000000016
 31
0.0
  0
LINE
  5
B910
330
B8AD
100
AcDbEntity
  8
11機器
100
AcDbLine
 10
-591.1999999999998
 20
748.300000000002
 30
0.0
 11
-591.1999999999998
 21
740.300000000002
 31
0.0
  0
LINE
  5
B911
330
B8AD
100
AcDbEntity
  8
11機器
100
AcDbLine
 10
-591.1999999999998
 20
107.7000000000016
 30
0.0
 11
-591.1999999999998
 21
99.70000000000164
 31
0.0
  0
LINE
  5
B912
330
B8AD
100
AcDbEntity
  8
11機器
100
AcDbLine
 10
-597.7999999999984
 20
818.0000000000027
 30
0.0
 11
-597.7999999999984
 21
743.5000000000027
 31
0.0
  0
LINE
  5
B913
330
B8AD
100
AcDbEntity
  8
11機器
100
AcDbLine
 10
-597.7999999999984
 20
104.5000000000009
 30
0.0
 11
-597.7999999999984
 21
30.0
 31
0.0
  0
LINE
  5
B914
330
B8AD
100
AcDbEntity
  8
11機器
100
AcDbLine
 10
-597.9999999999991
 20
728.5000000000027
 30
0.0
 11
-597.9999999999991
 21
740.1000000000013
 31
0.0
  0
LINE
  5
B915
330
B8AD
100
AcDbEntity
  8
11機器
100
AcDbLine
 10
-597.9999999999991
 20
119.5000000000009
 30
0.0
 11
-597.9999999999991
 21
107.9000000000024
 31
0.0
  0
LINE
  5
B916
330
B8AD
100
AcDbEntity
  8
11機器
100
AcDbLine
 10
-601.1999999999998
 20
728.5000000000027
 30
0.0
 11
-601.1999999999998
 21
740.1000000000013
 31
0.0
  0
LINE
  5
B917
330
B8AD
100
AcDbEntity
  8
11機器
100
AcDbLine
 10
-601.1999999999998
 20
119.5000000000009
 30
0.0
 11
-601.1999999999998
 21
107.9000000000024
 31
0.0
  0
LINE
  5
B918
330
B8AD
100
AcDbEntity
  8
11機器
100
AcDbLine
 10
-556.1999999999998
 20
783.3000000000011
 30
0.0
 11
-591.1999999999998
 21
748.300000000002
 31
0.0
  0
LINE
  5
B919
330
B8AD
100
AcDbEntity
  8
11機器
100
AcDbLine
 10
-591.1999999999998
 20
99.70000000000164
 30
0.0
 11
-556.1999999999998
 21
64.70000000000164
 31
0.0
  0
LINE
  5
B91A
330
B8AD
100
AcDbEntity
  8
11機器
100
AcDbLine
 10
-567.7999999999984
 20
848.0000000000018
 30
0.0
 11
-597.7999999999984
 21
818.0000000000027
 31
0.0
  0
LINE
  5
B91B
330
B8AD
100
AcDbEntity
  8
11機器
100
AcDbLine
 10
-597.7999999999984
 20
30.0
 30
0.0
 11
-567.7999999999984
 21
0.0
 31
0.0
  0
ARC
  5
B91C
330
B8AD
100
AcDbEntity
  8
11機器
100
AcDbCircle
 10
525.0000000000009
 20
814.0000000000027
 30
0.0
 40
8.0
100
AcDbArc
 50
180.0
 51
0.0
  0
ARC
  5
B91D
330
B8AD
100
AcDbEntity
  8
11機器
100
AcDbCircle
 10
525.0000000000009
 20
824.0000000000027
 30
0.0
 40
8.0
100
AcDbArc
 50
0.0
 51
180.0
  0
CIRCLE
  5
B91E
330
B8AD
100
AcDbEntity
  8
11機器
100
AcDbCircle
 10
560.0000000000009
 20
819.0000000000027
 30
0.0
 40
8.0
  0
ARC
  5
B91F
330
B8AD
100
AcDbEntity
  8
11機器
100
AcDbCircle
 10
597.8000000000002
 20
740.1000000000004
 30
0.0
 40
3.399999999999999
100
AcDbArc
 50
0.0
 51
90.0
  0
ARC
  5
B920
330
B8AD
100
AcDbEntity
  8
11機器
100
AcDbCircle
 10
504.8000000000002
 20
737.8000000000011
 30
0.0
 40
2.5
100
AcDbArc
 50
0.0
 51
90.0
  0
ARC
  5
B921
330
B8AD
100
AcDbEntity
  8
11機器
100
AcDbCircle
 10
597.8000000000002
 20
740.1000000000004
 30
0.0
 40
0.2
100
AcDbArc
 50
0.0
 51
90.0
  0
ARC
  5
B922
330
B8AD
100
AcDbEntity
  8
11機器
100
AcDbCircle
 10
504.8000000000002
 20
737.8000000000011
 30
0.0
 40
0.2
100
AcDbArc
 50
0.0
 51
90.0
  0
ARC
  5
B923
330
B8AD
100
AcDbEntity
  8
11機器
100
AcDbCircle
 10
226.8000000000002
 20
736.9000000000024
 30
0.0
 40
3.399999999999999
100
AcDbArc
 50
0.0
 51
90.0
  0
ARC
  5
B924
330
B8AD
100
AcDbEntity
  8
11機器
100
AcDbCircle
 10
287.2000000000016
 20
736.9000000000015
 30
0.0
 40
3.399999999999999
100
AcDbArc
 50
90.0
 51
180.0
  0
ARC
  5
B925
330
B8AD
100
AcDbEntity
  8
11機器
100
AcDbCircle
 10
226.8000000000002
 20
736.9000000000024
 30
0.0
 40
0.2
100
AcDbArc
 50
0.0
 51
90.0
  0
ARC
  5
B926
330
B8AD
100
AcDbEntity
  8
11機器
100
AcDbCircle
 10
287.2000000000016
 20
736.9000000000015
 30
0.0
 40
0.2
100
AcDbArc
 50
90.0
 51
180.0
  0
ARC
  5
B927
330
B8AD
100
AcDbEntity
  8
11機器
100
AcDbCircle
 10
36.80000000000018
 20
736.9000000000024
 30
0.0
 40
3.399999999999999
100
AcDbArc
 50
0.0
 51
90.0
  0
ARC
  5
B928
330
B8AD
100
AcDbEntity
  8
11機器
100
AcDbCircle
 10
97.20000000000164
 20
736.9000000000024
 30
0.0
 40
3.399999999999999
100
AcDbArc
 50
90.0
 51
180.0
  0
ARC
  5
B929
330
B8AD
100
AcDbEntity
  8
11機器
100
AcDbCircle
 10
36.80000000000018
 20
736.9000000000024
 30
0.0
 40
0.2
100
AcDbArc
 50
0.0
 51
90.0
  0
ARC
  5
B92A
330
B8AD
100
AcDbEntity
  8
11機器
100
AcDbCircle
 10
97.20000000000164
 20
736.9000000000024
 30
0.0
 40
0.2
100
AcDbArc
 50
90.0
 51
180.0
  0
ARC
  5
B92B
330
B8AD
100
AcDbEntity
  8
11機器
100
AcDbCircle
 10
525.0
 20
34.0
 30
0.0
 40
8.0
100
AcDbArc
 50
0.0
 51
180.0
  0
ARC
  5
B92C
330
B8AD
100
AcDbEntity
  8
11機器
100
AcDbCircle
 10
525.0
 20
24.0
 30
0.0
 40
8.0
100
AcDbArc
 50
180.0
 51
0.0
  0
CIRCLE
  5
B92D
330
B8AD
100
AcDbEntity
  8
11機器
100
AcDbCircle
 10
560.0
 20
29.0
 30
0.0
 40
8.0
  0
ARC
  5
B92E
330
B8AD
100
AcDbEntity
  8
11機器
100
AcDbCircle
 10
597.7999999999993
 20
107.9000000000024
 30
0.0
 40
3.399999999999999
100
AcDbArc
 50
270.0
 51
0.0
  0
ARC
  5
B92F
330
B8AD
100
AcDbEntity
  8
11機器
100
AcDbCircle
 10
504.7999999999993
 20
110.2000000000016
 30
0.0
 40
2.5
100
AcDbArc
 50
270.0
 51
0.0
  0
ARC
  5
B930
330
B8AD
100
AcDbEntity
  8
11機器
100
AcDbCircle
 10
597.7999999999993
 20
107.9000000000024
 30
0.0
 40
0.2
100
AcDbArc
 50
270.0
 51
0.0
  0
ARC
  5
B931
330
B8AD
100
AcDbEntity
  8
11機器
100
AcDbCircle
 10
504.7999999999993
 20
110.2000000000016
 30
0.0
 40
0.2
100
AcDbArc
 50
270.0
 51
0.0
  0
ARC
  5
B932
330
B8AD
100
AcDbEntity
  8
11機器
100
AcDbCircle
 10
36.80000000000018
 20
111.1000000000031
 30
0.0
 40
3.399999999999999
100
AcDbArc
 50
270.0
 51
0.0
  0
ARC
  5
B933
330
B8AD
100
AcDbEntity
  8
11機器
100
AcDbCircle
 10
97.20000000000164
 20
111.1000000000031
 30
0.0
 40
3.399999999999999
100
AcDbArc
 50
180.0
 51
270.0
  0
ARC
  5
B934
330
B8AD
100
AcDbEntity
  8
11機器
100
AcDbCircle
 10
226.8000000000002
 20
111.1000000000031
 30
0.0
 40
3.399999999999999
100
AcDbArc
 50
270.0
 51
0.0
  0
ARC
  5
B935
330
B8AD
100
AcDbEntity
  8
11機器
100
AcDbCircle
 10
287.2000000000007
 20
111.1000000000031
 30
0.0
 40
3.399999999999999
100
AcDbArc
 50
180.0
 51
270.0
  0
ARC
  5
B936
330
B8AD
100
AcDbEntity
  8
11機器
100
AcDbCircle
 10
36.80000000000018
 20
111.1000000000031
 30
0.0
 40
0.2
100
AcDbArc
 50
270.0
 51
0.0
  0
ARC
  5
B937
330
B8AD
100
AcDbEntity
  8
11機器
100
AcDbCircle
 10
97.20000000000164
 20
111.1000000000031
 30
0.0
 40
0.2
100
AcDbArc
 50
180.0
 51
270.0
  0
ARC
  5
B938
330
B8AD
100
AcDbEntity
  8
11機器
100
AcDbCircle
 10
226.8000000000002
 20
111.1000000000031
 30
0.0
 40
0.2
100
AcDbArc
 50
270.0
 51
0.0
  0
ARC
  5
B939
330
B8AD
100
AcDbEntity
  8
11機器
100
AcDbCircle
 10
287.2000000000007
 20
111.1000000000031
 30
0.0
 40
0.2
100
AcDbArc
 50
180.0
 51
270.0
  0
ARC
  5
B93A
330
B8AD
100
AcDbEntity
  8
11機器
100
AcDbCircle
 10
-120.1999999999998
 20
737.800000000002
 30
0.0
 40
2.5
100
AcDbArc
 50
0.0
 51
90.0
  0
ARC
  5
B93B
330
B8AD
100
AcDbEntity
  8
11機器
100
AcDbCircle
 10
-120.1999999999998
 20
737.800000000002
 30
0.0
 40
0.2
100
AcDbArc
 50
0.0
 51
90.0
  0
ARC
  5
B93C
330
B8AD
100
AcDbEntity
  8
11機器
100
AcDbCircle
 10
-524.9999999999991
 20
814.0000000000027
 30
0.0
 40
8.0
100
AcDbArc
 50
180.0
 51
0.0
  0
ARC
  5
B93D
330
B8AD
100
AcDbEntity
  8
11機器
100
AcDbCircle
 10
-524.9999999999991
 20
824.0000000000027
 30
0.0
 40
8.0
100
AcDbArc
 50
0.0
 51
180.0
  0
CIRCLE
  5
B93E
330
B8AD
100
AcDbEntity
  8
11機器
100
AcDbCircle
 10
-559.9999999999991
 20
819.0000000000027
 30
0.0
 40
8.0
  0
ARC
  5
B93F
330
B8AD
100
AcDbEntity
  8
11機器
100
AcDbCircle
 10
-597.7999999999984
 20
740.1000000000013
 30
0.0
 40
3.399999999999999
100
AcDbArc
 50
90.0
 51
180.0
  0
ARC
  5
B940
330
B8AD
100
AcDbEntity
  8
11機器
100
AcDbCircle
 10
-347.1999999999998
 20
737.800000000002
 30
0.0
 40
2.5
100
AcDbArc
 50
0.0
 51
90.0
  0
ARC
  5
B941
330
B8AD
100
AcDbEntity
  8
11機器
100
AcDbCircle
 10
-504.7999999999984
 20
737.800000000002
 30
0.0
 40
2.5
100
AcDbArc
 50
90.0
 51
180.0
  0
ARC
  5
B942
330
B8AD
100
AcDbEntity
  8
11機器
100
AcDbCircle
 10
-597.7999999999984
 20
740.1000000000013
 30
0.0
 40
0.2
100
AcDbArc
 50
90.0
 51
180.0
  0
ARC
  5
B943
330
B8AD
100
AcDbEntity
  8
11機器
100
AcDbCircle
 10
-347.1999999999998
 20
737.800000000002
 30
0.0
 40
0.2
100
AcDbArc
 50
0.0
 51
90.0
  0
ARC
  5
B944
330
B8AD
100
AcDbEntity
  8
11機器
100
AcDbCircle
 10
-504.7999999999984
 20
737.800000000002
 30
0.0
 40
0.2
100
AcDbArc
 50
90.0
 51
180.0
  0
ARC
  5
B945
330
B8AD
100
AcDbEntity
  8
11機器
100
AcDbCircle
 10
-120.1999999999998
 20
110.2000000000016
 30
0.0
 40
2.5
100
AcDbArc
 50
270.0
 51
0.0
  0
ARC
  5
B946
330
B8AD
100
AcDbEntity
  8
11機器
100
AcDbCircle
 10
-120.1999999999998
 20
110.2000000000016
 30
0.0
 40
0.2
100
AcDbArc
 50
270.0
 51
0.0
  0
ARC
  5
B947
330
B8AD
100
AcDbEntity
  8
11機器
100
AcDbCircle
 10
-524.9999999999991
 20
34.0
 30
0.0
 40
8.0
100
AcDbArc
 50
0.0
 51
180.0
  0
ARC
  5
B948
330
B8AD
100
AcDbEntity
  8
11機器
100
AcDbCircle
 10
-524.9999999999991
 20
24.0
 30
0.0
 40
8.0
100
AcDbArc
 50
180.0
 51
0.0
  0
CIRCLE
  5
B949
330
B8AD
100
AcDbEntity
  8
11機器
100
AcDbCircle
 10
-559.9999999999991
 20
29.0
 30
0.0
 40
8.0
  0
ARC
  5
B94A
330
B8AD
100
AcDbEntity
  8
11機器
100
AcDbCircle
 10
-597.7999999999984
 20
107.9000000000024
 30
0.0
 40
3.399999999999999
100
AcDbArc
 50
180.0
 51
270.0
  0
ARC
  5
B94B
330
B8AD
100
AcDbEntity
  8
11機器
100
AcDbCircle
 10
-347.1999999999998
 20
110.2000000000016
 30
0.0
 40
2.5
100
AcDbArc
 50
270.0
 51
0.0
  0
ARC
  5
B94C
330
B8AD
100
AcDbEntity
  8
11機器
100
AcDbCircle
 10
-504.7999999999984
 20
110.2000000000016
 30
0.0
 40
2.5
100
AcDbArc
 50
180.0
 51
270.0
  0
ARC
  5
B94D
330
B8AD
100
AcDbEntity
  8
11機器
100
AcDbCircle
 10
-597.7999999999984
 20
107.9000000000024
 30
0.0
 40
0.2
100
AcDbArc
 50
180.0
 51
270.0
  0
ARC
  5
B94E
330
B8AD
100
AcDbEntity
  8
11機器
100
AcDbCircle
 10
-347.1999999999998
 20
110.2000000000016
 30
0.0
 40
0.2
100
AcDbArc
 50
270.0
 51
0.0
  0
ARC
  5
B94F
330
B8AD
100
AcDbEntity
  8
11機器
100
AcDbCircle
 10
-504.7999999999984
 20
110.2000000000016
 30
0.0
 40
0.2
100
AcDbArc
 50
180.0
 51
270.0
  0
LINE
  5
B950
330
B8AD
100
AcDbEntity
  8
11機器
100
AcDbLine
 10
608.8284268378511
 20
746.1715728752033
 30
0.0
 11
597.8000000000002
 21
757.1999997130542
 31
0.0
  0
LINE
  5
B951
330
B8AD
100
AcDbEntity
  8
11機器
100
AcDbLine
 10
-608.8284274116477
 20
101.8284271247021
 30
0.0
 11
-597.7999999999984
 21
90.79999971305278
 31
0.0
  0
ARC
  5
B952
330
B8AD
100
AcDbEntity
  8
11機器
100
AcDbCircle
 10
605.9999997131517
 20
743.3431457505021
 30
0.0
 40
4.0
100
AcDbArc
 50
0.0
 51
45.0
  0
ARC
  5
B953
330
B8AD
100
AcDbEntity
  8
11機器
100
AcDbCircle
 10
-606.0000002868483
 20
104.6568542495033
 30
0.0
 40
4.0
100
AcDbArc
 50
179.978301266233
 51
225.0
  0
LINE
  5
B954
330
B8AD
100
AcDbEntity
  8
11機器
100
AcDbLine
 10
-609.9999999999991
 20
104.6583691068581
 30
0.0
 11
-609.9999999999991
 21
743.3416308930391
 31
0.0
  0
LINE
  5
B955
330
B8AD
100
AcDbEntity
  8
11機器
100
AcDbLine
 10
-608.8284274116477
 20
746.1715728753034
 30
0.0
 11
-597.7999999999984
 21
757.2000002869527
 31
0.0
  0
ARC
  5
B956
330
B8AD
100
AcDbEntity
  8
11機器
100
AcDbCircle
 10
-606.0000002868483
 20
743.3431457505021
 30
0.0
 40
4.0
100
AcDbArc
 50
135.0000000000737
 51
180.0216987352782
  0
LINE
  5
B957
330
B8AD
100
AcDbEntity
  8
11機器
100
AcDbLine
 10
610.0
 20
104.6583691068581
 30
0.0
 11
610.0000000000009
 21
743.3416308930391
 31
0.0
  0
ARC
  5
B958
330
B8AD
100
AcDbEntity
  8
11機器
100
AcDbCircle
 10
605.9999997131508
 20
104.6568542495033
 30
0.0
 40
4.0
100
AcDbArc
 50
315.0000000000829
 51
0.0
  0
LINE
  5
B959
330
B8AD
100
AcDbEntity
  8
11機器
100
AcDbLine
 10
608.8284274116486
 20
101.8284271247021
 30
0.0
 11
597.7999999999993
 21
90.79999971305278
 31
0.0
  0
LINE
  5
B95A
330
B8AD
100
AcDbEntity
  8
11機器
100
AcDbLine
 10
-604.9999999999973
 20
743.5000000000027
 30
0.0
 11
-604.9999999999973
 21
104.5000000000009
 31
0.0
  0
LINE
  5
B95B
330
B8AD
100
AcDbEntity
  8
11機器
100
AcDbLine
 10
604.9999999999991
 20
743.5000000000027
 30
0.0
 11
604.9999999999982
 21
104.5000000000009
 31
0.0
  0
ENDBLK
  5
B95D
330
B8AD
100
AcDbEntity
  8
0
100
AcDbBlockEnd
  0
ENDSEC
  0
SECTION
  2
ENTITIES
  0
INSERT
  5
A54D
330
1F
100
AcDbEntity
  8
02実線
100
AcDbBlockReference
  2
BH-筋交(柱L60)-500H
 10
1275.688033592685
 20
1865.000000000001
 30
0.0
  0
INSERT
  5
A550
330
1F
100
AcDbEntity
  8
02実線
100
AcDbBlockReference
  2
BH-端柱(L60)-500H-正面
 10
1245.688033592685
 20
1650.0
 30
0.0
  0
INSERT
  5
A551
330
1F
100
AcDbEntity
  8
02実線
100
AcDbBlockReference
  2
BH-端柱(L60)-500H-側面
 10
3370.330221092687
 20
1650.000000000001
 30
0.0
  0
INSERT
  5
A560
330
1F
100
AcDbEntity
  8
02実線
100
AcDbBlockReference
  2
BH-端柱(L60)-500H-正面
 10
2472.088033592687
 20
1650.0
 30
0.0
 41
-1.0
  0
INSERT
  5
A561
330
1F
100
AcDbEntity
  8
02実線
100
AcDbBlockReference
  2
BH-端柱(L60)-500H-側面
 10
4229.730221092688
 20
1650.000000000001
 30
0.0
 41
-1.0
  0
LWPOLYLINE
  5
A565
102
{ACAD_REACTORS
330
A8C7
102
}
330
1F
100
AcDbEntity
  8
08非表示
100
AcDbPolyline
 90
        4
 70
     1
 43
0.0
 10
4219.030221092689
 20
1859.999999999999
 10
4219.030221092689
 20
1899.999999999999
 10
4229.73022109269
 20
1899.999999999999
 10
4229.73022109269
 20
1859.999999999999
  0
LWPOLYLINE
  5
A566
102
{ACAD_REACTORS
330
A8C7
102
}
330
1F
100
AcDbEntity
  8
08非表示
100
AcDbPolyline
 90
        4
 70
     1
 43
0.0
 10
3381.030221092689
 20
1860.0
 10
3381.030221092689
 20
1900.0
 10
3370.330221092687
 20
1900.0
 10
3370.330221092687
 20
1860.0
  0
LINE
  5
A567
102
{ACAD_REACTORS
330
A8C7
102
}
330
1F
100
AcDbEntity
  8
03破線
100
AcDbLine
 10
3381.030221092689
 20
1860.0
 30
0.0
 11
3430.330221092689
 21
1860.0
 31
0.0
  0
LINE
  5
A568
102
{ACAD_REACTORS
330
A8C7
102
}
330
1F
100
AcDbEntity
  8
03破線
100
AcDbLine
 10
3381.030221092689
 20
1900.0
 30
0.0
 11
3430.330221092689
 21
1900.0
 31
0.0
  0
LINE
  5
A569
102
{ACAD_REACTORS
330
A8C7
102
}
330
1F
100
AcDbEntity
  8
03破線
100
AcDbLine
 10
3381.030221092689
 20
1860.0
 30
0.0
 11
3381.030221092689
 21
1900.0
 31
0.0
  0
LINE
  5
A56A
102
{ACAD_REACTORS
330
A8C7
102
}
330
1F
100
AcDbEntity
  8
03破線
100
AcDbLine
 10
4219.030221092689
 20
1860.0
 30
0.0
 11
4169.73022109269
 21
1860.0
 31
0.0
  0
LINE
  5
A56B
102
{ACAD_REACTORS
330
A8C7
102
}
330
1F
100
AcDbEntity
  8
03破線
100
AcDbLine
 10
4219.030221092689
 20
1900.0
 30
0.0
 11
4169.73022109269
 21
1900.0
 31
0.0
  0
LINE
  5
A56C
102
{ACAD_REACTORS
330
A8C7
102
}
330
1F
100
AcDbEntity
  8
03破線
100
AcDbLine
 10
4219.030221092689
 20
1860.0
 30
0.0
 11
4219.030221092689
 21
1900.0
 31
0.0
  0
LINE
  5
A56D
102
{ACAD_REACTORS
330
A8C7
102
}
330
1F
100
AcDbEntity
  8
02実線
100
AcDbLine
 10
4169.73022109269
 20
1900.0
 30
0.0
 11
3430.330221092689
 21
1900.0
 31
0.0
  0
LINE
  5
A56E
102
{ACAD_REACTORS
330
A8C7
102
}
330
1F
100
AcDbEntity
  8
03破線
100
AcDbLine
 10
4219.030221092689
 20
1896.8
 30
0.0
 11
3381.030221092689
 21
1896.8
 31
0.0
  0
LINE
  5
A56F
102
{ACAD_REACTORS
330
A8C7
102
}
330
1F
100
AcDbEntity
  8
02実線
100
AcDbLine
 10
4169.73022109269
 20
1860.0
 30
0.0
 11
3430.330221092689
 21
1860.0
 31
0.0
  0
INSERT
  5
A593
330
1F
100
AcDbEntity
  8
03破線
100
AcDbBlockReference
  2
BH-anchor-L60-背面
 10
2440.088033592687
 20
1650.0
 30
0.0
  0
INSERT
  5
A594
330
1F
100
AcDbEntity
  8
03破線
100
AcDbBlockReference
  2
BH-anchor-L60-背面
 10
1277.688033592685
 20
1650.0
 30
0.0
  0
INSERT
  5
A59B
330
1F
100
AcDbEntity
  8
03破線
100
AcDbBlockReference
  2
BH-anchor-L60-立面
 10
4189.530221092687
 20
1650.000000000001
 30
0.0
 41
-1.0
  0
INSERT
  5
A59C
330
1F
100
AcDbEntity
  8
03破線
100
AcDbBlockReference
  2
BH-anchor-L60-立面
 10
3410.530221092687
 20
1650.000000000001
 30
0.0
  0
LWPOLYLINE
  5
A5A1
330
1F
100
AcDbEntity
  8
02実線
100
AcDbPolyline
 90
        4
 70
     1
 43
0.0
 10
1248.888033592686
 20
2703.285714285714
 10
1248.888033592686
 20
3553.285714285714
 10
2468.888033592686
 20
3553.285714285714
 10
2468.888033592686
 20
2703.285714285714
  0
LWPOLYLINE
  5
A5A2
330
1F
100
AcDbEntity
  8
02実線
100
AcDbPolyline
 90
        4
 70
     1
 43
0.0
 10
1328.888033592686
 20
2823.285714285714
 10
1328.888033592686
 20
3433.285714285714
 10
2388.888033592686
 20
3433.285714285714
 10
2388.888033592686
 20
2823.285714285714
  0
LWPOLYLINE
  5
A5A3
330
1F
100
AcDbEntity
  8
03破線
100
AcDbPolyline
 90
        4
 70
     1
 43
0.0
 10
1252.088033592687
 20
2706.485714285714
 10
1252.088033592687
 20
3550.085714285714
 10
2465.688033592685
 20
3550.085714285714
 10
2465.688033592685
 20
2706.485714285714
  0
INSERT
  5
A5A4
330
1F
100
AcDbEntity
  8
02実線
100
AcDbBlockReference
  2
BH-端柱(L60)-平面
 10
1245.688033592685
 20
2698.585714285714
 30
0.0
  0
INSERT
  5
A5A6
330
1F
100
AcDbEntity
  8
02実線
100
AcDbBlockReference
  2
BH-端柱(L60)-平面
 10
1245.688033592685
 20
3557.985714285714
 30
0.0
 41
-1.0
 50
180.0
  0
INSERT
  5
A5A7
330
1F
100
AcDbEntity
  8
02実線
100
AcDbBlockReference
  2
BH-端柱(L60)-平面
 10
2472.088033592687
 20
3557.985714285714
 30
0.0
 50
180.0
  0
INSERT
  5
A5A8
330
1F
100
AcDbEntity
  8
02実線
100
AcDbBlockReference
  2
BH-端柱(L60)-平面
 10
2472.088033592687
 20
2698.585714285714
 30
0.0
 41
-1.0
  0
INSERT
  5
A662
330
1F
100
AcDbEntity
  8
02実線
100
AcDbBlockReference
  2
BH-筋交(柱L60)-500H
 10
2442.088033592687
 20
1865.000000000001
 30
0.0
 41
-1.0
  0
LWPOLYLINE
  5
A70E
102
{ACAD_REACTORS
330
A727
102
}
330
1F
100
AcDbEntity
  8
03破線
100
AcDbPolyline
 90
        4
 70
     0
 43
0.0
 10
1252.088033592685
 20
2100.0
 10
1252.088033592685
 20
2146.8
 10
2465.688033592687
 20
2146.8
 10
2465.688033592687
 20
2100.0
  0
LINE
  5
A70F
102
{ACAD_REACTORS
330
A727
102
}
330
1F
100
AcDbEntity
  8
03破線
100
AcDbLine
 10
1252.088033592685
 20
2100.0
 30
0.0
 11
1268.888033592686
 21
2090.0
 31
0.0
  0
LINE
  5
A710
102
{ACAD_REACTORS
330
A727
102
}
330
1F
100
AcDbEntity
  8
03破線
100
AcDbLine
 10
2465.688033592687
 20
2100.0
 30
0.0
 11
2448.888033592686
 21
2090.0
 31
0.0
  0
LINE
  5
A711
102
{ACAD_REACTORS
330
A727
102
}
330
1F
100
AcDbEntity
  8
03破線
100
AcDbLine
 10
1248.888033592686
 20
2147.0
 30
0.0
 11
1248.888033592686
 21
2100.0
 31
0.0
  0
LINE
  5
A712
102
{ACAD_REACTORS
330
A727
102
}
330
1F
100
AcDbEntity
  8
03破線
100
AcDbLine
 10
2465.688033592687
 20
2100.0
 30
0.0
 11
2468.888033592686
 21
2100.0
 31
0.0
  0
LINE
  5
A713
102
{ACAD_REACTORS
330
A727
102
}
330
1F
100
AcDbEntity
  8
03破線
100
AcDbLine
 10
1252.088033592685
 20
2100.0
 30
0.0
 11
1248.888033592686
 21
2100.0
 31
0.0
  0
LINE
  5
A714
102
{ACAD_REACTORS
330
A727
102
}
330
1F
100
AcDbEntity
  8
03破線
100
AcDbLine
 10
1287.388033592686
 20
2109.5
 30
0.0
 11
1270.388033592686
 21
2109.5
 31
0.0
  0
LINE
  5
A715
102
{ACAD_REACTORS
330
A727
102
}
330
1F
100
AcDbEntity
  8
03破線
100
AcDbLine
 10
1287.388033592686
 20
2122.5
 30
0.0
 11
1270.388033592686
 21
2122.5
 31
0.0
  0
ARC
  5
A716
102
{ACAD_REACTORS
330
A727
102
}
330
1F
100
AcDbEntity
  8
03破線
100
AcDbCircle
 10
1287.388033592686
 20
2116.0
 30
0.0
 40
6.5
100
AcDbArc
 50
270.0
 51
90.0
  0
ARC
  5
A717
102
{ACAD_REACTORS
330
A727
102
}
330
1F
100
AcDbEntity
  8
03破線
100
AcDbCircle
 10
1270.388033592686
 20
2116.0
 30
0.0
 40
6.5
100
AcDbArc
 50
90.0
 51
270.0
  0
CIRCLE
  5
A718
102
{ACAD_REACTORS
330
A727
102
}
330
1F
100
AcDbEntity
  8
02実線
100
AcDbCircle
 10
1587.888033592686
 20
2115.0
 30
0.0
 40
6.5
  0
CIRCLE
  5
A719
102
{ACAD_REACTORS
330
A727
102
}
330
1F
100
AcDbEntity
  8
02実線
100
AcDbCircle
 10
2129.888033592686
 20
2115.0
 30
0.0
 40
6.5
  0
ARC
  5
A71A
102
{ACAD_REACTORS
330
A727
102
}
330
1F
100
AcDbEntity
  8
03破線
100
AcDbCircle
 10
2447.388033592686
 20
2116.0
 30
0.0
 40
6.5
100
AcDbArc
 50
270.0
 51
90.0
  0
ARC
  5
A71B
102
{ACAD_REACTORS
330
A727
102
}
330
1F
100
AcDbEntity
  8
03破線
100
AcDbCircle
 10
2430.388033592686
 20
2116.0
 30
0.0
 40
6.5
100
AcDbArc
 50
90.0
 51
270.0
  0
LINE
  5
A71C
102
{ACAD_REACTORS
330
A727
102
}
330
1F
100
AcDbEntity
  8
03破線
100
AcDbLine
 10
2430.388033592686
 20
2122.5
 30
0.0
 11
2447.388033592686
 21
2122.5
 31
0.0
  0
LINE
  5
A71D
102
{ACAD_REACTORS
330
A727
102
}
330
1F
100
AcDbEntity
  8
03破線
100
AcDbLine
 10
2430.388033592686
 20
2109.5
 30
0.0
 11
2447.388033592686
 21
2109.5
 31
0.0
  0
LWPOLYLINE
  5
A71E
102
{ACAD_REACTORS
330
A727
102
}
330
1F
100
AcDbEntity
  8
03破線
100
AcDbPolyline
 90
        2
 70
   128
 43
0.0
 10
1305.688033592685
 20
2090.0
 10
1268.888033592686
 20
2090.0
  0
LWPOLYLINE
  5
A71F
102
{ACAD_REACTORS
330
A727
102
}
330
1F
100
AcDbEntity
  8
03破線
100
AcDbPolyline
 90
        2
 70
     0
 43
0.0
 10
2448.888033592686
 20
2090.0
 10
2412.088033592687
 20
2090.0
  0
LWPOLYLINE
  5
A720
102
{ACAD_REACTORS
330
A727
102
}
330
1F
100
AcDbEntity
  8
02実線
100
AcDbPolyline
 90
        2
 70
     0
 43
0.0
 10
2412.088033592687
 20
2090.0
 10
1305.688033592685
 20
2090.0
  0
LWPOLYLINE
  5
A721
102
{ACAD_REACTORS
330
A727
102
}
330
1F
100
AcDbEntity
  8
03破線
100
AcDbPolyline
 90
        2
 70
     0
 43
0.0
 10
2468.888033592686
 20
2147.0
 10
2468.888033592686
 20
2100.0
  0
LWPOLYLINE
  5
A722
102
{ACAD_REACTORS
330
A727
102
}
330
1F
100
AcDbEntity
  8
02実線
100
AcDbPolyline
 90
        4
 70
     0
 43
0.0
 10
1248.888033592686
 20
2147.0
 10
1248.888033592686
 20
2150.0
 10
2468.888033592686
 20
2150.0
 10
2468.888033592686
 20
2147.0
  0
LINE
  5
A723
102
{ACAD_REACTORS
330
A727
102
}
330
1F
100
AcDbEntity
  8
04一点鎖線
 48
0.2
100
AcDbLine
 10
1587.888033592686
 20
2131.5
 30
0.0
 11
1587.888033592686
 21
2098.5
 31
0.0
  0
LINE
  5
A724
102
{ACAD_REACTORS
330
A727
102
}
330
1F
100
AcDbEntity
  8
04一点鎖線
 48
0.2
100
AcDbLine
 10
1604.388033592686
 20
2115.0
 30
0.0
 11
1571.388033592686
 21
2115.0
 31
0.0
  0
LINE
  5
A725
102
{ACAD_REACTORS
330
A727
102
}
330
1F
100
AcDbEntity
  8
04一点鎖線
 48
0.2
100
AcDbLine
 10
2129.888033592686
 20
2131.5
 30
0.0
 11
2129.888033592686
 21
2098.5
 31
0.0
  0
LINE
  5
A726
102
{ACAD_REACTORS
330
A727
102
}
330
1F
100
AcDbEntity
  8
04一点鎖線
 48
0.2
100
AcDbLine
 10
2146.388033592686
 20
2115.0
 30
0.0
 11
2113.388033592686
 21
2115.0
 31
0.0
  0
LWPOLYLINE
  5
A728
102
{ACAD_REACTORS
330
A73B
102
}
330
1F
100
AcDbEntity
  8
03破線
  6
HIDDEN
100
AcDbPolyline
 90
        4
 70
     0
 43
0.0
 10
3378.230221092688
 20
2100.0
 10
3378.230221092688
 20
2146.8
 10
4221.830221092687
 20
2146.8
 10
4221.830221092687
 20
2100.0
  0
LWPOLYLINE
  5
A729
102
{ACAD_REACTORS
330
A73B
102
}
330
1F
100
AcDbEntity
  8
02実線
100
AcDbPolyline
 90
        2
 70
     0
 43
0.0
 10
4165.030221092687
 20
2090.0
 10
3435.030221092687
 20
2090.0
  0
LINE
  5
A72A
102
{ACAD_REACTORS
330
A73B
102
}
330
1F
100
AcDbEntity
  8
02実線
100
AcDbLine
 10
3435.030221092687
 20
2090.0
 30
0.0
 11
3435.030221092687
 21
2100.0
 31
0.0
  0
LINE
  5
A72B
102
{ACAD_REACTORS
330
A73B
102
}
330
1F
100
AcDbEntity
  8
02実線
100
AcDbLine
 10
4165.030221092687
 20
2090.0
 30
0.0
 11
4165.030221092687
 21
2100.0
 31
0.0
  0
CIRCLE
  5
A72C
102
{ACAD_REACTORS
330
A73B
102
}
330
1F
100
AcDbEntity
  8
02実線
100
AcDbCircle
 10
3475.030221092687
 20
2120.0
 30
0.0
 40
6.5
  0
CIRCLE
  5
A72D
102
{ACAD_REACTORS
330
A73B
102
}
330
1F
100
AcDbEntity
  8
02実線
100
AcDbCircle
 10
3405.030221092687
 20
2120.0
 30
0.0
 40
6.5
  0
CIRCLE
  5
A72E
102
{ACAD_REACTORS
330
A73B
102
}
330
1F
100
AcDbEntity
  8
02実線
100
AcDbCircle
 10
4195.030221092687
 20
2120.0
 30
0.0
 40
6.5
  0
CIRCLE
  5
A72F
102
{ACAD_REACTORS
330
A73B
102
}
330
1F
100
AcDbEntity
  8
02実線
100
AcDbCircle
 10
4125.030221092687
 20
2120.0
 30
0.0
 40
6.5
  0
LINE
  5
A730
102
{ACAD_REACTORS
330
A73B
102
}
330
1F
100
AcDbEntity
  8
02実線
100
AcDbLine
 10
3435.030221092687
 20
2100.0
 30
0.0
 11
3430.330221092687
 21
2100.0
 31
0.0
  0
LWPOLYLINE
  5
A731
102
{ACAD_REACTORS
330
A73B
102
}
330
1F
100
AcDbEntity
  8
03破線
  6
HIDDEN
100
AcDbPolyline
 90
        2
 70
     0
 43
0.0
 10
3375.030221092687
 20
2100.0
 10
3375.030221092687
 20
2147.000000000001
  0
LINE
  5
A732
102
{ACAD_REACTORS
330
A73B
102
}
330
1F
100
AcDbEntity
  8
03破線
  6
HIDDEN
100
AcDbLine
 10
3430.330221092687
 20
2100.0
 30
0.0
 11
3375.030221092687
 21
2100.0
 31
0.0
  0
LWPOLYLINE
  5
A733
102
{ACAD_REACTORS
330
A73B
102
}
330
1F
100
AcDbEntity
  8
02実線
100
AcDbPolyline
 90
        4
 70
     0
 43
0.0
 10
3375.030221092687
 20
2147.000000000001
 10
3375.030221092687
 20
2150.0
 10
4225.030221092687
 20
2150.0
 10
4225.030221092687
 20
2147.000000000001
  0
LINE
  5
A734
102
{ACAD_REACTORS
330
A73B
102
}
330
1F
100
AcDbEntity
  8
02実線
100
AcDbLine
 10
4165.030221092687
 20
2100.0
 30
0.0
 11
4169.730221092688
 21
2100.0
 31
0.0
  0
LWPOLYLINE
  5
A735
102
{ACAD_REACTORS
330
A73B
102
}
330
1F
100
AcDbEntity
  8
03破線
  6
HIDDEN
100
AcDbPolyline
 90
        2
 70
     0
 43
0.0
 10
4225.030221092687
 20
2147.000000000001
 10
4225.030221092687
 20
2100.0
  0
LINE
  5
A736
102
{ACAD_REACTORS
330
A73B
102
}
330
1F
100
AcDbEntity
  8
03破線
  6
HIDDEN
100
AcDbLine
 10
4169.730221092688
 20
2100.0
 30
0.0
 11
4225.030221092687
 21
2100.0
 31
0.0
  0
LINE
  5
A737
102
{ACAD_REACTORS
330
A73B
102
}
330
1F
100
AcDbEntity
  8
04一点鎖線
 48
0.2
100
AcDbLine
 10
4141.530221092687
 20
2120.0
 30
0.0
 11
4108.530221092687
 21
2120.0
 31
0.0
  0
LINE
  5
A738
102
{ACAD_REACTORS
330
A73B
102
}
330
1F
100
AcDbEntity
  8
04一点鎖線
 48
0.2
100
AcDbLine
 10
4125.030221092687
 20
2103.5
 30
0.0
 11
4125.030221092687
 21
2136.5
 31
0.0
  0
LINE
  5
A739
102
{ACAD_REACTORS
330
A73B
102
}
330
1F
100
AcDbEntity
  8
04一点鎖線
 48
0.2
100
AcDbLine
 10
3491.530221092687
 20
2120.0
 30
0.0
 11
3458.530221092687
 21
2120.0
 31
0.0
  0
LINE
  5
A73A
102
{ACAD_REACTORS
330
A73B
102
}
330
1F
100
AcDbEntity
  8
04一点鎖線
 48
0.2
100
AcDbLine
 10
3475.030221092687
 20
2103.5
 30
0.0
 11
3475.030221092687
 21
2136.5
 31
0.0
  0
INSERT
  5
B9A8
330
1F
100
AcDbEntity
  8
02実線
100
AcDbBlockReference
  2
hole-φ16
 10
1348.888033592687
 20
3523.285714285717
 30
0.0
  0
INSERT
  5
B9AA
330
1F
100
AcDbEntity
  8
02実線
100
AcDbBlockReference
  2
hole-φ16
 10
2368.888033592685
 20
3523.285714285717
 30
0.0
 41
-1.0
  0
INSERT
  5
B9AB
330
1F
100
AcDbEntity
  8
02実線
100
AcDbBlockReference
  2
hole-φ16
 10
2368.888033592685
 20
2733.285714285711
 30
0.0
 50
180.0
  0
INSERT
  5
B9AC
330
1F
100
AcDbEntity
  8
02実線
100
AcDbBlockReference
  2
hole-φ16
 10
1348.888033592687
 20
2733.285714285711
 30
0.0
 41
-1.0
 50
180.0
  0
INSERT
  5
B9AE
330
1F
100
AcDbEntity
  8
10副資材
100
AcDbBlockReference
  2
平W-M12
 10
1348.888033592687
 20
3523.285714285717
 30
0.0
  0
VIEWPORT
  5
9F0D
330
1B
100
AcDbEntity
 67
     1
  8
0
100
AcDbViewport
 10
202.5
 20
128.5
 30
0.0
 40
486.0
 41
308.4
 68
     1
 69
     1
 12
202.5
 22
128.5
 13
0.0
 23
0.0
 14
0.5
 24
0.5
 15
0.0
 25
0.0
 16
0.0
 26
0.0
 36
1.0
 17
0.0
 27
0.0
 37
0.0
 42
50.0
 43
0.0
 44
0.0
 45
308.4
 50
0.0
 51
0.0
 72
   100
 90
   557152
  1

281
     0
 71
     1
 74
     0
110
0.0
120
0.0
130
0.0
111
1.0
121
0.0
131
0.0
112
0.0
122
1.0
132
0.0
 79
     0
146
0.0
  0
VIEWPORT
  5
9F0E
330
1B
100
AcDbEntity
 67
     1
  8
0
100
AcDbViewport
 10
202.5
 20
128.5
 30
0.0
 40
324.0
 41
205.6
 68
     2
 69
     2
 12
-3224.9849078482
 22
3553.815758143106
 13
0.0
 23
0.0
 14
0.5
 24
0.5
 15
0.0
 25
0.0
 16
0.0
 26
0.0
 36
1.0
 17
0.0
 27
0.0
 37
0.0
 42
50.0
 43
0.0
 44
0.0
 45
10712.16027781073
 50
0.0
 51
0.0
 72
   100
 90
   557152
  1

281
     0
 71
     1
 74
     0
110
0.0
120
0.0
130
0.0
111
1.0
121
0.0
131
0.0
112
0.0
122
1.0
132
0.0
 79
     0
146
0.0
  0
ENDSEC
  0
SECTION
  2
OBJECTS
  0
DICTIONARY
  5
C
330
0
100
AcDbDictionary
281
     1
  3
ACAD_DETAILVIEWSTYLE
350
B95F
  3
ACAD_GROUP
350
D
  3
ACAD_IMAGE_VARS
350
6A88
  3
ACAD_LAYOUT
350
1A
  3
ACAD_MLINESTYLE
350
17
  3
ACAD_PLOTSETTINGS
350
19
  3
ACAD_PLOTSTYLENAME
350
E
  3
ACAD_SCALELIST
350
6A4E
  3
ACAD_SECTIONVIEWSTYLE
350
B960
  3
AcadDim
350
BA04
  3
AcDbVariableDictionary
350
79E
  3
APPDATA
350
6A87
  3
DWGPROPS
350
BE11
  0
DICTIONARY
  5
7A6F
330
2
100
AcDbDictionary
280
     1
281
     1
  3
ACAD_LAYERSTATES
360
7A70
  3
ACLYDICTIONARY
360
A99D
  0
DICTIONARY
  5
969E
330
1F
100
AcDbDictionary
280
     1
281
     1
  3
ACAD_SORTENTS
360
969F
  0
DICTIONARY
  5
B95F
102
{ACAD_REACTORS
330
C
102
}
330
C
100
AcDbDictionary
281
     1
  0
DICTIONARY
  5
D
102
{ACAD_REACTORS
330
C
102
}
330
C
100
AcDbDictionary
281
     1
  3
*A1
350
A727
  3
*A2
350
A73B
  3
*A3
350
A8C7
  3
*A4
350
BBC6
  3
*A5
350
BBF2
  0
RASTERVARIABLES
  5
6A88
102
{ACAD_REACTORS
330
C
102
}
330
C
100
AcDbRasterVariables
 90
        0
 70
     1
 71
     1
 72
     1
  0
DICTIONARY
  5
1A
102
{ACAD_REACTORS
330
C
102
}
330
C
100
AcDbDictionary
281
     1
  3
Layout1
350
1E
  3
Model
350
22
  0
DICTIONARY
  5
17
102
{ACAD_REACTORS
330
C
102
}
330
C
100
AcDbDictionary
281
     1
  3
Standard
350
18
  0
DICTIONARY
  5
19
102
{ACAD_REACTORS
330
C
102
}
330
C
100
AcDbDictionary
281
     1
  0
ACDBDICTIONARYWDFLT
  5
E
102
{ACAD_REACTORS
330
C
102
}
330
C
100
AcDbDictionary
281
     1
  3
Normal
350
F
100
AcDbDictionaryWithDefault
340
F
  0
DICTIONARY
  5
6A4E
102
{ACAD_REACTORS
330
C
102
}
330
C
100
AcDbDictionary
281
     1
  3
A0
350
6A4F
  3
A1
350
6A50
  3
A2
350
6A51
  3
A3
350
6A52
  3
A4
350
6A53
  3
A5
350
6A54
  3
A6
350
6A55
  3
A7
350
6A56
  3
A8
350
6A57
  3
A9
350
6A58
  3
B0
350
6A59
  3
B1
350
6A5A
  3
B2
350
6A5B
  3
B3
350
6A5C
  3
B4
350
6A5D
  3
B5
350
6A5E
  3
B6
350
6A5F
  3
B7
350
6A60
  3
B8
350
6A61
  3
B9
350
6A62
  3
C0
350
6A63
  3
C1
350
6A64
  3
C2
350
6A65
  3
C3
350
6A66
  3
C4
350
6A67
  3
C5
350
6A68
  3
C6
350
6A69
  3
C7
350
6A6A
  3
C8
350
6A6B
  3
C9
350
6A6C
  3
D0
350
6A6D
  3
D1
350
6A6E
  3
D2
350
6A6F
  0
DICTIONARY
  5
B960
102
{ACAD_REACTORS
330
C
102
}
330
C
100
AcDbDictionary
281
     1
  0
XRECORD
  5
BA04
102
{ACAD_REACTORS
330
C
102
}
330
C
100
AcDbXrecord
280
     1
340
0
 72
     0
 71
     0
 70
     0
 69
     0
 68
     1
 67
     3
 66
     0
 65
     0
 64
     0
 63
     3
 62
     1
 61
     0
 60
     0
 40
0.0
  0
DICTIONARY
  5
79E
102
{ACAD_REACTORS
330
C
102
}
330
C
100
AcDbDictionary
281
     1
  3
DIMASSOC
350
79F
  3
HPTRANSPARENCY
350
B961
  3
SORTENTS
350
264F
  0
DICTIONARY
  5
6A87
102
{ACAD_REACTORS
330
C
102
}
330
C
100
AcDbDictionary
281
     1
  0
XRECORD
  5
BE11
102
{ACAD_REACTORS
330
C
102
}
330
C
100
AcDbXrecord
280
     1
  1
DWGPROPS COOKIE
  2

  3

  4

  6

  7

  8
2233
  9

300
=
301
=
302
=
303
=
304
=
305
=
306
=
307
=
308
=
309
=
 40
0.0
 41
2455859.030048461
 42
2457983.075834109
  1

 90
        0
  0
DICTIONARY
  5
7A70
102
{ACAD_REACTORS
330
7A6F
102
}
330
7A6F
100
AcDbDictionary
281
     1
  3
ARGON_LAYERP_146
350
BA05
  0
DICTIONARY
  5
A99D
102
{ACAD_REACTORS
330
7A6F
102
}
330
7A6F
100
AcDbDictionary
281
     1
1001
ACAD
1000
<All
  0
SORTENTSTABLE
  5
969F
102
{ACAD_REACTORS
330
969E
102
}
330
969E
100
AcDbSortentsTable
330
1F
331
0
  5
7F18
  0
GROUP
  5
A727
102
{ACAD_REACTORS
330
D
102
}
330
D
100
AcDbGroup
300

 70
     1
 71
     1
340
A70E
340
A70F
340
A710
340
A711
340
A712
340
A713
340
A714
340
A715
340
A716
340
A717
340
A718
340
A719
340
A71A
340
A71B
340
A71C
340
A71D
340
A71E
340
A71F
340
A720
340
A721
340
A722
340
A723
340
A724
340
A725
340
A726
  0
GROUP
  5
A73B
102
{ACAD_REACTORS
330
D
102
}
330
D
100
AcDbGroup
300

 70
     1
 71
     1
340
A728
340
A729
340
A72A
340
A72B
340
A72C
340
A72D
340
A72E
340
A72F
340
A730
340
A731
340
A732
340
A733
340
A734
340
A735
340
A736
340
A737
340
A738
340
A739
340
A73A
  0
GROUP
  5
A8C7
102
{ACAD_REACTORS
330
D
102
}
330
D
100
AcDbGroup
300

 70
     1
 71
     1
340
A565
340
A566
340
A567
340
A568
340
A569
340
A56A
340
A56B
340
A56C
340
A56D
340
A56E
340
A56F
  0
GROUP
  5
BBC6
102
{ACAD_REACTORS
330
D
102
}
330
D
100
AcDbGroup
300

 70
     1
 71
     1
  0
GROUP
  5
BBF2
102
{ACAD_REACTORS
330
D
102
}
330
D
100
AcDbGroup
300

 70
     1
 71
     1
  0
LAYOUT
  5
1E
102
{ACAD_REACTORS
330
1A
102
}
330
1A
100
AcDbPlotSettings
  1

  2
none_device
  4
ISO_A3_(420.00_x_297.00_MM)
  6

 40
7.5
 41
20.0
 42
7.5
 43
20.0
 44
420.0
 45
297.0
 46
0.0
 47
0.0
 48
0.0
 49
0.0
140
0.0
141
0.0
142
1.0
143
1.0
 70
   688
 72
     1
 73
     0
 74
     5
  7

 75
    16
147
1.0
148
0.0
149
0.0
100
AcDbLayout
  1
Layout1
 70
     1
 71
     1
 10
0.0
 20
0.0
 11
412.5
 21
277.0
 12
0.0
 22
0.0
 32
0.0
 14
1.000000000000000E+20
 24
1.000000000000000E+20
 34
1.000000000000000E+20
 15
-1.000000000000000E+20
 25
-1.000000000000000E+20
 35
-1.000000000000000E+20
146
0.0
 13
0.0
 23
0.0
 33
0.0
 16
1.0
 26
0.0
 36
0.0
 17
0.0
 27
1.0
 37
0.0
 76
     0
330
1B
331
9F0D
  0
LAYOUT
  5
22
102
{ACAD_REACTORS
330
1A
102
}
330
1A
100
AcDbPlotSettings
  1

  2
none_device
  4
A3
  6

 40
3.174999952316284
 41
3.174999952316284
 42
3.17498779296875
 43
3.17498779296875
 44
297.0318298339844
 45
420.1583251953125
 46
-3.16
 47
-3.1
 48
-90.0
 49
-90.0
140
329.9999999999998
141
207.0
142
1.0
143
1.0
 70
 11940
 72
     1
 73
     1
 74
     4
  7
monochrome.ctb
 75
     0
147
1.0
148
90.0
149
90.0
100
AcDbLayout
  1
Model
 70
     1
 71
     0
 10
0.0
 20
0.0
 11
6300.0
 21
4455.0
 12
0.0
 22
0.0
 32
0.0
 14
0.0
 24
-600.0
 34
0.0
 15
7200.0
 25
4455.0
 35
0.0
146
0.0
 13
0.0
 23
0.0
 33
0.0
 16
1.0
 26
0.0
 36
0.0
 17
0.0
 27
1.0
 37
0.0
 76
     0
330
1F
331
7A57
  0
MLINESTYLE
  5
18
102
{ACAD_REACTORS
330
17
102
}
330
17
100
AcDbMlineStyle
  2
STANDARD
 70
     0
  3

 62
   256
 51
90.0
 52
90.0
 71
     2
 49
0.5
 62
   256
  6
BYLAYER
 49
-0.5
 62
   256
  6
BYLAYER
  0
ACDBPLACEHOLDER
  5
F
102
{ACAD_REACTORS
330
E
102
}
330
E
  0
SCALE
  5
6A4F
102
{ACAD_REACTORS
330
6A4E
102
}
330
6A4E
100
AcDbScale
 70
     0
300
1:1
140
1.0
141
1.0
290
     1
  0
SCALE
  5
6A50
102
{ACAD_REACTORS
330
6A4E
102
}
330
6A4E
100
AcDbScale
 70
     0
300
1:2
140
1.0
141
2.0
290
     0
  0
SCALE
  5
6A51
102
{ACAD_REACTORS
330
6A4E
102
}
330
6A4E
100
AcDbScale
 70
     0
300
1:4
140
1.0
141
4.0
290
     0
  0
SCALE
  5
6A52
102
{ACAD_REACTORS
330
6A4E
102
}
330
6A4E
100
AcDbScale
 70
     0
300
1:5
140
1.0
141
5.0
290
     0
  0
SCALE
  5
6A53
102
{ACAD_REACTORS
330
6A4E
102
}
330
6A4E
100
AcDbScale
 70
     0
300
1:8
140
1.0
141
8.0
290
     0
  0
SCALE
  5
6A54
102
{ACAD_REACTORS
330
6A4E
102
}
330
6A4E
100
AcDbScale
 70
     0
300
1:10
140
1.0
141
10.0
290
     0
  0
SCALE
  5
6A55
102
{ACAD_REACTORS
330
6A4E
102
}
330
6A4E
100
AcDbScale
 70
     0
300
1:16
140
1.0
141
16.0
290
     0
  0
SCALE
  5
6A56
102
{ACAD_REACTORS
330
6A4E
102
}
330
6A4E
100
AcDbScale
 70
     0
300
1:20
140
1.0
141
20.0
290
     0
  0
SCALE
  5
6A57
102
{ACAD_REACTORS
330
6A4E
102
}
330
6A4E
100
AcDbScale
 70
     0
300
1:30
140
1.0
141
30.0
290
     0
  0
SCALE
  5
6A58
102
{ACAD_REACTORS
330
6A4E
102
}
330
6A4E
100
AcDbScale
 70
     0
300
1:40
140
1.0
141
40.0
290
     0
  0
SCALE
  5
6A59
102
{ACAD_REACTORS
330
6A4E
102
}
330
6A4E
100
AcDbScale
 70
     0
300
1:50
140
1.0
141
50.0
290
     0
  0
SCALE
  5
6A5A
102
{ACAD_REACTORS
330
6A4E
102
}
330
6A4E
100
AcDbScale
 70
     0
300
1:100
140
1.0
141
100.0
290
     0
  0
SCALE
  5
6A5B
102
{ACAD_REACTORS
330
6A4E
102
}
330
6A4E
100
AcDbScale
 70
     0
300
2:1
140
2.0
141
1.0
290
     0
  0
SCALE
  5
6A5C
102
{ACAD_REACTORS
330
6A4E
102
}
330
6A4E
100
AcDbScale
 70
     0
300
4:1
140
4.0
141
1.0
290
     0
  0
SCALE
  5
6A5D
102
{ACAD_REACTORS
330
6A4E
102
}
330
6A4E
100
AcDbScale
 70
     0
300
8:1
140
8.0
141
1.0
290
     0
  0
SCALE
  5
6A5E
102
{ACAD_REACTORS
330
6A4E
102
}
330
6A4E
100
AcDbScale
 70
     0
300
10:1
140
10.0
141
1.0
290
     0
  0
SCALE
  5
6A5F
102
{ACAD_REACTORS
330
6A4E
102
}
330
6A4E
100
AcDbScale
 70
     0
300
100:1
140
100.0
141
1.0
290
     0
  0
SCALE
  5
6A60
102
{ACAD_REACTORS
330
6A4E
102
}
330
6A4E
100
AcDbScale
 70
     0
300
1/128" = 1'-0"
140
0.0078125
141
12.0
290
     0
  0
SCALE
  5
6A61
102
{ACAD_REACTORS
330
6A4E
102
}
330
6A4E
100
AcDbScale
 70
     0
300
1/64" = 1'-0"
140
0.015625
141
12.0
290
     0
  0
SCALE
  5
6A62
102
{ACAD_REACTORS
330
6A4E
102
}
330
6A4E
100
AcDbScale
 70
     0
300
1/32" = 1'-0"
140
0.03125
141
12.0
290
     0
  0
SCALE
  5
6A63
102
{ACAD_REACTORS
330
6A4E
102
}
330
6A4E
100
AcDbScale
 70
     0
300
1/16" = 1'-0"
140
0.0625
141
12.0
290
     0
  0
SCALE
  5
6A64
102
{ACAD_REACTORS
330
6A4E
102
}
330
6A4E
100
AcDbScale
 70
     0
300
3/32" = 1'-0"
140
0.09375
141
12.0
290
     0
  0
SCALE
  5
6A65
102
{ACAD_REACTORS
330
6A4E
102
}
330
6A4E
100
AcDbScale
 70
     0
300
1/8" = 1'-0"
140
0.125
141
12.0
290
     0
  0
SCALE
  5
6A66
102
{ACAD_REACTORS
330
6A4E
102
}
330
6A4E
100
AcDbScale
 70
     0
300
3/16" = 1'-0"
140
0.1875
141
12.0
290
     0
  0
SCALE
  5
6A67
102
{ACAD_REACTORS
330
6A4E
102
}
330
6A4E
100
AcDbScale
 70
     0
300
1/4" = 1'-0"
140
0.25
141
12.0
290
     0
  0
SCALE
  5
6A68
102
{ACAD_REACTORS
330
6A4E
102
}
330
6A4E
100
AcDbScale
 70
     0
300
3/8" = 1'-0"
140
0.375
141
12.0
290
     0
  0
SCALE
  5
6A69
102
{ACAD_REACTORS
330
6A4E
102
}
330
6A4E
100
AcDbScale
 70
     0
300
1/2" = 1'-0"
140
0.5
141
12.0
290
     0
  0
SCALE
  5
6A6A
102
{ACAD_REACTORS
330
6A4E
102
}
330
6A4E
100
AcDbScale
 70
     0
300
3/4" = 1'-0"
140
0.75
141
12.0
290
     0
  0
SCALE
  5
6A6B
102
{ACAD_REACTORS
330
6A4E
102
}
330
6A4E
100
AcDbScale
 70
     0
300
1" = 1'-0"
140
1.0
141
12.0
290
     0
  0
SCALE
  5
6A6C
102
{ACAD_REACTORS
330
6A4E
102
}
330
6A4E
100
AcDbScale
 70
     0
300
1-1/2" = 1'-0"
140
1.5
141
12.0
290
     0
  0
SCALE
  5
6A6D
102
{ACAD_REACTORS
330
6A4E
102
}
330
6A4E
100
AcDbScale
 70
     0
300
3" = 1'-0"
140
3.0
141
12.0
290
     0
  0
SCALE
  5
6A6E
102
{ACAD_REACTORS
330
6A4E
102
}
330
6A4E
100
AcDbScale
 70
     0
300
6" = 1'-0"
140
6.0
141
12.0
290
     0
  0
SCALE
  5
6A6F
102
{ACAD_REACTORS
330
6A4E
102
}
330
6A4E
100
AcDbScale
 70
     0
300
1'-0" = 1'-0"
140
12.0
141
12.0
290
     0
  0
DICTIONARYVAR
  5
79F
102
{ACAD_REACTORS
330
79E
102
}
330
79E
100
DictionaryVariables
280
     0
  1
1
  0
DICTIONARYVAR
  5
B961
102
{ACAD_REACTORS
330
79E
102
}
330
79E
100
DictionaryVariables
280
     0
  1
ByLayer
  0
DICTIONARYVAR
  5
264F
102
{ACAD_REACTORS
330
79E
102
}
330
79E
100
DictionaryVariables
280
     0
  1
96
  0
XRECORD
  5
BA05
102
{ACAD_REACTORS
330
7A70
102
}
330
7A70
100
AcDbXrecord
280
     1
 91
     1023
301

290
     0
302
13製作用注記
330
10
 90
        8
 62
     7
370
    -3
331
16
  1
Color_7
330
45
 90
        8
 62
     7
370
     9
331
16
  1
Color_7
330
46
 90
        8
 62
     2
370
    15
331
16
  1
Color_2
330
5F
 90
        0
 62
     7
370
    -3
331
16
  1
Color_7
330
7E52
 90
        8
 62
     3
370
     9
331
BA
  1
Color_3
330
7E55
 90
        8
 62
    70
370
     9
331
BC
  1
Color_70
330
7E58
 90
        8
 62
   110
370
     9
331
BB
  1
Color_110
330
7E5B
 90
        8
 62
    96
370
     9
331
47C
  1
Color_96
330
7E5E
 90
        8
 62
     6
370
     5
331
16
  1
Color_6
330
7E60
 90
        0
 62
     4
370
     0
331
16
  1
Color_4
330
7E62
 90
        8
 62
     1
370
    30
331
16
  1
Color_1
330
835A
 90
        0
 62
    51
370
    -3
331
16
  1
Color_51
330
8CAC
 90
        0
 62
    11
370
    -3
331
16
  1
Color_11
330
8CB1
 90
        0
 62
   190
370
    -3
331
16
  1
Color_190
330
A15B
 90
        0
 62
     5
370
     9
331
16
  1
Color_5
  0
ENDSEC
  0
EOF
