  0
SECTION
  2
HEADER
  9
$ACADVER
  1
AC1015
  9
$ACADMAINTVER
 70
     6
  9
$DWGCODEPAGE
  3
ANSI_932
  9
$INSBASE
 10
0.0
 20
0.0
 30
0.0
  9
$EXTMIN
 10
-2266.877859405206
 20
-19.60014780538404
 30
-0.0015258207003583
  9
$EXTMAX
 10
7525.100128745737
 20
4435.671763816028
 30
0.0000000349246037
  9
$LIMMIN
 10
1286.301296732669
 20
42.03579763271591
  9
$LIMMAX
 10
7463.301296732669
 20
4374.035797632716
  9
$ORTHOMODE
 70
     0
  9
$REGENMODE
 70
     1
  9
$FILLMODE
 70
     1
  9
$QTEXTMODE
 70
     0
  9
$MIRRTEXT
 70
     1
  9
$LTSCALE
 40
0.3
  9
$ATTMODE
 70
     1
  9
$TEXTSIZE
 40
3.0
  9
$TRACEWID
 40
1.0
  9
$TEXTSTYLE
  7
Standard
  9
$CLAYER
  8
2　寸法
  9
$CELTYPE
  6
ByLayer
  9
$CECOLOR
 62
   256
  9
$CELTSCALE
 40
1.0
  9
$DISPSILH
 70
     0
  9
$DIMSCALE
 40
1.0
  9
$DIMASZ
 40
45.0
  9
$DIMEXO
 40
22.5
  9
$DIMDLI
 40
150.0
  9
$DIMRND
 40
0.0
  9
$DIMDLE
 40
0.0
  9
$DIMEXE
 40
15.0
  9
$DIMTP
 40
0.0
  9
$DIMTM
 40
0.0
  9
$DIMTXT
 40
45.0
  9
$DIMCEN
 40
22.5
  9
$DIMTSZ
 40
0.0
  9
$DIMTOL
 70
     0
  9
$DIMLIM
 70
     0
  9
$DIMTIH
 70
     0
  9
$DIMTOH
 70
     0
  9
$DIMSE1
 70
     0
  9
$DIMSE2
 70
     0
  9
$DIMTAD
 70
     1
  9
$DIMZIN
 70
     8
  9
$DIMBLK
  1
Open
  9
$DIMASO
 70
     1
  9
$DIMSHO
 70
     1
  9
$DIMPOST
  1

  9
$DIMAPOST
  1

  9
$DIMALT
 70
     0
  9
$DIMALTD
 70
     3
  9
$DIMALTF
 40
0.03937007874016
  9
$DIMLFAC
 40
1.0
  9
$DIMTOFL
 70
     1
  9
$DIMTVP
 40
0.0
  9
$DIMTIX
 70
     0
  9
$DIMSOXD
 70
     0
  9
$DIMSAH
 70
     0
  9
$DIMBLK1
  1

  9
$DIMBLK2
  1

  9
$DIMSTYLE
  2
NEMY-15
  9
$DIMCLRD
 70
     0
  9
$DIMCLRE
 70
     0
  9
$DIMCLRT
 70
     0
  9
$DIMTFAC
 40
1.0
  9
$DIMGAP
 40
15.0
  9
$DIMJUST
 70
     0
  9
$DIMSD1
 70
     0
  9
$DIMSD2
 70
     0
  9
$DIMTOLJ
 70
     0
  9
$DIMTZIN
 70
     8
  9
$DIMALTZ
 70
     0
  9
$DIMALTTZ
 70
     0
  9
$DIMUPT
 70
     0
  9
$DIMDEC
 70
     2
  9
$DIMTDEC
 70
     2
  9
$DIMALTU
 70
     2
  9
$DIMALTTD
 70
     3
  9
$DIMTXSTY
  7
Standard
  9
$DIMAUNIT
 70
     0
  9
$DIMADEC
 70
     0
  9
$DIMALTRND
 40
0.0
  9
$DIMAZIN
 70
     0
  9
$DIMDSEP
 70
    46
  9
$DIMATFIT
 70
     3
  9
$DIMFRAC
 70
     0
  9
$DIMLDRBLK
  1
Open
  9
$DIMLUNIT
 70
     2
  9
$DIMLWD
 70
    -2
  9
$DIMLWE
 70
    -2
  9
$DIMTMOVE
 70
     0
  9
$LUNITS
 70
     2
  9
$LUPREC
 70
     4
  9
$SKETCHINC
 40
1.0
  9
$FILLETRAD
 40
0.0
  9
$AUNITS
 70
     0
  9
$AUPREC
 70
     0
  9
$MENU
  1
.
  9
$ELEVATION
 40
0.0
  9
$PELEVATION
 40
0.0
  9
$THICKNESS
 40
0.0
  9
$LIMCHECK
 70
     0
  9
$CHAMFERA
 40
10.0
  9
$CHAMFERB
 40
10.0
  9
$CHAMFERC
 40
20.0
  9
$CHAMFERD
 40
0.0
  9
$SKPOLY
 70
     0
  9
$TDCREATE
 40
2454740.593452685
  9
$TDUCREATE
 40
2454740.218452685
  9
$TDUPDATE
 40
2456636.987839572
  9
$TDUUPDATE
 40
2456636.612839572
  9
$TDINDWG
 40
1.5850352546
  9
$TDUSRTIMER
 40
2456636.612485856
  9
$USRTIMER
 70
     1
  9
$ANGBASE
 50
0.0
  9
$ANGDIR
 70
     0
  9
$PDMODE
 70
     0
  9
$PDSIZE
 40
0.0
  9
$PLINEWID
 40
0.0
  9
$SPLFRAME
 70
     0
  9
$SPLINETYPE
 70
     6
  9
$SPLINESEGS
 70
     8
  9
$HANDSEED
  5
D41C
  9
$SURFTAB1
 70
     6
  9
$SURFTAB2
 70
     6
  9
$SURFTYPE
 70
     6
  9
$SURFU
 70
     6
  9
$SURFV
 70
     6
  9
$UCSBASE
  2

  9
$UCSNAME
  2

  9
$UCSORG
 10
0.0
 20
0.0
 30
0.0
  9
$UCSXDIR
 10
1.0
 20
0.0
 30
0.0
  9
$UCSYDIR
 10
0.0
 20
1.0
 30
0.0
  9
$UCSORTHOREF
  2

  9
$UCSORTHOVIEW
 70
     0
  9
$UCSORGTOP
 10
0.0
 20
0.0
 30
0.0
  9
$UCSORGBOTTOM
 10
0.0
 20
0.0
 30
0.0
  9
$UCSORGLEFT
 10
0.0
 20
0.0
 30
0.0
  9
$UCSORGRIGHT
 10
0.0
 20
0.0
 30
0.0
  9
$UCSORGFRONT
 10
0.0
 20
0.0
 30
0.0
  9
$UCSORGBACK
 10
0.0
 20
0.0
 30
0.0
  9
$PUCSBASE
  2

  9
$PUCSNAME
  2

  9
$PUCSORG
 10
0.0
 20
0.0
 30
0.0
  9
$PUCSXDIR
 10
1.0
 20
0.0
 30
0.0
  9
$PUCSYDIR
 10
0.0
 20
1.0
 30
0.0
  9
$PUCSORTHOREF
  2

  9
$PUCSORTHOVIEW
 70
     0
  9
$PUCSORGTOP
 10
0.0
 20
0.0
 30
0.0
  9
$PUCSORGBOTTOM
 10
0.0
 20
0.0
 30
0.0
  9
$PUCSORGLEFT
 10
0.0
 20
0.0
 30
0.0
  9
$PUCSORGRIGHT
 10
0.0
 20
0.0
 30
0.0
  9
$PUCSORGFRONT
 10
0.0
 20
0.0
 30
0.0
  9
$PUCSORGBACK
 10
0.0
 20
0.0
 30
0.0
  9
$USERI1
 70
     0
  9
$USERI2
 70
     0
  9
$USERI3
 70
     0
  9
$USERI4
 70
     0
  9
$USERI5
 70
     0
  9
$USERR1
 40
0.0
  9
$USERR2
 40
0.0
  9
$USERR3
 40
0.0
  9
$USERR4
 40
0.0
  9
$USERR5
 40
0.0
  9
$WORLDVIEW
 70
     1
  9
$SHADEDGE
 70
     3
  9
$SHADEDIF
 70
    70
  9
$TILEMODE
 70
     1
  9
$MAXACTVP
 70
    48
  9
$PINSBASE
 10
0.0
 20
0.0
 30
0.0
  9
$PLIMCHECK
 70
     0
  9
$PEXTMIN
 10
1.000000000000000E+20
 20
1.000000000000000E+20
 30
1.000000000000000E+20
  9
$PEXTMAX
 10
-1.000000000000000E+20
 20
-1.000000000000000E+20
 30
-1.000000000000000E+20
  9
$PLIMMIN
 10
0.0
 20
0.0
  9
$PLIMMAX
 10
420.0
 20
297.0
  9
$UNITMODE
 70
     0
  9
$VISRETAIN
 70
     1
  9
$PLINEGEN
 70
     0
  9
$PSLTSCALE
 70
     1
  9
$TREEDEPTH
 70
  3020
  9
$CMLSTYLE
  2
Standard
  9
$CMLJUST
 70
     0
  9
$CMLSCALE
 40
20.0
  9
$PROXYGRAPHICS
 70
     1
  9
$MEASUREMENT
 70
     1
  9
$CELWEIGHT
370
    -1
  9
$ENDCAPS
280
     0
  9
$JOINSTYLE
280
     0
  9
$LWDISPLAY
290
     0
  9
$INSUNITS
 70
     4
  9
$HYPERLINKBASE
  1

  9
$STYLESHEET
  1
monochrome.ctb
  9
$XEDIT
290
     1
  9
$CEPSNTYPE
380
     0
  9
$PSTYLEMODE
290
     1
  9
$FINGERPRINTGUID
  2
{FDEAD578-A652-11D2-9A35-0060089B3A3F}
  9
$VERSIONGUID
  2
{D5A0BCBC-1BA3-423C-A961-D1656B45F8C8}
  9
$EXTNAMES
290
     1
  9
$PSVPSCALE
 40
0.0
  9
$OLESTARTUP
290
     0
  0
ENDSEC
  0
SECTION
  2
CLASSES
  0
CLASS
  1
ACDBDICTIONARYWDFLT
  2
AcDbDictionaryWithDefault
  3
ObjectDBX Classes
 90
        0
280
     0
281
     0
  0
CLASS
  1
ACDBPLACEHOLDER
  2
AcDbPlaceHolder
  3
ObjectDBX Classes
 90
        0
280
     0
281
     0
  0
CLASS
  1
LAYOUT
  2
AcDbLayout
  3
ObjectDBX Classes
 90
        0
280
     0
281
     0
  0
CLASS
  1
DICTIONARYVAR
  2
AcDbDictionaryVar
  3
ObjectDBX Classes
 90
        0
280
     0
281
     0
  0
CLASS
  1
DUMMY
  2
AcDbLongTransaction
  3
DUMMY
 90
        0
280
     0
281
     0
  0
CLASS
  1
LWPOLYLINE
  2
AcDbPolyline
  3
AutoCAD 2000
 90
        0
280
     0
281
     1
  0
CLASS
  1
HATCH
  2
AcDbHatch
  3
AutoCAD 2000
 90
        0
280
     0
281
     1
  0
CLASS
  1
XRECORD
  2
AcDbXrecord
  3
AutoCAD 2000
 90
        0
280
     0
281
     0
  0
CLASS
  1
MATERIAL
  2
AcDbMaterial
  3
ObjectDBX Classes
 90
     1153
280
     0
281
     0
  0
CLASS
  1
VISUALSTYLE
  2
AcDbVisualStyle
  3
ObjectDBX Classes
 90
     4095
280
     0
281
     0
  0
CLASS
  1
TABLESTYLE
  2
AcDbTableStyle
  3
ObjectDBX Classes
 90
     4095
280
     0
281
     0
  0
CLASS
  1
SCALE
  2
AcDbScale
  3
ObjectDBX Classes
 90
     1153
280
     0
281
     0
  0
CLASS
  1
MLEADERSTYLE
  2
AcDbMLeaderStyle
  3
ACDB_MLEADERSTYLE_CLASS
 90
     4095
280
     0
281
     0
  0
CLASS
  1
PLOTSETTINGS
  2
AcDbPlotSettings
  3
ObjectDBX Classes
 90
        0
280
     0
281
     0
  0
CLASS
  1
SORTENTSTABLE
  2
AcDbSortentsTable
  3
ObjectDBX Classes
 90
        0
280
     0
281
     0
  0
CLASS
  1
CELLSTYLEMAP
  2
AcDbCellStyleMap
  3
ObjectDBX Classes
 90
     1152
280
     0
281
     0
  0
CLASS
  1
RASTERVARIABLES
  2
AcDbRasterVariables
  3
ISM
 90
        0
280
     0
281
     0
  0
ENDSEC
  0
SECTION
  2
TABLES
  0
TABLE
  2
VPORT
  5
8
102
{ACAD_XDICTIONARY
360
C034
102
}
330
0
100
AcDbSymbolTable
 70
     1
  0
VPORT
  5
CDA0
330
8
100
AcDbSymbolTableRecord
100
AcDbViewportTableRecord
  2
*Active
 70
     0
 10
0.0
 20
0.0
 11
1.0
 21
1.0
 12
3658.08920407627
 22
2409.704656567976
 13
0.0
 23
0.0
 14
10.0
 24
10.0
 15
10.0
 25
10.0
 16
0.0
 26
0.0
 36
1.0
 17
0.0
 27
0.0
 37
0.0
 40
3951.778458004305
 41
2.038934426229508
 42
50.0
 43
0.0
 44
0.0
 50
0.0
 51
0.0
 71
    16
 72
   100
 73
     1
 74
     2
 75
     0
 76
     0
 77
     0
 78
     1
281
     0
 65
     1
110
0.0
120
0.0
130
0.0
111
1.0
121
0.0
131
0.0
112
0.0
122
1.0
132
0.0
 79
     0
146
0.0
1001
ACAD_NAV_VCDISPLAY
1070
     3
  0
ENDTAB
  0
TABLE
  2
LTYPE
  5
5
330
0
100
AcDbSymbolTable
 70
     7
  0
LTYPE
  5
14
330
5
100
AcDbSymbolTableRecord
100
AcDbLinetypeTableRecord
  2
ByBlock
 70
     0
  3

 72
    65
 73
     0
 40
0.0
  0
LTYPE
  5
15
330
5
100
AcDbSymbolTableRecord
100
AcDbLinetypeTableRecord
  2
ByLayer
 70
     0
  3

 72
    65
 73
     0
 40
0.0
  0
LTYPE
  5
16
330
5
100
AcDbSymbolTableRecord
100
AcDbLinetypeTableRecord
  2
Continuous
 70
     0
  3
Solid line
 72
    65
 73
     0
 40
0.0
  0
LTYPE
  5
BA
330
5
100
AcDbSymbolTableRecord
100
AcDbLinetypeTableRecord
  2
HIDDEN
 70
     0
  3
Hidden __ __ __ __ __ __ __ __ __ __ __ __ __ _
 72
    65
 73
     2
 40
9.524999999999999
 49
6.35
 74
     0
 49
-3.175
 74
     0
  0
LTYPE
  5
BB
330
5
100
AcDbSymbolTableRecord
100
AcDbLinetypeTableRecord
  2
PHANTOM
 70
     0
  3
Phantom ______  __  __  ______  __  __  ______
 72
    65
 73
     6
 40
63.5
 49
31.75
 74
     0
 49
-6.35
 74
     0
 49
6.35
 74
     0
 49
-6.35
 74
     0
 49
6.35
 74
     0
 49
-6.35
 74
     0
  0
LTYPE
  5
BC
330
5
100
AcDbSymbolTableRecord
100
AcDbLinetypeTableRecord
  2
CENTER
 70
     0
  3
Center ____ _ ____ _ ____ _ ____ _ ____ _ ____
 72
    65
 73
     4
 40
50.8
 49
31.75
 74
     0
 49
-6.35
 74
     0
 49
6.35
 74
     0
 49
-6.35
 74
     0
  0
LTYPE
  5
47C
330
5
100
AcDbSymbolTableRecord
100
AcDbLinetypeTableRecord
  2
DOT
 70
     0
  3
Dot . . . . . . . . . . . . . . . . . . . . . .
 72
    65
 73
     2
 40
6.35
 49
0.0
 74
     0
 49
-6.35
 74
     0
  0
LTYPE
  5
F11
330
5
100
AcDbSymbolTableRecord
100
AcDbLinetypeTableRecord
  2
HIDDEN2
 70
     0
  3
Hidden (.5x) _ _ _ _ _ _ _ _ _ _ _ _ _ _ _ _ _
 72
    65
 73
     2
 40
0.1875
 49
0.125
 74
     0
 49
-0.0625
 74
     0
  0
LTYPE
  5
F12
330
5
100
AcDbSymbolTableRecord
100
AcDbLinetypeTableRecord
  2
CENTER2
 70
     0
  3
Center (.5x) ___ _ ___ _ ___ _ ___ _ ___ _ ___
 72
    65
 73
     4
 40
28.575
 49
19.05
 74
     0
 49
-3.175
 74
     0
 49
3.175
 74
     0
 49
-3.175
 74
     0
  0
ENDTAB
  0
TABLE
  2
LAYER
  5
2
102
{ACAD_XDICTIONARY
360
AAEE
102
}
330
0
100
AcDbSymbolTable
 70
    12
  0
LAYER
  5
10
102
{ACAD_XDICTIONARY
360
BB39
102
}
330
2
100
AcDbSymbolTableRecord
100
AcDbLayerTableRecord
  2
0
 70
     0
 62
     7
  6
Continuous
370
    -3
390
F
  0
LAYER
  5
44
102
{ACAD_XDICTIONARY
360
BB3B
102
}
330
2
100
AcDbSymbolTableRecord
100
AcDbLayerTableRecord
  2
1　製品
 70
     0
 62
     2
  6
Continuous
370
    15
390
F
  0
LAYER
  5
45
102
{ACAD_XDICTIONARY
360
BB3D
102
}
330
2
100
AcDbSymbolTableRecord
100
AcDbLayerTableRecord
  2
2　寸法
 70
     0
 62
     7
  6
Continuous
370
     9
390
F
  0
LAYER
  5
46
102
{ACAD_XDICTIONARY
360
BB3F
102
}
330
2
100
AcDbSymbolTableRecord
100
AcDbLayerTableRecord
  2
4　注記
 70
     0
 62
     7
  6
Continuous
370
     9
390
F
  0
LAYER
  5
47
102
{ACAD_XDICTIONARY
360
BB41
102
}
330
2
100
AcDbSymbolTableRecord
100
AcDbLayerTableRecord
  2
3　補助線
 70
     0
 62
     3
  6
Continuous
290
     0
370
     9
390
F
  0
LAYER
  5
48
102
{ACAD_XDICTIONARY
360
BB43
102
}
330
2
100
AcDbSymbolTableRecord
100
AcDbLayerTableRecord
  2
5　図枠
 70
     0
 62
     1
  6
Continuous
370
    30
390
F
  0
LAYER
  5
49
102
{ACAD_XDICTIONARY
360
BB45
102
}
330
2
100
AcDbSymbolTableRecord
100
AcDbLayerTableRecord
  2
6　その他（細）
 70
     0
 62
     6
  6
Continuous
370
     9
390
F
  0
LAYER
  5
59
102
{ACAD_XDICTIONARY
360
BB47
102
}
330
2
100
AcDbSymbolTableRecord
100
AcDbLayerTableRecord
  2
8　用紙
 70
     0
 62
     4
  6
Continuous
290
     0
370
     5
390
F
  0
LAYER
  5
5F
330
2
100
AcDbSymbolTableRecord
100
AcDbLayerTableRecord
  2
Defpoints
 70
     0
 62
     7
  6
Continuous
290
     0
370
    -3
390
F
  0
LAYER
  5
553
102
{ACAD_XDICTIONARY
360
BB49
102
}
330
2
100
AcDbSymbolTableRecord
100
AcDbLayerTableRecord
  2
7　その他（太）
 70
     0
 62
     5
  6
Continuous
370
    15
390
F
  0
LAYER
  5
F13
102
{ACAD_XDICTIONARY
360
BB4B
102
}
330
2
100
AcDbSymbolTableRecord
100
AcDbLayerTableRecord
  2
SS400
 70
     0
 62
     7
  6
Continuous
370
    -3
390
F
  0
LAYER
  5
F14
102
{ACAD_XDICTIONARY
360
BB4D
102
}
330
2
100
AcDbSymbolTableRecord
100
AcDbLayerTableRecord
  2
注記
 70
     0
 62
     7
  6
Continuous
370
    -3
390
F
  0
ENDTAB
  0
TABLE
  2
STYLE
  5
3
330
0
100
AcDbSymbolTable
 70
     5
  0
STYLE
  5
11
330
3
100
AcDbSymbolTableRecord
100
AcDbTextStyleTableRecord
  2
Standard
 70
     0
 40
0.0
 41
1.0
 50
0.0
 71
     0
 42
3.0
  3
MSGOTHIC.TTC
  4

1001
ACAD
1000
MS Gothic
1071
    32817
  0
STYLE
  5
47B
330
3
100
AcDbSymbolTableRecord
100
AcDbTextStyleTableRecord
  2

 70
     1
 40
0.0
 41
1.0
 50
0.0
 71
     0
 42
3.0
  3
ltypeshp.shx
  4

  0
STYLE
  5
F15
330
3
100
AcDbSymbolTableRecord
100
AcDbTextStyleTableRecord
  2
STYLE1
 70
     0
 40
0.0
 41
0.9
 50
0.0
 71
     0
 42
39.375
  3
TXT.shx
  4
extfont.shx
  0
STYLE
  5
2860
330
3
100
AcDbSymbolTableRecord
100
AcDbTextStyleTableRecord
  2
StCustom
 70
     0
 40
0.0
 41
0.8
 50
0.0
 71
     0
 42
3.2
  3
txt.shx
  4
extfont.shx
  0
STYLE
  5
AF5F
330
3
100
AcDbSymbolTableRecord
100
AcDbTextStyleTableRecord
  2
Standard-tate
 70
     0
 40
0.0
 41
1.0
 50
0.0
 71
     0
 42
3.0
  3
MSGOTHIC.TTC
  4

1001
ACAD
1000
@MS PGothic
1071
    32818
  0
ENDTAB
  0
TABLE
  2
VIEW
  5
6
330
0
100
AcDbSymbolTable
 70
     0
  0
ENDTAB
  0
TABLE
  2
UCS
  5
7
330
0
100
AcDbSymbolTable
 70
     0
  0
ENDTAB
  0
TABLE
  2
APPID
  5
9
330
0
100
AcDbSymbolTable
 70
     6
  0
APPID
  5
12
330
9
100
AcDbSymbolTableRecord
100
AcDbRegAppTableRecord
  2
ACAD
 70
     0
  0
APPID
  5
F19
330
9
100
AcDbSymbolTableRecord
100
AcDbRegAppTableRecord
  2
ACAD_PSEXT
 70
     0
  0
APPID
  5
AA9A
330
9
100
AcDbSymbolTableRecord
100
AcDbRegAppTableRecord
  2
CONTENTBLOCKICON
 70
     0
  0
APPID
  5
B4A0
330
9
100
AcDbSymbolTableRecord
100
AcDbRegAppTableRecord
  2
ACAD_EXEMPT_FROM_CAD_STANDARDS
 70
     0
  0
APPID
  5
C065
330
9
100
AcDbSymbolTableRecord
100
AcDbRegAppTableRecord
  2
ACAD_MLEADERVER
 70
     0
  0
APPID
  5
D1A5
330
9
100
AcDbSymbolTableRecord
100
AcDbRegAppTableRecord
  2
ACAD_NAV_VCDISPLAY
 70
     0
  0
ENDTAB
  0
TABLE
  2
DIMSTYLE
  5
A
330
0
100
AcDbSymbolTable
 70
    15
100
AcDbDimStyleTable
  0
DIMSTYLE
105
73
330
A
100
AcDbSymbolTableRecord
100
AcDbDimStyleTableRecord
  2
NEMY-1
 70
     0
 41
3.0
 42
1.5
 43
10.0
 44
1.0
 73
     0
 74
     0
 77
     1
 78
     8
140
3.0
141
1.5
143
0.03937007874016
147
1.0
171
     3
172
     1
178
     0
271
     2
272
     2
274
     3
283
     0
284
     8
340
11
341
8F
342
8F
  0
DIMSTYLE
105
405
330
A
100
AcDbSymbolTableRecord
100
AcDbDimStyleTableRecord
  2
NEMY-5
 70
     0
 40
5.0
 41
3.0
 42
1.5
 43
10.0
 44
1.0
 73
     0
 74
     0
 77
     1
 78
     8
140
3.0
141
1.5
143
0.03937007874016
147
1.0
171
     3
172
     1
178
     0
271
     2
272
     2
274
     3
283
     0
284
     8
340
11
341
8F
342
8F
  0
DIMSTYLE
105
66E
330
A
100
AcDbSymbolTableRecord
100
AcDbDimStyleTableRecord
  2
NEMY-10
 70
     0
 40
10.0
 41
3.0
 42
1.5
 43
10.0
 44
1.0
 73
     0
 74
     0
 77
     1
 78
     8
140
3.0
141
1.5
143
0.03937007874016
147
1.0
171
     3
172
     1
178
     0
271
     2
272
     2
274
     3
283
     0
284
     8
340
11
341
8F
342
8F
  0
DIMSTYLE
105
BB5
330
A
100
AcDbSymbolTableRecord
100
AcDbDimStyleTableRecord
  2
NEMY-8
 70
     0
 41
24.0
 42
12.0
 43
80.0
 44
8.0
 73
     0
 74
     0
 77
     1
 78
     8
140
24.0
141
12.0
143
0.03937007874016
147
8.0
171
     3
172
     1
178
     0
271
     2
272
     2
274
     3
283
     0
284
     8
340
11
341
8F
342
8F
  0
DIMSTYLE
105
BF3
330
A
100
AcDbSymbolTableRecord
100
AcDbDimStyleTableRecord
  2
NEMY-20
 70
     0
 41
60.0
 42
30.0
 43
200.0
 44
20.0
 73
     0
 74
     0
 77
     1
 78
     8
140
60.0
141
30.0
143
0.03937007874016
147
20.0
171
     3
172
     1
178
     0
271
     2
272
     2
274
     3
283
     0
284
     8
340
11
341
8F
342
8F
  0
DIMSTYLE
105
D9B
330
A
100
AcDbSymbolTableRecord
100
AcDbDimStyleTableRecord
  2
NEMY-100
 70
     0
 41
300.0
 42
150.0
 43
1000.0
 44
100.0
 73
     0
 74
     0
 77
     1
 78
     8
140
300.0
141
150.0
143
0.03937007874016
147
100.0
171
     3
172
     1
178
     0
271
     2
272
     2
274
     3
283
     0
284
     8
340
11
341
8F
342
8F
  0
DIMSTYLE
105
D9C
330
A
100
AcDbSymbolTableRecord
100
AcDbDimStyleTableRecord
  2
NEMY-15
 70
     0
 41
45.0
 42
22.5
 43
150.0
 44
15.0
 73
     0
 74
     0
 77
     1
 78
     8
140
45.0
141
22.5
143
0.03937007874016
147
15.0
171
     3
172
     1
178
     0
271
     2
272
     2
274
     3
283
     0
284
     8
340
11
341
8F
342
8F
  0
DIMSTYLE
105
D9D
330
A
100
AcDbSymbolTableRecord
100
AcDbDimStyleTableRecord
  2
NEMY-2
 70
     0
 41
6.0
 42
3.0
 43
20.0
 44
2.0
 73
     0
 74
     0
 77
     1
 78
     8
140
6.0
141
3.0
143
0.03937007874016
147
2.0
171
     3
172
     1
174
     1
178
     0
271
     2
272
     2
274
     3
283
     0
284
     8
340
11
341
8F
342
8F
  0
DIMSTYLE
105
D9E
330
A
100
AcDbSymbolTableRecord
100
AcDbDimStyleTableRecord
  2
NEMY-25
 70
     0
 41
75.0
 42
37.5
 43
250.0
 44
25.0
 73
     0
 74
     0
 77
     1
 78
     8
140
75.0
141
37.5
143
0.03937007874016
147
25.0
171
     3
172
     1
178
     0
271
     2
272
     2
274
     3
283
     0
284
     8
340
11
341
8F
342
8F
  0
DIMSTYLE
105
D9F
330
A
100
AcDbSymbolTableRecord
100
AcDbDimStyleTableRecord
  2
NEMY-3
 70
     0
 41
9.0
 42
4.5
 43
30.0
 44
4.0
 73
     0
 74
     0
 77
     1
 78
     8
140
9.0
141
4.5
143
0.03937007874016
147
3.0
171
     3
172
     1
174
     1
178
     0
271
     2
272
     2
274
     3
283
     0
284
     8
340
11
341
8F
342
8F
  0
DIMSTYLE
105
DA0
330
A
100
AcDbSymbolTableRecord
100
AcDbDimStyleTableRecord
  2
NEMY-30
 70
     0
 41
90.0
 42
45.0
 43
300.0
 44
30.0
 73
     0
 74
     0
 77
     1
 78
     8
140
90.0
141
45.0
143
0.03937007874016
147
30.0
171
     3
172
     1
178
     0
271
     2
272
     2
274
     3
283
     0
284
     8
340
11
341
8F
342
8F
  0
DIMSTYLE
105
DA1
330
A
100
AcDbSymbolTableRecord
100
AcDbDimStyleTableRecord
  2
NEMY-50
 70
     0
 41
150.0
 42
75.0
 43
500.0
 44
50.0
 73
     0
 74
     0
 77
     1
 78
     8
140
150.0
141
75.0
143
0.03937007874016
147
50.0
171
     3
172
     1
178
     0
271
     2
272
     2
274
     3
283
     0
284
     8
340
11
341
8F
342
8F
  0
DIMSTYLE
105
F16
330
A
100
AcDbSymbolTableRecord
100
AcDbDimStyleTableRecord
  2
STANDARD-WS-15
 70
     0
 40
11.25
 41
2.5
 42
2.0
 43
3.75
 44
1.25
 73
     0
 74
     0
 77
     1
 78
     8
140
3.75
141
2.0
143
0.0394
147
1.5
171
     4
172
     1
173
     1
176
     7
177
     7
271
     2
178
   256
271
     2
272
     2
273
     8
274
     4
284
     8
340
F15
341
643
343
8F
344
8F
  0
DIMSTYLE
105
F17
330
A
100
AcDbSymbolTableRecord
100
AcDbDimStyleTableRecord
  2
STANDARD-WS-20
 70
     0
 40
15.0
 41
2.5
 42
2.0
 43
3.75
 44
1.25
 73
     0
 74
     0
 77
     1
 78
     8
140
3.75
141
2.0
143
0.0394
147
1.5
171
     4
172
     1
173
     1
176
     7
177
     7
271
     2
178
   256
271
     2
272
     2
273
     8
274
     4
284
     8
340
F15
341
643
343
8F
344
8F
  0
DIMSTYLE
105
F18
330
A
100
AcDbSymbolTableRecord
100
AcDbDimStyleTableRecord
  2
STANDARD-WS-20黒丸1
 70
     0
 40
14.0
 41
2.5
 42
2.0
 43
3.75
 44
1.25
 73
     0
 74
     0
 77
     1
 78
     8
140
3.75
141
2.5
147
1.5
172
     1
176
   256
177
   256
271
     1
178
   256
271
     1
272
     1
284
     8
340
F15
341
8F
342
8F
343
8F
344
626
  0
ENDTAB
  0
TABLE
  2
BLOCK_RECORD
  5
1
330
0
100
AcDbSymbolTable
 70
    16
  0
BLOCK_RECORD
  5
1F
102
{ACAD_XDICTIONARY
360
AA3C
102
}
330
1
100
AcDbSymbolTableRecord
100
AcDbBlockTableRecord
  2
*Model_Space
340
22
  0
BLOCK_RECORD
  5
1B
330
1
100
AcDbSymbolTableRecord
100
AcDbBlockTableRecord
  2
*Paper_Space
340
1E
  0
BLOCK_RECORD
  5
23
330
1
100
AcDbSymbolTableRecord
100
AcDbBlockTableRecord
  2
*Paper_Space0
340
26
  0
BLOCK_RECORD
  5
8F
330
1
100
AcDbSymbolTableRecord
100
AcDbBlockTableRecord
  2
_Open
340
0
102
{BLKREFS
331
CD17
331
CD18
331
CD24
331
CD25
331
CD88
331
CD89
331
CEB9
331
CEBA
331
CFC4
331
CFC5
331
CFCC
331
CFCD
331
CFD5
331
CFD6
331
CFDE
331
CFDF
102
}
  0
BLOCK_RECORD
  5
626
330
1
100
AcDbSymbolTableRecord
100
AcDbBlockTableRecord
  2
_DotSmall
340
0
  0
BLOCK_RECORD
  5
643
330
1
100
AcDbSymbolTableRecord
100
AcDbBlockTableRecord
  2
_None
340
0
  0
BLOCK_RECORD
  5
BCD
330
1
100
AcDbSymbolTableRecord
100
AcDbBlockTableRecord
  2
矢印
340
0
310
2800000020000000200000000100080000000000000400000000000000000000000000000000000000000000000080000080000000808000800000008000800080800000C0C0C000C0DCC000F0CAA6000020400000206000002080000020A0000020C0000020E00000400000004020000040400000406000004080000040A0
310
000040C0000040E00000600000006020000060400000606000006080000060A0000060C0000060E00000800000008020000080400000806000008080000080A0000080C0000080E00000A0000000A0200000A0400000A0600000A0800000A0A00000A0C00000A0E00000C0000000C0200000C0400000C0600000C0800000C0
310
A00000C0C00000C0E00000E0000000E0200000E0400000E0600000E0800000E0A00000E0C00000E0E00040000000400020004000400040006000400080004000A0004000C0004000E00040200000402020004020400040206000402080004020A0004020C0004020E000404000004040200040404000404060004040800040
310
40A0004040C0004040E00040600000406020004060400040606000406080004060A0004060C0004060E00040800000408020004080400040806000408080004080A0004080C0004080E00040A0000040A0200040A0400040A0600040A0800040A0A00040A0C00040A0E00040C0000040C0200040C0400040C0600040C08000
310
40C0A00040C0C00040C0E00040E0000040E0200040E0400040E0600040E0800040E0A00040E0C00040E0E00080000000800020008000400080006000800080008000A0008000C0008000E00080200000802020008020400080206000802080008020A0008020C0008020E00080400000804020008040400080406000804080
310
008040A0008040C0008040E00080600000806020008060400080606000806080008060A0008060C0008060E00080800000808020008080400080806000808080008080A0008080C0008080E00080A0000080A0200080A0400080A0600080A0800080A0A00080A0C00080A0E00080C0000080C0200080C0400080C0600080C0
310
800080C0A00080C0C00080C0E00080E0000080E0200080E0400080E0600080E0800080E0A00080E0C00080E0E000C0000000C0002000C0004000C0006000C0008000C000A000C000C000C000E000C0200000C0202000C0204000C0206000C0208000C020A000C020C000C020E000C0400000C0402000C0404000C0406000C0
310
408000C040A000C040C000C040E000C0600000C0602000C0604000C0606000C0608000C060A000C060C000C060E000C0800000C0802000C0804000C0806000C0808000C080A000C080C000C080E000C0A00000C0A02000C0A04000C0A06000C0A08000C0A0A000C0A0C000C0A0E000C0C00000C0C02000C0C04000C0C06000
310
C0C08000C0C0A000F0FBFF00A4A0A000808080000000FF0000FF000000FFFF00FF000000FF00FF00FFFF0000FFFFFF0000000000000000000000000000000000000000000000000000000000000000000000000000000000000000000000000000000000000000000000000000000000000000000000000000000000000000
310
00000000000000000000000000000000000000000000000000000000000000000000000000000000000000000000000000000000000000000000000000000000000000000000000000000000000000000000000000000000000000000000000000000000000000000000000000000000000000000000000000000000000000
310
000000000000000000000000000000000000000000000000000000000000000000000000000000000000000000000000000000000000000000000000000000000000000000000000000000000000000000000000000000000000000000000000000000000000000000000000000000000000000000000000000000000000FD
310
FD00000000000000000000000000000000000000000000000000000000FDFD00FD0000000000000000000000000000000000000000000000000000FDFD000000FD0000000000000000000000000000000000000000000000FDFDFD0000000000FDFDFDFDFDFDFDFDFDFDFDFDFDFDFDFDFDFD00000000FDFD00000000000000
310
000000000000000000000000000000000000FD0000FDFD000000000000000000000000000000000000000000000000000000FD000000FDFD0000000000000000000000000000000000000000000000000000FD0000000000FDFD000000000000000000000000000000000000000000000000FD00000000000000FDFD000000
310
0000FDFDFDFDFDFDFDFDFDFDFDFDFDFDFDFDFDFD000000000000000000FDFD000000FD00000000000000000000000000000000000000000000000000000000FDFD00FD000000000000000000000000000000000000000000000000000000000000FDFD00000000000000000000000000000000000000000000000000000000
310
00000000000000000000000000000000000000000000000000000000000000000000000000000000000000000000000000000000000000000000000000000000000000000000000000000000000000000000000000000000000000000000000000000000000000000000000000000000000000000000000000000000000000
310
00000000000000000000000000000000000000000000000000000000000000000000000000000000000000000000000000000000000000000000000000000000000000000000000000000000000000000000000000000000000000000000000000000000000000000000000000000000000000000000000000000000000000
310
0000000000000000000000000000000000000000000000000000000000000000000000000000000000000000000000000000000000000000
  0
BLOCK_RECORD
  5
2859
330
1
100
AcDbSymbolTableRecord
100
AcDbBlockTableRecord
  2
Rev1
340
0
102
{BLKREFS
331
AAF2
102
}
  0
BLOCK_RECORD
  5
8757
330
1
100
AcDbSymbolTableRecord
100
AcDbBlockTableRecord
  2
A$C65633760
340
0
  0
BLOCK_RECORD
  5
AAF0
330
1
100
AcDbSymbolTableRecord
100
AcDbBlockTableRecord
  2
A$C2BF960AA
340
0
  0
BLOCK_RECORD
  5
C7ED
330
1
100
AcDbSymbolTableRecord
100
AcDbBlockTableRecord
  2
*D8
340
0
  0
BLOCK_RECORD
  5
C805
330
1
100
AcDbSymbolTableRecord
100
AcDbBlockTableRecord
  2
*D9
340
0
  0
BLOCK_RECORD
  5
CA49
330
1
100
AcDbSymbolTableRecord
100
AcDbBlockTableRecord
  2
*D10
340
0
  0
BLOCK_RECORD
  5
CA56
330
1
100
AcDbSymbolTableRecord
100
AcDbBlockTableRecord
  2
*D11
340
0
  0
BLOCK_RECORD
  5
CA75
330
1
100
AcDbSymbolTableRecord
100
AcDbBlockTableRecord
  2
*D12
340
0
  0
BLOCK_RECORD
  5
CD13
330
1
100
AcDbSymbolTableRecord
100
AcDbBlockTableRecord
  2
*D13
340
0
  0
BLOCK_RECORD
  5
CD20
330
1
100
AcDbSymbolTableRecord
100
AcDbBlockTableRecord
  2
*D14
340
0
  0
BLOCK_RECORD
  5
CE3C
330
1
100
AcDbSymbolTableRecord
100
AcDbBlockTableRecord
  2
*D15
340
0
  0
ENDTAB
  0
ENDSEC
  0
SECTION
  2
BLOCKS
  0
BLOCK
  5
20
330
1F
100
AcDbEntity
  8
0
100
AcDbBlockBegin
  2
*Model_Space
 70
     0
 10
0.0
 20
0.0
 30
0.0
  3
*Model_Space
  1

  0
ENDBLK
  5
21
330
1F
100
AcDbEntity
  8
0
100
AcDbBlockEnd
  0
BLOCK
  5
1C
330
1B
100
AcDbEntity
 67
     1
  8
0
100
AcDbBlockBegin
  2
*Paper_Space
 70
     0
 10
0.0
 20
0.0
 30
0.0
  3
*Paper_Space
  1

  0
ENDBLK
  5
1D
330
1B
100
AcDbEntity
 67
     1
  8
0
100
AcDbBlockEnd
  0
BLOCK
  5
24
330
23
100
AcDbEntity
  8
0
100
AcDbBlockBegin
  2
*Paper_Space0
 70
     0
 10
0.0
 20
0.0
 30
0.0
  3
*Paper_Space0
  1

  0
ENDBLK
  5
25
330
23
100
AcDbEntity
  8
0
100
AcDbBlockEnd
  0
BLOCK
  5
93
330
8F
100
AcDbEntity
  8
0
100
AcDbBlockBegin
  2
_Open
 70
     0
 10
0.0
 20
0.0
 30
0.0
  3
_Open
  1

  0
LINE
  5
90
330
8F
100
AcDbEntity
  8
2　寸法
 62
     0
370
    -2
100
AcDbLine
 10
-1.0
 20
0.1666666666666667
 30
0.0
 11
0.0
 21
0.0
 31
0.0
  0
LINE
  5
91
330
8F
100
AcDbEntity
  8
2　寸法
 62
     0
370
    -2
100
AcDbLine
 10
-1.0
 20
-0.1666666666666667
 30
0.0
 11
0.0
 21
0.0
 31
0.0
  0
LINE
  5
92
330
8F
100
AcDbEntity
  8
2　寸法
 62
     0
370
    -2
100
AcDbLine
 10
0.0
 20
0.0
 30
0.0
 11
-1.0
 21
0.0
 31
0.0
  0
ENDBLK
  5
94
330
8F
100
AcDbEntity
  8
0
100
AcDbBlockEnd
  0
BLOCK
  5
628
330
626
100
AcDbEntity
  8
0
100
AcDbBlockBegin
  2
_DotSmall
 70
     0
 10
0.0
 20
0.0
 30
0.0
  3
_DotSmall
  1

  0
LWPOLYLINE
  5
627
330
626
100
AcDbEntity
  8
2　寸法
 62
     0
100
AcDbPolyline
 90
        2
 70
     1
 43
0.5
 10
-0.0625
 20
0.0
 42
1.0
 10
0.0625
 20
0.0
 42
1.0
  0
ENDBLK
  5
629
330
626
100
AcDbEntity
  8
0
100
AcDbBlockEnd
  0
BLOCK
  5
644
330
643
100
AcDbEntity
  8
0
100
AcDbBlockBegin
  2
_None
 70
     0
 10
0.0
 20
0.0
 30
0.0
  3
_None
  1

  0
ENDBLK
  5
645
330
643
100
AcDbEntity
  8
0
100
AcDbBlockEnd
  0
BLOCK
  5
BCE
330
BCD
100
AcDbEntity
  8
0
100
AcDbBlockBegin
  2
矢印
 70
     0
 10
0.0
 20
0.0
 30
0.0
  3
矢印
  1

  0
LINE
  5
BD0
330
BCD
100
AcDbEntity
  8
6　その他（細）
100
AcDbLine
 10
254.0616470530396
 20
130.975183949022
 30
0.0
 11
248.0616470530396
 21
133.975183949022
 31
0.0
  0
LINE
  5
BD1
330
BCD
100
AcDbEntity
  8
6　その他（細）
100
AcDbLine
 10
248.0616470530396
 20
133.975183949022
 30
0.0
 11
254.0616470530396
 21
136.975183949022
 31
0.0
  0
LINE
  5
BD2
330
BCD
100
AcDbEntity
  8
6　その他（細）
100
AcDbLine
 10
263.0616470530396
 20
132.775183949022
 30
0.0
 11
254.0616470530396
 21
132.775183949022
 31
0.0
  0
LINE
  5
BD3
330
BCD
100
AcDbEntity
  8
6　その他（細）
100
AcDbLine
 10
263.0616470530396
 20
135.175183949022
 30
0.0
 11
254.0616470530396
 21
135.175183949022
 31
0.0
  0
LINE
  5
BD4
330
BCD
100
AcDbEntity
  8
6　その他（細）
100
AcDbLine
 10
254.0616470530396
 20
130.975183949022
 30
0.0
 11
254.0616470530396
 21
132.775183949022
 31
0.0
  0
LINE
  5
BD5
330
BCD
100
AcDbEntity
  8
6　その他（細）
100
AcDbLine
 10
254.0616470530396
 20
135.175183949022
 30
0.0
 11
254.0616470530396
 21
136.975183949022
 31
0.0
  0
LINE
  5
BD6
330
BCD
100
AcDbEntity
  8
6　その他（細）
100
AcDbLine
 10
263.0616470530396
 20
132.775183949022
 30
0.0
 11
263.0616470530396
 21
135.175183949022
 31
0.0
  0
ENDBLK
  5
BCF
330
BCD
100
AcDbEntity
  8
0
100
AcDbBlockEnd
  0
BLOCK
  5
285E
330
2859
100
AcDbEntity
  8
0
100
AcDbBlockBegin
  2
Rev1
 70
     0
 10
0.0
 20
0.0
 30
0.0
  3
Rev1
  1

  0
LINE
  5
285A
330
2859
100
AcDbEntity
  8
0
  6
Continuous
 62
     0
100
AcDbLine
 10
-2.5
 20
-1.443375672974099
 30
0.0
 11
2.5
 21
-1.443375672974099
 31
0.0
  0
LINE
  5
285B
330
2859
100
AcDbEntity
  8
0
  6
Continuous
 62
     0
100
AcDbLine
 10
2.5
 20
-1.443375672974099
 30
0.0
 11
0.0
 21
2.886751345948085
 31
0.0
  0
LINE
  5
285C
330
2859
100
AcDbEntity
  8
0
  6
Continuous
 62
     0
100
AcDbLine
 10
0.0
 20
2.886751345948085
 30
0.0
 11
-2.5
 21
-1.443375672974099
 31
0.0
  0
TEXT
  5
285D
330
2859
100
AcDbEntity
  8
0
  6
Continuous
 62
     0
100
AcDbText
 10
-0.3588902191379475
 20
-0.9549006065115293
 30
0.0
 40
2.5
  1
1
 41
0.8
  7
StCustom
100
AcDbText
  0
ENDBLK
  5
285F
330
2859
100
AcDbEntity
  8
0
100
AcDbBlockEnd
  0
BLOCK
  5
875B
330
8757
100
AcDbEntity
  8
0
100
AcDbBlockBegin
  2
A$C65633760
 70
     0
 10
0.0
 20
0.0
 30
0.0
  3
A$C65633760
  1

  0
LEADER
  5
8758
330
8757
100
AcDbEntity
  8
2　寸法
100
AcDbLeader
  3
STANDARD-WS-15
 73
     0
 75
     1
 40
51.84
 41
517.3199999999999
 76
     3
 10
613.7236632796703
 20
282.7080552999159
 30
0.0
 10
539.0450549053639
 20
85.92025383465807
 30
0.0
 10
536.5450549053639
 20
85.92025383465807
 30
0.0
340
8759
213
-11.76886515444494
223
0.8825107630436833
233
0.0
1001
ACAD
1000
DSTYLE
1002
{
1070
     6
1000
NONE
1070
    77
1070
     1
1070
   147
1040
1.5
1070
   343
1005
643
1002
}
  0
MTEXT
  5
8759
102
{ACAD_REACTORS
330
8758
102
}
330
8757
100
AcDbEntity
  8
2　寸法
100
AcDbMText
 10
531.4389200598089
 20
101.9127430716144
 30
0.0
 40
45.0
 41
0.0
 71
     9
 72
     1
  1
\A1;エキスパンドメタル
 73
     1
 44
1.0
  0
TEXT
  5
875A
330
8757
100
AcDbEntity
  8
2　寸法
100
AcDbText
 10
125.394068526517
 20
10.08277083292705
 30
0.0
 40
45.0
  1
XS-61
100
AcDbText
  0
ENDBLK
  5
875C
330
8757
100
AcDbEntity
  8
0
100
AcDbBlockEnd
  0
BLOCK
  5
AAF4
330
AAF0
100
AcDbEntity
  8
0
100
AcDbBlockBegin
  2
A$C2BF960AA
 70
     0
 10
0.0
 20
0.0
 30
0.0
  3
A$C2BF960AA
  1

  0
TEXT
  5
AAF1
330
AAF0
100
AcDbEntity
  8
0
 62
     1
 48
6.0
100
AcDbText
 10
325.5838536998922
 20
10.93685393724559
 30
0.0
 40
39.07332000000002
  1
適用機種追加
  7
STYLE1
100
AcDbText
  0
INSERT
  5
AAF2
330
AAF0
100
AcDbEntity
  8
0
 62
     1
100
AcDbBlockReference
  2
Rev1
 10
46.51177685055882
 20
22.16165111724126
 30
0.0
 41
11.25
 42
11.25
 43
11.25
  0
TEXT
  5
AAF3
330
AAF0
100
AcDbEntity
  8
0
 62
     1
100
AcDbText
 10
107.7500044850858
 20
8.527330561344343
 30
0.0
 40
40.0
  1
’１０．０３．１１
 41
0.45
  7
STYLE1
100
AcDbText
  0
ENDBLK
  5
AAF5
330
AAF0
100
AcDbEntity
  8
0
100
AcDbBlockEnd
  0
BLOCK
  5
C7F7
330
C7ED
100
AcDbEntity
  8
0
100
AcDbBlockBegin
  2
*D8
 70
     1
 10
0.0
 20
0.0
 30
0.0
  3
*D8
  1

  0
LINE
  5
CD85
330
C7ED
100
AcDbEntity
  8
2　寸法
 62
     0
370
    -2
100
AcDbLine
 10
1675.288079342931
 20
1104.879819788138
 30
0.0
 11
1675.288079342931
 21
917.6700414670859
 31
0.0
  0
LINE
  5
CD86
330
C7ED
100
AcDbEntity
  8
2　寸法
 62
     0
370
    -2
100
AcDbLine
 10
3529.288079342931
 20
1104.879819788134
 30
0.0
 11
3529.288079342931
 21
917.6700414670859
 31
0.0
  0
LINE
  5
CD87
330
C7ED
100
AcDbEntity
  8
2　寸法
 62
     0
370
    -2
100
AcDbLine
 10
1720.288079342931
 20
932.6700414670859
 30
0.0
 11
3484.288079342931
 21
932.6700414670859
 31
0.0
  0
INSERT
  5
CD88
330
C7ED
100
AcDbEntity
  8
2　寸法
 62
     0
370
    -2
100
AcDbBlockReference
  2
_Open
 10
1675.288079342931
 20
932.6700414670859
 30
0.0
 41
45.0
 42
45.0
 43
45.0
 50
180.0
  0
INSERT
  5
CD89
330
C7ED
100
AcDbEntity
  8
2　寸法
 62
     0
370
    -2
100
AcDbBlockReference
  2
_Open
 10
3529.288079342931
 20
932.6700414670859
 30
0.0
 41
45.0
 42
45.0
 43
45.0
  0
MTEXT
  5
CD8A
330
C7ED
100
AcDbEntity
  8
2　寸法
 62
     0
100
AcDbMText
 10
2602.288079342931
 20
973.9390770000808
 30
0.0
 40
45.0
 41
0.0
 71
     5
 72
     1
  1
(1854)
 73
     1
 44
1.0
  0
POINT
  5
CD8B
330
C7ED
100
AcDbEntity
  8
Defpoints
 62
     0
100
AcDbPoint
 10
1675.288079342931
 20
1127.379819788138
 30
0.0
  0
POINT
  5
CD8C
330
C7ED
100
AcDbEntity
  8
Defpoints
 62
     0
100
AcDbPoint
 10
3529.288079342931
 20
1127.379819788134
 30
0.0
  0
POINT
  5
CD8D
330
C7ED
100
AcDbEntity
  8
Defpoints
 62
     0
100
AcDbPoint
 10
3529.288079342931
 20
932.6700414670859
 30
0.0
  0
ENDBLK
  5
C7F8
330
C7ED
100
AcDbEntity
  8
0
100
AcDbBlockEnd
  0
BLOCK
  5
C80F
330
C805
100
AcDbEntity
  8
0
100
AcDbBlockBegin
  2
*D9
 70
     1
 10
0.0
 20
0.0
 30
0.0
  3
*D9
  1

  0
LINE
  5
CFDB
330
C805
100
AcDbEntity
  8
2　寸法
 62
     0
370
    -2
100
AcDbLine
 10
1720.288079342931
 20
3161.053312001874
 30
0.0
 11
1720.288079342931
 21
3464.112647082737
 31
0.0
  0
LINE
  5
CFDC
330
C805
100
AcDbEntity
  8
2　寸法
 62
     0
370
    -2
100
AcDbLine
 10
2534.288079342931
 20
3161.053312001874
 30
0.0
 11
2534.288079342931
 21
3464.112647082737
 31
0.0
  0
LINE
  5
CFDD
330
C805
100
AcDbEntity
  8
2　寸法
 62
     0
370
    -2
100
AcDbLine
 10
1765.288079342931
 20
3449.112647082737
 30
0.0
 11
2489.288079342931
 21
3449.112647082737
 31
0.0
  0
INSERT
  5
CFDE
330
C805
100
AcDbEntity
  8
2　寸法
 62
     0
370
    -2
100
AcDbBlockReference
  2
_Open
 10
1720.288079342931
 20
3449.112647082737
 30
0.0
 41
45.0
 42
45.0
 43
45.0
 50
180.0
  0
INSERT
  5
CFDF
330
C805
100
AcDbEntity
  8
2　寸法
 62
     0
370
    -2
100
AcDbBlockReference
  2
_Open
 10
2534.288079342931
 20
3449.112647082737
 30
0.0
 41
45.0
 42
45.0
 43
45.0
  0
MTEXT
  5
CFE0
330
C805
100
AcDbEntity
  8
2　寸法
 62
     0
100
AcDbMText
 10
2127.288079342931
 20
3486.612647082737
 30
0.0
 40
45.0
 41
0.0
 71
     5
 72
     1
  1
814
 73
     1
 44
1.0
  0
POINT
  5
CFE1
330
C805
100
AcDbEntity
  8
Defpoints
 62
     0
100
AcDbPoint
 10
1720.288079342931
 20
3138.553312001874
 30
0.0
  0
POINT
  5
CFE2
330
C805
100
AcDbEntity
  8
Defpoints
 62
     0
100
AcDbPoint
 10
2534.288079342931
 20
3138.553312001874
 30
0.0
  0
POINT
  5
CFE3
330
C805
100
AcDbEntity
  8
Defpoints
 62
     0
100
AcDbPoint
 10
2534.288079342931
 20
3449.112647082737
 30
0.0
  0
ENDBLK
  5
C810
330
C805
100
AcDbEntity
  8
0
100
AcDbBlockEnd
  0
BLOCK
  5
CA53
330
CA49
100
AcDbEntity
  8
0
100
AcDbBlockBegin
  2
*D10
 70
     1
 10
0.0
 20
0.0
 30
0.0
  3
*D10
  1

  0
LINE
  5
CFC0
330
CA49
100
AcDbEntity
  8
2　寸法
 62
     0
370
    -2
100
AcDbLine
 10
2534.288079342942
 20
3161.053312001864
 30
0.0
 11
2534.288079342942
 21
3464.112647082737
 31
0.0
  0
LINE
  5
CFC1
330
CA49
100
AcDbEntity
  8
2　寸法
 62
     0
370
    -2
100
AcDbLine
 10
2670.288079342935
 20
3161.053312001864
 30
0.0
 11
2670.288079342935
 21
3464.112647082737
 31
0.0
  0
LINE
  5
CFC2
330
CA49
100
AcDbEntity
  8
2　寸法
 62
     0
370
    -2
100
AcDbLine
 10
2579.288079342942
 20
3449.112647082737
 30
0.0
 11
2625.288079342935
 21
3449.112647082737
 31
0.0
  0
MTEXT
  5
CFC3
330
CA49
100
AcDbEntity
  8
2　寸法
 62
     0
100
AcDbMText
 10
2602.288079342939
 20
3500.57894041172
 30
0.0
 40
45.0
 41
0.0
 71
     5
 72
     1
  1
136以上
 73
     1
 44
1.0
  0
INSERT
  5
CFC4
330
CA49
100
AcDbEntity
  8
2　寸法
 62
     0
370
    -2
100
AcDbBlockReference
  2
_Open
 10
2534.288079342942
 20
3449.112647082737
 30
0.0
 41
45.0
 42
45.0
 43
45.0
 50
180.0
  0
INSERT
  5
CFC5
330
CA49
100
AcDbEntity
  8
2　寸法
 62
     0
370
    -2
100
AcDbBlockReference
  2
_Open
 10
2670.288079342935
 20
3449.112647082737
 30
0.0
 41
45.0
 42
45.0
 43
45.0
  0
POINT
  5
CFC6
330
CA49
100
AcDbEntity
  8
Defpoints
 62
     0
100
AcDbPoint
 10
2534.288079342942
 20
3138.553312001864
 30
0.0
  0
POINT
  5
CFC7
330
CA49
100
AcDbEntity
  8
Defpoints
 62
     0
100
AcDbPoint
 10
2670.288079342935
 20
3138.553312001864
 30
0.0
  0
POINT
  5
CFC8
330
CA49
100
AcDbEntity
  8
Defpoints
 62
     0
100
AcDbPoint
 10
2670.288079342935
 20
3449.112647082737
 30
0.0
  0
ENDBLK
  5
CA54
330
CA49
100
AcDbEntity
  8
0
100
AcDbBlockEnd
  0
BLOCK
  5
CA60
330
CA56
100
AcDbEntity
  8
0
100
AcDbBlockBegin
  2
*D11
 70
     1
 10
0.0
 20
0.0
 30
0.0
  3
*D11
  1

  0
LINE
  5
CFC9
330
CA56
100
AcDbEntity
  8
2　寸法
 62
     0
370
    -2
100
AcDbLine
 10
2670.288079342935
 20
3161.053312001864
 30
0.0
 11
2670.288079342935
 21
3464.112647082737
 31
0.0
  0
LINE
  5
CFCA
330
CA56
100
AcDbEntity
  8
2　寸法
 62
     0
370
    -2
100
AcDbLine
 10
3484.288079342946
 20
3161.053312001864
 30
0.0
 11
3484.288079342946
 21
3464.112647082737
 31
0.0
  0
LINE
  5
CFCB
330
CA56
100
AcDbEntity
  8
2　寸法
 62
     0
370
    -2
100
AcDbLine
 10
2715.288079342935
 20
3449.112647082737
 30
0.0
 11
3439.288079342946
 21
3449.112647082737
 31
0.0
  0
INSERT
  5
CFCC
330
CA56
100
AcDbEntity
  8
2　寸法
 62
     0
370
    -2
100
AcDbBlockReference
  2
_Open
 10
2670.288079342935
 20
3449.112647082737
 30
0.0
 41
45.0
 42
45.0
 43
45.0
 50
180.0
  0
INSERT
  5
CFCD
330
CA56
100
AcDbEntity
  8
2　寸法
 62
     0
370
    -2
100
AcDbBlockReference
  2
_Open
 10
3484.288079342946
 20
3449.112647082737
 30
0.0
 41
45.0
 42
45.0
 43
45.0
  0
MTEXT
  5
CFCE
330
CA56
100
AcDbEntity
  8
2　寸法
 62
     0
100
AcDbMText
 10
3077.28807934294
 20
3486.612647082737
 30
0.0
 40
45.0
 41
0.0
 71
     5
 72
     1
  1
814
 73
     1
 44
1.0
  0
POINT
  5
CFCF
330
CA56
100
AcDbEntity
  8
Defpoints
 62
     0
100
AcDbPoint
 10
2670.288079342935
 20
3138.553312001864
 30
0.0
  0
POINT
  5
CFD0
330
CA56
100
AcDbEntity
  8
Defpoints
 62
     0
100
AcDbPoint
 10
3484.288079342946
 20
3138.553312001864
 30
0.0
  0
POINT
  5
CFD1
330
CA56
100
AcDbEntity
  8
Defpoints
 62
     0
100
AcDbPoint
 10
3484.288079342946
 20
3449.112647082737
 30
0.0
  0
ENDBLK
  5
CA61
330
CA56
100
AcDbEntity
  8
0
100
AcDbBlockEnd
  0
BLOCK
  5
CA7F
330
CA75
100
AcDbEntity
  8
0
100
AcDbBlockBegin
  2
*D12
 70
     1
 10
0.0
 20
0.0
 30
0.0
  3
*D12
  1

  0
LINE
  5
CFD2
330
CA75
100
AcDbEntity
  8
2　寸法
 62
     0
370
    -2
100
AcDbLine
 10
1720.288079342931
 20
3161.053312001871
 30
0.0
 11
1720.288079342931
 21
3564.112647082737
 31
0.0
  0
LINE
  5
CFD3
330
CA75
100
AcDbEntity
  8
2　寸法
 62
     0
370
    -2
100
AcDbLine
 10
3484.288079342946
 20
3161.053312001864
 30
0.0
 11
3484.288079342946
 21
3564.112647082737
 31
0.0
  0
LINE
  5
CFD4
330
CA75
100
AcDbEntity
  8
2　寸法
 62
     0
370
    -2
100
AcDbLine
 10
1765.288079342931
 20
3549.112647082737
 30
0.0
 11
3439.288079342946
 21
3549.112647082737
 31
0.0
  0
INSERT
  5
CFD5
330
CA75
100
AcDbEntity
  8
2　寸法
 62
     0
370
    -2
100
AcDbBlockReference
  2
_Open
 10
1720.288079342931
 20
3549.112647082737
 30
0.0
 41
45.0
 42
45.0
 43
45.0
 50
180.0
  0
INSERT
  5
CFD6
330
CA75
100
AcDbEntity
  8
2　寸法
 62
     0
370
    -2
100
AcDbBlockReference
  2
_Open
 10
3484.288079342946
 20
3549.112647082737
 30
0.0
 41
45.0
 42
45.0
 43
45.0
  0
MTEXT
  5
CFD7
330
CA75
100
AcDbEntity
  8
2　寸法
 62
     0
100
AcDbMText
 10
2602.288079342939
 20
3590.381682615732
 30
0.0
 40
45.0
 41
0.0
 71
     5
 72
     1
  1
(1764)
 73
     1
 44
1.0
  0
POINT
  5
CFD8
330
CA75
100
AcDbEntity
  8
Defpoints
 62
     0
100
AcDbPoint
 10
1720.288079342931
 20
3138.553312001871
 30
0.0
  0
POINT
  5
CFD9
330
CA75
100
AcDbEntity
  8
Defpoints
 62
     0
100
AcDbPoint
 10
3484.288079342946
 20
3138.553312001864
 30
0.0
  0
POINT
  5
CFDA
330
CA75
100
AcDbEntity
  8
Defpoints
 62
     0
100
AcDbPoint
 10
3484.288079342946
 20
3549.112647082737
 30
0.0
  0
ENDBLK
  5
CA80
330
CA75
100
AcDbEntity
  8
0
100
AcDbBlockEnd
  0
BLOCK
  5
CD1D
330
CD13
100
AcDbEntity
  8
0
100
AcDbBlockBegin
  2
*D13
 70
     1
 10
0.0
 20
0.0
 30
0.0
  3
*D13
  1

  0
LINE
  5
CD14
330
CD13
100
AcDbEntity
  8
2　寸法
 62
     0
370
    -2
100
AcDbLine
 10
3506.788079342946
 20
3138.553312001864
 30
0.0
 11
3694.288079342932
 21
3138.553312001864
 31
0.0
  0
LINE
  5
CD15
330
CD13
100
AcDbEntity
  8
2　寸法
 62
     0
370
    -2
100
AcDbLine
 10
3506.788079342935
 20
2383.553312001864
 30
0.0
 11
3694.288079342931
 21
2383.553312001864
 31
0.0
  0
LINE
  5
CD16
330
CD13
100
AcDbEntity
  8
2　寸法
 62
     0
370
    -2
100
AcDbLine
 10
3679.288079342932
 20
3093.553312001864
 30
0.0
 11
3679.288079342931
 21
2428.553312001864
 31
0.0
  0
INSERT
  5
CD17
330
CD13
100
AcDbEntity
  8
2　寸法
 62
     0
370
    -2
100
AcDbBlockReference
  2
_Open
 10
3679.288079342932
 20
3138.553312001864
 30
0.0
 41
45.0
 42
45.0
 43
45.0
 50
90.0
  0
INSERT
  5
CD18
330
CD13
100
AcDbEntity
  8
2　寸法
 62
     0
370
    -2
100
AcDbBlockReference
  2
_Open
 10
3679.288079342931
 20
2383.553312001864
 30
0.0
 41
45.0
 42
45.0
 43
45.0
 50
270.0
  0
MTEXT
  5
CD19
330
CD13
100
AcDbEntity
  8
2　寸法
 62
     0
100
AcDbMText
 10
3641.788079342931
 20
2761.053312001864
 30
0.0
 40
45.0
 41
0.0
 71
     5
 72
     1
  1
755
 11
6.123031769111886E-17
 21
1.0
 31
0.0
 73
     1
 44
1.0
  0
POINT
  5
CD1A
330
CD13
100
AcDbEntity
  8
Defpoints
 62
     0
100
AcDbPoint
 10
3484.288079342946
 20
3138.553312001864
 30
0.0
  0
POINT
  5
CD1B
330
CD13
100
AcDbEntity
  8
Defpoints
 62
     0
100
AcDbPoint
 10
3484.288079342935
 20
2383.553312001864
 30
0.0
  0
POINT
  5
CD1C
330
CD13
100
AcDbEntity
  8
Defpoints
 62
     0
100
AcDbPoint
 10
3679.288079342931
 20
2383.553312001864
 30
0.0
  0
ENDBLK
  5
CD1E
330
CD13
100
AcDbEntity
  8
0
100
AcDbBlockEnd
  0
BLOCK
  5
CD2A
330
CD20
100
AcDbEntity
  8
0
100
AcDbBlockBegin
  2
*D14
 70
     1
 10
0.0
 20
0.0
 30
0.0
  3
*D14
  1

  0
LINE
  5
CD21
330
CD20
100
AcDbEntity
  8
2　寸法
 62
     0
370
    -2
100
AcDbLine
 10
3508.288079342931
 20
1627.379819788138
 30
0.0
 11
3694.288079342931
 21
1627.379819788138
 31
0.0
  0
LINE
  5
CD22
330
CD20
100
AcDbEntity
  8
2　寸法
 62
     0
370
    -2
100
AcDbLine
 10
3551.788079342931
 20
1127.379819788134
 30
0.0
 11
3694.288079342931
 21
1127.379819788134
 31
0.0
  0
LINE
  5
CD23
330
CD20
100
AcDbEntity
  8
2　寸法
 62
     0
370
    -2
100
AcDbLine
 10
3679.288079342931
 20
1582.379819788138
 30
0.0
 11
3679.288079342931
 21
1172.379819788134
 31
0.0
  0
INSERT
  5
CD24
330
CD20
100
AcDbEntity
  8
2　寸法
 62
     0
370
    -2
100
AcDbBlockReference
  2
_Open
 10
3679.288079342931
 20
1627.379819788138
 30
0.0
 41
45.0
 42
45.0
 43
45.0
 50
90.0
  0
INSERT
  5
CD25
330
CD20
100
AcDbEntity
  8
2　寸法
 62
     0
370
    -2
100
AcDbBlockReference
  2
_Open
 10
3679.288079342931
 20
1127.379819788134
 30
0.0
 41
45.0
 42
45.0
 43
45.0
 50
270.0
  0
MTEXT
  5
CD26
330
CD20
100
AcDbEntity
  8
2　寸法
 62
     0
100
AcDbMText
 10
3641.788079342931
 20
1377.379819788137
 30
0.0
 40
45.0
 41
0.0
 71
     5
 72
     1
  1
500
 11
6.123031769111886E-17
 21
1.0
 31
0.0
 73
     1
 44
1.0
  0
POINT
  5
CD27
330
CD20
100
AcDbEntity
  8
Defpoints
 62
     0
100
AcDbPoint
 10
3485.788079342931
 20
1627.379819788138
 30
0.0
  0
POINT
  5
CD28
330
CD20
100
AcDbEntity
  8
Defpoints
 62
     0
100
AcDbPoint
 10
3529.288079342931
 20
1127.379819788134
 30
0.0
  0
POINT
  5
CD29
330
CD20
100
AcDbEntity
  8
Defpoints
 62
     0
100
AcDbPoint
 10
3679.288079342931
 20
1127.379819788134
 30
0.0
  0
ENDBLK
  5
CD2B
330
CD20
100
AcDbEntity
  8
0
100
AcDbBlockEnd
  0
BLOCK
  5
CE3D
330
CE3C
100
AcDbEntity
  8
0
100
AcDbBlockBegin
  2
*D15
 70
     1
 10
0.0
 20
0.0
 30
0.0
  3
*D15
  1

  0
LINE
  5
CEB0
330
CE3C
100
AcDbEntity
  8
2　寸法
 62
     0
370
    -2
100
AcDbLine
 10
2579.288079342942
 20
2406.053312001874
 30
0.0
 11
2579.288079342942
 21
2186.577067846016
 31
0.0
  0
LINE
  5
CEB1
330
CE3C
100
AcDbEntity
  8
2　寸法
 62
     0
370
    -2
100
AcDbLine
 10
2625.288079342935
 20
2406.053312001885
 30
0.0
 11
2625.288079342935
 21
2186.577067846016
 31
0.0
  0
LINE
  5
CEB2
330
CE3C
100
AcDbEntity
  8
2　寸法
 62
     0
370
    -2
100
AcDbLine
 10
2534.288079342942
 20
2201.577067846016
 30
0.0
 11
2489.288079342942
 21
2201.577067846016
 31
0.0
  0
LINE
  5
CEB3
330
CE3C
100
AcDbEntity
  8
2　寸法
 62
     0
370
    -2
100
AcDbLine
 10
2670.288079342935
 20
2201.577067846016
 30
0.0
 11
2715.288079342935
 21
2201.577067846016
 31
0.0
  0
LINE
  5
CEB4
330
CE3C
100
AcDbEntity
  8
2　寸法
 62
     0
370
    -2
100
AcDbLine
 10
2602.288079342939
 20
2201.577067846016
 30
0.0
 11
2657.372132629574
 21
2078.023895679677
 31
0.0
  0
LINE
  5
CEB5
330
CE3C
100
AcDbEntity
  8
2　寸法
 62
     0
370
    -2
100
AcDbLine
 10
2657.372132629574
 20
2078.023895679677
 30
0.0
 11
3025.671625015361
 21
2078.023895679677
 31
0.0
  0
MTEXT
  5
CEB6
330
CE3C
100
AcDbEntity
  8
2　寸法
 62
     0
100
AcDbMText
 10
2841.521878822468
 20
2119.292931212672
 30
0.0
 40
45.0
 41
0.0
 71
     5
 72
     1
  1
46以上(*:36）
 73
     1
 44
1.0
  0
LINE
  5
CEB7
330
CE3C
100
AcDbEntity
  8
2　寸法
 62
     0
370
    -2
100
AcDbLine
 10
2579.288079342942
 20
2201.577067846016
 30
0.0
 11
2625.288079342935
 21
2201.577067846016
 31
0.0
  0
LINE
  5
CEB8
330
CE3C
100
AcDbEntity
  8
2　寸法
 62
     0
370
    -2
100
AcDbLine
 10
2579.288079342942
 20
2201.577067846016
 30
0.0
 11
2625.288079342935
 21
2201.577067846016
 31
0.0
  0
INSERT
  5
CEB9
330
CE3C
100
AcDbEntity
  8
2　寸法
 62
     0
370
    -2
100
AcDbBlockReference
  2
_Open
 10
2579.288079342942
 20
2201.577067846016
 30
0.0
 41
45.0
 42
45.0
 43
45.0
  0
INSERT
  5
CEBA
330
CE3C
100
AcDbEntity
  8
2　寸法
 62
     0
370
    -2
100
AcDbBlockReference
  2
_Open
 10
2625.288079342935
 20
2201.577067846016
 30
0.0
 41
45.0
 42
45.0
 43
45.0
 50
180.0
  0
POINT
  5
CEBB
330
CE3C
100
AcDbEntity
  8
Defpoints
 62
     0
100
AcDbPoint
 10
2579.288079342942
 20
2428.553312001874
 30
0.0
  0
POINT
  5
CEBC
330
CE3C
100
AcDbEntity
  8
Defpoints
 62
     0
100
AcDbPoint
 10
2625.288079342935
 20
2428.553312001885
 30
0.0
  0
POINT
  5
CEBD
330
CE3C
100
AcDbEntity
  8
Defpoints
 62
     0
100
AcDbPoint
 10
2625.288079342935
 20
2201.577067846016
 30
0.0
  0
ENDBLK
  5
CE3E
330
CE3C
100
AcDbEntity
  8
0
100
AcDbBlockEnd
  0
ENDSEC
  0
SECTION
  2
ENTITIES
  0
TEXT
  5
D43
330
1F
100
AcDbEntity
  8
4　注記
100
AcDbText
 10
210.2343249531853
 20
3113.932530533866
 30
0.0
 40
45.0
  1

 72
     2
 11
210.2343249531853
 21
3136.432530533866
 31
0.0
100
AcDbText
 73
     2
  0
LINE
  5
C4E4
330
1F
100
AcDbEntity
  8
1　製品
 48
15.0
100
AcDbLine
 10
4887.288079342931
 20
1627.379819788134
 30
0.0
 11
4129.288079342931
 21
1627.379819788134
 31
0.0
  0
LINE
  5
C4E5
330
1F
100
AcDbEntity
  8
1　製品
  6
HIDDEN
 48
10.0
100
AcDbLine
 10
4884.588079342927
 20
1626.179819788135
 30
0.0
 11
4131.988079342928
 21
1626.179819788135
 31
0.0
  0
LINE
  5
C4E6
330
1F
100
AcDbEntity
  8
1　製品
  6
HIDDEN
 48
10.0
100
AcDbLine
 10
4765.788079342931
 20
1588.579819788135
 30
0.0
 11
4250.788079342931
 21
1588.579819788135
 31
0.0
  0
LINE
  5
C4E7
330
1F
100
AcDbEntity
  8
1　製品
 48
15.0
100
AcDbLine
 10
4765.788079342931
 20
1587.379819788134
 30
0.0
 11
4250.788079342931
 21
1587.379819788134
 31
0.0
  0
LINE
  5
C4E8
330
1F
100
AcDbEntity
  8
1　製品
 48
15.0
100
AcDbLine
 10
4845.788079342931
 20
1197.379819788136
 30
0.0
 11
4170.788079342931
 21
1197.379819788136
 31
0.0
  0
LINE
  5
C4E9
330
1F
100
AcDbEntity
  8
1　製品
 48
15.0
100
AcDbLine
 10
4887.288079342935
 20
1128.579819788135
 30
0.0
 11
4129.288079342931
 21
1128.579819788135
 31
0.0
  0
LINE
  5
C4EA
330
1F
100
AcDbEntity
  8
1　製品
 48
15.0
100
AcDbLine
 10
4885.788079342931
 20
1127.379819788134
 30
0.0
 11
4130.788079342931
 21
1127.379819788134
 31
0.0
  0
LINE
  5
C4EC
330
1F
100
AcDbEntity
  8
1　製品
100
AcDbLine
 10
1838.688079342933
 20
1587.379819788134
 30
0.0
 11
2414.288079342909
 21
1587.379819788156
 31
0.0
  0
LINE
  5
C4ED
330
1F
100
AcDbEntity
  8
1　製品
100
AcDbLine
 10
1718.788079342931
 20
1627.379819788138
 30
0.0
 11
2535.788079342931
 21
1627.379819788138
 31
0.0
  0
LINE
  5
C4EE
330
1F
100
AcDbEntity
  8
1　製品
  6
HIDDEN
 48
10.0
100
AcDbLine
 10
1721.488079342936
 20
1626.179819788137
 30
0.0
 11
2533.088079342934
 21
1626.179819788137
 31
0.0
  0
LINE
  5
C4EF
330
1F
100
AcDbEntity
  8
1　製品
  6
HIDDEN
 48
10.0
100
AcDbLine
 10
1838.688079342933
 20
1588.579819788135
 30
0.0
 11
2414.288079342909
 21
1588.579819788157
 31
0.0
  0
LINE
  5
C4F0
330
1F
100
AcDbEntity
  8
1　製品
100
AcDbLine
 10
1760.288079342935
 20
1507.379819788134
 30
0.0
 11
1760.288079342935
 21
1128.579819788139
 31
0.0
  0
LINE
  5
C4F1
330
1F
100
AcDbEntity
  8
1　製品
100
AcDbLine
 10
1718.788079342931
 20
1627.379819788138
 30
0.0
 11
1718.788079342931
 21
1128.579819788135
 31
0.0
  0
LINE
  5
C4F3
330
1F
100
AcDbEntity
  8
1　製品
  6
HIDDEN
 48
10.0
100
AcDbLine
 10
1720.288079342935
 20
1627.379819788138
 30
0.0
 11
1720.288079342935
 21
1128.579819788139
 31
0.0
  0
LINE
  5
C4F4
330
1F
100
AcDbEntity
  8
1　製品
  6
HIDDEN
 48
10.0
100
AcDbLine
 10
1720.288079342935
 20
1197.379819788138
 30
0.0
 11
1760.288079342935
 21
1197.379819788138
 31
0.0
  0
LINE
  5
C4F5
330
1F
100
AcDbEntity
  8
1　製品
100
AcDbLine
 10
1675.288079342931
 20
1128.579819788135
 30
0.0
 11
1760.288079342935
 21
1128.579819788139
 31
0.0
  0
CIRCLE
  5
C4F6
330
1F
100
AcDbEntity
  8
1　製品
 48
15.0
100
AcDbCircle
 10
1740.288079342935
 20
1182.379819788134
 30
0.0
 40
3.0
  0
LINE
  5
C4F7
330
1F
100
AcDbEntity
  8
1　製品
100
AcDbLine
 10
1736.788079342935
 20
1184.879819788134
 30
0.0
 11
1736.788079342935
 21
1179.879819788138
 31
0.0
  0
LINE
  5
C4F8
330
1F
100
AcDbEntity
  8
1　製品
100
AcDbLine
 10
1743.788079342935
 20
1184.879819788134
 30
0.0
 11
1743.788079342935
 21
1179.879819788138
 31
0.0
  0
LINE
  5
C4F9
330
1F
100
AcDbEntity
  8
1　製品
100
AcDbLine
 10
1736.788079342935
 20
1184.879819788134
 30
0.0
 11
1736.788079342935
 21
1179.879819788138
 31
0.0
  0
LINE
  5
C4FA
330
1F
100
AcDbEntity
  8
1　製品
  6
CENTER
100
AcDbLine
 10
1740.288079342935
 20
1191.879819788134
 30
0.0
 11
1740.288079342935
 21
1172.879819788138
 31
0.0
  0
LINE
  5
C4FB
330
1F
100
AcDbEntity
  8
1　製品
  6
HIDDEN
 48
10.0
100
AcDbLine
 10
1721.488079342936
 20
1197.379819788138
 30
0.0
 11
1721.488079342936
 21
1128.579819788139
 31
0.0
  0
LINE
  5
C4FC
330
1F
100
AcDbEntity
  8
1　製品
100
AcDbLine
 10
1675.288079342931
 20
1127.379819788138
 30
0.0
 11
1721.488079342936
 21
1127.379819788138
 31
0.0
  0
LINE
  5
C4FD
330
1F
100
AcDbEntity
  8
1　製品
 48
5.0
100
AcDbLine
 10
1675.288079342931
 20
1128.579819788135
 30
0.0
 11
1675.288079342931
 21
1127.379819788138
 31
0.0
  0
LINE
  5
C4FE
330
1F
100
AcDbEntity
  8
1　製品
  6
CENTER
100
AcDbLine
 10
1733.288079342935
 20
1182.379819788138
 30
0.0
 11
1747.288079342935
 21
1182.379819788138
 31
0.0
  0
CIRCLE
  5
C4FF
330
1F
100
AcDbEntity
  8
1　製品
 48
15.0
100
AcDbCircle
 10
1740.288079342935
 20
1142.379819788138
 30
0.0
 40
3.0
  0
LINE
  5
C500
330
1F
100
AcDbEntity
  8
1　製品
100
AcDbLine
 10
1736.788079342935
 20
1144.879819788138
 30
0.0
 11
1736.788079342935
 21
1139.879819788138
 31
0.0
  0
LINE
  5
C501
330
1F
100
AcDbEntity
  8
1　製品
100
AcDbLine
 10
1743.788079342935
 20
1144.879819788138
 30
0.0
 11
1743.788079342935
 21
1139.879819788138
 31
0.0
  0
LINE
  5
C502
330
1F
100
AcDbEntity
  8
1　製品
100
AcDbLine
 10
1736.788079342935
 20
1144.879819788138
 30
0.0
 11
1736.788079342935
 21
1139.879819788138
 31
0.0
  0
ARC
  5
C503
330
1F
100
AcDbEntity
  8
1　製品
 48
15.0
100
AcDbCircle
 10
1740.288079342935
 20
1144.879819788138
 30
0.0
 40
3.50000000000024
100
AcDbArc
 50
0.0
 51
180.0
  0
ARC
  5
C504
330
1F
100
AcDbEntity
  8
1　製品
 48
15.0
100
AcDbCircle
 10
1740.288079342931
 20
1139.879819788138
 30
0.0
 40
3.49999999999967
100
AcDbArc
 50
180.0
 51
0.0
  0
LINE
  5
C505
330
1F
100
AcDbEntity
  8
1　製品
  6
CENTER
100
AcDbLine
 10
1740.288079342935
 20
1151.879819788138
 30
0.0
 11
1740.288079342935
 21
1132.879819788138
 31
0.0
  0
LINE
  5
C506
330
1F
100
AcDbEntity
  8
1　製品
 48
15.0
100
AcDbLine
 10
1721.488079342936
 20
1128.579819788135
 30
0.0
 11
1721.488079342936
 21
1127.379819788138
 31
0.0
  0
LINE
  5
C507
330
1F
100
AcDbEntity
  8
1　製品
  6
CENTER
100
AcDbLine
 10
1733.288079342935
 20
1142.379819788138
 30
0.0
 11
1747.288079342935
 21
1142.379819788138
 31
0.0
  0
ARC
  5
C508
330
1F
100
AcDbEntity
  8
1　製品
 48
15.0
100
AcDbCircle
 10
1740.288079342931
 20
1179.879819788138
 30
0.0
 40
3.49999999999967
100
AcDbArc
 50
180.0
 51
0.0
  0
ARC
  5
C509
330
1F
100
AcDbEntity
  8
1　製品
 48
15.0
100
AcDbCircle
 10
1740.288079342935
 20
1184.879819788134
 30
0.0
 40
3.50000000000024
100
AcDbArc
 50
0.0
 51
180.0
  0
LINE
  5
C50A
330
1F
100
AcDbEntity
  8
1　製品
 48
15.0
100
AcDbLine
 10
1840.288079342935
 20
1587.379819788134
 30
0.0
 11
1760.288079342939
 21
1507.379819788134
 31
0.0
  0
LINE
  5
C50B
330
1F
100
AcDbEntity
  8
1　製品
  6
CENTER
100
AcDbLine
 10
1774.788079343433
 20
1607.379819788152
 30
0.0
 11
1755.788079343433
 21
1607.379819788152
 31
0.0
  0
LINE
  5
C50C
330
1F
100
AcDbEntity
  8
1　製品
  6
HIDDEN
 48
10.0
100
AcDbLine
 10
1838.688079342933
 20
1587.379819788134
 30
0.0
 11
1720.288079342935
 21
1587.379819788138
 31
0.0
  0
LINE
  5
C50D
330
1F
100
AcDbEntity
  8
1　製品
  6
HIDDEN
 48
10.0
100
AcDbLine
 10
1838.688079342933
 20
1588.579819788135
 30
0.0
 11
1720.288079342935
 21
1588.579819788135
 31
0.0
  0
LINE
  5
C50E
330
1F
100
AcDbEntity
  8
1　製品
  6
HIDDEN
 48
10.0
100
AcDbLine
 10
1721.488079342936
 20
1626.179819788137
 30
0.0
 11
1721.488079342936
 21
1587.379819788138
 31
0.0
  0
LINE
  5
C50F
330
1F
100
AcDbEntity
  8
1　製品
 48
15.0
100
AcDbLine
 10
1840.288079342935
 20
1627.379819788138
 30
0.0
 11
1840.288079342935
 21
1587.379819788138
 31
0.0
  0
LINE
  5
C510
330
1F
100
AcDbEntity
  8
1　製品
100
AcDbLine
 10
1767.788079343433
 20
1610.879819788152
 30
0.0
 11
1762.788079343433
 21
1610.879819788152
 31
0.0
  0
LINE
  5
C511
330
1F
100
AcDbEntity
  8
1　製品
100
AcDbLine
 10
1767.788079343433
 20
1610.879819788152
 30
0.0
 11
1762.788079343433
 21
1610.879819788152
 31
0.0
  0
LINE
  5
C512
330
1F
100
AcDbEntity
  8
1　製品
100
AcDbLine
 10
1767.788079343433
 20
1603.879819788152
 30
0.0
 11
1762.788079343433
 21
1603.879819788152
 31
0.0
  0
CIRCLE
  5
C513
330
1F
100
AcDbEntity
  8
1　製品
 48
15.0
100
AcDbCircle
 10
1765.288079343433
 20
1607.379819788152
 30
0.0
 40
3.0
  0
ARC
  5
C514
330
1F
100
AcDbEntity
  8
1　製品
 48
15.0
100
AcDbCircle
 10
1767.788079343433
 20
1607.379819788152
 30
0.0
 40
3.50000000000024
100
AcDbArc
 50
270.0
 51
90.0
  0
LINE
  5
C515
330
1F
100
AcDbEntity
  8
1　製品
  6
CENTER
100
AcDbLine
 10
1765.288079343433
 20
1614.379819788152
 30
0.0
 11
1765.288079343433
 21
1600.379819788152
 31
0.0
  0
ARC
  5
C516
330
1F
100
AcDbEntity
  8
1　製品
 48
15.0
100
AcDbCircle
 10
1762.788079343433
 20
1607.379819788152
 30
0.0
 40
3.49999999999967
100
AcDbArc
 50
90.0
 51
270.0
  0
LINE
  5
C517
330
1F
100
AcDbEntity
  8
1　製品
100
AcDbLine
 10
1827.788079343433
 20
1610.879819788149
 30
0.0
 11
1822.788079343433
 21
1610.879819788149
 31
0.0
  0
LINE
  5
C518
330
1F
100
AcDbEntity
  8
1　製品
100
AcDbLine
 10
1827.788079343433
 20
1610.879819788149
 30
0.0
 11
1822.788079343433
 21
1610.879819788149
 31
0.0
  0
LINE
  5
C519
330
1F
100
AcDbEntity
  8
1　製品
100
AcDbLine
 10
1827.788079343433
 20
1603.879819788149
 30
0.0
 11
1822.788079343433
 21
1603.879819788149
 31
0.0
  0
LINE
  5
C51A
330
1F
100
AcDbEntity
  8
1　製品
  6
CENTER
100
AcDbLine
 10
1834.788079343433
 20
1607.379819788149
 30
0.0
 11
1815.788079343433
 21
1607.379819788149
 31
0.0
  0
ARC
  5
C51B
330
1F
100
AcDbEntity
  8
1　製品
 48
15.0
100
AcDbCircle
 10
1827.788079343433
 20
1607.379819788149
 30
0.0
 40
3.50000000000024
100
AcDbArc
 50
270.0
 51
90.0
  0
LINE
  5
C51C
330
1F
100
AcDbEntity
  8
1　製品
  6
CENTER
100
AcDbLine
 10
1825.288079343433
 20
1614.379819788149
 30
0.0
 11
1825.288079343433
 21
1600.379819788149
 31
0.0
  0
CIRCLE
  5
C51D
330
1F
100
AcDbEntity
  8
1　製品
 48
15.0
100
AcDbCircle
 10
1825.288079343433
 20
1607.379819788152
 30
0.0
 40
3.0
  0
ARC
  5
C51E
330
1F
100
AcDbEntity
  8
1　製品
 48
15.0
100
AcDbCircle
 10
1822.788079343433
 20
1607.379819788149
 30
0.0
 40
3.49999999999967
100
AcDbArc
 50
90.0
 51
270.0
  0
LINE
  5
C51F
330
1F
100
AcDbEntity
  8
1　製品
100
AcDbLine
 10
2579.288079342931
 20
1127.379819788134
 30
0.0
 11
2533.088079342927
 21
1127.379819788134
 31
0.0
  0
LINE
  5
C520
330
1F
100
AcDbEntity
  8
1　製品
100
AcDbLine
 10
2579.288079342931
 20
1128.579819788135
 30
0.0
 11
2494.288079342931
 21
1128.579819788139
 31
0.0
  0
LINE
  5
C521
330
1F
100
AcDbEntity
  8
1　製品
100
AcDbLine
 10
2494.288079342931
 20
1507.379819788156
 30
0.0
 11
2494.288079342931
 21
1128.579819788139
 31
0.0
  0
LINE
  5
C522
330
1F
100
AcDbEntity
  8
1　製品
100
AcDbLine
 10
2535.788079342931
 20
1627.379819788138
 30
0.0
 11
2535.788079342931
 21
1128.579819788139
 31
0.0
  0
LINE
  5
C523
330
1F
100
AcDbEntity
  8
1　製品
  6
HIDDEN
 48
10.0
100
AcDbLine
 10
2534.288079342931
 20
1627.379819788138
 30
0.0
 11
2534.288079342931
 21
1128.579819788139
 31
0.0
  0
CIRCLE
  5
C524
330
1F
100
AcDbEntity
  8
1　製品
 48
15.0
100
AcDbCircle
 10
2514.288079342931
 20
1182.379819788138
 30
0.0
 40
3.0
  0
LINE
  5
C525
330
1F
100
AcDbEntity
  8
1　製品
100
AcDbLine
 10
2510.788079342931
 20
1184.879819788138
 30
0.0
 11
2510.788079342931
 21
1179.879819788138
 31
0.0
  0
LINE
  5
C526
330
1F
100
AcDbEntity
  8
1　製品
100
AcDbLine
 10
2517.788079342931
 20
1184.879819788138
 30
0.0
 11
2517.788079342931
 21
1179.879819788138
 31
0.0
  0
LINE
  5
C527
330
1F
100
AcDbEntity
  8
1　製品
100
AcDbLine
 10
2517.788079342931
 20
1184.879819788138
 30
0.0
 11
2517.788079342931
 21
1179.879819788138
 31
0.0
  0
LINE
  5
C528
330
1F
100
AcDbEntity
  8
1　製品
  6
CENTER
100
AcDbLine
 10
2514.288079342931
 20
1191.879819788138
 30
0.0
 11
2514.288079342931
 21
1172.879819788138
 31
0.0
  0
LINE
  5
C529
330
1F
100
AcDbEntity
  8
1　製品
  6
HIDDEN
 48
10.0
100
AcDbLine
 10
2533.088079342934
 20
1197.379819788076
 30
0.0
 11
2533.088079342931
 21
1128.579819788139
 31
0.0
  0
LINE
  5
C52A
330
1F
100
AcDbEntity
  8
1　製品
  6
CENTER
100
AcDbLine
 10
2521.288079342931
 20
1182.379819788138
 30
0.0
 11
2507.288079342931
 21
1182.379819788138
 31
0.0
  0
ARC
  5
C52B
330
1F
100
AcDbEntity
  8
1　製品
 48
15.0
100
AcDbCircle
 10
2514.288079342931
 20
1144.879819788138
 30
0.0
 40
3.50000000000024
100
AcDbArc
 50
0.0
 51
180.0
  0
CIRCLE
  5
C52C
330
1F
100
AcDbEntity
  8
1　製品
 48
15.0
100
AcDbCircle
 10
2514.288079342931
 20
1142.379819788138
 30
0.0
 40
3.0
  0
ARC
  5
C52D
330
1F
100
AcDbEntity
  8
1　製品
 48
15.0
100
AcDbCircle
 10
2514.288079342931
 20
1139.879819788138
 30
0.0
 40
3.49999999999967
100
AcDbArc
 50
180.0
 51
0.0
  0
LINE
  5
C52E
330
1F
100
AcDbEntity
  8
1　製品
  6
CENTER
100
AcDbLine
 10
2521.288079342931
 20
1142.379819788138
 30
0.0
 11
2507.288079342931
 21
1142.379819788138
 31
0.0
  0
ARC
  5
C52F
330
1F
100
AcDbEntity
  8
1　製品
 48
15.0
100
AcDbCircle
 10
2514.288079342931
 20
1179.879819788138
 30
0.0
 40
3.49999999999967
100
AcDbArc
 50
180.0
 51
0.0
  0
LINE
  5
C530
330
1F
100
AcDbEntity
  8
1　製品
100
AcDbLine
 10
2510.788079342931
 20
1144.879819788138
 30
0.0
 11
2510.788079342931
 21
1139.879819788138
 31
0.0
  0
LINE
  5
C531
330
1F
100
AcDbEntity
  8
1　製品
 48
15.0
100
AcDbLine
 10
2533.088079342931
 20
1128.579819788139
 30
0.0
 11
2533.088079342931
 21
1127.379819788134
 31
0.0
  0
LINE
  5
C532
330
1F
100
AcDbEntity
  8
1　製品
100
AcDbLine
 10
2517.788079342931
 20
1144.879819788138
 30
0.0
 11
2517.788079342931
 21
1139.879819788138
 31
0.0
  0
LINE
  5
C533
330
1F
100
AcDbEntity
  8
1　製品
100
AcDbLine
 10
2517.788079342931
 20
1144.879819788138
 30
0.0
 11
2517.788079342931
 21
1139.879819788138
 31
0.0
  0
LINE
  5
C534
330
1F
100
AcDbEntity
  8
1　製品
  6
CENTER
100
AcDbLine
 10
2514.288079342931
 20
1151.879819788138
 30
0.0
 11
2514.288079342931
 21
1132.879819788138
 31
0.0
  0
LINE
  5
C535
330
1F
100
AcDbEntity
  8
1　製品
  6
HIDDEN
 48
10.0
100
AcDbLine
 10
2534.288079342931
 20
1197.379819788076
 30
0.0
 11
2494.288079342931
 21
1197.379819788076
 31
0.0
  0
ARC
  5
C536
330
1F
100
AcDbEntity
  8
1　製品
 48
15.0
100
AcDbCircle
 10
2514.288079342931
 20
1184.879819788138
 30
0.0
 40
3.50000000000024
100
AcDbArc
 50
0.0
 51
180.0
  0
LINE
  5
C537
330
1F
100
AcDbEntity
  8
1　製品
 48
15.0
100
AcDbLine
 10
2414.288079342909
 20
1587.379819788163
 30
0.0
 11
2494.288079342917
 21
1507.379819788174
 31
0.0
  0
LINE
  5
C538
330
1F
100
AcDbEntity
  8
1　製品
  6
HIDDEN
 48
10.0
100
AcDbLine
 10
2414.288079342909
 20
1587.379819788156
 30
0.0
 11
2534.288079342931
 21
1587.379819788138
 31
0.0
  0
LINE
  5
C539
330
1F
100
AcDbEntity
  8
1　製品
  6
HIDDEN
 48
10.0
100
AcDbLine
 10
2414.288079342909
 20
1588.579819788157
 30
0.0
 11
2534.288079342931
 21
1588.579819788135
 31
0.0
  0
LINE
  5
C53A
330
1F
100
AcDbEntity
  8
1　製品
 48
15.0
100
AcDbLine
 10
2414.288079342909
 20
1627.379819788138
 30
0.0
 11
2414.288079342909
 21
1587.379819788138
 31
0.0
  0
LINE
  5
C53B
330
1F
100
AcDbEntity
  8
1　製品
  6
CENTER
100
AcDbLine
 10
2481.388079342937
 20
1607.379819788152
 30
0.0
 11
2500.388079342937
 21
1607.379819788152
 31
0.0
  0
LINE
  5
C53C
330
1F
100
AcDbEntity
  8
1　製品
100
AcDbLine
 10
2426.78807934331
 20
1610.879819788152
 30
0.0
 11
2431.78807934331
 21
1610.879819788152
 31
0.0
  0
LINE
  5
C53D
330
1F
100
AcDbEntity
  8
1　製品
100
AcDbLine
 10
2426.78807934331
 20
1603.879819788152
 30
0.0
 11
2431.78807934331
 21
1603.879819788152
 31
0.0
  0
CIRCLE
  5
C53E
330
1F
100
AcDbEntity
  8
1　製品
 48
15.0
100
AcDbCircle
 10
2429.28807934331
 20
1607.379819788152
 30
0.0
 40
3.0
  0
ARC
  5
C53F
330
1F
100
AcDbEntity
  8
1　製品
 48
15.0
100
AcDbCircle
 10
2426.78807934331
 20
1607.379819788152
 30
0.0
 40
3.50000000000024
100
AcDbArc
 50
90.0
 51
270.0
  0
ARC
  5
C540
330
1F
100
AcDbEntity
  8
1　製品
 48
15.0
100
AcDbCircle
 10
2431.78807934331
 20
1607.379819788152
 30
0.0
 40
3.49999999999967
100
AcDbArc
 50
270.0
 51
90.0
  0
LINE
  5
C541
330
1F
100
AcDbEntity
  8
1　製品
  6
CENTER
100
AcDbLine
 10
2429.28807934331
 20
1614.379819788152
 30
0.0
 11
2429.28807934331
 21
1600.379819788152
 31
0.0
  0
LINE
  5
C542
330
1F
100
AcDbEntity
  8
1　製品
  6
CENTER
100
AcDbLine
 10
2419.78807934331
 20
1607.379819788152
 30
0.0
 11
2438.78807934331
 21
1607.379819788152
 31
0.0
  0
LINE
  5
C543
330
1F
100
AcDbEntity
  8
1　製品
100
AcDbLine
 10
2486.78807934331
 20
1610.879819788156
 30
0.0
 11
2491.78807934331
 21
1610.879819788156
 31
0.0
  0
LINE
  5
C544
330
1F
100
AcDbEntity
  8
1　製品
100
AcDbLine
 10
2486.78807934331
 20
1603.879819788156
 30
0.0
 11
2491.78807934331
 21
1603.879819788156
 31
0.0
  0
ARC
  5
C545
330
1F
100
AcDbEntity
  8
1　製品
 48
15.0
100
AcDbCircle
 10
2486.78807934331
 20
1607.379819788156
 30
0.0
 40
3.50000000000024
100
AcDbArc
 50
90.0
 51
270.0
  0
CIRCLE
  5
C546
330
1F
100
AcDbEntity
  8
1　製品
 48
15.0
100
AcDbCircle
 10
2489.28807934331
 20
1607.379819788152
 30
0.0
 40
3.0
  0
ARC
  5
C547
330
1F
100
AcDbEntity
  8
1　製品
 48
15.0
100
AcDbCircle
 10
2491.78807934331
 20
1607.379819788156
 30
0.0
 40
3.49999999999967
100
AcDbArc
 50
270.0
 51
90.0
  0
LINE
  5
C548
330
1F
100
AcDbEntity
  8
1　製品
  6
CENTER
100
AcDbLine
 10
2489.28807934331
 20
1614.379819788156
 30
0.0
 11
2489.28807934331
 21
1600.379819788156
 31
0.0
  0
LINE
  5
C549
330
1F
100
AcDbEntity
  8
1　製品
  6
HIDDEN
 48
10.0
100
AcDbLine
 10
2533.088079342934
 20
1626.179819788137
 30
0.0
 11
2533.088079342934
 21
1587.379819788138
 31
0.0
  0
LINE
  5
C54A
330
1F
100
AcDbEntity
  8
1　製品
 48
15.0
100
AcDbLine
 10
4129.288079342931
 20
1627.379819788134
 30
0.0
 11
4129.288079342931
 21
1128.579819788135
 31
0.0
  0
LINE
  5
C54B
330
1F
100
AcDbEntity
  8
1　製品
  6
HIDDEN
 48
10.0
100
AcDbLine
 10
4130.788079342931
 20
1627.379819788134
 30
0.0
 11
4130.788079342931
 21
1127.379819788134
 31
0.0
  0
LINE
  5
C54C
330
1F
100
AcDbEntity
  8
1　製品
100
AcDbLine
 10
4170.788079342931
 20
1507.379819788129
 30
0.0
 11
4170.788079342931
 21
1128.579819788135
 31
0.0
  0
LINE
  5
C54D
330
1F
100
AcDbEntity
  8
1　製品
  6
HIDDEN
 48
10.0
100
AcDbLine
 10
4170.788079342931
 20
1197.379819788136
 30
0.0
 11
4130.788079342931
 21
1197.379819788136
 31
0.0
  0
LINE
  5
C54E
330
1F
100
AcDbEntity
  8
1　製品
  6
CENTER
100
AcDbLine
 10
4157.779305567044
 20
1182.379819788134
 30
0.0
 11
4143.779305567044
 21
1182.379819788134
 31
0.0
  0
LINE
  5
C54F
330
1F
100
AcDbEntity
  8
1　製品
  6
CENTER
100
AcDbLine
 10
4157.779305567044
 20
1142.379819788149
 30
0.0
 11
4143.779305567044
 21
1142.379819788149
 31
0.0
  0
LINE
  5
C550
330
1F
100
AcDbEntity
  8
1　製品
 48
5.0
100
AcDbLine
 10
2579.288079342931
 20
1128.579819788135
 30
0.0
 11
2579.288079342931
 21
1127.379819788134
 31
0.0
  0
CIRCLE
  5
C551
330
1F
100
AcDbEntity
  8
1　製品
 48
15.0
100
AcDbCircle
 10
4150.779305567044
 20
1182.379819788134
 30
0.0
 40
3.0
  0
LINE
  5
C552
330
1F
100
AcDbEntity
  8
1　製品
100
AcDbLine
 10
4147.279305567044
 20
1184.879819788134
 30
0.0
 11
4147.279305567044
 21
1179.879819788134
 31
0.0
  0
LINE
  5
C553
330
1F
100
AcDbEntity
  8
1　製品
100
AcDbLine
 10
4154.279305567044
 20
1184.879819788134
 30
0.0
 11
4154.279305567044
 21
1179.879819788134
 31
0.0
  0
LINE
  5
C554
330
1F
100
AcDbEntity
  8
1　製品
100
AcDbLine
 10
4154.279305567044
 20
1184.879819788134
 30
0.0
 11
4154.279305567044
 21
1179.879819788134
 31
0.0
  0
LINE
  5
C555
330
1F
100
AcDbEntity
  8
1　製品
  6
HIDDEN
 48
10.0
100
AcDbLine
 10
4131.988079342928
 20
1197.379819788134
 30
0.0
 11
4131.988079342928
 21
1128.579819788135
 31
0.0
  0
LINE
  5
C556
330
1F
100
AcDbEntity
  8
1　製品
  6
CENTER
100
AcDbLine
 10
4150.779305567044
 20
1191.879819788134
 30
0.0
 11
4150.779305567044
 21
1172.879819788134
 31
0.0
  0
ARC
  5
C557
330
1F
100
AcDbEntity
  8
1　製品
 48
15.0
100
AcDbCircle
 10
4150.779305567044
 20
1179.879819788134
 30
0.0
 40
3.49999999999967
100
AcDbArc
 50
180.0
 51
0.0
  0
LINE
  5
C558
330
1F
100
AcDbEntity
  8
1　製品
100
AcDbLine
 10
4147.279305567044
 20
1144.879819788149
 30
0.0
 11
4147.279305567044
 21
1139.879819788149
 31
0.0
  0
ARC
  5
C559
330
1F
100
AcDbEntity
  8
1　製品
 48
15.0
100
AcDbCircle
 10
4150.779305567044
 20
1139.879819788149
 30
0.0
 40
3.49999999999967
100
AcDbArc
 50
180.0
 51
0.0
  0
CIRCLE
  5
C55A
330
1F
100
AcDbEntity
  8
1　製品
 48
15.0
100
AcDbCircle
 10
4150.779305567044
 20
1142.379819788149
 30
0.0
 40
3.0
  0
LINE
  5
C55B
330
1F
100
AcDbEntity
  8
1　製品
  6
CENTER
100
AcDbLine
 10
4150.779305567044
 20
1151.879819788149
 30
0.0
 11
4150.779305567044
 21
1132.879819788149
 31
0.0
  0
ARC
  5
C55C
330
1F
100
AcDbEntity
  8
1　製品
 48
15.0
100
AcDbCircle
 10
4150.779305567044
 20
1144.879819788149
 30
0.0
 40
3.50000000000024
100
AcDbArc
 50
0.0
 51
180.0
  0
LINE
  5
C55D
330
1F
100
AcDbEntity
  8
1　製品
100
AcDbLine
 10
4154.279305567044
 20
1144.879819788149
 30
0.0
 11
4154.279305567044
 21
1139.879819788149
 31
0.0
  0
LINE
  5
C55E
330
1F
100
AcDbEntity
  8
1　製品
100
AcDbLine
 10
4154.279305567044
 20
1144.879819788149
 30
0.0
 11
4154.279305567044
 21
1139.879819788149
 31
0.0
  0
ARC
  5
C55F
330
1F
100
AcDbEntity
  8
1　製品
 48
15.0
100
AcDbCircle
 10
4150.779305567044
 20
1184.879819788134
 30
0.0
 40
3.50000000000024
100
AcDbArc
 50
0.0
 51
180.0
  0
LINE
  5
C560
330
1F
100
AcDbEntity
  8
1　製品
  6
HIDDEN
 48
10.0
100
AcDbLine
 10
4250.788079342931
 20
1588.579819788135
 30
0.0
 11
4130.788079342931
 21
1588.579819788135
 31
0.0
  0
LINE
  5
C561
330
1F
100
AcDbEntity
  8
1　製品
  6
HIDDEN
 48
10.0
100
AcDbLine
 10
4250.788079342931
 20
1587.379819788134
 30
0.0
 11
4130.788079342931
 21
1587.379819788134
 31
0.0
  0
LINE
  5
C562
330
1F
100
AcDbEntity
  8
1　製品
  6
HIDDEN
 48
10.0
100
AcDbLine
 10
4131.988079342928
 20
1626.179819788135
 30
0.0
 11
4131.988079342928
 21
1587.379819788134
 31
0.0
  0
LINE
  5
C563
330
1F
100
AcDbEntity
  8
1　製品
 48
15.0
100
AcDbLine
 10
4250.788079342931
 20
1587.379819788132
 30
0.0
 11
4170.788079342931
 21
1507.379819788132
 31
0.0
  0
LINE
  5
C564
330
1F
100
AcDbEntity
  8
1　製品
  6
CENTER
100
AcDbLine
 10
4245.288079342517
 20
1607.379819787985
 30
0.0
 11
4226.288079342517
 21
1607.379819787985
 31
0.0
  0
ARC
  5
C565
330
1F
100
AcDbEntity
  8
1　製品
 48
15.0
100
AcDbCircle
 10
4238.288079342517
 20
1607.379819787987
 30
0.0
 40
3.50000000000024
100
AcDbArc
 50
270.0
 51
90.0
  0
LINE
  5
C566
330
1F
100
AcDbEntity
  8
1　製品
  6
CENTER
100
AcDbLine
 10
4185.288079342931
 20
1607.379819788134
 30
0.0
 11
4166.288079342931
 21
1607.379819788134
 31
0.0
  0
ARC
  5
C567
330
1F
100
AcDbEntity
  8
1　製品
 48
15.0
100
AcDbCircle
 10
4178.288079342517
 20
1607.379819787894
 30
0.0
 40
3.50000000000024
100
AcDbArc
 50
270.0
 51
90.0
  0
CIRCLE
  5
C568
330
1F
100
AcDbEntity
  8
1　製品
 48
15.0
100
AcDbCircle
 10
4175.788079342517
 20
1607.379819787985
 30
0.0
 40
3.0
  0
LINE
  5
C569
330
1F
100
AcDbEntity
  8
1　製品
100
AcDbLine
 10
4178.288079342517
 20
1610.879819787894
 30
0.0
 11
4173.288079342517
 21
1610.879819787894
 31
0.0
  0
LINE
  5
C56A
330
1F
100
AcDbEntity
  8
1　製品
100
AcDbLine
 10
4178.288079342517
 20
1603.879819787894
 30
0.0
 11
4173.288079342517
 21
1603.879819787894
 31
0.0
  0
ARC
  5
C56B
330
1F
100
AcDbEntity
  8
1　製品
 48
15.0
100
AcDbCircle
 10
4173.288079342517
 20
1607.379819787894
 30
0.0
 40
3.49999999999967
100
AcDbArc
 50
90.0
 51
270.0
  0
LINE
  5
C56C
330
1F
100
AcDbEntity
  8
1　製品
  6
CENTER
100
AcDbLine
 10
4175.788079342517
 20
1614.379819787894
 30
0.0
 11
4175.788079342517
 21
1600.379819787894
 31
0.0
  0
CIRCLE
  5
C56D
330
1F
100
AcDbEntity
  8
1　製品
 48
15.0
100
AcDbCircle
 10
4235.788079342517
 20
1607.379819787985
 30
0.0
 40
3.0
  0
LINE
  5
C56E
330
1F
100
AcDbEntity
  8
1　製品
100
AcDbLine
 10
4238.288079342517
 20
1610.879819787985
 30
0.0
 11
4233.288079342517
 21
1610.879819787985
 31
0.0
  0
ARC
  5
C56F
330
1F
100
AcDbEntity
  8
1　製品
 48
15.0
100
AcDbCircle
 10
4233.288079342517
 20
1607.379819787987
 30
0.0
 40
3.49999999999967
100
AcDbArc
 50
90.0
 51
270.0
  0
LINE
  5
C570
330
1F
100
AcDbEntity
  8
1　製品
  6
CENTER
100
AcDbLine
 10
4235.788079342517
 20
1614.379819787985
 30
0.0
 11
4235.788079342517
 21
1600.379819787987
 31
0.0
  0
LINE
  5
C571
330
1F
100
AcDbEntity
  8
1　製品
100
AcDbLine
 10
4238.288079342517
 20
1603.879819787987
 30
0.0
 11
4233.288079342517
 21
1603.879819787987
 31
0.0
  0
LINE
  5
C572
330
1F
100
AcDbEntity
  8
1　製品
 48
15.0
100
AcDbLine
 10
4250.788079342931
 20
1627.379819788134
 30
0.0
 11
4250.788079342931
 21
1587.379819788134
 31
0.0
  0
CIRCLE
  5
C573
330
1F
100
AcDbEntity
  8
1　製品
 48
15.0
100
AcDbCircle
 10
1927.288079342935
 20
3101.053312001874
 30
0.0
 40
15.0
  0
CIRCLE
  5
C574
330
1F
100
AcDbEntity
  8
1　製品
 48
15.0
100
AcDbCircle
 10
1927.288079342935
 20
3021.053312001874
 30
0.0
 40
15.0
  0
CIRCLE
  5
C575
330
1F
100
AcDbEntity
  8
1　製品
 48
15.0
100
AcDbCircle
 10
1927.288079342935
 20
2941.053312001874
 30
0.0
 40
15.0
  0
CIRCLE
  5
C576
330
1F
100
AcDbEntity
  8
1　製品
 48
15.0
100
AcDbCircle
 10
1927.288079342935
 20
2901.053312001874
 30
0.0
 40
15.0
  0
CIRCLE
  5
C577
330
1F
100
AcDbEntity
  8
1　製品
 48
15.0
100
AcDbCircle
 10
1927.288079342935
 20
2981.053312001874
 30
0.0
 40
15.0
  0
CIRCLE
  5
C578
330
1F
100
AcDbEntity
  8
1　製品
 48
15.0
100
AcDbCircle
 10
1927.288079342935
 20
3061.053312001874
 30
0.0
 40
15.0
  0
LINE
  5
C57A
330
1F
100
AcDbEntity
  8
1　製品
100
AcDbLine
 10
1720.288079342931
 20
3138.553312001874
 30
0.0
 11
2534.288079342931
 21
3138.553312001874
 31
0.0
  0
LINE
  5
C57B
330
1F
100
AcDbEntity
  8
1　製品
  6
HIDDEN
 48
10.0
100
AcDbLine
 10
1721.488079342936
 20
3137.353312001874
 30
0.0
 11
2533.088079342931
 21
3137.353312001874
 31
0.0
  0
CIRCLE
  5
C57C
330
1F
100
AcDbEntity
  8
1　製品
 48
15.0
100
AcDbCircle
 10
1927.288079342935
 20
2861.053312001874
 30
0.0
 40
15.0
  0
CIRCLE
  5
C57D
330
1F
100
AcDbEntity
  8
1　製品
 48
15.0
100
AcDbCircle
 10
1927.288079342935
 20
2821.053312001874
 30
0.0
 40
15.0
  0
CIRCLE
  5
C57E
330
1F
100
AcDbEntity
  8
1　製品
 48
15.0
100
AcDbCircle
 10
1927.288079342935
 20
2741.053312001874
 30
0.0
 40
15.0
  0
CIRCLE
  5
C57F
330
1F
100
AcDbEntity
  8
1　製品
 48
15.0
100
AcDbCircle
 10
1927.288079342935
 20
2781.053312001874
 30
0.0
 40
15.0
  0
CIRCLE
  5
C580
330
1F
100
AcDbEntity
  8
1　製品
 48
15.0
100
AcDbCircle
 10
1927.288079342935
 20
2661.053312001874
 30
0.0
 40
15.0
  0
CIRCLE
  5
C581
330
1F
100
AcDbEntity
  8
1　製品
 48
15.0
100
AcDbCircle
 10
1927.288079342935
 20
2581.053312001874
 30
0.0
 40
15.0
  0
CIRCLE
  5
C582
330
1F
100
AcDbEntity
  8
1　製品
 48
15.0
100
AcDbCircle
 10
1927.288079342935
 20
2621.053312001874
 30
0.0
 40
15.0
  0
CIRCLE
  5
C583
330
1F
100
AcDbEntity
  8
1　製品
 48
15.0
100
AcDbCircle
 10
1927.288079342935
 20
2701.053312001874
 30
0.0
 40
15.0
  0
CIRCLE
  5
C584
330
1F
100
AcDbEntity
  8
1　製品
 48
15.0
100
AcDbCircle
 10
1927.288079342935
 20
2501.053312001874
 30
0.0
 40
15.0
  0
CIRCLE
  5
C585
330
1F
100
AcDbEntity
  8
1　製品
 48
15.0
100
AcDbCircle
 10
1927.288079342935
 20
2461.053312001874
 30
0.0
 40
15.0
  0
CIRCLE
  5
C586
330
1F
100
AcDbEntity
  8
1　製品
 48
15.0
100
AcDbCircle
 10
1927.288079342935
 20
2421.053312001874
 30
0.0
 40
15.0
  0
CIRCLE
  5
C587
330
1F
100
AcDbEntity
  8
1　製品
 48
15.0
100
AcDbCircle
 10
1927.288079342935
 20
2541.053312001874
 30
0.0
 40
15.0
  0
LINE
  5
C588
330
1F
100
AcDbEntity
  8
1　製品
100
AcDbLine
 10
1720.288079342931
 20
2383.553312001871
 30
0.0
 11
2534.288079342931
 21
2383.553312001874
 31
0.0
  0
LINE
  5
C589
330
1F
100
AcDbEntity
  8
1　製品
  6
HIDDEN
 48
10.0
100
AcDbLine
 10
1721.488079342932
 20
2384.753312001872
 30
0.0
 11
2533.088079342934
 21
2384.753312001875
 31
0.0
  0
CIRCLE
  5
C58A
330
1F
100
AcDbEntity
  8
1　製品
 48
15.0
100
AcDbCircle
 10
1887.288079342935
 20
2681.053312001874
 30
0.0
 40
15.0
  0
CIRCLE
  5
C58B
330
1F
100
AcDbEntity
  8
1　製品
 48
15.0
100
AcDbCircle
 10
1807.288079342935
 20
2681.053312001874
 30
0.0
 40
15.0
  0
LINE
  5
C58C
330
1F
100
AcDbEntity
  8
1　製品
  6
HIDDEN
 48
10.0
100
AcDbLine
 10
1721.488079342936
 20
3137.353312001874
 30
0.0
 11
1721.488079342932
 21
2384.753312001872
 31
0.0
  0
LINE
  5
C58E
330
1F
100
AcDbEntity
  8
1　製品
100
AcDbLine
 10
1720.288079342931
 20
3138.553312001874
 30
0.0
 11
1720.288079342931
 21
2383.553312001871
 31
0.0
  0
LINE
  5
C58F
330
1F
100
AcDbEntity
  8
1　製品
 48
50.0
100
AcDbLine
 10
1720.288079342931
 20
2383.553312001885
 30
0.0
 11
1720.288079342931
 21
3138.553312001874
 31
0.0
  0
LINE
  5
C590
330
1F
100
AcDbEntity
  8
1　製品
 48
15.0
100
AcDbLine
 10
1675.288079342939
 20
3093.553312001885
 30
0.0
 11
1675.288079342931
 21
2428.553312001885
 31
0.0
  0
CIRCLE
  5
C591
330
1F
100
AcDbEntity
  8
1　製品
 48
15.0
100
AcDbCircle
 10
1887.288079342935
 20
2441.053312001874
 30
0.0
 40
15.0
  0
CIRCLE
  5
C592
330
1F
100
AcDbEntity
  8
1　製品
 48
15.0
100
AcDbCircle
 10
1767.288079342935
 20
2461.053312001874
 30
0.0
 40
15.0
  0
LINE
  5
C593
330
1F
100
AcDbEntity
  8
1　製品
100
AcDbLine
 10
1718.788079342931
 20
2503.553312001874
 30
0.0
 11
1718.788079342928
 21
2382.053312001874
 31
0.0
  0
CIRCLE
  5
C594
330
1F
100
AcDbEntity
  8
1　製品
 48
15.0
100
AcDbCircle
 10
1807.288079342935
 20
2441.053312001874
 30
0.0
 40
15.0
  0
CIRCLE
  5
C595
330
1F
100
AcDbEntity
  8
1　製品
 48
15.0
100
AcDbCircle
 10
1847.288079342935
 20
2461.053312001874
 30
0.0
 40
15.0
  0
LINE
  5
C596
330
1F
100
AcDbEntity
  8
1　製品
 48
50.0
100
AcDbLine
 10
1720.288079342931
 20
2383.553312001885
 30
0.0
 11
1760.288079342931
 21
2383.553312001885
 31
0.0
  0
LINE
  5
C597
330
1F
100
AcDbEntity
  8
1　製品
100
AcDbLine
 10
1718.788079342928
 20
2382.053312001874
 30
0.0
 11
1840.288079342935
 21
2382.053312001874
 31
0.0
  0
CIRCLE
  5
C598
330
1F
100
AcDbEntity
  8
1　製品
 48
15.0
100
AcDbCircle
 10
1767.288079342935
 20
2421.053312001874
 30
0.0
 40
15.0
  0
LINE
  5
C599
330
1F
100
AcDbEntity
  8
1　製品
 48
15.0
100
AcDbLine
 10
1720.288079342931
 20
2383.553312001885
 30
0.0
 11
1675.288079342931
 21
2428.553312001885
 31
0.0
  0
CIRCLE
  5
C59A
330
1F
100
AcDbEntity
  8
1　製品
 48
15.0
100
AcDbCircle
 10
1847.288079342935
 20
2421.053312001874
 30
0.0
 40
15.0
  0
LINE
  5
C59B
330
1F
100
AcDbEntity
  8
1　製品
100
AcDbLine
 10
1840.288079342935
 20
2383.553312001874
 30
0.0
 11
1840.288079342935
 21
2382.053312001874
 31
0.0
  0
CIRCLE
  5
C59C
330
1F
100
AcDbEntity
  8
1　製品
 48
15.0
100
AcDbCircle
 10
1767.288079342935
 20
2661.053312001874
 30
0.0
 40
15.0
  0
CIRCLE
  5
C59D
330
1F
100
AcDbEntity
  8
1　製品
 48
15.0
100
AcDbCircle
 10
1767.288079342935
 20
2581.053312001874
 30
0.0
 40
15.0
  0
CIRCLE
  5
C59E
330
1F
100
AcDbEntity
  8
1　製品
 48
15.0
100
AcDbCircle
 10
1767.288079342935
 20
2621.053312001874
 30
0.0
 40
15.0
  0
CIRCLE
  5
C59F
330
1F
100
AcDbEntity
  8
1　製品
 48
15.0
100
AcDbCircle
 10
1767.288079342935
 20
2501.053312001874
 30
0.0
 40
15.0
  0
CIRCLE
  5
C5A0
330
1F
100
AcDbEntity
  8
1　製品
 48
15.0
100
AcDbCircle
 10
1767.288079342935
 20
2541.053312001874
 30
0.0
 40
15.0
  0
LINE
  5
C5A1
330
1F
100
AcDbEntity
  8
1　製品
  6
CENTER
100
AcDbLine
 10
1674.788079342939
 20
2461.053312001885
 30
0.0
 11
1695.788079342939
 21
2461.053312001885
 31
0.0
  0
CIRCLE
  5
C5A2
330
1F
100
AcDbEntity
  8
1　製品
 48
15.0
100
AcDbCircle
 10
1685.288079342935
 20
2461.053312001885
 30
0.0
 40
3.5
  0
LINE
  5
C5A3
330
1F
100
AcDbEntity
  8
1　製品
  6
CENTER
100
AcDbLine
 10
1685.288079342935
 20
2471.553312001889
 30
0.0
 11
1685.288079342935
 21
2450.553312001889
 31
0.0
  0
LINE
  5
C5A4
330
1F
100
AcDbEntity
  8
1　製品
100
AcDbLine
 10
1718.788079342931
 20
2503.553312001874
 30
0.0
 11
1720.288079342935
 21
2503.553312001874
 31
0.0
  0
LINE
  5
C5A5
330
1F
100
AcDbEntity
  8
1　製品
  6
CENTER
100
AcDbLine
 10
1674.788079342939
 20
2611.053312001889
 30
0.0
 11
1695.788079342939
 21
2611.053312001889
 31
0.0
  0
CIRCLE
  5
C5A6
330
1F
100
AcDbEntity
  8
1　製品
 48
15.0
100
AcDbCircle
 10
1685.288079342935
 20
2611.053312001889
 30
0.0
 40
3.5
  0
LINE
  5
C5A7
330
1F
100
AcDbEntity
  8
1　製品
  6
CENTER
100
AcDbLine
 10
1685.288079342935
 20
2621.553312001893
 30
0.0
 11
1685.288079342935
 21
2600.553312001893
 31
0.0
  0
CIRCLE
  5
C5A8
330
1F
100
AcDbEntity
  8
1　製品
 48
15.0
100
AcDbCircle
 10
1887.288079342935
 20
2561.053312001874
 30
0.0
 40
15.0
  0
CIRCLE
  5
C5A9
330
1F
100
AcDbEntity
  8
1　製品
 48
15.0
100
AcDbCircle
 10
1807.288079342935
 20
2561.053312001874
 30
0.0
 40
15.0
  0
CIRCLE
  5
C5AA
330
1F
100
AcDbEntity
  8
1　製品
 48
15.0
100
AcDbCircle
 10
1847.288079342935
 20
2581.053312001874
 30
0.0
 40
15.0
  0
CIRCLE
  5
C5AB
330
1F
100
AcDbEntity
  8
1　製品
 48
15.0
100
AcDbCircle
 10
1847.288079342935
 20
2541.053312001874
 30
0.0
 40
15.0
  0
CIRCLE
  5
C5AC
330
1F
100
AcDbEntity
  8
1　製品
 48
15.0
100
AcDbCircle
 10
1847.288079342935
 20
2501.053312001874
 30
0.0
 40
15.0
  0
CIRCLE
  5
C5AD
330
1F
100
AcDbEntity
  8
1　製品
 48
15.0
100
AcDbCircle
 10
1807.288079342935
 20
2521.053312001874
 30
0.0
 40
15.0
  0
CIRCLE
  5
C5AE
330
1F
100
AcDbEntity
  8
1　製品
 48
15.0
100
AcDbCircle
 10
1807.288079342935
 20
2481.053312001874
 30
0.0
 40
15.0
  0
CIRCLE
  5
C5AF
330
1F
100
AcDbEntity
  8
1　製品
 48
15.0
100
AcDbCircle
 10
1887.288079342935
 20
2521.053312001874
 30
0.0
 40
15.0
  0
CIRCLE
  5
C5B0
330
1F
100
AcDbEntity
  8
1　製品
 48
15.0
100
AcDbCircle
 10
1887.288079342935
 20
2481.053312001874
 30
0.0
 40
15.0
  0
CIRCLE
  5
C5B1
330
1F
100
AcDbEntity
  8
1　製品
 48
15.0
100
AcDbCircle
 10
1847.288079342935
 20
2621.053312001874
 30
0.0
 40
15.0
  0
CIRCLE
  5
C5B2
330
1F
100
AcDbEntity
  8
1　製品
 48
15.0
100
AcDbCircle
 10
1847.288079342935
 20
2661.053312001874
 30
0.0
 40
15.0
  0
CIRCLE
  5
C5B3
330
1F
100
AcDbEntity
  8
1　製品
 48
15.0
100
AcDbCircle
 10
1807.288079342935
 20
2601.053312001874
 30
0.0
 40
15.0
  0
CIRCLE
  5
C5B4
330
1F
100
AcDbEntity
  8
1　製品
 48
15.0
100
AcDbCircle
 10
1807.288079342935
 20
2641.053312001874
 30
0.0
 40
15.0
  0
CIRCLE
  5
C5B5
330
1F
100
AcDbEntity
  8
1　製品
 48
15.0
100
AcDbCircle
 10
1887.288079342935
 20
2601.053312001874
 30
0.0
 40
15.0
  0
CIRCLE
  5
C5B6
330
1F
100
AcDbEntity
  8
1　製品
 48
15.0
100
AcDbCircle
 10
1887.288079342935
 20
2641.053312001874
 30
0.0
 40
15.0
  0
CIRCLE
  5
C5B7
330
1F
100
AcDbEntity
  8
1　製品
 48
15.0
100
AcDbCircle
 10
1887.288079342935
 20
2921.053312001874
 30
0.0
 40
15.0
  0
CIRCLE
  5
C5B8
330
1F
100
AcDbEntity
  8
1　製品
 48
15.0
100
AcDbCircle
 10
1807.288079342935
 20
2921.053312001874
 30
0.0
 40
15.0
  0
CIRCLE
  5
C5B9
330
1F
100
AcDbEntity
  8
1　製品
 48
15.0
100
AcDbCircle
 10
1767.288079342935
 20
2901.053312001874
 30
0.0
 40
15.0
  0
CIRCLE
  5
C5BA
330
1F
100
AcDbEntity
  8
1　製品
 48
15.0
100
AcDbCircle
 10
1685.288079342935
 20
2911.053312001889
 30
0.0
 40
3.5
  0
LINE
  5
C5BB
330
1F
100
AcDbEntity
  8
1　製品
  6
CENTER
100
AcDbLine
 10
1685.288079342935
 20
2921.553312001893
 30
0.0
 11
1685.288079342935
 21
2900.553312001893
 31
0.0
  0
CIRCLE
  5
C5BC
330
1F
100
AcDbEntity
  8
1　製品
 48
15.0
100
AcDbCircle
 10
1847.288079342935
 20
2901.053312001874
 30
0.0
 40
15.0
  0
CIRCLE
  5
C5BD
330
1F
100
AcDbEntity
  8
1　製品
 48
15.0
100
AcDbCircle
 10
1767.288079342935
 20
2861.053312001874
 30
0.0
 40
15.0
  0
CIRCLE
  5
C5BE
330
1F
100
AcDbEntity
  8
1　製品
 48
15.0
100
AcDbCircle
 10
1767.288079342935
 20
2821.053312001874
 30
0.0
 40
15.0
  0
CIRCLE
  5
C5BF
330
1F
100
AcDbEntity
  8
1　製品
 48
15.0
100
AcDbCircle
 10
1767.288079342935
 20
2741.053312001874
 30
0.0
 40
15.0
  0
CIRCLE
  5
C5C0
330
1F
100
AcDbEntity
  8
1　製品
 48
15.0
100
AcDbCircle
 10
1767.288079342935
 20
2781.053312001874
 30
0.0
 40
15.0
  0
CIRCLE
  5
C5C1
330
1F
100
AcDbEntity
  8
1　製品
 48
15.0
100
AcDbCircle
 10
1767.288079342935
 20
2701.053312001874
 30
0.0
 40
15.0
  0
LINE
  5
C5C2
330
1F
100
AcDbEntity
  8
1　製品
  6
CENTER
100
AcDbLine
 10
1674.788079342939
 20
2761.053312001889
 30
0.0
 11
1695.788079342939
 21
2761.053312001889
 31
0.0
  0
LINE
  5
C5C3
330
1F
100
AcDbEntity
  8
1　製品
  6
CENTER
100
AcDbLine
 10
1685.288079342935
 20
2771.553312001893
 30
0.0
 11
1685.288079342935
 21
2750.553312001893
 31
0.0
  0
CIRCLE
  5
C5C4
330
1F
100
AcDbEntity
  8
1　製品
 48
15.0
100
AcDbCircle
 10
1685.288079342935
 20
2761.053312001889
 30
0.0
 40
3.5
  0
LINE
  5
C5C5
330
1F
100
AcDbEntity
  8
1　製品
  6
CENTER
100
AcDbLine
 10
1674.788079342939
 20
2911.053312001889
 30
0.0
 11
1695.788079342939
 21
2911.053312001889
 31
0.0
  0
CIRCLE
  5
C5C6
330
1F
100
AcDbEntity
  8
1　製品
 48
15.0
100
AcDbCircle
 10
1887.288079342935
 20
2801.053312001874
 30
0.0
 40
15.0
  0
CIRCLE
  5
C5C7
330
1F
100
AcDbEntity
  8
1　製品
 48
15.0
100
AcDbCircle
 10
1807.288079342935
 20
2801.053312001874
 30
0.0
 40
15.0
  0
CIRCLE
  5
C5C8
330
1F
100
AcDbEntity
  8
1　製品
 48
15.0
100
AcDbCircle
 10
1847.288079342935
 20
2781.053312001874
 30
0.0
 40
15.0
  0
CIRCLE
  5
C5C9
330
1F
100
AcDbEntity
  8
1　製品
 48
15.0
100
AcDbCircle
 10
1847.288079342935
 20
2701.053312001874
 30
0.0
 40
15.0
  0
CIRCLE
  5
C5CA
330
1F
100
AcDbEntity
  8
1　製品
 48
15.0
100
AcDbCircle
 10
1847.288079342935
 20
2741.053312001874
 30
0.0
 40
15.0
  0
CIRCLE
  5
C5CB
330
1F
100
AcDbEntity
  8
1　製品
 48
15.0
100
AcDbCircle
 10
1807.288079342935
 20
2721.053312001874
 30
0.0
 40
15.0
  0
CIRCLE
  5
C5CC
330
1F
100
AcDbEntity
  8
1　製品
 48
15.0
100
AcDbCircle
 10
1807.288079342935
 20
2761.053312001874
 30
0.0
 40
15.0
  0
CIRCLE
  5
C5CD
330
1F
100
AcDbEntity
  8
1　製品
 48
15.0
100
AcDbCircle
 10
1887.288079342935
 20
2721.053312001874
 30
0.0
 40
15.0
  0
CIRCLE
  5
C5CE
330
1F
100
AcDbEntity
  8
1　製品
 48
15.0
100
AcDbCircle
 10
1887.288079342935
 20
2761.053312001874
 30
0.0
 40
15.0
  0
CIRCLE
  5
C5CF
330
1F
100
AcDbEntity
  8
1　製品
 48
15.0
100
AcDbCircle
 10
1847.288079342935
 20
2861.053312001874
 30
0.0
 40
15.0
  0
CIRCLE
  5
C5D0
330
1F
100
AcDbEntity
  8
1　製品
 48
15.0
100
AcDbCircle
 10
1847.288079342935
 20
2821.053312001874
 30
0.0
 40
15.0
  0
CIRCLE
  5
C5D1
330
1F
100
AcDbEntity
  8
1　製品
 48
15.0
100
AcDbCircle
 10
1807.288079342935
 20
2841.053312001874
 30
0.0
 40
15.0
  0
CIRCLE
  5
C5D2
330
1F
100
AcDbEntity
  8
1　製品
 48
15.0
100
AcDbCircle
 10
1807.288079342935
 20
2881.053312001874
 30
0.0
 40
15.0
  0
CIRCLE
  5
C5D3
330
1F
100
AcDbEntity
  8
1　製品
 48
15.0
100
AcDbCircle
 10
1887.288079342935
 20
2841.053312001874
 30
0.0
 40
15.0
  0
CIRCLE
  5
C5D4
330
1F
100
AcDbEntity
  8
1　製品
 48
15.0
100
AcDbCircle
 10
1887.288079342935
 20
2881.053312001874
 30
0.0
 40
15.0
  0
LINE
  5
C5D5
330
1F
100
AcDbEntity
  8
1　製品
 48
50.0
100
AcDbLine
 10
1720.288079342946
 20
3138.553312001885
 30
0.0
 11
1760.288079342931
 21
3138.553312001885
 31
0.0
  0
CIRCLE
  5
C5D6
330
1F
100
AcDbEntity
  8
1　製品
 48
15.0
100
AcDbCircle
 10
1767.288079342935
 20
3101.053312001874
 30
0.0
 40
15.0
  0
LINE
  5
C5D7
330
1F
100
AcDbEntity
  8
1　製品
100
AcDbLine
 10
1718.788079342928
 20
3140.053312001871
 30
0.0
 11
1840.288079342935
 21
3140.053312001874
 31
0.0
  0
CIRCLE
  5
C5D8
330
1F
100
AcDbEntity
  8
1　製品
 48
15.0
100
AcDbCircle
 10
1767.288079342935
 20
3021.053312001874
 30
0.0
 40
15.0
  0
CIRCLE
  5
C5D9
330
1F
100
AcDbEntity
  8
1　製品
 48
15.0
100
AcDbCircle
 10
1767.288079342935
 20
2941.053312001874
 30
0.0
 40
15.0
  0
CIRCLE
  5
C5DA
330
1F
100
AcDbEntity
  8
1　製品
 48
15.0
100
AcDbCircle
 10
1767.288079342935
 20
2981.053312001874
 30
0.0
 40
15.0
  0
CIRCLE
  5
C5DB
330
1F
100
AcDbEntity
  8
1　製品
 48
15.0
100
AcDbCircle
 10
1767.288079342935
 20
3061.053312001874
 30
0.0
 40
15.0
  0
LINE
  5
C5DC
330
1F
100
AcDbEntity
  8
1　製品
100
AcDbLine
 10
1718.788079342928
 20
3140.053312001871
 30
0.0
 11
1718.788079342935
 21
3018.553312001871
 31
0.0
  0
LINE
  5
C5DD
330
1F
100
AcDbEntity
  8
1　製品
100
AcDbLine
 10
1718.788079342935
 20
3018.553312001871
 30
0.0
 11
1720.288079342935
 21
3018.553312001874
 31
0.0
  0
LINE
  5
C5DE
330
1F
100
AcDbEntity
  8
1　製品
  6
CENTER
100
AcDbLine
 10
1674.788079342935
 20
3061.053312001885
 30
0.0
 11
1695.788079342935
 21
3061.053312001885
 31
0.0
  0
LINE
  5
C5DF
330
1F
100
AcDbEntity
  8
1　製品
 48
15.0
100
AcDbLine
 10
1720.288079342946
 20
3138.553312001885
 30
0.0
 11
1675.288079342939
 21
3093.553312001885
 31
0.0
  0
CIRCLE
  5
C5E0
330
1F
100
AcDbEntity
  8
1　製品
 48
15.0
100
AcDbCircle
 10
1685.288079342935
 20
3061.053312001889
 30
0.0
 40
3.5
  0
LINE
  5
C5E1
330
1F
100
AcDbEntity
  8
1　製品
  6
CENTER
100
AcDbLine
 10
1685.288079342931
 20
3071.553312001889
 30
0.0
 11
1685.288079342931
 21
3050.553312001889
 31
0.0
  0
CIRCLE
  5
C5E2
330
1F
100
AcDbEntity
  8
1　製品
 48
15.0
100
AcDbCircle
 10
1887.288079342935
 20
3041.053312001874
 30
0.0
 40
15.0
  0
CIRCLE
  5
C5E3
330
1F
100
AcDbEntity
  8
1　製品
 48
15.0
100
AcDbCircle
 10
1807.288079342935
 20
3041.053312001874
 30
0.0
 40
15.0
  0
CIRCLE
  5
C5E4
330
1F
100
AcDbEntity
  8
1　製品
 48
15.0
100
AcDbCircle
 10
1847.288079342935
 20
3021.053312001874
 30
0.0
 40
15.0
  0
CIRCLE
  5
C5E5
330
1F
100
AcDbEntity
  8
1　製品
 48
15.0
100
AcDbCircle
 10
1847.288079342935
 20
2981.053312001874
 30
0.0
 40
15.0
  0
CIRCLE
  5
C5E6
330
1F
100
AcDbEntity
  8
1　製品
 48
15.0
100
AcDbCircle
 10
1847.288079342935
 20
2941.053312001874
 30
0.0
 40
15.0
  0
CIRCLE
  5
C5E7
330
1F
100
AcDbEntity
  8
1　製品
 48
15.0
100
AcDbCircle
 10
1807.288079342935
 20
2961.053312001874
 30
0.0
 40
15.0
  0
CIRCLE
  5
C5E8
330
1F
100
AcDbEntity
  8
1　製品
 48
15.0
100
AcDbCircle
 10
1807.288079342935
 20
3001.053312001874
 30
0.0
 40
15.0
  0
CIRCLE
  5
C5E9
330
1F
100
AcDbEntity
  8
1　製品
 48
15.0
100
AcDbCircle
 10
1887.288079342935
 20
2961.053312001874
 30
0.0
 40
15.0
  0
CIRCLE
  5
C5EA
330
1F
100
AcDbEntity
  8
1　製品
 48
15.0
100
AcDbCircle
 10
1887.288079342935
 20
3001.053312001874
 30
0.0
 40
15.0
  0
CIRCLE
  5
C5EB
330
1F
100
AcDbEntity
  8
1　製品
 48
15.0
100
AcDbCircle
 10
1847.288079342935
 20
3101.053312001874
 30
0.0
 40
15.0
  0
CIRCLE
  5
C5EC
330
1F
100
AcDbEntity
  8
1　製品
 48
15.0
100
AcDbCircle
 10
1847.288079342935
 20
3061.053312001874
 30
0.0
 40
15.0
  0
CIRCLE
  5
C5ED
330
1F
100
AcDbEntity
  8
1　製品
 48
15.0
100
AcDbCircle
 10
1807.288079342935
 20
3081.053312001874
 30
0.0
 40
15.0
  0
LINE
  5
C5EE
330
1F
100
AcDbEntity
  8
1　製品
100
AcDbLine
 10
1840.288079342935
 20
3140.053312001874
 30
0.0
 11
1840.288079342935
 21
3138.553312001874
 31
0.0
  0
CIRCLE
  5
C5EF
330
1F
100
AcDbEntity
  8
1　製品
 48
15.0
100
AcDbCircle
 10
1887.288079342935
 20
3081.053312001874
 30
0.0
 40
15.0
  0
LINE
  5
C5F0
330
1F
100
AcDbEntity
  8
1　製品
 48
15.0
100
AcDbLine
 10
2534.288079342931
 20
3138.553312001874
 30
0.0
 11
2579.288079342935
 21
3093.553312001874
 31
0.0
  0
LINE
  5
C5F1
330
1F
100
AcDbEntity
  8
1　製品
  6
CENTER
100
AcDbLine
 10
2558.788079342942
 20
3061.053312001878
 30
0.0
 11
2579.788079342942
 21
3061.053312001878
 31
0.0
  0
LINE
  5
C5F2
330
1F
100
AcDbEntity
  8
1　製品
  6
CENTER
100
AcDbLine
 10
2558.788079342942
 20
2911.053312001878
 30
0.0
 11
2579.788079342942
 21
2911.053312001878
 31
0.0
  0
LINE
  5
C5F3
330
1F
100
AcDbEntity
  8
1　製品
  6
CENTER
100
AcDbLine
 10
2558.788079342942
 20
2761.053312001878
 30
0.0
 11
2579.788079342942
 21
2761.053312001878
 31
0.0
  0
LINE
  5
C5F4
330
1F
100
AcDbEntity
  8
1　製品
  6
CENTER
100
AcDbLine
 10
2558.788079342942
 20
2611.053312001878
 30
0.0
 11
2579.788079342942
 21
2611.053312001878
 31
0.0
  0
LINE
  5
C5F5
330
1F
100
AcDbEntity
  8
1　製品
  6
CENTER
100
AcDbLine
 10
2558.788079342942
 20
2461.053312001874
 30
0.0
 11
2579.788079342942
 21
2461.053312001874
 31
0.0
  0
LINE
  5
C5F6
330
1F
100
AcDbEntity
  8
1　製品
 48
15.0
100
AcDbLine
 10
2534.288079342942
 20
2383.553312001874
 30
0.0
 11
2579.288079342942
 21
2428.553312001874
 31
0.0
  0
CIRCLE
  5
C5F7
330
1F
100
AcDbEntity
  8
1　製品
 48
15.0
100
AcDbCircle
 10
2447.288079342931
 20
2681.053312001874
 30
0.0
 40
15.0
  0
CIRCLE
  5
C5F8
330
1F
100
AcDbEntity
  8
1　製品
 48
15.0
100
AcDbCircle
 10
2287.288079342931
 20
2681.053312001874
 30
0.0
 40
15.0
  0
CIRCLE
  5
C5F9
330
1F
100
AcDbEntity
  8
1　製品
 48
15.0
100
AcDbCircle
 10
2207.288079342931
 20
2681.053312001874
 30
0.0
 40
15.0
  0
CIRCLE
  5
C5FA
330
1F
100
AcDbEntity
  8
1　製品
 48
15.0
100
AcDbCircle
 10
2127.288079342931
 20
2681.053312001874
 30
0.0
 40
15.0
  0
CIRCLE
  5
C5FB
330
1F
100
AcDbEntity
  8
1　製品
 48
15.0
100
AcDbCircle
 10
2047.288079342935
 20
2681.053312001874
 30
0.0
 40
15.0
  0
CIRCLE
  5
C5FC
330
1F
100
AcDbEntity
  8
1　製品
 48
15.0
100
AcDbCircle
 10
1967.288079342935
 20
2681.053312001874
 30
0.0
 40
15.0
  0
CIRCLE
  5
C5FD
330
1F
100
AcDbEntity
  8
1　製品
 48
15.0
100
AcDbCircle
 10
2367.288079342931
 20
2681.053312001874
 30
0.0
 40
15.0
  0
LINE
  5
C5FE
330
1F
100
AcDbEntity
  8
1　製品
100
AcDbLine
 10
2534.288079342931
 20
3138.553312001874
 30
0.0
 11
2534.288079342931
 21
2383.553312001874
 31
0.0
  0
LINE
  5
C5FF
330
1F
100
AcDbEntity
  8
1　製品
  6
HIDDEN
 48
10.0
100
AcDbLine
 10
2533.088079342931
 20
3137.353312001874
 30
0.0
 11
2533.088079342934
 21
2384.753312001875
 31
0.0
  0
LINE
  5
C600
330
1F
100
AcDbEntity
  8
1　製品
 48
50.0
100
AcDbLine
 10
2534.288079342942
 20
2383.553312001874
 30
0.0
 11
2534.288079342942
 21
3138.553312001864
 31
0.0
  0
CIRCLE
  5
C601
330
1F
100
AcDbEntity
  8
1　製品
 48
15.0
100
AcDbCircle
 10
2247.288079342931
 20
2621.053312001874
 30
0.0
 40
15.0
  0
CIRCLE
  5
C602
330
1F
100
AcDbEntity
  8
1　製品
 48
15.0
100
AcDbCircle
 10
2247.288079342931
 20
2581.053312001874
 30
0.0
 40
15.0
  0
CIRCLE
  5
C603
330
1F
100
AcDbEntity
  8
1　製品
 48
15.0
100
AcDbCircle
 10
2247.288079342931
 20
2661.053312001874
 30
0.0
 40
15.0
  0
CIRCLE
  5
C604
330
1F
100
AcDbEntity
  8
1　製品
 48
15.0
100
AcDbCircle
 10
2247.288079342931
 20
2501.053312001874
 30
0.0
 40
15.0
  0
CIRCLE
  5
C605
330
1F
100
AcDbEntity
  8
1　製品
 48
15.0
100
AcDbCircle
 10
2247.288079342931
 20
2421.053312001874
 30
0.0
 40
15.0
  0
CIRCLE
  5
C606
330
1F
100
AcDbEntity
  8
1　製品
 48
15.0
100
AcDbCircle
 10
2247.288079342931
 20
2461.053312001874
 30
0.0
 40
15.0
  0
CIRCLE
  5
C607
330
1F
100
AcDbEntity
  8
1　製品
 48
15.0
100
AcDbCircle
 10
2247.288079342931
 20
2541.053312001874
 30
0.0
 40
15.0
  0
CIRCLE
  5
C608
330
1F
100
AcDbEntity
  8
1　製品
 48
15.0
100
AcDbCircle
 10
2167.288079342931
 20
2461.053312001874
 30
0.0
 40
15.0
  0
CIRCLE
  5
C609
330
1F
100
AcDbEntity
  8
1　製品
 48
15.0
100
AcDbCircle
 10
2207.288079342931
 20
2441.053312001874
 30
0.0
 40
15.0
  0
CIRCLE
  5
C60A
330
1F
100
AcDbEntity
  8
1　製品
 48
15.0
100
AcDbCircle
 10
2127.288079342931
 20
2441.053312001874
 30
0.0
 40
15.0
  0
CIRCLE
  5
C60B
330
1F
100
AcDbEntity
  8
1　製品
 48
15.0
100
AcDbCircle
 10
2087.288079342935
 20
2461.053312001874
 30
0.0
 40
15.0
  0
CIRCLE
  5
C60C
330
1F
100
AcDbEntity
  8
1　製品
 48
15.0
100
AcDbCircle
 10
2007.288079342935
 20
2461.053312001874
 30
0.0
 40
15.0
  0
CIRCLE
  5
C60D
330
1F
100
AcDbEntity
  8
1　製品
 48
15.0
100
AcDbCircle
 10
2047.288079342935
 20
2441.053312001874
 30
0.0
 40
15.0
  0
CIRCLE
  5
C60E
330
1F
100
AcDbEntity
  8
1　製品
 48
15.0
100
AcDbCircle
 10
1967.288079342935
 20
2441.053312001874
 30
0.0
 40
15.0
  0
CIRCLE
  5
C60F
330
1F
100
AcDbEntity
  8
1　製品
 48
15.0
100
AcDbCircle
 10
2087.288079342935
 20
2421.053312001874
 30
0.0
 40
15.0
  0
CIRCLE
  5
C610
330
1F
100
AcDbEntity
  8
1　製品
 48
15.0
100
AcDbCircle
 10
2007.288079342935
 20
2421.053312001874
 30
0.0
 40
15.0
  0
CIRCLE
  5
C611
330
1F
100
AcDbEntity
  8
1　製品
 48
15.0
100
AcDbCircle
 10
2167.288079342931
 20
2421.053312001874
 30
0.0
 40
15.0
  0
CIRCLE
  5
C612
330
1F
100
AcDbEntity
  8
1　製品
 48
15.0
100
AcDbCircle
 10
2087.288079342935
 20
2661.053312001874
 30
0.0
 40
15.0
  0
CIRCLE
  5
C613
330
1F
100
AcDbEntity
  8
1　製品
 48
15.0
100
AcDbCircle
 10
2087.288079342935
 20
2581.053312001874
 30
0.0
 40
15.0
  0
CIRCLE
  5
C614
330
1F
100
AcDbEntity
  8
1　製品
 48
15.0
100
AcDbCircle
 10
2087.288079342935
 20
2621.053312001874
 30
0.0
 40
15.0
  0
CIRCLE
  5
C615
330
1F
100
AcDbEntity
  8
1　製品
 48
15.0
100
AcDbCircle
 10
2087.288079342935
 20
2501.053312001874
 30
0.0
 40
15.0
  0
CIRCLE
  5
C616
330
1F
100
AcDbEntity
  8
1　製品
 48
15.0
100
AcDbCircle
 10
2087.288079342935
 20
2541.053312001874
 30
0.0
 40
15.0
  0
CIRCLE
  5
C617
330
1F
100
AcDbEntity
  8
1　製品
 48
15.0
100
AcDbCircle
 10
2007.288079342935
 20
2581.053312001874
 30
0.0
 40
15.0
  0
CIRCLE
  5
C618
330
1F
100
AcDbEntity
  8
1　製品
 48
15.0
100
AcDbCircle
 10
2047.288079342935
 20
2561.053312001874
 30
0.0
 40
15.0
  0
CIRCLE
  5
C619
330
1F
100
AcDbEntity
  8
1　製品
 48
15.0
100
AcDbCircle
 10
1967.288079342935
 20
2561.053312001874
 30
0.0
 40
15.0
  0
CIRCLE
  5
C61A
330
1F
100
AcDbEntity
  8
1　製品
 48
15.0
100
AcDbCircle
 10
2007.288079342935
 20
2501.053312001874
 30
0.0
 40
15.0
  0
CIRCLE
  5
C61B
330
1F
100
AcDbEntity
  8
1　製品
 48
15.0
100
AcDbCircle
 10
2007.288079342935
 20
2541.053312001874
 30
0.0
 40
15.0
  0
CIRCLE
  5
C61C
330
1F
100
AcDbEntity
  8
1　製品
 48
15.0
100
AcDbCircle
 10
1967.288079342935
 20
2521.053312001874
 30
0.0
 40
15.0
  0
CIRCLE
  5
C61D
330
1F
100
AcDbEntity
  8
1　製品
 48
15.0
100
AcDbCircle
 10
1967.288079342935
 20
2481.053312001874
 30
0.0
 40
15.0
  0
CIRCLE
  5
C61E
330
1F
100
AcDbEntity
  8
1　製品
 48
15.0
100
AcDbCircle
 10
2047.288079342935
 20
2521.053312001874
 30
0.0
 40
15.0
  0
CIRCLE
  5
C61F
330
1F
100
AcDbEntity
  8
1　製品
 48
15.0
100
AcDbCircle
 10
2047.288079342935
 20
2481.053312001874
 30
0.0
 40
15.0
  0
CIRCLE
  5
C620
330
1F
100
AcDbEntity
  8
1　製品
 48
15.0
100
AcDbCircle
 10
2007.288079342935
 20
2661.053312001874
 30
0.0
 40
15.0
  0
CIRCLE
  5
C621
330
1F
100
AcDbEntity
  8
1　製品
 48
15.0
100
AcDbCircle
 10
2007.288079342935
 20
2621.053312001874
 30
0.0
 40
15.0
  0
CIRCLE
  5
C622
330
1F
100
AcDbEntity
  8
1　製品
 48
15.0
100
AcDbCircle
 10
1967.288079342935
 20
2601.053312001874
 30
0.0
 40
15.0
  0
CIRCLE
  5
C623
330
1F
100
AcDbEntity
  8
1　製品
 48
15.0
100
AcDbCircle
 10
1967.288079342935
 20
2641.053312001874
 30
0.0
 40
15.0
  0
CIRCLE
  5
C624
330
1F
100
AcDbEntity
  8
1　製品
 48
15.0
100
AcDbCircle
 10
2047.288079342935
 20
2601.053312001874
 30
0.0
 40
15.0
  0
CIRCLE
  5
C625
330
1F
100
AcDbEntity
  8
1　製品
 48
15.0
100
AcDbCircle
 10
2047.288079342935
 20
2641.053312001874
 30
0.0
 40
15.0
  0
CIRCLE
  5
C626
330
1F
100
AcDbEntity
  8
1　製品
 48
15.0
100
AcDbCircle
 10
2207.288079342931
 20
2561.053312001874
 30
0.0
 40
15.0
  0
CIRCLE
  5
C627
330
1F
100
AcDbEntity
  8
1　製品
 48
15.0
100
AcDbCircle
 10
2127.288079342931
 20
2561.053312001874
 30
0.0
 40
15.0
  0
CIRCLE
  5
C628
330
1F
100
AcDbEntity
  8
1　製品
 48
15.0
100
AcDbCircle
 10
2167.288079342931
 20
2581.053312001874
 30
0.0
 40
15.0
  0
CIRCLE
  5
C629
330
1F
100
AcDbEntity
  8
1　製品
 48
15.0
100
AcDbCircle
 10
2167.288079342931
 20
2501.053312001874
 30
0.0
 40
15.0
  0
CIRCLE
  5
C62A
330
1F
100
AcDbEntity
  8
1　製品
 48
15.0
100
AcDbCircle
 10
2167.288079342931
 20
2541.053312001874
 30
0.0
 40
15.0
  0
CIRCLE
  5
C62B
330
1F
100
AcDbEntity
  8
1　製品
 48
15.0
100
AcDbCircle
 10
2127.288079342931
 20
2521.053312001874
 30
0.0
 40
15.0
  0
CIRCLE
  5
C62C
330
1F
100
AcDbEntity
  8
1　製品
 48
15.0
100
AcDbCircle
 10
2127.288079342931
 20
2481.053312001874
 30
0.0
 40
15.0
  0
CIRCLE
  5
C62D
330
1F
100
AcDbEntity
  8
1　製品
 48
15.0
100
AcDbCircle
 10
2207.288079342931
 20
2521.053312001874
 30
0.0
 40
15.0
  0
CIRCLE
  5
C62E
330
1F
100
AcDbEntity
  8
1　製品
 48
15.0
100
AcDbCircle
 10
2207.288079342931
 20
2481.053312001874
 30
0.0
 40
15.0
  0
CIRCLE
  5
C62F
330
1F
100
AcDbEntity
  8
1　製品
 48
15.0
100
AcDbCircle
 10
2167.288079342931
 20
2661.053312001874
 30
0.0
 40
15.0
  0
CIRCLE
  5
C630
330
1F
100
AcDbEntity
  8
1　製品
 48
15.0
100
AcDbCircle
 10
2167.288079342931
 20
2621.053312001874
 30
0.0
 40
15.0
  0
CIRCLE
  5
C631
330
1F
100
AcDbEntity
  8
1　製品
 48
15.0
100
AcDbCircle
 10
2127.288079342931
 20
2601.053312001874
 30
0.0
 40
15.0
  0
CIRCLE
  5
C632
330
1F
100
AcDbEntity
  8
1　製品
 48
15.0
100
AcDbCircle
 10
2127.288079342931
 20
2641.053312001874
 30
0.0
 40
15.0
  0
CIRCLE
  5
C633
330
1F
100
AcDbEntity
  8
1　製品
 48
15.0
100
AcDbCircle
 10
2207.288079342931
 20
2601.053312001874
 30
0.0
 40
15.0
  0
CIRCLE
  5
C634
330
1F
100
AcDbEntity
  8
1　製品
 48
15.0
100
AcDbCircle
 10
2207.288079342931
 20
2641.053312001874
 30
0.0
 40
15.0
  0
LINE
  5
C635
330
1F
100
AcDbEntity
  8
1　製品
100
AcDbLine
 10
2535.788079342939
 20
2503.553312001874
 30
0.0
 11
2535.788079342931
 21
2382.053312001874
 31
0.0
  0
CIRCLE
  5
C636
330
1F
100
AcDbEntity
  8
1　製品
 48
15.0
100
AcDbCircle
 10
2407.288079342931
 20
2461.053312001874
 30
0.0
 40
15.0
  0
CIRCLE
  5
C637
330
1F
100
AcDbEntity
  8
1　製品
 48
15.0
100
AcDbCircle
 10
2447.288079342931
 20
2441.053312001874
 30
0.0
 40
15.0
  0
CIRCLE
  5
C638
330
1F
100
AcDbEntity
  8
1　製品
 48
15.0
100
AcDbCircle
 10
2487.288079342931
 20
2461.053312001874
 30
0.0
 40
15.0
  0
CIRCLE
  5
C639
330
1F
100
AcDbEntity
  8
1　製品
 48
15.0
100
AcDbCircle
 10
2327.288079342931
 20
2461.053312001874
 30
0.0
 40
15.0
  0
CIRCLE
  5
C63A
330
1F
100
AcDbEntity
  8
1　製品
 48
15.0
100
AcDbCircle
 10
2287.288079342931
 20
2441.053312001874
 30
0.0
 40
15.0
  0
CIRCLE
  5
C63B
330
1F
100
AcDbEntity
  8
1　製品
 48
15.0
100
AcDbCircle
 10
2367.288079342931
 20
2441.053312001874
 30
0.0
 40
15.0
  0
CIRCLE
  5
C63C
330
1F
100
AcDbEntity
  8
1　製品
 48
15.0
100
AcDbCircle
 10
2407.288079342931
 20
2421.053312001874
 30
0.0
 40
15.0
  0
LINE
  5
C63D
330
1F
100
AcDbEntity
  8
1　製品
100
AcDbLine
 10
2414.288079342931
 20
2382.053312001874
 30
0.0
 11
2535.788079342931
 21
2382.053312001874
 31
0.0
  0
CIRCLE
  5
C63E
330
1F
100
AcDbEntity
  8
1　製品
 48
15.0
100
AcDbCircle
 10
2327.288079342931
 20
2421.053312001874
 30
0.0
 40
15.0
  0
LINE
  5
C63F
330
1F
100
AcDbEntity
  8
1　製品
100
AcDbLine
 10
2414.288079342931
 20
2383.553312001874
 30
0.0
 11
2414.288079342931
 21
2382.053312001874
 31
0.0
  0
LINE
  5
C640
330
1F
100
AcDbEntity
  8
1　製品
 48
50.0
100
AcDbLine
 10
2534.288079342942
 20
2383.553312001874
 30
0.0
 11
2494.288079342942
 21
2383.553312001874
 31
0.0
  0
CIRCLE
  5
C641
330
1F
100
AcDbEntity
  8
1　製品
 48
15.0
100
AcDbCircle
 10
2487.288079342931
 20
2421.053312001874
 30
0.0
 40
15.0
  0
CIRCLE
  5
C642
330
1F
100
AcDbEntity
  8
1　製品
 48
15.0
100
AcDbCircle
 10
2407.288079342931
 20
2661.053312001874
 30
0.0
 40
15.0
  0
CIRCLE
  5
C643
330
1F
100
AcDbEntity
  8
1　製品
 48
15.0
100
AcDbCircle
 10
2407.288079342931
 20
2581.053312001874
 30
0.0
 40
15.0
  0
CIRCLE
  5
C644
330
1F
100
AcDbEntity
  8
1　製品
 48
15.0
100
AcDbCircle
 10
2407.288079342931
 20
2621.053312001874
 30
0.0
 40
15.0
  0
CIRCLE
  5
C645
330
1F
100
AcDbEntity
  8
1　製品
 48
15.0
100
AcDbCircle
 10
2407.288079342931
 20
2501.053312001874
 30
0.0
 40
15.0
  0
CIRCLE
  5
C646
330
1F
100
AcDbEntity
  8
1　製品
 48
15.0
100
AcDbCircle
 10
2407.288079342931
 20
2541.053312001874
 30
0.0
 40
15.0
  0
CIRCLE
  5
C647
330
1F
100
AcDbEntity
  8
1　製品
 48
15.0
100
AcDbCircle
 10
2327.288079342931
 20
2581.053312001874
 30
0.0
 40
15.0
  0
CIRCLE
  5
C648
330
1F
100
AcDbEntity
  8
1　製品
 48
15.0
100
AcDbCircle
 10
2287.288079342931
 20
2561.053312001874
 30
0.0
 40
15.0
  0
CIRCLE
  5
C649
330
1F
100
AcDbEntity
  8
1　製品
 48
15.0
100
AcDbCircle
 10
2367.288079342931
 20
2561.053312001874
 30
0.0
 40
15.0
  0
CIRCLE
  5
C64A
330
1F
100
AcDbEntity
  8
1　製品
 48
15.0
100
AcDbCircle
 10
2327.288079342931
 20
2501.053312001874
 30
0.0
 40
15.0
  0
CIRCLE
  5
C64B
330
1F
100
AcDbEntity
  8
1　製品
 48
15.0
100
AcDbCircle
 10
2327.288079342931
 20
2541.053312001874
 30
0.0
 40
15.0
  0
CIRCLE
  5
C64C
330
1F
100
AcDbEntity
  8
1　製品
 48
15.0
100
AcDbCircle
 10
2287.288079342931
 20
2521.053312001874
 30
0.0
 40
15.0
  0
CIRCLE
  5
C64D
330
1F
100
AcDbEntity
  8
1　製品
 48
15.0
100
AcDbCircle
 10
2287.288079342931
 20
2481.053312001874
 30
0.0
 40
15.0
  0
CIRCLE
  5
C64E
330
1F
100
AcDbEntity
  8
1　製品
 48
15.0
100
AcDbCircle
 10
2367.288079342931
 20
2521.053312001874
 30
0.0
 40
15.0
  0
CIRCLE
  5
C64F
330
1F
100
AcDbEntity
  8
1　製品
 48
15.0
100
AcDbCircle
 10
2367.288079342931
 20
2481.053312001874
 30
0.0
 40
15.0
  0
CIRCLE
  5
C650
330
1F
100
AcDbEntity
  8
1　製品
 48
15.0
100
AcDbCircle
 10
2327.288079342931
 20
2661.053312001874
 30
0.0
 40
15.0
  0
CIRCLE
  5
C651
330
1F
100
AcDbEntity
  8
1　製品
 48
15.0
100
AcDbCircle
 10
2327.288079342931
 20
2621.053312001874
 30
0.0
 40
15.0
  0
CIRCLE
  5
C652
330
1F
100
AcDbEntity
  8
1　製品
 48
15.0
100
AcDbCircle
 10
2287.288079342931
 20
2601.053312001874
 30
0.0
 40
15.0
  0
CIRCLE
  5
C653
330
1F
100
AcDbEntity
  8
1　製品
 48
15.0
100
AcDbCircle
 10
2287.288079342931
 20
2641.053312001874
 30
0.0
 40
15.0
  0
CIRCLE
  5
C654
330
1F
100
AcDbEntity
  8
1　製品
 48
15.0
100
AcDbCircle
 10
2367.288079342931
 20
2601.053312001874
 30
0.0
 40
15.0
  0
CIRCLE
  5
C655
330
1F
100
AcDbEntity
  8
1　製品
 48
15.0
100
AcDbCircle
 10
2367.288079342931
 20
2641.053312001874
 30
0.0
 40
15.0
  0
CIRCLE
  5
C656
330
1F
100
AcDbEntity
  8
1　製品
 48
15.0
100
AcDbCircle
 10
2447.288079342931
 20
2561.053312001874
 30
0.0
 40
15.0
  0
CIRCLE
  5
C657
330
1F
100
AcDbEntity
  8
1　製品
 48
15.0
100
AcDbCircle
 10
2487.288079342931
 20
2581.053312001874
 30
0.0
 40
15.0
  0
CIRCLE
  5
C658
330
1F
100
AcDbEntity
  8
1　製品
 48
15.0
100
AcDbCircle
 10
2487.288079342931
 20
2501.053312001874
 30
0.0
 40
15.0
  0
CIRCLE
  5
C659
330
1F
100
AcDbEntity
  8
1　製品
 48
15.0
100
AcDbCircle
 10
2487.288079342931
 20
2541.053312001874
 30
0.0
 40
15.0
  0
CIRCLE
  5
C65A
330
1F
100
AcDbEntity
  8
1　製品
 48
15.0
100
AcDbCircle
 10
2447.288079342931
 20
2521.053312001874
 30
0.0
 40
15.0
  0
CIRCLE
  5
C65B
330
1F
100
AcDbEntity
  8
1　製品
 48
15.0
100
AcDbCircle
 10
2447.288079342931
 20
2481.053312001874
 30
0.0
 40
15.0
  0
LINE
  5
C65C
330
1F
100
AcDbEntity
  8
1　製品
100
AcDbLine
 10
2534.288079342931
 20
2503.553312001874
 30
0.0
 11
2535.788079342939
 21
2503.553312001874
 31
0.0
  0
LINE
  5
C65D
330
1F
100
AcDbEntity
  8
1　製品
  6
CENTER
100
AcDbLine
 10
2569.288079342939
 20
2471.553312001878
 30
0.0
 11
2569.288079342939
 21
2450.553312001878
 31
0.0
  0
CIRCLE
  5
C65E
330
1F
100
AcDbEntity
  8
1　製品
 48
15.0
100
AcDbCircle
 10
2569.288079342939
 20
2461.053312001874
 30
0.0
 40
3.5
  0
CIRCLE
  5
C65F
330
1F
100
AcDbEntity
  8
1　製品
 48
15.0
100
AcDbCircle
 10
2487.288079342931
 20
2621.053312001874
 30
0.0
 40
15.0
  0
CIRCLE
  5
C660
330
1F
100
AcDbEntity
  8
1　製品
 48
15.0
100
AcDbCircle
 10
2487.288079342931
 20
2661.053312001874
 30
0.0
 40
15.0
  0
CIRCLE
  5
C661
330
1F
100
AcDbEntity
  8
1　製品
 48
15.0
100
AcDbCircle
 10
2447.288079342931
 20
2601.053312001874
 30
0.0
 40
15.0
  0
CIRCLE
  5
C662
330
1F
100
AcDbEntity
  8
1　製品
 48
15.0
100
AcDbCircle
 10
2447.288079342931
 20
2641.053312001874
 30
0.0
 40
15.0
  0
CIRCLE
  5
C663
330
1F
100
AcDbEntity
  8
1　製品
 48
15.0
100
AcDbCircle
 10
2569.288079342939
 20
2611.053312001878
 30
0.0
 40
3.5
  0
LINE
  5
C664
330
1F
100
AcDbEntity
  8
1　製品
  6
CENTER
100
AcDbLine
 10
2569.288079342939
 20
2621.553312001882
 30
0.0
 11
2569.288079342939
 21
2600.553312001882
 31
0.0
  0
CIRCLE
  5
C665
330
1F
100
AcDbEntity
  8
1　製品
 48
15.0
100
AcDbCircle
 10
2247.288079342931
 20
3101.053312001874
 30
0.0
 40
15.0
  0
CIRCLE
  5
C666
330
1F
100
AcDbEntity
  8
1　製品
 48
15.0
100
AcDbCircle
 10
2247.288079342931
 20
2941.053312001874
 30
0.0
 40
15.0
  0
CIRCLE
  5
C667
330
1F
100
AcDbEntity
  8
1　製品
 48
15.0
100
AcDbCircle
 10
2247.288079342931
 20
2901.053312001874
 30
0.0
 40
15.0
  0
CIRCLE
  5
C668
330
1F
100
AcDbEntity
  8
1　製品
 48
15.0
100
AcDbCircle
 10
2247.288079342931
 20
2981.053312001874
 30
0.0
 40
15.0
  0
CIRCLE
  5
C669
330
1F
100
AcDbEntity
  8
1　製品
 48
15.0
100
AcDbCircle
 10
2247.288079342931
 20
3021.053312001874
 30
0.0
 40
15.0
  0
CIRCLE
  5
C66A
330
1F
100
AcDbEntity
  8
1　製品
 48
15.0
100
AcDbCircle
 10
2247.288079342931
 20
3061.053312001874
 30
0.0
 40
15.0
  0
CIRCLE
  5
C66B
330
1F
100
AcDbEntity
  8
1　製品
 48
15.0
100
AcDbCircle
 10
2247.288079342931
 20
2861.053312001874
 30
0.0
 40
15.0
  0
CIRCLE
  5
C66C
330
1F
100
AcDbEntity
  8
1　製品
 48
15.0
100
AcDbCircle
 10
2247.288079342931
 20
2741.053312001874
 30
0.0
 40
15.0
  0
CIRCLE
  5
C66D
330
1F
100
AcDbEntity
  8
1　製品
 48
15.0
100
AcDbCircle
 10
2247.288079342931
 20
2821.053312001874
 30
0.0
 40
15.0
  0
CIRCLE
  5
C66E
330
1F
100
AcDbEntity
  8
1　製品
 48
15.0
100
AcDbCircle
 10
2247.288079342931
 20
2781.053312001874
 30
0.0
 40
15.0
  0
CIRCLE
  5
C66F
330
1F
100
AcDbEntity
  8
1　製品
 48
15.0
100
AcDbCircle
 10
2247.288079342931
 20
2701.053312001874
 30
0.0
 40
15.0
  0
CIRCLE
  5
C670
330
1F
100
AcDbEntity
  8
1　製品
 48
15.0
100
AcDbCircle
 10
2207.288079342931
 20
2921.053312001874
 30
0.0
 40
15.0
  0
CIRCLE
  5
C671
330
1F
100
AcDbEntity
  8
1　製品
 48
15.0
100
AcDbCircle
 10
2127.288079342931
 20
2921.053312001874
 30
0.0
 40
15.0
  0
CIRCLE
  5
C672
330
1F
100
AcDbEntity
  8
1　製品
 48
15.0
100
AcDbCircle
 10
2167.288079342931
 20
2901.053312001874
 30
0.0
 40
15.0
  0
CIRCLE
  5
C673
330
1F
100
AcDbEntity
  8
1　製品
 48
15.0
100
AcDbCircle
 10
2087.288079342935
 20
2901.053312001874
 30
0.0
 40
15.0
  0
CIRCLE
  5
C674
330
1F
100
AcDbEntity
  8
1　製品
 48
15.0
100
AcDbCircle
 10
2007.288079342935
 20
2901.053312001874
 30
0.0
 40
15.0
  0
CIRCLE
  5
C675
330
1F
100
AcDbEntity
  8
1　製品
 48
15.0
100
AcDbCircle
 10
2047.288079342935
 20
2921.053312001874
 30
0.0
 40
15.0
  0
CIRCLE
  5
C676
330
1F
100
AcDbEntity
  8
1　製品
 48
15.0
100
AcDbCircle
 10
1967.288079342935
 20
2921.053312001874
 30
0.0
 40
15.0
  0
CIRCLE
  5
C677
330
1F
100
AcDbEntity
  8
1　製品
 48
15.0
100
AcDbCircle
 10
2087.288079342935
 20
2861.053312001874
 30
0.0
 40
15.0
  0
CIRCLE
  5
C678
330
1F
100
AcDbEntity
  8
1　製品
 48
15.0
100
AcDbCircle
 10
2087.288079342935
 20
2821.053312001874
 30
0.0
 40
15.0
  0
CIRCLE
  5
C679
330
1F
100
AcDbEntity
  8
1　製品
 48
15.0
100
AcDbCircle
 10
2087.288079342935
 20
2741.053312001874
 30
0.0
 40
15.0
  0
CIRCLE
  5
C67A
330
1F
100
AcDbEntity
  8
1　製品
 48
15.0
100
AcDbCircle
 10
2087.288079342935
 20
2781.053312001874
 30
0.0
 40
15.0
  0
CIRCLE
  5
C67B
330
1F
100
AcDbEntity
  8
1　製品
 48
15.0
100
AcDbCircle
 10
2087.288079342935
 20
2701.053312001874
 30
0.0
 40
15.0
  0
CIRCLE
  5
C67C
330
1F
100
AcDbEntity
  8
1　製品
 48
15.0
100
AcDbCircle
 10
2047.288079342935
 20
2801.053312001874
 30
0.0
 40
15.0
  0
CIRCLE
  5
C67D
330
1F
100
AcDbEntity
  8
1　製品
 48
15.0
100
AcDbCircle
 10
1967.288079342935
 20
2801.053312001874
 30
0.0
 40
15.0
  0
CIRCLE
  5
C67E
330
1F
100
AcDbEntity
  8
1　製品
 48
15.0
100
AcDbCircle
 10
2007.288079342935
 20
2741.053312001874
 30
0.0
 40
15.0
  0
CIRCLE
  5
C67F
330
1F
100
AcDbEntity
  8
1　製品
 48
15.0
100
AcDbCircle
 10
2007.288079342935
 20
2781.053312001874
 30
0.0
 40
15.0
  0
CIRCLE
  5
C680
330
1F
100
AcDbEntity
  8
1　製品
 48
15.0
100
AcDbCircle
 10
2007.288079342935
 20
2701.053312001874
 30
0.0
 40
15.0
  0
CIRCLE
  5
C681
330
1F
100
AcDbEntity
  8
1　製品
 48
15.0
100
AcDbCircle
 10
1967.288079342935
 20
2721.053312001874
 30
0.0
 40
15.0
  0
CIRCLE
  5
C682
330
1F
100
AcDbEntity
  8
1　製品
 48
15.0
100
AcDbCircle
 10
1967.288079342935
 20
2761.053312001874
 30
0.0
 40
15.0
  0
CIRCLE
  5
C683
330
1F
100
AcDbEntity
  8
1　製品
 48
15.0
100
AcDbCircle
 10
2047.288079342935
 20
2721.053312001874
 30
0.0
 40
15.0
  0
CIRCLE
  5
C684
330
1F
100
AcDbEntity
  8
1　製品
 48
15.0
100
AcDbCircle
 10
2047.288079342935
 20
2761.053312001874
 30
0.0
 40
15.0
  0
CIRCLE
  5
C685
330
1F
100
AcDbEntity
  8
1　製品
 48
15.0
100
AcDbCircle
 10
2007.288079342935
 20
2861.053312001874
 30
0.0
 40
15.0
  0
CIRCLE
  5
C686
330
1F
100
AcDbEntity
  8
1　製品
 48
15.0
100
AcDbCircle
 10
2007.288079342935
 20
2821.053312001874
 30
0.0
 40
15.0
  0
CIRCLE
  5
C687
330
1F
100
AcDbEntity
  8
1　製品
 48
15.0
100
AcDbCircle
 10
1967.288079342935
 20
2841.053312001874
 30
0.0
 40
15.0
  0
CIRCLE
  5
C688
330
1F
100
AcDbEntity
  8
1　製品
 48
15.0
100
AcDbCircle
 10
1967.288079342935
 20
2881.053312001874
 30
0.0
 40
15.0
  0
CIRCLE
  5
C689
330
1F
100
AcDbEntity
  8
1　製品
 48
15.0
100
AcDbCircle
 10
2047.288079342935
 20
2841.053312001874
 30
0.0
 40
15.0
  0
CIRCLE
  5
C68A
330
1F
100
AcDbEntity
  8
1　製品
 48
15.0
100
AcDbCircle
 10
2047.288079342935
 20
2881.053312001874
 30
0.0
 40
15.0
  0
CIRCLE
  5
C68B
330
1F
100
AcDbEntity
  8
1　製品
 48
15.0
100
AcDbCircle
 10
2207.288079342931
 20
2801.053312001874
 30
0.0
 40
15.0
  0
CIRCLE
  5
C68C
330
1F
100
AcDbEntity
  8
1　製品
 48
15.0
100
AcDbCircle
 10
2127.288079342931
 20
2801.053312001874
 30
0.0
 40
15.0
  0
CIRCLE
  5
C68D
330
1F
100
AcDbEntity
  8
1　製品
 48
15.0
100
AcDbCircle
 10
2167.288079342931
 20
2741.053312001874
 30
0.0
 40
15.0
  0
CIRCLE
  5
C68E
330
1F
100
AcDbEntity
  8
1　製品
 48
15.0
100
AcDbCircle
 10
2167.288079342931
 20
2781.053312001874
 30
0.0
 40
15.0
  0
CIRCLE
  5
C68F
330
1F
100
AcDbEntity
  8
1　製品
 48
15.0
100
AcDbCircle
 10
2167.288079342931
 20
2701.053312001874
 30
0.0
 40
15.0
  0
CIRCLE
  5
C690
330
1F
100
AcDbEntity
  8
1　製品
 48
15.0
100
AcDbCircle
 10
2127.288079342931
 20
2721.053312001874
 30
0.0
 40
15.0
  0
CIRCLE
  5
C691
330
1F
100
AcDbEntity
  8
1　製品
 48
15.0
100
AcDbCircle
 10
2127.288079342931
 20
2761.053312001874
 30
0.0
 40
15.0
  0
CIRCLE
  5
C692
330
1F
100
AcDbEntity
  8
1　製品
 48
15.0
100
AcDbCircle
 10
2207.288079342931
 20
2721.053312001874
 30
0.0
 40
15.0
  0
CIRCLE
  5
C693
330
1F
100
AcDbEntity
  8
1　製品
 48
15.0
100
AcDbCircle
 10
2207.288079342931
 20
2761.053312001874
 30
0.0
 40
15.0
  0
CIRCLE
  5
C694
330
1F
100
AcDbEntity
  8
1　製品
 48
15.0
100
AcDbCircle
 10
2167.288079342931
 20
2861.053312001874
 30
0.0
 40
15.0
  0
CIRCLE
  5
C695
330
1F
100
AcDbEntity
  8
1　製品
 48
15.0
100
AcDbCircle
 10
2167.288079342931
 20
2821.053312001874
 30
0.0
 40
15.0
  0
CIRCLE
  5
C696
330
1F
100
AcDbEntity
  8
1　製品
 48
15.0
100
AcDbCircle
 10
2127.288079342931
 20
2841.053312001874
 30
0.0
 40
15.0
  0
CIRCLE
  5
C697
330
1F
100
AcDbEntity
  8
1　製品
 48
15.0
100
AcDbCircle
 10
2127.288079342931
 20
2881.053312001874
 30
0.0
 40
15.0
  0
CIRCLE
  5
C698
330
1F
100
AcDbEntity
  8
1　製品
 48
15.0
100
AcDbCircle
 10
2207.288079342931
 20
2841.053312001874
 30
0.0
 40
15.0
  0
CIRCLE
  5
C699
330
1F
100
AcDbEntity
  8
1　製品
 48
15.0
100
AcDbCircle
 10
2207.288079342931
 20
2881.053312001874
 30
0.0
 40
15.0
  0
CIRCLE
  5
C69A
330
1F
100
AcDbEntity
  8
1　製品
 48
15.0
100
AcDbCircle
 10
2087.288079342935
 20
3101.053312001874
 30
0.0
 40
15.0
  0
CIRCLE
  5
C69B
330
1F
100
AcDbEntity
  8
1　製品
 48
15.0
100
AcDbCircle
 10
2087.288079342935
 20
3021.053312001874
 30
0.0
 40
15.0
  0
CIRCLE
  5
C69C
330
1F
100
AcDbEntity
  8
1　製品
 48
15.0
100
AcDbCircle
 10
2087.288079342935
 20
2941.053312001874
 30
0.0
 40
15.0
  0
CIRCLE
  5
C69D
330
1F
100
AcDbEntity
  8
1　製品
 48
15.0
100
AcDbCircle
 10
2087.288079342935
 20
2981.053312001874
 30
0.0
 40
15.0
  0
CIRCLE
  5
C69E
330
1F
100
AcDbEntity
  8
1　製品
 48
15.0
100
AcDbCircle
 10
2087.288079342935
 20
3061.053312001874
 30
0.0
 40
15.0
  0
CIRCLE
  5
C69F
330
1F
100
AcDbEntity
  8
1　製品
 48
15.0
100
AcDbCircle
 10
2007.288079342935
 20
3021.053312001874
 30
0.0
 40
15.0
  0
CIRCLE
  5
C6A0
330
1F
100
AcDbEntity
  8
1　製品
 48
15.0
100
AcDbCircle
 10
2047.288079342935
 20
3041.053312001874
 30
0.0
 40
15.0
  0
CIRCLE
  5
C6A1
330
1F
100
AcDbEntity
  8
1　製品
 48
15.0
100
AcDbCircle
 10
1967.288079342935
 20
3041.053312001874
 30
0.0
 40
15.0
  0
CIRCLE
  5
C6A2
330
1F
100
AcDbEntity
  8
1　製品
 48
15.0
100
AcDbCircle
 10
2007.288079342935
 20
2941.053312001874
 30
0.0
 40
15.0
  0
CIRCLE
  5
C6A3
330
1F
100
AcDbEntity
  8
1　製品
 48
15.0
100
AcDbCircle
 10
2007.288079342935
 20
2981.053312001874
 30
0.0
 40
15.0
  0
CIRCLE
  5
C6A4
330
1F
100
AcDbEntity
  8
1　製品
 48
15.0
100
AcDbCircle
 10
1967.288079342935
 20
2961.053312001874
 30
0.0
 40
15.0
  0
CIRCLE
  5
C6A5
330
1F
100
AcDbEntity
  8
1　製品
 48
15.0
100
AcDbCircle
 10
1967.288079342935
 20
3001.053312001874
 30
0.0
 40
15.0
  0
CIRCLE
  5
C6A6
330
1F
100
AcDbEntity
  8
1　製品
 48
15.0
100
AcDbCircle
 10
2047.288079342935
 20
2961.053312001874
 30
0.0
 40
15.0
  0
CIRCLE
  5
C6A7
330
1F
100
AcDbEntity
  8
1　製品
 48
15.0
100
AcDbCircle
 10
2047.288079342935
 20
3001.053312001874
 30
0.0
 40
15.0
  0
CIRCLE
  5
C6A8
330
1F
100
AcDbEntity
  8
1　製品
 48
15.0
100
AcDbCircle
 10
2007.288079342935
 20
3101.053312001874
 30
0.0
 40
15.0
  0
CIRCLE
  5
C6A9
330
1F
100
AcDbEntity
  8
1　製品
 48
15.0
100
AcDbCircle
 10
2007.288079342935
 20
3061.053312001874
 30
0.0
 40
15.0
  0
CIRCLE
  5
C6AA
330
1F
100
AcDbEntity
  8
1　製品
 48
15.0
100
AcDbCircle
 10
1967.288079342935
 20
3081.053312001874
 30
0.0
 40
15.0
  0
CIRCLE
  5
C6AB
330
1F
100
AcDbEntity
  8
1　製品
 48
15.0
100
AcDbCircle
 10
2047.288079342935
 20
3081.053312001874
 30
0.0
 40
15.0
  0
CIRCLE
  5
C6AC
330
1F
100
AcDbEntity
  8
1　製品
 48
15.0
100
AcDbCircle
 10
2207.288079342931
 20
3041.053312001874
 30
0.0
 40
15.0
  0
CIRCLE
  5
C6AD
330
1F
100
AcDbEntity
  8
1　製品
 48
15.0
100
AcDbCircle
 10
2127.288079342931
 20
3041.053312001874
 30
0.0
 40
15.0
  0
CIRCLE
  5
C6AE
330
1F
100
AcDbEntity
  8
1　製品
 48
15.0
100
AcDbCircle
 10
2167.288079342931
 20
3021.053312001874
 30
0.0
 40
15.0
  0
CIRCLE
  5
C6AF
330
1F
100
AcDbEntity
  8
1　製品
 48
15.0
100
AcDbCircle
 10
2167.288079342931
 20
2941.053312001874
 30
0.0
 40
15.0
  0
CIRCLE
  5
C6B0
330
1F
100
AcDbEntity
  8
1　製品
 48
15.0
100
AcDbCircle
 10
2167.288079342931
 20
2981.053312001874
 30
0.0
 40
15.0
  0
CIRCLE
  5
C6B1
330
1F
100
AcDbEntity
  8
1　製品
 48
15.0
100
AcDbCircle
 10
2127.288079342931
 20
2961.053312001874
 30
0.0
 40
15.0
  0
CIRCLE
  5
C6B2
330
1F
100
AcDbEntity
  8
1　製品
 48
15.0
100
AcDbCircle
 10
2127.288079342931
 20
3001.053312001874
 30
0.0
 40
15.0
  0
CIRCLE
  5
C6B3
330
1F
100
AcDbEntity
  8
1　製品
 48
15.0
100
AcDbCircle
 10
2207.288079342931
 20
2961.053312001874
 30
0.0
 40
15.0
  0
CIRCLE
  5
C6B4
330
1F
100
AcDbEntity
  8
1　製品
 48
15.0
100
AcDbCircle
 10
2207.288079342931
 20
3001.053312001874
 30
0.0
 40
15.0
  0
CIRCLE
  5
C6B5
330
1F
100
AcDbEntity
  8
1　製品
 48
15.0
100
AcDbCircle
 10
2167.288079342931
 20
3101.053312001874
 30
0.0
 40
15.0
  0
CIRCLE
  5
C6B6
330
1F
100
AcDbEntity
  8
1　製品
 48
15.0
100
AcDbCircle
 10
2167.288079342931
 20
3061.053312001874
 30
0.0
 40
15.0
  0
CIRCLE
  5
C6B7
330
1F
100
AcDbEntity
  8
1　製品
 48
15.0
100
AcDbCircle
 10
2127.288079342931
 20
3081.053312001874
 30
0.0
 40
15.0
  0
CIRCLE
  5
C6B8
330
1F
100
AcDbEntity
  8
1　製品
 48
15.0
100
AcDbCircle
 10
2207.288079342931
 20
3081.053312001874
 30
0.0
 40
15.0
  0
LINE
  5
C6B9
330
1F
100
AcDbEntity
  8
1　製品
  6
CENTER
100
AcDbLine
 10
2569.288079342939
 20
2921.553312001882
 30
0.0
 11
2569.288079342939
 21
2900.553312001882
 31
0.0
  0
CIRCLE
  5
C6BA
330
1F
100
AcDbEntity
  8
1　製品
 48
15.0
100
AcDbCircle
 10
2569.288079342939
 20
2911.053312001878
 30
0.0
 40
3.5
  0
CIRCLE
  5
C6BB
330
1F
100
AcDbEntity
  8
1　製品
 48
15.0
100
AcDbCircle
 10
2407.288079342931
 20
2901.053312001874
 30
0.0
 40
15.0
  0
CIRCLE
  5
C6BC
330
1F
100
AcDbEntity
  8
1　製品
 48
15.0
100
AcDbCircle
 10
2447.288079342931
 20
2921.053312001874
 30
0.0
 40
15.0
  0
CIRCLE
  5
C6BD
330
1F
100
AcDbEntity
  8
1　製品
 48
15.0
100
AcDbCircle
 10
2487.288079342931
 20
2901.053312001874
 30
0.0
 40
15.0
  0
CIRCLE
  5
C6BE
330
1F
100
AcDbEntity
  8
1　製品
 48
15.0
100
AcDbCircle
 10
2327.288079342931
 20
2901.053312001874
 30
0.0
 40
15.0
  0
CIRCLE
  5
C6BF
330
1F
100
AcDbEntity
  8
1　製品
 48
15.0
100
AcDbCircle
 10
2287.288079342931
 20
2921.053312001874
 30
0.0
 40
15.0
  0
CIRCLE
  5
C6C0
330
1F
100
AcDbEntity
  8
1　製品
 48
15.0
100
AcDbCircle
 10
2367.288079342931
 20
2921.053312001874
 30
0.0
 40
15.0
  0
CIRCLE
  5
C6C1
330
1F
100
AcDbEntity
  8
1　製品
 48
15.0
100
AcDbCircle
 10
2407.288079342931
 20
2861.053312001874
 30
0.0
 40
15.0
  0
CIRCLE
  5
C6C2
330
1F
100
AcDbEntity
  8
1　製品
 48
15.0
100
AcDbCircle
 10
2407.288079342931
 20
2821.053312001874
 30
0.0
 40
15.0
  0
CIRCLE
  5
C6C3
330
1F
100
AcDbEntity
  8
1　製品
 48
15.0
100
AcDbCircle
 10
2407.288079342931
 20
2741.053312001874
 30
0.0
 40
15.0
  0
CIRCLE
  5
C6C4
330
1F
100
AcDbEntity
  8
1　製品
 48
15.0
100
AcDbCircle
 10
2407.288079342931
 20
2781.053312001874
 30
0.0
 40
15.0
  0
CIRCLE
  5
C6C5
330
1F
100
AcDbEntity
  8
1　製品
 48
15.0
100
AcDbCircle
 10
2407.288079342931
 20
2701.053312001874
 30
0.0
 40
15.0
  0
CIRCLE
  5
C6C6
330
1F
100
AcDbEntity
  8
1　製品
 48
15.0
100
AcDbCircle
 10
2287.288079342931
 20
2801.053312001874
 30
0.0
 40
15.0
  0
CIRCLE
  5
C6C7
330
1F
100
AcDbEntity
  8
1　製品
 48
15.0
100
AcDbCircle
 10
2367.288079342931
 20
2801.053312001874
 30
0.0
 40
15.0
  0
CIRCLE
  5
C6C8
330
1F
100
AcDbEntity
  8
1　製品
 48
15.0
100
AcDbCircle
 10
2327.288079342931
 20
2741.053312001874
 30
0.0
 40
15.0
  0
CIRCLE
  5
C6C9
330
1F
100
AcDbEntity
  8
1　製品
 48
15.0
100
AcDbCircle
 10
2327.288079342931
 20
2781.053312001874
 30
0.0
 40
15.0
  0
CIRCLE
  5
C6CA
330
1F
100
AcDbEntity
  8
1　製品
 48
15.0
100
AcDbCircle
 10
2327.288079342931
 20
2701.053312001874
 30
0.0
 40
15.0
  0
CIRCLE
  5
C6CB
330
1F
100
AcDbEntity
  8
1　製品
 48
15.0
100
AcDbCircle
 10
2287.288079342931
 20
2721.053312001874
 30
0.0
 40
15.0
  0
CIRCLE
  5
C6CC
330
1F
100
AcDbEntity
  8
1　製品
 48
15.0
100
AcDbCircle
 10
2287.288079342931
 20
2761.053312001874
 30
0.0
 40
15.0
  0
CIRCLE
  5
C6CD
330
1F
100
AcDbEntity
  8
1　製品
 48
15.0
100
AcDbCircle
 10
2367.288079342931
 20
2721.053312001874
 30
0.0
 40
15.0
  0
CIRCLE
  5
C6CE
330
1F
100
AcDbEntity
  8
1　製品
 48
15.0
100
AcDbCircle
 10
2367.288079342931
 20
2761.053312001874
 30
0.0
 40
15.0
  0
CIRCLE
  5
C6CF
330
1F
100
AcDbEntity
  8
1　製品
 48
15.0
100
AcDbCircle
 10
2327.288079342931
 20
2861.053312001874
 30
0.0
 40
15.0
  0
CIRCLE
  5
C6D0
330
1F
100
AcDbEntity
  8
1　製品
 48
15.0
100
AcDbCircle
 10
2327.288079342931
 20
2821.053312001874
 30
0.0
 40
15.0
  0
CIRCLE
  5
C6D1
330
1F
100
AcDbEntity
  8
1　製品
 48
15.0
100
AcDbCircle
 10
2287.288079342931
 20
2841.053312001874
 30
0.0
 40
15.0
  0
CIRCLE
  5
C6D2
330
1F
100
AcDbEntity
  8
1　製品
 48
15.0
100
AcDbCircle
 10
2287.288079342931
 20
2881.053312001874
 30
0.0
 40
15.0
  0
CIRCLE
  5
C6D3
330
1F
100
AcDbEntity
  8
1　製品
 48
15.0
100
AcDbCircle
 10
2367.288079342931
 20
2841.053312001874
 30
0.0
 40
15.0
  0
CIRCLE
  5
C6D4
330
1F
100
AcDbEntity
  8
1　製品
 48
15.0
100
AcDbCircle
 10
2367.288079342931
 20
2881.053312001874
 30
0.0
 40
15.0
  0
CIRCLE
  5
C6D5
330
1F
100
AcDbEntity
  8
1　製品
 48
15.0
100
AcDbCircle
 10
2447.288079342931
 20
2801.053312001874
 30
0.0
 40
15.0
  0
CIRCLE
  5
C6D6
330
1F
100
AcDbEntity
  8
1　製品
 48
15.0
100
AcDbCircle
 10
2487.288079342931
 20
2741.053312001874
 30
0.0
 40
15.0
  0
CIRCLE
  5
C6D7
330
1F
100
AcDbEntity
  8
1　製品
 48
15.0
100
AcDbCircle
 10
2487.288079342931
 20
2781.053312001874
 30
0.0
 40
15.0
  0
CIRCLE
  5
C6D8
330
1F
100
AcDbEntity
  8
1　製品
 48
15.0
100
AcDbCircle
 10
2487.288079342931
 20
2701.053312001874
 30
0.0
 40
15.0
  0
CIRCLE
  5
C6D9
330
1F
100
AcDbEntity
  8
1　製品
 48
15.0
100
AcDbCircle
 10
2447.288079342931
 20
2721.053312001874
 30
0.0
 40
15.0
  0
CIRCLE
  5
C6DA
330
1F
100
AcDbEntity
  8
1　製品
 48
15.0
100
AcDbCircle
 10
2447.288079342931
 20
2761.053312001874
 30
0.0
 40
15.0
  0
LINE
  5
C6DB
330
1F
100
AcDbEntity
  8
1　製品
  6
CENTER
100
AcDbLine
 10
2569.288079342939
 20
2771.553312001882
 30
0.0
 11
2569.288079342939
 21
2750.553312001882
 31
0.0
  0
CIRCLE
  5
C6DC
330
1F
100
AcDbEntity
  8
1　製品
 48
15.0
100
AcDbCircle
 10
2569.288079342939
 20
2761.053312001878
 30
0.0
 40
3.5
  0
CIRCLE
  5
C6DD
330
1F
100
AcDbEntity
  8
1　製品
 48
15.0
100
AcDbCircle
 10
2487.288079342931
 20
2861.053312001874
 30
0.0
 40
15.0
  0
CIRCLE
  5
C6DE
330
1F
100
AcDbEntity
  8
1　製品
 48
15.0
100
AcDbCircle
 10
2487.288079342931
 20
2821.053312001874
 30
0.0
 40
15.0
  0
CIRCLE
  5
C6DF
330
1F
100
AcDbEntity
  8
1　製品
 48
15.0
100
AcDbCircle
 10
2447.288079342931
 20
2841.053312001874
 30
0.0
 40
15.0
  0
CIRCLE
  5
C6E0
330
1F
100
AcDbEntity
  8
1　製品
 48
15.0
100
AcDbCircle
 10
2447.288079342931
 20
2881.053312001874
 30
0.0
 40
15.0
  0
CIRCLE
  5
C6E1
330
1F
100
AcDbEntity
  8
1　製品
 48
15.0
100
AcDbCircle
 10
2407.288079342931
 20
3101.053312001874
 30
0.0
 40
15.0
  0
LINE
  5
C6E2
330
1F
100
AcDbEntity
  8
1　製品
100
AcDbLine
 10
2414.288079342931
 20
3140.053312001871
 30
0.0
 11
2535.788079342935
 21
3140.053312001874
 31
0.0
  0
CIRCLE
  5
C6E3
330
1F
100
AcDbEntity
  8
1　製品
 48
15.0
100
AcDbCircle
 10
2407.288079342931
 20
3021.053312001874
 30
0.0
 40
15.0
  0
CIRCLE
  5
C6E4
330
1F
100
AcDbEntity
  8
1　製品
 48
15.0
100
AcDbCircle
 10
2407.288079342931
 20
2941.053312001874
 30
0.0
 40
15.0
  0
CIRCLE
  5
C6E5
330
1F
100
AcDbEntity
  8
1　製品
 48
15.0
100
AcDbCircle
 10
2407.288079342931
 20
2981.053312001874
 30
0.0
 40
15.0
  0
CIRCLE
  5
C6E6
330
1F
100
AcDbEntity
  8
1　製品
 48
15.0
100
AcDbCircle
 10
2407.288079342931
 20
3061.053312001874
 30
0.0
 40
15.0
  0
CIRCLE
  5
C6E7
330
1F
100
AcDbEntity
  8
1　製品
 48
15.0
100
AcDbCircle
 10
2327.288079342931
 20
3021.053312001874
 30
0.0
 40
15.0
  0
CIRCLE
  5
C6E8
330
1F
100
AcDbEntity
  8
1　製品
 48
15.0
100
AcDbCircle
 10
2287.288079342931
 20
3041.053312001874
 30
0.0
 40
15.0
  0
CIRCLE
  5
C6E9
330
1F
100
AcDbEntity
  8
1　製品
 48
15.0
100
AcDbCircle
 10
2367.288079342931
 20
3041.053312001874
 30
0.0
 40
15.0
  0
CIRCLE
  5
C6EA
330
1F
100
AcDbEntity
  8
1　製品
 48
15.0
100
AcDbCircle
 10
2327.288079342931
 20
2941.053312001874
 30
0.0
 40
15.0
  0
CIRCLE
  5
C6EB
330
1F
100
AcDbEntity
  8
1　製品
 48
15.0
100
AcDbCircle
 10
2327.288079342931
 20
2981.053312001874
 30
0.0
 40
15.0
  0
CIRCLE
  5
C6EC
330
1F
100
AcDbEntity
  8
1　製品
 48
15.0
100
AcDbCircle
 10
2287.288079342931
 20
2961.053312001874
 30
0.0
 40
15.0
  0
CIRCLE
  5
C6ED
330
1F
100
AcDbEntity
  8
1　製品
 48
15.0
100
AcDbCircle
 10
2287.288079342931
 20
3001.053312001874
 30
0.0
 40
15.0
  0
CIRCLE
  5
C6EE
330
1F
100
AcDbEntity
  8
1　製品
 48
15.0
100
AcDbCircle
 10
2367.288079342931
 20
2961.053312001874
 30
0.0
 40
15.0
  0
CIRCLE
  5
C6EF
330
1F
100
AcDbEntity
  8
1　製品
 48
15.0
100
AcDbCircle
 10
2367.288079342931
 20
3001.053312001874
 30
0.0
 40
15.0
  0
CIRCLE
  5
C6F0
330
1F
100
AcDbEntity
  8
1　製品
 48
15.0
100
AcDbCircle
 10
2327.288079342931
 20
3101.053312001874
 30
0.0
 40
15.0
  0
CIRCLE
  5
C6F1
330
1F
100
AcDbEntity
  8
1　製品
 48
15.0
100
AcDbCircle
 10
2327.288079342931
 20
3061.053312001874
 30
0.0
 40
15.0
  0
CIRCLE
  5
C6F2
330
1F
100
AcDbEntity
  8
1　製品
 48
15.0
100
AcDbCircle
 10
2287.288079342931
 20
3081.053312001874
 30
0.0
 40
15.0
  0
CIRCLE
  5
C6F3
330
1F
100
AcDbEntity
  8
1　製品
 48
15.0
100
AcDbCircle
 10
2367.288079342931
 20
3081.053312001874
 30
0.0
 40
15.0
  0
LINE
  5
C6F4
330
1F
100
AcDbEntity
  8
1　製品
100
AcDbLine
 10
2414.288079342931
 20
3140.053312001871
 30
0.0
 11
2414.288079342931
 21
3138.553312001874
 31
0.0
  0
CIRCLE
  5
C6F5
330
1F
100
AcDbEntity
  8
1　製品
 48
15.0
100
AcDbCircle
 10
2447.288079342931
 20
3041.053312001874
 30
0.0
 40
15.0
  0
CIRCLE
  5
C6F6
330
1F
100
AcDbEntity
  8
1　製品
 48
15.0
100
AcDbCircle
 10
2487.288079342931
 20
3021.053312001874
 30
0.0
 40
15.0
  0
LINE
  5
C6F7
330
1F
100
AcDbEntity
  8
1　製品
100
AcDbLine
 10
2535.788079342935
 20
3140.053312001874
 30
0.0
 11
2535.788079342939
 21
3018.553312001874
 31
0.0
  0
CIRCLE
  5
C6F8
330
1F
100
AcDbEntity
  8
1　製品
 48
15.0
100
AcDbCircle
 10
2487.288079342931
 20
2941.053312001874
 30
0.0
 40
15.0
  0
CIRCLE
  5
C6F9
330
1F
100
AcDbEntity
  8
1　製品
 48
15.0
100
AcDbCircle
 10
2487.288079342931
 20
2981.053312001874
 30
0.0
 40
15.0
  0
CIRCLE
  5
C6FA
330
1F
100
AcDbEntity
  8
1　製品
 48
15.0
100
AcDbCircle
 10
2447.288079342931
 20
2961.053312001874
 30
0.0
 40
15.0
  0
CIRCLE
  5
C6FB
330
1F
100
AcDbEntity
  8
1　製品
 48
15.0
100
AcDbCircle
 10
2447.288079342931
 20
3001.053312001874
 30
0.0
 40
15.0
  0
LINE
  5
C6FC
330
1F
100
AcDbEntity
  8
1　製品
100
AcDbLine
 10
2534.288079342931
 20
3018.553312001874
 30
0.0
 11
2535.788079342939
 21
3018.553312001874
 31
0.0
  0
CIRCLE
  5
C6FD
330
1F
100
AcDbEntity
  8
1　製品
 48
15.0
100
AcDbCircle
 10
2487.288079342931
 20
3101.053312001874
 30
0.0
 40
15.0
  0
LINE
  5
C6FE
330
1F
100
AcDbEntity
  8
1　製品
 48
50.0
100
AcDbLine
 10
2534.288079342931
 20
3138.553312001874
 30
0.0
 11
2494.288079342942
 21
3138.553312001874
 31
0.0
  0
CIRCLE
  5
C6FF
330
1F
100
AcDbEntity
  8
1　製品
 48
15.0
100
AcDbCircle
 10
2487.288079342931
 20
3061.053312001874
 30
0.0
 40
15.0
  0
CIRCLE
  5
C700
330
1F
100
AcDbEntity
  8
1　製品
 48
15.0
100
AcDbCircle
 10
2447.288079342931
 20
3081.053312001874
 30
0.0
 40
15.0
  0
CIRCLE
  5
C701
330
1F
100
AcDbEntity
  8
1　製品
 48
15.0
100
AcDbCircle
 10
2569.288079342939
 20
3061.053312001878
 30
0.0
 40
3.5
  0
LINE
  5
C702
330
1F
100
AcDbEntity
  8
1　製品
  6
CENTER
100
AcDbLine
 10
2569.288079342939
 20
3071.553312001882
 30
0.0
 11
2569.288079342939
 21
3050.553312001882
 31
0.0
  0
LINE
  5
C703
330
1F
100
AcDbEntity
  8
1　製品
 48
15.0
100
AcDbLine
 10
2579.288079342935
 20
3093.553312001874
 30
0.0
 11
2579.288079342942
 21
2428.553312001874
 31
0.0
  0
LINE
  5
C723
330
1F
100
AcDbEntity
  8
1　製品
 48
15.0
100
AcDbLine
 10
4887.288079342931
 20
1627.379819788134
 30
0.0
 11
4887.288079342935
 21
1128.579819788135
 31
0.0
  0
LINE
  5
C724
330
1F
100
AcDbEntity
  8
1　製品
  6
HIDDEN
 48
10.0
100
AcDbLine
 10
4885.788079342931
 20
1627.379819788134
 30
0.0
 11
4885.788079342931
 21
1127.379819788134
 31
0.0
  0
LINE
  5
C725
330
1F
100
AcDbEntity
  8
1　製品
100
AcDbLine
 10
4845.788079342931
 20
1507.379819788131
 30
0.0
 11
4845.788079342931
 21
1128.579819788135
 31
0.0
  0
LINE
  5
C726
330
1F
100
AcDbEntity
  8
1　製品
100
AcDbLine
 10
4869.296853118812
 20
1184.87981978812
 30
0.0
 11
4869.296853118812
 21
1179.87981978812
 31
0.0
  0
CIRCLE
  5
C727
330
1F
100
AcDbEntity
  8
1　製品
 48
15.0
100
AcDbCircle
 10
4865.796853118819
 20
1182.37981978812
 30
0.0
 40
3.0
  0
LINE
  5
C728
330
1F
100
AcDbEntity
  8
1　製品
100
AcDbLine
 10
4862.296853118819
 20
1184.87981978812
 30
0.0
 11
4862.296853118819
 21
1179.87981978812
 31
0.0
  0
LINE
  5
C729
330
1F
100
AcDbEntity
  8
1　製品
100
AcDbLine
 10
4862.296853118819
 20
1184.879819788134
 30
0.0
 11
4862.296853118819
 21
1179.879819788134
 31
0.0
  0
LINE
  5
C72A
330
1F
100
AcDbEntity
  8
1　製品
  6
HIDDEN
 48
10.0
100
AcDbLine
 10
4884.588079342927
 20
1197.379819788134
 30
0.0
 11
4884.588079342927
 21
1128.579819788135
 31
0.0
  0
LINE
  5
C72B
330
1F
100
AcDbEntity
  8
1　製品
  6
CENTER
100
AcDbLine
 10
4865.796853118819
 20
1191.87981978812
 30
0.0
 11
4865.796853118812
 21
1172.87981978812
 31
0.0
  0
ARC
  5
C72C
330
1F
100
AcDbEntity
  8
1　製品
 48
15.0
100
AcDbCircle
 10
4865.796853118819
 20
1179.87981978812
 30
0.0
 40
3.49999999999967
100
AcDbArc
 50
180.0
 51
0.0
  0
LINE
  5
C72D
330
1F
100
AcDbEntity
  8
1　製品
  6
CENTER
100
AcDbLine
 10
4858.796853118819
 20
1182.37981978812
 30
0.0
 11
4872.796853118812
 21
1182.37981978812
 31
0.0
  0
CIRCLE
  5
C72E
330
1F
100
AcDbEntity
  8
1　製品
 48
15.0
100
AcDbCircle
 10
4865.796853118819
 20
1142.379819788138
 30
0.0
 40
3.0
  0
LINE
  5
C72F
330
1F
100
AcDbEntity
  8
1　製品
100
AcDbLine
 10
4869.296853118812
 20
1144.879819788138
 30
0.0
 11
4869.296853118812
 21
1139.879819788138
 31
0.0
  0
ARC
  5
C730
330
1F
100
AcDbEntity
  8
1　製品
 48
15.0
100
AcDbCircle
 10
4865.796853118819
 20
1139.879819788138
 30
0.0
 40
3.49999999999967
100
AcDbArc
 50
180.0
 51
0.0
  0
LINE
  5
C731
330
1F
100
AcDbEntity
  8
1　製品
  6
CENTER
100
AcDbLine
 10
4858.796853118819
 20
1142.379819788138
 30
0.0
 11
4872.796853118812
 21
1142.379819788138
 31
0.0
  0
LINE
  5
C732
330
1F
100
AcDbEntity
  8
1　製品
  6
CENTER
100
AcDbLine
 10
4865.796853118819
 20
1151.879819788138
 30
0.0
 11
4865.796853118812
 21
1132.879819788138
 31
0.0
  0
LINE
  5
C733
330
1F
100
AcDbEntity
  8
1　製品
100
AcDbLine
 10
4862.296853118819
 20
1144.879819788138
 30
0.0
 11
4862.296853118819
 21
1139.879819788138
 31
0.0
  0
ARC
  5
C734
330
1F
100
AcDbEntity
  8
1　製品
 48
15.0
100
AcDbCircle
 10
4865.796853118819
 20
1144.879819788138
 30
0.0
 40
3.50000000000024
100
AcDbArc
 50
0.0
 51
180.0
  0
LINE
  5
C735
330
1F
100
AcDbEntity
  8
1　製品
100
AcDbLine
 10
4862.296853118819
 20
1144.879819788149
 30
0.0
 11
4862.296853118819
 21
1139.879819788149
 31
0.0
  0
LINE
  5
C736
330
1F
100
AcDbEntity
  8
1　製品
  6
HIDDEN
 48
10.0
100
AcDbLine
 10
4845.788079342931
 20
1197.379819788136
 30
0.0
 11
4885.788079342931
 21
1197.379819788136
 31
0.0
  0
ARC
  5
C737
330
1F
100
AcDbEntity
  8
1　製品
 48
15.0
100
AcDbCircle
 10
4865.796853118819
 20
1184.87981978812
 30
0.0
 40
3.50000000000024
100
AcDbArc
 50
0.0
 51
180.0
  0
LINE
  5
C738
330
1F
100
AcDbEntity
  8
1　製品
  6
HIDDEN
 48
10.0
100
AcDbLine
 10
4765.788079342931
 20
1588.579819788135
 30
0.0
 11
4885.788079342931
 21
1588.579819788135
 31
0.0
  0
LINE
  5
C739
330
1F
100
AcDbEntity
  8
1　製品
  6
HIDDEN
 48
10.0
100
AcDbLine
 10
4765.788079342931
 20
1587.379819788134
 30
0.0
 11
4885.788079342931
 21
1587.379819788134
 31
0.0
  0
LINE
  5
C73A
330
1F
100
AcDbEntity
  8
1　製品
 48
15.0
100
AcDbLine
 10
4765.788079342931
 20
1587.379819788132
 30
0.0
 11
4845.788079342924
 21
1507.379819788132
 31
0.0
  0
LINE
  5
C73B
330
1F
100
AcDbEntity
  8
1　製品
 48
15.0
100
AcDbLine
 10
4765.788079342931
 20
1627.37981978812
 30
0.0
 11
4765.788079342931
 21
1587.37981978812
 31
0.0
  0
LINE
  5
C73C
330
1F
100
AcDbEntity
  8
1　製品
  6
CENTER
100
AcDbLine
 10
4771.288079342524
 20
1607.379819788163
 30
0.0
 11
4790.288079342524
 21
1607.379819788163
 31
0.0
  0
ARC
  5
C73D
330
1F
100
AcDbEntity
  8
1　製品
 48
15.0
100
AcDbCircle
 10
4778.288079342524
 20
1607.379819788163
 30
0.0
 40
3.50000000000024
100
AcDbArc
 50
90.0
 51
270.0
  0
LINE
  5
C73E
330
1F
100
AcDbEntity
  8
1　製品
100
AcDbLine
 10
4778.288079342524
 20
1603.879819788163
 30
0.0
 11
4783.288079342524
 21
1603.879819788163
 31
0.0
  0
CIRCLE
  5
C73F
330
1F
100
AcDbEntity
  8
1　製品
 48
15.0
100
AcDbCircle
 10
4780.788079342517
 20
1607.379819788094
 30
0.0
 40
3.0
  0
LINE
  5
C740
330
1F
100
AcDbEntity
  8
1　製品
  6
CENTER
100
AcDbLine
 10
4780.788079342524
 20
1614.379819788163
 30
0.0
 11
4780.788079342517
 21
1600.379819788163
 31
0.0
  0
ARC
  5
C741
330
1F
100
AcDbEntity
  8
1　製品
 48
15.0
100
AcDbCircle
 10
4783.288079342524
 20
1607.379819788163
 30
0.0
 40
3.49999999999967
100
AcDbArc
 50
270.0
 51
90.0
  0
LINE
  5
C742
330
1F
100
AcDbEntity
  8
1　製品
100
AcDbLine
 10
4778.129855089511
 20
1610.879819788163
 30
0.0
 11
4783.129855089511
 21
1610.879819788163
 31
0.0
  0
LINE
  5
C743
330
1F
100
AcDbEntity
  8
1　製品
  6
HIDDEN
 48
10.0
100
AcDbLine
 10
4884.588079342927
 20
1626.179819788135
 30
0.0
 11
4884.588079342927
 21
1587.379819788134
 31
0.0
  0
ARC
  5
C744
330
1F
100
AcDbEntity
  8
1　製品
 48
15.0
100
AcDbCircle
 10
4843.288079342517
 20
1607.379819788138
 30
0.0
 40
3.49999999999967
100
AcDbArc
 50
270.0
 51
90.0
  0
CIRCLE
  5
C745
330
1F
100
AcDbEntity
  8
1　製品
 48
15.0
100
AcDbCircle
 10
4840.788079342517
 20
1607.379819788138
 30
0.0
 40
3.0
  0
LINE
  5
C746
330
1F
100
AcDbEntity
  8
1　製品
  6
CENTER
100
AcDbLine
 10
4840.788079342517
 20
1614.379819788136
 30
0.0
 11
4840.788079342517
 21
1600.379819788138
 31
0.0
  0
ARC
  5
C747
330
1F
100
AcDbEntity
  8
1　製品
 48
15.0
100
AcDbCircle
 10
4838.288079342517
 20
1607.379819788138
 30
0.0
 40
3.50000000000024
100
AcDbArc
 50
90.0
 51
270.0
  0
LINE
  5
C748
330
1F
100
AcDbEntity
  8
1　製品
  6
CENTER
100
AcDbLine
 10
4831.288079342517
 20
1607.379819788136
 30
0.0
 11
4850.288079342517
 21
1607.379819788136
 31
0.0
  0
LINE
  5
C749
330
1F
100
AcDbEntity
  8
1　製品
100
AcDbLine
 10
4838.288079342517
 20
1603.879819788138
 30
0.0
 11
4843.288079342517
 21
1603.879819788138
 31
0.0
  0
LINE
  5
C74A
330
1F
100
AcDbEntity
  8
1　製品
100
AcDbLine
 10
4838.288079342517
 20
1610.879819788136
 30
0.0
 11
4843.288079342517
 21
1610.879819788136
 31
0.0
  0
LINE
  5
C843
330
1F
100
AcDbEntity
  8
1　製品
 48
15.0
100
AcDbLine
 10
3529.288079342939
 20
3093.553312001874
 30
0.0
 11
3529.288079342946
 21
2428.553312001874
 31
0.0
  0
LINE
  5
C844
330
1F
100
AcDbEntity
  8
1　製品
  6
CENTER
100
AcDbLine
 10
3519.288079342942
 20
3071.553312001882
 30
0.0
 11
3519.288079342942
 21
3050.553312001882
 31
0.0
  0
CIRCLE
  5
C845
330
1F
100
AcDbEntity
  8
1　製品
 48
15.0
100
AcDbCircle
 10
3519.288079342942
 20
3061.053312001878
 30
0.0
 40
3.5
  0
CIRCLE
  5
C846
330
1F
100
AcDbEntity
  8
1　製品
 48
15.0
100
AcDbCircle
 10
3397.288079342935
 20
3081.053312001874
 30
0.0
 40
15.0
  0
CIRCLE
  5
C847
330
1F
100
AcDbEntity
  8
1　製品
 48
15.0
100
AcDbCircle
 10
3437.288079342935
 20
3061.053312001874
 30
0.0
 40
15.0
  0
LINE
  5
C848
330
1F
100
AcDbEntity
  8
1　製品
 48
50.0
100
AcDbLine
 10
3484.288079342935
 20
3138.553312001874
 30
0.0
 11
3444.288079342946
 21
3138.553312001874
 31
0.0
  0
CIRCLE
  5
C849
330
1F
100
AcDbEntity
  8
1　製品
 48
15.0
100
AcDbCircle
 10
3437.288079342935
 20
3101.053312001874
 30
0.0
 40
15.0
  0
LINE
  5
C84A
330
1F
100
AcDbEntity
  8
1　製品
100
AcDbLine
 10
3484.288079342935
 20
3018.553312001874
 30
0.0
 11
3485.788079342942
 21
3018.553312001874
 31
0.0
  0
CIRCLE
  5
C84B
330
1F
100
AcDbEntity
  8
1　製品
 48
15.0
100
AcDbCircle
 10
3397.288079342935
 20
3001.053312001874
 30
0.0
 40
15.0
  0
CIRCLE
  5
C84C
330
1F
100
AcDbEntity
  8
1　製品
 48
15.0
100
AcDbCircle
 10
3397.288079342935
 20
2961.053312001874
 30
0.0
 40
15.0
  0
CIRCLE
  5
C84D
330
1F
100
AcDbEntity
  8
1　製品
 48
15.0
100
AcDbCircle
 10
3437.288079342935
 20
2981.053312001874
 30
0.0
 40
15.0
  0
CIRCLE
  5
C84E
330
1F
100
AcDbEntity
  8
1　製品
 48
15.0
100
AcDbCircle
 10
3437.288079342935
 20
2941.053312001874
 30
0.0
 40
15.0
  0
LINE
  5
C84F
330
1F
100
AcDbEntity
  8
1　製品
100
AcDbLine
 10
3485.788079342939
 20
3140.053312001874
 30
0.0
 11
3485.788079342942
 21
3018.553312001874
 31
0.0
  0
CIRCLE
  5
C850
330
1F
100
AcDbEntity
  8
1　製品
 48
15.0
100
AcDbCircle
 10
3437.288079342935
 20
3021.053312001874
 30
0.0
 40
15.0
  0
CIRCLE
  5
C851
330
1F
100
AcDbEntity
  8
1　製品
 48
15.0
100
AcDbCircle
 10
3397.288079342935
 20
3041.053312001874
 30
0.0
 40
15.0
  0
LINE
  5
C852
330
1F
100
AcDbEntity
  8
1　製品
100
AcDbLine
 10
3364.288079342935
 20
3140.053312001871
 30
0.0
 11
3364.288079342935
 21
3138.553312001874
 31
0.0
  0
CIRCLE
  5
C853
330
1F
100
AcDbEntity
  8
1　製品
 48
15.0
100
AcDbCircle
 10
3317.288079342935
 20
3081.053312001874
 30
0.0
 40
15.0
  0
CIRCLE
  5
C854
330
1F
100
AcDbEntity
  8
1　製品
 48
15.0
100
AcDbCircle
 10
3237.288079342935
 20
3081.053312001874
 30
0.0
 40
15.0
  0
CIRCLE
  5
C855
330
1F
100
AcDbEntity
  8
1　製品
 48
15.0
100
AcDbCircle
 10
3277.288079342935
 20
3061.053312001874
 30
0.0
 40
15.0
  0
CIRCLE
  5
C856
330
1F
100
AcDbEntity
  8
1　製品
 48
15.0
100
AcDbCircle
 10
3277.288079342935
 20
3101.053312001874
 30
0.0
 40
15.0
  0
CIRCLE
  5
C857
330
1F
100
AcDbEntity
  8
1　製品
 48
15.0
100
AcDbCircle
 10
3317.288079342935
 20
3001.053312001874
 30
0.0
 40
15.0
  0
CIRCLE
  5
C858
330
1F
100
AcDbEntity
  8
1　製品
 48
15.0
100
AcDbCircle
 10
3317.288079342935
 20
2961.053312001874
 30
0.0
 40
15.0
  0
CIRCLE
  5
C859
330
1F
100
AcDbEntity
  8
1　製品
 48
15.0
100
AcDbCircle
 10
3237.288079342935
 20
3001.053312001874
 30
0.0
 40
15.0
  0
CIRCLE
  5
C85A
330
1F
100
AcDbEntity
  8
1　製品
 48
15.0
100
AcDbCircle
 10
3237.288079342935
 20
2961.053312001874
 30
0.0
 40
15.0
  0
CIRCLE
  5
C85B
330
1F
100
AcDbEntity
  8
1　製品
 48
15.0
100
AcDbCircle
 10
3277.288079342935
 20
2981.053312001874
 30
0.0
 40
15.0
  0
CIRCLE
  5
C85C
330
1F
100
AcDbEntity
  8
1　製品
 48
15.0
100
AcDbCircle
 10
3277.288079342935
 20
2941.053312001874
 30
0.0
 40
15.0
  0
CIRCLE
  5
C85D
330
1F
100
AcDbEntity
  8
1　製品
 48
15.0
100
AcDbCircle
 10
3317.288079342935
 20
3041.053312001874
 30
0.0
 40
15.0
  0
CIRCLE
  5
C85E
330
1F
100
AcDbEntity
  8
1　製品
 48
15.0
100
AcDbCircle
 10
3237.288079342935
 20
3041.053312001874
 30
0.0
 40
15.0
  0
CIRCLE
  5
C85F
330
1F
100
AcDbEntity
  8
1　製品
 48
15.0
100
AcDbCircle
 10
3277.288079342935
 20
3021.053312001874
 30
0.0
 40
15.0
  0
CIRCLE
  5
C860
330
1F
100
AcDbEntity
  8
1　製品
 48
15.0
100
AcDbCircle
 10
3357.288079342935
 20
3061.053312001874
 30
0.0
 40
15.0
  0
CIRCLE
  5
C861
330
1F
100
AcDbEntity
  8
1　製品
 48
15.0
100
AcDbCircle
 10
3357.288079342935
 20
2981.053312001874
 30
0.0
 40
15.0
  0
CIRCLE
  5
C862
330
1F
100
AcDbEntity
  8
1　製品
 48
15.0
100
AcDbCircle
 10
3357.288079342935
 20
2941.053312001874
 30
0.0
 40
15.0
  0
CIRCLE
  5
C863
330
1F
100
AcDbEntity
  8
1　製品
 48
15.0
100
AcDbCircle
 10
3357.288079342935
 20
3021.053312001874
 30
0.0
 40
15.0
  0
LINE
  5
C864
330
1F
100
AcDbEntity
  8
1　製品
100
AcDbLine
 10
3364.288079342935
 20
3140.053312001871
 30
0.0
 11
3485.788079342939
 21
3140.053312001874
 31
0.0
  0
CIRCLE
  5
C865
330
1F
100
AcDbEntity
  8
1　製品
 48
15.0
100
AcDbCircle
 10
3357.288079342935
 20
3101.053312001874
 30
0.0
 40
15.0
  0
CIRCLE
  5
C866
330
1F
100
AcDbEntity
  8
1　製品
 48
15.0
100
AcDbCircle
 10
3397.288079342935
 20
2881.053312001874
 30
0.0
 40
15.0
  0
CIRCLE
  5
C867
330
1F
100
AcDbEntity
  8
1　製品
 48
15.0
100
AcDbCircle
 10
3397.288079342935
 20
2841.053312001874
 30
0.0
 40
15.0
  0
CIRCLE
  5
C868
330
1F
100
AcDbEntity
  8
1　製品
 48
15.0
100
AcDbCircle
 10
3437.288079342935
 20
2821.053312001874
 30
0.0
 40
15.0
  0
CIRCLE
  5
C869
330
1F
100
AcDbEntity
  8
1　製品
 48
15.0
100
AcDbCircle
 10
3437.288079342935
 20
2861.053312001874
 30
0.0
 40
15.0
  0
CIRCLE
  5
C86A
330
1F
100
AcDbEntity
  8
1　製品
 48
15.0
100
AcDbCircle
 10
3519.288079342942
 20
2761.053312001878
 30
0.0
 40
3.5
  0
LINE
  5
C86B
330
1F
100
AcDbEntity
  8
1　製品
  6
CENTER
100
AcDbLine
 10
3519.288079342942
 20
2771.553312001882
 30
0.0
 11
3519.288079342942
 21
2750.553312001882
 31
0.0
  0
CIRCLE
  5
C86C
330
1F
100
AcDbEntity
  8
1　製品
 48
15.0
100
AcDbCircle
 10
3397.288079342935
 20
2761.053312001874
 30
0.0
 40
15.0
  0
CIRCLE
  5
C86D
330
1F
100
AcDbEntity
  8
1　製品
 48
15.0
100
AcDbCircle
 10
3397.288079342935
 20
2721.053312001874
 30
0.0
 40
15.0
  0
CIRCLE
  5
C86E
330
1F
100
AcDbEntity
  8
1　製品
 48
15.0
100
AcDbCircle
 10
3437.288079342935
 20
2701.053312001874
 30
0.0
 40
15.0
  0
CIRCLE
  5
C86F
330
1F
100
AcDbEntity
  8
1　製品
 48
15.0
100
AcDbCircle
 10
3437.288079342935
 20
2781.053312001874
 30
0.0
 40
15.0
  0
CIRCLE
  5
C870
330
1F
100
AcDbEntity
  8
1　製品
 48
15.0
100
AcDbCircle
 10
3437.288079342935
 20
2741.053312001874
 30
0.0
 40
15.0
  0
CIRCLE
  5
C871
330
1F
100
AcDbEntity
  8
1　製品
 48
15.0
100
AcDbCircle
 10
3397.288079342935
 20
2801.053312001874
 30
0.0
 40
15.0
  0
CIRCLE
  5
C872
330
1F
100
AcDbEntity
  8
1　製品
 48
15.0
100
AcDbCircle
 10
3317.288079342935
 20
2881.053312001874
 30
0.0
 40
15.0
  0
CIRCLE
  5
C873
330
1F
100
AcDbEntity
  8
1　製品
 48
15.0
100
AcDbCircle
 10
3317.288079342935
 20
2841.053312001874
 30
0.0
 40
15.0
  0
CIRCLE
  5
C874
330
1F
100
AcDbEntity
  8
1　製品
 48
15.0
100
AcDbCircle
 10
3237.288079342935
 20
2881.053312001874
 30
0.0
 40
15.0
  0
CIRCLE
  5
C875
330
1F
100
AcDbEntity
  8
1　製品
 48
15.0
100
AcDbCircle
 10
3237.288079342935
 20
2841.053312001874
 30
0.0
 40
15.0
  0
CIRCLE
  5
C876
330
1F
100
AcDbEntity
  8
1　製品
 48
15.0
100
AcDbCircle
 10
3277.288079342935
 20
2821.053312001874
 30
0.0
 40
15.0
  0
CIRCLE
  5
C877
330
1F
100
AcDbEntity
  8
1　製品
 48
15.0
100
AcDbCircle
 10
3277.288079342935
 20
2861.053312001874
 30
0.0
 40
15.0
  0
CIRCLE
  5
C878
330
1F
100
AcDbEntity
  8
1　製品
 48
15.0
100
AcDbCircle
 10
3317.288079342935
 20
2761.053312001874
 30
0.0
 40
15.0
  0
CIRCLE
  5
C879
330
1F
100
AcDbEntity
  8
1　製品
 48
15.0
100
AcDbCircle
 10
3317.288079342935
 20
2721.053312001874
 30
0.0
 40
15.0
  0
CIRCLE
  5
C87A
330
1F
100
AcDbEntity
  8
1　製品
 48
15.0
100
AcDbCircle
 10
3237.288079342935
 20
2761.053312001874
 30
0.0
 40
15.0
  0
CIRCLE
  5
C87B
330
1F
100
AcDbEntity
  8
1　製品
 48
15.0
100
AcDbCircle
 10
3237.288079342935
 20
2721.053312001874
 30
0.0
 40
15.0
  0
CIRCLE
  5
C87C
330
1F
100
AcDbEntity
  8
1　製品
 48
15.0
100
AcDbCircle
 10
3277.288079342935
 20
2701.053312001874
 30
0.0
 40
15.0
  0
CIRCLE
  5
C87D
330
1F
100
AcDbEntity
  8
1　製品
 48
15.0
100
AcDbCircle
 10
3277.288079342935
 20
2781.053312001874
 30
0.0
 40
15.0
  0
CIRCLE
  5
C87E
330
1F
100
AcDbEntity
  8
1　製品
 48
15.0
100
AcDbCircle
 10
3277.288079342935
 20
2741.053312001874
 30
0.0
 40
15.0
  0
CIRCLE
  5
C87F
330
1F
100
AcDbEntity
  8
1　製品
 48
15.0
100
AcDbCircle
 10
3317.288079342935
 20
2801.053312001874
 30
0.0
 40
15.0
  0
CIRCLE
  5
C880
330
1F
100
AcDbEntity
  8
1　製品
 48
15.0
100
AcDbCircle
 10
3237.288079342935
 20
2801.053312001874
 30
0.0
 40
15.0
  0
CIRCLE
  5
C881
330
1F
100
AcDbEntity
  8
1　製品
 48
15.0
100
AcDbCircle
 10
3357.288079342935
 20
2701.053312001874
 30
0.0
 40
15.0
  0
CIRCLE
  5
C882
330
1F
100
AcDbEntity
  8
1　製品
 48
15.0
100
AcDbCircle
 10
3357.288079342935
 20
2781.053312001874
 30
0.0
 40
15.0
  0
CIRCLE
  5
C883
330
1F
100
AcDbEntity
  8
1　製品
 48
15.0
100
AcDbCircle
 10
3357.288079342935
 20
2741.053312001874
 30
0.0
 40
15.0
  0
CIRCLE
  5
C884
330
1F
100
AcDbEntity
  8
1　製品
 48
15.0
100
AcDbCircle
 10
3357.288079342935
 20
2821.053312001874
 30
0.0
 40
15.0
  0
CIRCLE
  5
C885
330
1F
100
AcDbEntity
  8
1　製品
 48
15.0
100
AcDbCircle
 10
3357.288079342935
 20
2861.053312001874
 30
0.0
 40
15.0
  0
CIRCLE
  5
C886
330
1F
100
AcDbEntity
  8
1　製品
 48
15.0
100
AcDbCircle
 10
3317.288079342935
 20
2921.053312001874
 30
0.0
 40
15.0
  0
CIRCLE
  5
C887
330
1F
100
AcDbEntity
  8
1　製品
 48
15.0
100
AcDbCircle
 10
3237.288079342935
 20
2921.053312001874
 30
0.0
 40
15.0
  0
CIRCLE
  5
C888
330
1F
100
AcDbEntity
  8
1　製品
 48
15.0
100
AcDbCircle
 10
3277.288079342935
 20
2901.053312001874
 30
0.0
 40
15.0
  0
CIRCLE
  5
C889
330
1F
100
AcDbEntity
  8
1　製品
 48
15.0
100
AcDbCircle
 10
3437.288079342935
 20
2901.053312001874
 30
0.0
 40
15.0
  0
CIRCLE
  5
C88A
330
1F
100
AcDbEntity
  8
1　製品
 48
15.0
100
AcDbCircle
 10
3397.288079342935
 20
2921.053312001874
 30
0.0
 40
15.0
  0
CIRCLE
  5
C88B
330
1F
100
AcDbEntity
  8
1　製品
 48
15.0
100
AcDbCircle
 10
3357.288079342935
 20
2901.053312001874
 30
0.0
 40
15.0
  0
CIRCLE
  5
C88C
330
1F
100
AcDbEntity
  8
1　製品
 48
15.0
100
AcDbCircle
 10
3519.288079342942
 20
2911.053312001878
 30
0.0
 40
3.5
  0
LINE
  5
C88D
330
1F
100
AcDbEntity
  8
1　製品
  6
CENTER
100
AcDbLine
 10
3519.288079342942
 20
2921.553312001882
 30
0.0
 11
3519.288079342942
 21
2900.553312001882
 31
0.0
  0
CIRCLE
  5
C88E
330
1F
100
AcDbEntity
  8
1　製品
 48
15.0
100
AcDbCircle
 10
3157.288079342935
 20
3081.053312001874
 30
0.0
 40
15.0
  0
CIRCLE
  5
C88F
330
1F
100
AcDbEntity
  8
1　製品
 48
15.0
100
AcDbCircle
 10
3077.288079342935
 20
3081.053312001874
 30
0.0
 40
15.0
  0
CIRCLE
  5
C890
330
1F
100
AcDbEntity
  8
1　製品
 48
15.0
100
AcDbCircle
 10
3117.288079342935
 20
3061.053312001874
 30
0.0
 40
15.0
  0
CIRCLE
  5
C891
330
1F
100
AcDbEntity
  8
1　製品
 48
15.0
100
AcDbCircle
 10
3117.288079342935
 20
3101.053312001874
 30
0.0
 40
15.0
  0
CIRCLE
  5
C892
330
1F
100
AcDbEntity
  8
1　製品
 48
15.0
100
AcDbCircle
 10
3157.288079342935
 20
3001.053312001874
 30
0.0
 40
15.0
  0
CIRCLE
  5
C893
330
1F
100
AcDbEntity
  8
1　製品
 48
15.0
100
AcDbCircle
 10
3157.288079342935
 20
2961.053312001874
 30
0.0
 40
15.0
  0
CIRCLE
  5
C894
330
1F
100
AcDbEntity
  8
1　製品
 48
15.0
100
AcDbCircle
 10
3077.288079342935
 20
3001.053312001874
 30
0.0
 40
15.0
  0
CIRCLE
  5
C895
330
1F
100
AcDbEntity
  8
1　製品
 48
15.0
100
AcDbCircle
 10
3077.288079342935
 20
2961.053312001874
 30
0.0
 40
15.0
  0
CIRCLE
  5
C896
330
1F
100
AcDbEntity
  8
1　製品
 48
15.0
100
AcDbCircle
 10
3117.288079342935
 20
2981.053312001874
 30
0.0
 40
15.0
  0
CIRCLE
  5
C897
330
1F
100
AcDbEntity
  8
1　製品
 48
15.0
100
AcDbCircle
 10
3117.288079342935
 20
2941.053312001874
 30
0.0
 40
15.0
  0
CIRCLE
  5
C898
330
1F
100
AcDbEntity
  8
1　製品
 48
15.0
100
AcDbCircle
 10
3117.288079342935
 20
3021.053312001874
 30
0.0
 40
15.0
  0
CIRCLE
  5
C899
330
1F
100
AcDbEntity
  8
1　製品
 48
15.0
100
AcDbCircle
 10
3077.288079342935
 20
3041.053312001874
 30
0.0
 40
15.0
  0
CIRCLE
  5
C89A
330
1F
100
AcDbEntity
  8
1　製品
 48
15.0
100
AcDbCircle
 10
3157.288079342935
 20
3041.053312001874
 30
0.0
 40
15.0
  0
CIRCLE
  5
C89B
330
1F
100
AcDbEntity
  8
1　製品
 48
15.0
100
AcDbCircle
 10
2997.288079342939
 20
3081.053312001874
 30
0.0
 40
15.0
  0
CIRCLE
  5
C89C
330
1F
100
AcDbEntity
  8
1　製品
 48
15.0
100
AcDbCircle
 10
2917.288079342939
 20
3081.053312001874
 30
0.0
 40
15.0
  0
CIRCLE
  5
C89D
330
1F
100
AcDbEntity
  8
1　製品
 48
15.0
100
AcDbCircle
 10
2957.288079342939
 20
3061.053312001874
 30
0.0
 40
15.0
  0
CIRCLE
  5
C89E
330
1F
100
AcDbEntity
  8
1　製品
 48
15.0
100
AcDbCircle
 10
2957.288079342939
 20
3101.053312001874
 30
0.0
 40
15.0
  0
CIRCLE
  5
C89F
330
1F
100
AcDbEntity
  8
1　製品
 48
15.0
100
AcDbCircle
 10
2997.288079342939
 20
3001.053312001874
 30
0.0
 40
15.0
  0
CIRCLE
  5
C8A0
330
1F
100
AcDbEntity
  8
1　製品
 48
15.0
100
AcDbCircle
 10
2997.288079342939
 20
2961.053312001874
 30
0.0
 40
15.0
  0
CIRCLE
  5
C8A1
330
1F
100
AcDbEntity
  8
1　製品
 48
15.0
100
AcDbCircle
 10
2917.288079342939
 20
3001.053312001874
 30
0.0
 40
15.0
  0
CIRCLE
  5
C8A2
330
1F
100
AcDbEntity
  8
1　製品
 48
15.0
100
AcDbCircle
 10
2917.288079342939
 20
2961.053312001874
 30
0.0
 40
15.0
  0
CIRCLE
  5
C8A3
330
1F
100
AcDbEntity
  8
1　製品
 48
15.0
100
AcDbCircle
 10
2957.288079342939
 20
2981.053312001874
 30
0.0
 40
15.0
  0
CIRCLE
  5
C8A4
330
1F
100
AcDbEntity
  8
1　製品
 48
15.0
100
AcDbCircle
 10
2957.288079342939
 20
2941.053312001874
 30
0.0
 40
15.0
  0
CIRCLE
  5
C8A5
330
1F
100
AcDbEntity
  8
1　製品
 48
15.0
100
AcDbCircle
 10
2917.288079342939
 20
3041.053312001874
 30
0.0
 40
15.0
  0
CIRCLE
  5
C8A6
330
1F
100
AcDbEntity
  8
1　製品
 48
15.0
100
AcDbCircle
 10
2997.288079342939
 20
3041.053312001874
 30
0.0
 40
15.0
  0
CIRCLE
  5
C8A7
330
1F
100
AcDbEntity
  8
1　製品
 48
15.0
100
AcDbCircle
 10
2957.288079342939
 20
3021.053312001874
 30
0.0
 40
15.0
  0
CIRCLE
  5
C8A8
330
1F
100
AcDbEntity
  8
1　製品
 48
15.0
100
AcDbCircle
 10
3037.288079342939
 20
3061.053312001874
 30
0.0
 40
15.0
  0
CIRCLE
  5
C8A9
330
1F
100
AcDbEntity
  8
1　製品
 48
15.0
100
AcDbCircle
 10
3037.288079342939
 20
2981.053312001874
 30
0.0
 40
15.0
  0
CIRCLE
  5
C8AA
330
1F
100
AcDbEntity
  8
1　製品
 48
15.0
100
AcDbCircle
 10
3037.288079342939
 20
2941.053312001874
 30
0.0
 40
15.0
  0
CIRCLE
  5
C8AB
330
1F
100
AcDbEntity
  8
1　製品
 48
15.0
100
AcDbCircle
 10
3037.288079342939
 20
3021.053312001874
 30
0.0
 40
15.0
  0
CIRCLE
  5
C8AC
330
1F
100
AcDbEntity
  8
1　製品
 48
15.0
100
AcDbCircle
 10
3037.288079342939
 20
3101.053312001874
 30
0.0
 40
15.0
  0
CIRCLE
  5
C8AD
330
1F
100
AcDbEntity
  8
1　製品
 48
15.0
100
AcDbCircle
 10
3157.288079342935
 20
2881.053312001874
 30
0.0
 40
15.0
  0
CIRCLE
  5
C8AE
330
1F
100
AcDbEntity
  8
1　製品
 48
15.0
100
AcDbCircle
 10
3157.288079342935
 20
2841.053312001874
 30
0.0
 40
15.0
  0
CIRCLE
  5
C8AF
330
1F
100
AcDbEntity
  8
1　製品
 48
15.0
100
AcDbCircle
 10
3077.288079342935
 20
2881.053312001874
 30
0.0
 40
15.0
  0
CIRCLE
  5
C8B0
330
1F
100
AcDbEntity
  8
1　製品
 48
15.0
100
AcDbCircle
 10
3077.288079342935
 20
2841.053312001874
 30
0.0
 40
15.0
  0
CIRCLE
  5
C8B1
330
1F
100
AcDbEntity
  8
1　製品
 48
15.0
100
AcDbCircle
 10
3117.288079342935
 20
2821.053312001874
 30
0.0
 40
15.0
  0
CIRCLE
  5
C8B2
330
1F
100
AcDbEntity
  8
1　製品
 48
15.0
100
AcDbCircle
 10
3117.288079342935
 20
2861.053312001874
 30
0.0
 40
15.0
  0
CIRCLE
  5
C8B3
330
1F
100
AcDbEntity
  8
1　製品
 48
15.0
100
AcDbCircle
 10
3157.288079342935
 20
2761.053312001874
 30
0.0
 40
15.0
  0
CIRCLE
  5
C8B4
330
1F
100
AcDbEntity
  8
1　製品
 48
15.0
100
AcDbCircle
 10
3157.288079342935
 20
2721.053312001874
 30
0.0
 40
15.0
  0
CIRCLE
  5
C8B5
330
1F
100
AcDbEntity
  8
1　製品
 48
15.0
100
AcDbCircle
 10
3077.288079342935
 20
2761.053312001874
 30
0.0
 40
15.0
  0
CIRCLE
  5
C8B6
330
1F
100
AcDbEntity
  8
1　製品
 48
15.0
100
AcDbCircle
 10
3077.288079342935
 20
2721.053312001874
 30
0.0
 40
15.0
  0
CIRCLE
  5
C8B7
330
1F
100
AcDbEntity
  8
1　製品
 48
15.0
100
AcDbCircle
 10
3117.288079342935
 20
2701.053312001874
 30
0.0
 40
15.0
  0
CIRCLE
  5
C8B8
330
1F
100
AcDbEntity
  8
1　製品
 48
15.0
100
AcDbCircle
 10
3117.288079342935
 20
2781.053312001874
 30
0.0
 40
15.0
  0
CIRCLE
  5
C8B9
330
1F
100
AcDbEntity
  8
1　製品
 48
15.0
100
AcDbCircle
 10
3117.288079342935
 20
2741.053312001874
 30
0.0
 40
15.0
  0
CIRCLE
  5
C8BA
330
1F
100
AcDbEntity
  8
1　製品
 48
15.0
100
AcDbCircle
 10
3077.288079342935
 20
2801.053312001874
 30
0.0
 40
15.0
  0
CIRCLE
  5
C8BB
330
1F
100
AcDbEntity
  8
1　製品
 48
15.0
100
AcDbCircle
 10
3157.288079342935
 20
2801.053312001874
 30
0.0
 40
15.0
  0
CIRCLE
  5
C8BC
330
1F
100
AcDbEntity
  8
1　製品
 48
15.0
100
AcDbCircle
 10
2997.288079342939
 20
2881.053312001874
 30
0.0
 40
15.0
  0
CIRCLE
  5
C8BD
330
1F
100
AcDbEntity
  8
1　製品
 48
15.0
100
AcDbCircle
 10
2997.288079342939
 20
2841.053312001874
 30
0.0
 40
15.0
  0
CIRCLE
  5
C8BE
330
1F
100
AcDbEntity
  8
1　製品
 48
15.0
100
AcDbCircle
 10
2917.288079342939
 20
2881.053312001874
 30
0.0
 40
15.0
  0
CIRCLE
  5
C8BF
330
1F
100
AcDbEntity
  8
1　製品
 48
15.0
100
AcDbCircle
 10
2917.288079342939
 20
2841.053312001874
 30
0.0
 40
15.0
  0
CIRCLE
  5
C8C0
330
1F
100
AcDbEntity
  8
1　製品
 48
15.0
100
AcDbCircle
 10
2957.288079342939
 20
2821.053312001874
 30
0.0
 40
15.0
  0
CIRCLE
  5
C8C1
330
1F
100
AcDbEntity
  8
1　製品
 48
15.0
100
AcDbCircle
 10
2957.288079342939
 20
2861.053312001874
 30
0.0
 40
15.0
  0
CIRCLE
  5
C8C2
330
1F
100
AcDbEntity
  8
1　製品
 48
15.0
100
AcDbCircle
 10
2997.288079342939
 20
2761.053312001874
 30
0.0
 40
15.0
  0
CIRCLE
  5
C8C3
330
1F
100
AcDbEntity
  8
1　製品
 48
15.0
100
AcDbCircle
 10
2997.288079342939
 20
2721.053312001874
 30
0.0
 40
15.0
  0
CIRCLE
  5
C8C4
330
1F
100
AcDbEntity
  8
1　製品
 48
15.0
100
AcDbCircle
 10
2917.288079342939
 20
2761.053312001874
 30
0.0
 40
15.0
  0
CIRCLE
  5
C8C5
330
1F
100
AcDbEntity
  8
1　製品
 48
15.0
100
AcDbCircle
 10
2917.288079342939
 20
2721.053312001874
 30
0.0
 40
15.0
  0
CIRCLE
  5
C8C6
330
1F
100
AcDbEntity
  8
1　製品
 48
15.0
100
AcDbCircle
 10
2957.288079342939
 20
2701.053312001874
 30
0.0
 40
15.0
  0
CIRCLE
  5
C8C7
330
1F
100
AcDbEntity
  8
1　製品
 48
15.0
100
AcDbCircle
 10
2957.288079342939
 20
2781.053312001874
 30
0.0
 40
15.0
  0
CIRCLE
  5
C8C8
330
1F
100
AcDbEntity
  8
1　製品
 48
15.0
100
AcDbCircle
 10
2957.288079342939
 20
2741.053312001874
 30
0.0
 40
15.0
  0
CIRCLE
  5
C8C9
330
1F
100
AcDbEntity
  8
1　製品
 48
15.0
100
AcDbCircle
 10
2917.288079342939
 20
2801.053312001874
 30
0.0
 40
15.0
  0
CIRCLE
  5
C8CA
330
1F
100
AcDbEntity
  8
1　製品
 48
15.0
100
AcDbCircle
 10
2997.288079342939
 20
2801.053312001874
 30
0.0
 40
15.0
  0
CIRCLE
  5
C8CB
330
1F
100
AcDbEntity
  8
1　製品
 48
15.0
100
AcDbCircle
 10
3037.288079342939
 20
2701.053312001874
 30
0.0
 40
15.0
  0
CIRCLE
  5
C8CC
330
1F
100
AcDbEntity
  8
1　製品
 48
15.0
100
AcDbCircle
 10
3037.288079342939
 20
2781.053312001874
 30
0.0
 40
15.0
  0
CIRCLE
  5
C8CD
330
1F
100
AcDbEntity
  8
1　製品
 48
15.0
100
AcDbCircle
 10
3037.288079342939
 20
2741.053312001874
 30
0.0
 40
15.0
  0
CIRCLE
  5
C8CE
330
1F
100
AcDbEntity
  8
1　製品
 48
15.0
100
AcDbCircle
 10
3037.288079342939
 20
2821.053312001874
 30
0.0
 40
15.0
  0
CIRCLE
  5
C8CF
330
1F
100
AcDbEntity
  8
1　製品
 48
15.0
100
AcDbCircle
 10
3037.288079342939
 20
2861.053312001874
 30
0.0
 40
15.0
  0
CIRCLE
  5
C8D0
330
1F
100
AcDbEntity
  8
1　製品
 48
15.0
100
AcDbCircle
 10
2917.288079342939
 20
2921.053312001874
 30
0.0
 40
15.0
  0
CIRCLE
  5
C8D1
330
1F
100
AcDbEntity
  8
1　製品
 48
15.0
100
AcDbCircle
 10
2997.288079342939
 20
2921.053312001874
 30
0.0
 40
15.0
  0
CIRCLE
  5
C8D2
330
1F
100
AcDbEntity
  8
1　製品
 48
15.0
100
AcDbCircle
 10
2957.288079342939
 20
2901.053312001874
 30
0.0
 40
15.0
  0
CIRCLE
  5
C8D3
330
1F
100
AcDbEntity
  8
1　製品
 48
15.0
100
AcDbCircle
 10
3037.288079342939
 20
2901.053312001874
 30
0.0
 40
15.0
  0
CIRCLE
  5
C8D4
330
1F
100
AcDbEntity
  8
1　製品
 48
15.0
100
AcDbCircle
 10
3117.288079342935
 20
2901.053312001874
 30
0.0
 40
15.0
  0
CIRCLE
  5
C8D5
330
1F
100
AcDbEntity
  8
1　製品
 48
15.0
100
AcDbCircle
 10
3077.288079342935
 20
2921.053312001874
 30
0.0
 40
15.0
  0
CIRCLE
  5
C8D6
330
1F
100
AcDbEntity
  8
1　製品
 48
15.0
100
AcDbCircle
 10
3157.288079342935
 20
2921.053312001874
 30
0.0
 40
15.0
  0
CIRCLE
  5
C8D7
330
1F
100
AcDbEntity
  8
1　製品
 48
15.0
100
AcDbCircle
 10
3197.288079342935
 20
2701.053312001874
 30
0.0
 40
15.0
  0
CIRCLE
  5
C8D8
330
1F
100
AcDbEntity
  8
1　製品
 48
15.0
100
AcDbCircle
 10
3197.288079342935
 20
2781.053312001874
 30
0.0
 40
15.0
  0
CIRCLE
  5
C8D9
330
1F
100
AcDbEntity
  8
1　製品
 48
15.0
100
AcDbCircle
 10
3197.288079342935
 20
2821.053312001874
 30
0.0
 40
15.0
  0
CIRCLE
  5
C8DA
330
1F
100
AcDbEntity
  8
1　製品
 48
15.0
100
AcDbCircle
 10
3197.288079342935
 20
2741.053312001874
 30
0.0
 40
15.0
  0
CIRCLE
  5
C8DB
330
1F
100
AcDbEntity
  8
1　製品
 48
15.0
100
AcDbCircle
 10
3197.288079342935
 20
2861.053312001874
 30
0.0
 40
15.0
  0
CIRCLE
  5
C8DC
330
1F
100
AcDbEntity
  8
1　製品
 48
15.0
100
AcDbCircle
 10
3197.288079342935
 20
3061.053312001874
 30
0.0
 40
15.0
  0
CIRCLE
  5
C8DD
330
1F
100
AcDbEntity
  8
1　製品
 48
15.0
100
AcDbCircle
 10
3197.288079342935
 20
3021.053312001874
 30
0.0
 40
15.0
  0
CIRCLE
  5
C8DE
330
1F
100
AcDbEntity
  8
1　製品
 48
15.0
100
AcDbCircle
 10
3197.288079342935
 20
2981.053312001874
 30
0.0
 40
15.0
  0
CIRCLE
  5
C8DF
330
1F
100
AcDbEntity
  8
1　製品
 48
15.0
100
AcDbCircle
 10
3197.288079342935
 20
2901.053312001874
 30
0.0
 40
15.0
  0
CIRCLE
  5
C8E0
330
1F
100
AcDbEntity
  8
1　製品
 48
15.0
100
AcDbCircle
 10
3197.288079342935
 20
2941.053312001874
 30
0.0
 40
15.0
  0
CIRCLE
  5
C8E1
330
1F
100
AcDbEntity
  8
1　製品
 48
15.0
100
AcDbCircle
 10
3197.288079342935
 20
3101.053312001874
 30
0.0
 40
15.0
  0
LINE
  5
C8E2
330
1F
100
AcDbEntity
  8
1　製品
  6
CENTER
100
AcDbLine
 10
3519.288079342942
 20
2621.553312001882
 30
0.0
 11
3519.288079342942
 21
2600.553312001882
 31
0.0
  0
CIRCLE
  5
C8E3
330
1F
100
AcDbEntity
  8
1　製品
 48
15.0
100
AcDbCircle
 10
3519.288079342942
 20
2611.053312001878
 30
0.0
 40
3.5
  0
CIRCLE
  5
C8E4
330
1F
100
AcDbEntity
  8
1　製品
 48
15.0
100
AcDbCircle
 10
3397.288079342935
 20
2641.053312001874
 30
0.0
 40
15.0
  0
CIRCLE
  5
C8E5
330
1F
100
AcDbEntity
  8
1　製品
 48
15.0
100
AcDbCircle
 10
3397.288079342935
 20
2601.053312001874
 30
0.0
 40
15.0
  0
CIRCLE
  5
C8E6
330
1F
100
AcDbEntity
  8
1　製品
 48
15.0
100
AcDbCircle
 10
3437.288079342935
 20
2661.053312001874
 30
0.0
 40
15.0
  0
CIRCLE
  5
C8E7
330
1F
100
AcDbEntity
  8
1　製品
 48
15.0
100
AcDbCircle
 10
3437.288079342935
 20
2621.053312001874
 30
0.0
 40
15.0
  0
CIRCLE
  5
C8E8
330
1F
100
AcDbEntity
  8
1　製品
 48
15.0
100
AcDbCircle
 10
3519.288079342942
 20
2461.053312001874
 30
0.0
 40
3.5
  0
LINE
  5
C8E9
330
1F
100
AcDbEntity
  8
1　製品
  6
CENTER
100
AcDbLine
 10
3519.288079342942
 20
2471.553312001878
 30
0.0
 11
3519.288079342942
 21
2450.553312001878
 31
0.0
  0
LINE
  5
C8EA
330
1F
100
AcDbEntity
  8
1　製品
100
AcDbLine
 10
3484.288079342935
 20
2503.553312001874
 30
0.0
 11
3485.788079342942
 21
2503.553312001874
 31
0.0
  0
CIRCLE
  5
C8EB
330
1F
100
AcDbEntity
  8
1　製品
 48
15.0
100
AcDbCircle
 10
3397.288079342935
 20
2481.053312001874
 30
0.0
 40
15.0
  0
CIRCLE
  5
C8EC
330
1F
100
AcDbEntity
  8
1　製品
 48
15.0
100
AcDbCircle
 10
3397.288079342935
 20
2521.053312001874
 30
0.0
 40
15.0
  0
CIRCLE
  5
C8ED
330
1F
100
AcDbEntity
  8
1　製品
 48
15.0
100
AcDbCircle
 10
3437.288079342935
 20
2541.053312001874
 30
0.0
 40
15.0
  0
CIRCLE
  5
C8EE
330
1F
100
AcDbEntity
  8
1　製品
 48
15.0
100
AcDbCircle
 10
3437.288079342935
 20
2501.053312001874
 30
0.0
 40
15.0
  0
CIRCLE
  5
C8EF
330
1F
100
AcDbEntity
  8
1　製品
 48
15.0
100
AcDbCircle
 10
3437.288079342935
 20
2581.053312001874
 30
0.0
 40
15.0
  0
CIRCLE
  5
C8F0
330
1F
100
AcDbEntity
  8
1　製品
 48
15.0
100
AcDbCircle
 10
3397.288079342935
 20
2561.053312001874
 30
0.0
 40
15.0
  0
CIRCLE
  5
C8F1
330
1F
100
AcDbEntity
  8
1　製品
 48
15.0
100
AcDbCircle
 10
3317.288079342935
 20
2641.053312001874
 30
0.0
 40
15.0
  0
CIRCLE
  5
C8F2
330
1F
100
AcDbEntity
  8
1　製品
 48
15.0
100
AcDbCircle
 10
3317.288079342935
 20
2601.053312001874
 30
0.0
 40
15.0
  0
CIRCLE
  5
C8F3
330
1F
100
AcDbEntity
  8
1　製品
 48
15.0
100
AcDbCircle
 10
3237.288079342935
 20
2641.053312001874
 30
0.0
 40
15.0
  0
CIRCLE
  5
C8F4
330
1F
100
AcDbEntity
  8
1　製品
 48
15.0
100
AcDbCircle
 10
3237.288079342935
 20
2601.053312001874
 30
0.0
 40
15.0
  0
CIRCLE
  5
C8F5
330
1F
100
AcDbEntity
  8
1　製品
 48
15.0
100
AcDbCircle
 10
3277.288079342935
 20
2621.053312001874
 30
0.0
 40
15.0
  0
CIRCLE
  5
C8F6
330
1F
100
AcDbEntity
  8
1　製品
 48
15.0
100
AcDbCircle
 10
3277.288079342935
 20
2661.053312001874
 30
0.0
 40
15.0
  0
CIRCLE
  5
C8F7
330
1F
100
AcDbEntity
  8
1　製品
 48
15.0
100
AcDbCircle
 10
3317.288079342935
 20
2481.053312001874
 30
0.0
 40
15.0
  0
CIRCLE
  5
C8F8
330
1F
100
AcDbEntity
  8
1　製品
 48
15.0
100
AcDbCircle
 10
3317.288079342935
 20
2521.053312001874
 30
0.0
 40
15.0
  0
CIRCLE
  5
C8F9
330
1F
100
AcDbEntity
  8
1　製品
 48
15.0
100
AcDbCircle
 10
3237.288079342935
 20
2481.053312001874
 30
0.0
 40
15.0
  0
CIRCLE
  5
C8FA
330
1F
100
AcDbEntity
  8
1　製品
 48
15.0
100
AcDbCircle
 10
3237.288079342935
 20
2521.053312001874
 30
0.0
 40
15.0
  0
CIRCLE
  5
C8FB
330
1F
100
AcDbEntity
  8
1　製品
 48
15.0
100
AcDbCircle
 10
3277.288079342935
 20
2541.053312001874
 30
0.0
 40
15.0
  0
CIRCLE
  5
C8FC
330
1F
100
AcDbEntity
  8
1　製品
 48
15.0
100
AcDbCircle
 10
3277.288079342935
 20
2501.053312001874
 30
0.0
 40
15.0
  0
CIRCLE
  5
C8FD
330
1F
100
AcDbEntity
  8
1　製品
 48
15.0
100
AcDbCircle
 10
3317.288079342935
 20
2561.053312001874
 30
0.0
 40
15.0
  0
CIRCLE
  5
C8FE
330
1F
100
AcDbEntity
  8
1　製品
 48
15.0
100
AcDbCircle
 10
3237.288079342935
 20
2561.053312001874
 30
0.0
 40
15.0
  0
CIRCLE
  5
C8FF
330
1F
100
AcDbEntity
  8
1　製品
 48
15.0
100
AcDbCircle
 10
3277.288079342935
 20
2581.053312001874
 30
0.0
 40
15.0
  0
CIRCLE
  5
C900
330
1F
100
AcDbEntity
  8
1　製品
 48
15.0
100
AcDbCircle
 10
3357.288079342935
 20
2541.053312001874
 30
0.0
 40
15.0
  0
CIRCLE
  5
C901
330
1F
100
AcDbEntity
  8
1　製品
 48
15.0
100
AcDbCircle
 10
3357.288079342935
 20
2501.053312001874
 30
0.0
 40
15.0
  0
CIRCLE
  5
C902
330
1F
100
AcDbEntity
  8
1　製品
 48
15.0
100
AcDbCircle
 10
3357.288079342935
 20
2621.053312001874
 30
0.0
 40
15.0
  0
CIRCLE
  5
C903
330
1F
100
AcDbEntity
  8
1　製品
 48
15.0
100
AcDbCircle
 10
3357.288079342935
 20
2581.053312001874
 30
0.0
 40
15.0
  0
CIRCLE
  5
C904
330
1F
100
AcDbEntity
  8
1　製品
 48
15.0
100
AcDbCircle
 10
3357.288079342935
 20
2661.053312001874
 30
0.0
 40
15.0
  0
CIRCLE
  5
C905
330
1F
100
AcDbEntity
  8
1　製品
 48
15.0
100
AcDbCircle
 10
3437.288079342935
 20
2421.053312001874
 30
0.0
 40
15.0
  0
LINE
  5
C906
330
1F
100
AcDbEntity
  8
1　製品
 48
50.0
100
AcDbLine
 10
3484.288079342946
 20
2383.553312001874
 30
0.0
 11
3444.288079342946
 21
2383.553312001874
 31
0.0
  0
LINE
  5
C907
330
1F
100
AcDbEntity
  8
1　製品
100
AcDbLine
 10
3364.288079342935
 20
2383.553312001874
 30
0.0
 11
3364.288079342935
 21
2382.053312001874
 31
0.0
  0
CIRCLE
  5
C908
330
1F
100
AcDbEntity
  8
1　製品
 48
15.0
100
AcDbCircle
 10
3277.288079342935
 20
2421.053312001874
 30
0.0
 40
15.0
  0
LINE
  5
C909
330
1F
100
AcDbEntity
  8
1　製品
100
AcDbLine
 10
3364.288079342935
 20
2382.053312001874
 30
0.0
 11
3485.788079342935
 21
2382.053312001874
 31
0.0
  0
CIRCLE
  5
C90A
330
1F
100
AcDbEntity
  8
1　製品
 48
15.0
100
AcDbCircle
 10
3357.288079342935
 20
2421.053312001874
 30
0.0
 40
15.0
  0
CIRCLE
  5
C90B
330
1F
100
AcDbEntity
  8
1　製品
 48
15.0
100
AcDbCircle
 10
3317.288079342935
 20
2441.053312001874
 30
0.0
 40
15.0
  0
CIRCLE
  5
C90C
330
1F
100
AcDbEntity
  8
1　製品
 48
15.0
100
AcDbCircle
 10
3237.288079342935
 20
2441.053312001874
 30
0.0
 40
15.0
  0
CIRCLE
  5
C90D
330
1F
100
AcDbEntity
  8
1　製品
 48
15.0
100
AcDbCircle
 10
3277.288079342935
 20
2461.053312001874
 30
0.0
 40
15.0
  0
CIRCLE
  5
C90E
330
1F
100
AcDbEntity
  8
1　製品
 48
15.0
100
AcDbCircle
 10
3437.288079342935
 20
2461.053312001874
 30
0.0
 40
15.0
  0
CIRCLE
  5
C90F
330
1F
100
AcDbEntity
  8
1　製品
 48
15.0
100
AcDbCircle
 10
3397.288079342935
 20
2441.053312001874
 30
0.0
 40
15.0
  0
CIRCLE
  5
C910
330
1F
100
AcDbEntity
  8
1　製品
 48
15.0
100
AcDbCircle
 10
3357.288079342935
 20
2461.053312001874
 30
0.0
 40
15.0
  0
LINE
  5
C911
330
1F
100
AcDbEntity
  8
1　製品
100
AcDbLine
 10
3485.788079342942
 20
2503.553312001874
 30
0.0
 11
3485.788079342935
 21
2382.053312001874
 31
0.0
  0
CIRCLE
  5
C912
330
1F
100
AcDbEntity
  8
1　製品
 48
15.0
100
AcDbCircle
 10
3157.288079342935
 20
2641.053312001874
 30
0.0
 40
15.0
  0
CIRCLE
  5
C913
330
1F
100
AcDbEntity
  8
1　製品
 48
15.0
100
AcDbCircle
 10
3157.288079342935
 20
2601.053312001874
 30
0.0
 40
15.0
  0
CIRCLE
  5
C914
330
1F
100
AcDbEntity
  8
1　製品
 48
15.0
100
AcDbCircle
 10
3077.288079342935
 20
2641.053312001874
 30
0.0
 40
15.0
  0
CIRCLE
  5
C915
330
1F
100
AcDbEntity
  8
1　製品
 48
15.0
100
AcDbCircle
 10
3077.288079342935
 20
2601.053312001874
 30
0.0
 40
15.0
  0
CIRCLE
  5
C916
330
1F
100
AcDbEntity
  8
1　製品
 48
15.0
100
AcDbCircle
 10
3117.288079342935
 20
2621.053312001874
 30
0.0
 40
15.0
  0
CIRCLE
  5
C917
330
1F
100
AcDbEntity
  8
1　製品
 48
15.0
100
AcDbCircle
 10
3117.288079342935
 20
2661.053312001874
 30
0.0
 40
15.0
  0
CIRCLE
  5
C918
330
1F
100
AcDbEntity
  8
1　製品
 48
15.0
100
AcDbCircle
 10
3157.288079342935
 20
2481.053312001874
 30
0.0
 40
15.0
  0
CIRCLE
  5
C919
330
1F
100
AcDbEntity
  8
1　製品
 48
15.0
100
AcDbCircle
 10
3157.288079342935
 20
2521.053312001874
 30
0.0
 40
15.0
  0
CIRCLE
  5
C91A
330
1F
100
AcDbEntity
  8
1　製品
 48
15.0
100
AcDbCircle
 10
3077.288079342935
 20
2481.053312001874
 30
0.0
 40
15.0
  0
CIRCLE
  5
C91B
330
1F
100
AcDbEntity
  8
1　製品
 48
15.0
100
AcDbCircle
 10
3077.288079342935
 20
2521.053312001874
 30
0.0
 40
15.0
  0
CIRCLE
  5
C91C
330
1F
100
AcDbEntity
  8
1　製品
 48
15.0
100
AcDbCircle
 10
3117.288079342935
 20
2541.053312001874
 30
0.0
 40
15.0
  0
CIRCLE
  5
C91D
330
1F
100
AcDbEntity
  8
1　製品
 48
15.0
100
AcDbCircle
 10
3117.288079342935
 20
2501.053312001874
 30
0.0
 40
15.0
  0
CIRCLE
  5
C91E
330
1F
100
AcDbEntity
  8
1　製品
 48
15.0
100
AcDbCircle
 10
3117.288079342935
 20
2581.053312001874
 30
0.0
 40
15.0
  0
CIRCLE
  5
C91F
330
1F
100
AcDbEntity
  8
1　製品
 48
15.0
100
AcDbCircle
 10
3077.288079342935
 20
2561.053312001874
 30
0.0
 40
15.0
  0
CIRCLE
  5
C920
330
1F
100
AcDbEntity
  8
1　製品
 48
15.0
100
AcDbCircle
 10
3157.288079342935
 20
2561.053312001874
 30
0.0
 40
15.0
  0
CIRCLE
  5
C921
330
1F
100
AcDbEntity
  8
1　製品
 48
15.0
100
AcDbCircle
 10
2997.288079342939
 20
2641.053312001874
 30
0.0
 40
15.0
  0
CIRCLE
  5
C922
330
1F
100
AcDbEntity
  8
1　製品
 48
15.0
100
AcDbCircle
 10
2997.288079342939
 20
2601.053312001874
 30
0.0
 40
15.0
  0
CIRCLE
  5
C923
330
1F
100
AcDbEntity
  8
1　製品
 48
15.0
100
AcDbCircle
 10
2917.288079342939
 20
2641.053312001874
 30
0.0
 40
15.0
  0
CIRCLE
  5
C924
330
1F
100
AcDbEntity
  8
1　製品
 48
15.0
100
AcDbCircle
 10
2917.288079342939
 20
2601.053312001874
 30
0.0
 40
15.0
  0
CIRCLE
  5
C925
330
1F
100
AcDbEntity
  8
1　製品
 48
15.0
100
AcDbCircle
 10
2957.288079342939
 20
2621.053312001874
 30
0.0
 40
15.0
  0
CIRCLE
  5
C926
330
1F
100
AcDbEntity
  8
1　製品
 48
15.0
100
AcDbCircle
 10
2957.288079342939
 20
2661.053312001874
 30
0.0
 40
15.0
  0
CIRCLE
  5
C927
330
1F
100
AcDbEntity
  8
1　製品
 48
15.0
100
AcDbCircle
 10
2997.288079342939
 20
2481.053312001874
 30
0.0
 40
15.0
  0
CIRCLE
  5
C928
330
1F
100
AcDbEntity
  8
1　製品
 48
15.0
100
AcDbCircle
 10
2997.288079342939
 20
2521.053312001874
 30
0.0
 40
15.0
  0
CIRCLE
  5
C929
330
1F
100
AcDbEntity
  8
1　製品
 48
15.0
100
AcDbCircle
 10
2917.288079342939
 20
2481.053312001874
 30
0.0
 40
15.0
  0
CIRCLE
  5
C92A
330
1F
100
AcDbEntity
  8
1　製品
 48
15.0
100
AcDbCircle
 10
2917.288079342939
 20
2521.053312001874
 30
0.0
 40
15.0
  0
CIRCLE
  5
C92B
330
1F
100
AcDbEntity
  8
1　製品
 48
15.0
100
AcDbCircle
 10
2957.288079342939
 20
2541.053312001874
 30
0.0
 40
15.0
  0
CIRCLE
  5
C92C
330
1F
100
AcDbEntity
  8
1　製品
 48
15.0
100
AcDbCircle
 10
2957.288079342939
 20
2501.053312001874
 30
0.0
 40
15.0
  0
CIRCLE
  5
C92D
330
1F
100
AcDbEntity
  8
1　製品
 48
15.0
100
AcDbCircle
 10
2917.288079342939
 20
2561.053312001874
 30
0.0
 40
15.0
  0
CIRCLE
  5
C92E
330
1F
100
AcDbEntity
  8
1　製品
 48
15.0
100
AcDbCircle
 10
2997.288079342939
 20
2561.053312001874
 30
0.0
 40
15.0
  0
CIRCLE
  5
C92F
330
1F
100
AcDbEntity
  8
1　製品
 48
15.0
100
AcDbCircle
 10
2957.288079342939
 20
2581.053312001874
 30
0.0
 40
15.0
  0
CIRCLE
  5
C930
330
1F
100
AcDbEntity
  8
1　製品
 48
15.0
100
AcDbCircle
 10
3037.288079342939
 20
2541.053312001874
 30
0.0
 40
15.0
  0
CIRCLE
  5
C931
330
1F
100
AcDbEntity
  8
1　製品
 48
15.0
100
AcDbCircle
 10
3037.288079342939
 20
2501.053312001874
 30
0.0
 40
15.0
  0
CIRCLE
  5
C932
330
1F
100
AcDbEntity
  8
1　製品
 48
15.0
100
AcDbCircle
 10
3037.288079342939
 20
2621.053312001874
 30
0.0
 40
15.0
  0
CIRCLE
  5
C933
330
1F
100
AcDbEntity
  8
1　製品
 48
15.0
100
AcDbCircle
 10
3037.288079342939
 20
2581.053312001874
 30
0.0
 40
15.0
  0
CIRCLE
  5
C934
330
1F
100
AcDbEntity
  8
1　製品
 48
15.0
100
AcDbCircle
 10
3037.288079342939
 20
2661.053312001874
 30
0.0
 40
15.0
  0
CIRCLE
  5
C935
330
1F
100
AcDbEntity
  8
1　製品
 48
15.0
100
AcDbCircle
 10
3117.288079342935
 20
2421.053312001874
 30
0.0
 40
15.0
  0
CIRCLE
  5
C936
330
1F
100
AcDbEntity
  8
1　製品
 48
15.0
100
AcDbCircle
 10
2957.288079342939
 20
2421.053312001874
 30
0.0
 40
15.0
  0
CIRCLE
  5
C937
330
1F
100
AcDbEntity
  8
1　製品
 48
15.0
100
AcDbCircle
 10
3037.288079342939
 20
2421.053312001874
 30
0.0
 40
15.0
  0
CIRCLE
  5
C938
330
1F
100
AcDbEntity
  8
1　製品
 48
15.0
100
AcDbCircle
 10
2917.288079342939
 20
2441.053312001874
 30
0.0
 40
15.0
  0
CIRCLE
  5
C939
330
1F
100
AcDbEntity
  8
1　製品
 48
15.0
100
AcDbCircle
 10
2997.288079342939
 20
2441.053312001874
 30
0.0
 40
15.0
  0
CIRCLE
  5
C93A
330
1F
100
AcDbEntity
  8
1　製品
 48
15.0
100
AcDbCircle
 10
2957.288079342939
 20
2461.053312001874
 30
0.0
 40
15.0
  0
CIRCLE
  5
C93B
330
1F
100
AcDbEntity
  8
1　製品
 48
15.0
100
AcDbCircle
 10
3037.288079342939
 20
2461.053312001874
 30
0.0
 40
15.0
  0
CIRCLE
  5
C93C
330
1F
100
AcDbEntity
  8
1　製品
 48
15.0
100
AcDbCircle
 10
3077.288079342935
 20
2441.053312001874
 30
0.0
 40
15.0
  0
CIRCLE
  5
C93D
330
1F
100
AcDbEntity
  8
1　製品
 48
15.0
100
AcDbCircle
 10
3157.288079342935
 20
2441.053312001874
 30
0.0
 40
15.0
  0
CIRCLE
  5
C93E
330
1F
100
AcDbEntity
  8
1　製品
 48
15.0
100
AcDbCircle
 10
3117.288079342935
 20
2461.053312001874
 30
0.0
 40
15.0
  0
CIRCLE
  5
C93F
330
1F
100
AcDbEntity
  8
1　製品
 48
15.0
100
AcDbCircle
 10
3197.288079342935
 20
2541.053312001874
 30
0.0
 40
15.0
  0
CIRCLE
  5
C940
330
1F
100
AcDbEntity
  8
1　製品
 48
15.0
100
AcDbCircle
 10
3197.288079342935
 20
2461.053312001874
 30
0.0
 40
15.0
  0
CIRCLE
  5
C941
330
1F
100
AcDbEntity
  8
1　製品
 48
15.0
100
AcDbCircle
 10
3197.288079342935
 20
2421.053312001874
 30
0.0
 40
15.0
  0
CIRCLE
  5
C942
330
1F
100
AcDbEntity
  8
1　製品
 48
15.0
100
AcDbCircle
 10
3197.288079342935
 20
2501.053312001874
 30
0.0
 40
15.0
  0
CIRCLE
  5
C943
330
1F
100
AcDbEntity
  8
1　製品
 48
15.0
100
AcDbCircle
 10
3197.288079342935
 20
2661.053312001874
 30
0.0
 40
15.0
  0
CIRCLE
  5
C944
330
1F
100
AcDbEntity
  8
1　製品
 48
15.0
100
AcDbCircle
 10
3197.288079342935
 20
2581.053312001874
 30
0.0
 40
15.0
  0
CIRCLE
  5
C945
330
1F
100
AcDbEntity
  8
1　製品
 48
15.0
100
AcDbCircle
 10
3197.288079342935
 20
2621.053312001874
 30
0.0
 40
15.0
  0
LINE
  5
C946
330
1F
100
AcDbEntity
  8
1　製品
 48
50.0
100
AcDbLine
 10
3484.288079342946
 20
2383.553312001874
 30
0.0
 11
3484.288079342946
 21
3138.553312001864
 31
0.0
  0
LINE
  5
C947
330
1F
100
AcDbEntity
  8
1　製品
  6
HIDDEN
 48
10.0
100
AcDbLine
 10
3483.088079342934
 20
3137.353312001874
 30
0.0
 11
3483.088079342938
 21
2384.753312001875
 31
0.0
  0
LINE
  5
C948
330
1F
100
AcDbEntity
  8
1　製品
100
AcDbLine
 10
3484.288079342935
 20
3138.553312001874
 30
0.0
 11
3484.288079342935
 21
2383.553312001874
 31
0.0
  0
CIRCLE
  5
C949
330
1F
100
AcDbEntity
  8
1　製品
 48
15.0
100
AcDbCircle
 10
3317.288079342935
 20
2681.053312001874
 30
0.0
 40
15.0
  0
CIRCLE
  5
C94A
330
1F
100
AcDbEntity
  8
1　製品
 48
15.0
100
AcDbCircle
 10
2917.288079342939
 20
2681.053312001874
 30
0.0
 40
15.0
  0
CIRCLE
  5
C94B
330
1F
100
AcDbEntity
  8
1　製品
 48
15.0
100
AcDbCircle
 10
2997.288079342939
 20
2681.053312001874
 30
0.0
 40
15.0
  0
CIRCLE
  5
C94C
330
1F
100
AcDbEntity
  8
1　製品
 48
15.0
100
AcDbCircle
 10
3077.288079342935
 20
2681.053312001874
 30
0.0
 40
15.0
  0
CIRCLE
  5
C94D
330
1F
100
AcDbEntity
  8
1　製品
 48
15.0
100
AcDbCircle
 10
3157.288079342935
 20
2681.053312001874
 30
0.0
 40
15.0
  0
CIRCLE
  5
C94E
330
1F
100
AcDbEntity
  8
1　製品
 48
15.0
100
AcDbCircle
 10
3237.288079342935
 20
2681.053312001874
 30
0.0
 40
15.0
  0
CIRCLE
  5
C94F
330
1F
100
AcDbEntity
  8
1　製品
 48
15.0
100
AcDbCircle
 10
3397.288079342935
 20
2681.053312001874
 30
0.0
 40
15.0
  0
LINE
  5
C950
330
1F
100
AcDbEntity
  8
1　製品
 48
15.0
100
AcDbLine
 10
3484.288079342946
 20
2383.553312001874
 30
0.0
 11
3529.288079342946
 21
2428.553312001874
 31
0.0
  0
LINE
  5
C951
330
1F
100
AcDbEntity
  8
1　製品
  6
CENTER
100
AcDbLine
 10
3508.788079342946
 20
2461.053312001874
 30
0.0
 11
3529.788079342946
 21
2461.053312001874
 31
0.0
  0
LINE
  5
C952
330
1F
100
AcDbEntity
  8
1　製品
  6
CENTER
100
AcDbLine
 10
3508.788079342946
 20
2611.053312001878
 30
0.0
 11
3529.788079342946
 21
2611.053312001878
 31
0.0
  0
LINE
  5
C953
330
1F
100
AcDbEntity
  8
1　製品
  6
CENTER
100
AcDbLine
 10
3508.788079342946
 20
2761.053312001878
 30
0.0
 11
3529.788079342946
 21
2761.053312001878
 31
0.0
  0
LINE
  5
C954
330
1F
100
AcDbEntity
  8
1　製品
  6
CENTER
100
AcDbLine
 10
3508.788079342946
 20
2911.053312001878
 30
0.0
 11
3529.788079342946
 21
2911.053312001878
 31
0.0
  0
LINE
  5
C955
330
1F
100
AcDbEntity
  8
1　製品
  6
CENTER
100
AcDbLine
 10
3508.788079342946
 20
3061.053312001878
 30
0.0
 11
3529.788079342946
 21
3061.053312001878
 31
0.0
  0
LINE
  5
C956
330
1F
100
AcDbEntity
  8
1　製品
 48
15.0
100
AcDbLine
 10
3484.288079342935
 20
3138.553312001874
 30
0.0
 11
3529.288079342939
 21
3093.553312001874
 31
0.0
  0
CIRCLE
  5
C957
330
1F
100
AcDbEntity
  8
1　製品
 48
15.0
100
AcDbCircle
 10
2837.288079342939
 20
3081.053312001874
 30
0.0
 40
15.0
  0
LINE
  5
C958
330
1F
100
AcDbEntity
  8
1　製品
100
AcDbLine
 10
2790.288079342939
 20
3140.053312001874
 30
0.0
 11
2790.288079342939
 21
3138.553312001874
 31
0.0
  0
CIRCLE
  5
C959
330
1F
100
AcDbEntity
  8
1　製品
 48
15.0
100
AcDbCircle
 10
2757.288079342939
 20
3081.053312001874
 30
0.0
 40
15.0
  0
CIRCLE
  5
C95A
330
1F
100
AcDbEntity
  8
1　製品
 48
15.0
100
AcDbCircle
 10
2797.288079342939
 20
3061.053312001874
 30
0.0
 40
15.0
  0
CIRCLE
  5
C95B
330
1F
100
AcDbEntity
  8
1　製品
 48
15.0
100
AcDbCircle
 10
2797.288079342939
 20
3101.053312001874
 30
0.0
 40
15.0
  0
CIRCLE
  5
C95C
330
1F
100
AcDbEntity
  8
1　製品
 48
15.0
100
AcDbCircle
 10
2837.288079342939
 20
3001.053312001874
 30
0.0
 40
15.0
  0
CIRCLE
  5
C95D
330
1F
100
AcDbEntity
  8
1　製品
 48
15.0
100
AcDbCircle
 10
2837.288079342939
 20
2961.053312001874
 30
0.0
 40
15.0
  0
CIRCLE
  5
C95E
330
1F
100
AcDbEntity
  8
1　製品
 48
15.0
100
AcDbCircle
 10
2757.288079342939
 20
3001.053312001874
 30
0.0
 40
15.0
  0
CIRCLE
  5
C95F
330
1F
100
AcDbEntity
  8
1　製品
 48
15.0
100
AcDbCircle
 10
2757.288079342939
 20
2961.053312001874
 30
0.0
 40
15.0
  0
CIRCLE
  5
C960
330
1F
100
AcDbEntity
  8
1　製品
 48
15.0
100
AcDbCircle
 10
2797.288079342939
 20
2941.053312001874
 30
0.0
 40
15.0
  0
CIRCLE
  5
C961
330
1F
100
AcDbEntity
  8
1　製品
 48
15.0
100
AcDbCircle
 10
2797.288079342939
 20
2981.053312001874
 30
0.0
 40
15.0
  0
CIRCLE
  5
C962
330
1F
100
AcDbEntity
  8
1　製品
 48
15.0
100
AcDbCircle
 10
2797.288079342939
 20
3021.053312001874
 30
0.0
 40
15.0
  0
CIRCLE
  5
C963
330
1F
100
AcDbEntity
  8
1　製品
 48
15.0
100
AcDbCircle
 10
2757.288079342939
 20
3041.053312001874
 30
0.0
 40
15.0
  0
CIRCLE
  5
C964
330
1F
100
AcDbEntity
  8
1　製品
 48
15.0
100
AcDbCircle
 10
2837.288079342939
 20
3041.053312001874
 30
0.0
 40
15.0
  0
LINE
  5
C965
330
1F
100
AcDbEntity
  8
1　製品
  6
CENTER
100
AcDbLine
 10
2635.288079342935
 20
3071.553312001889
 30
0.0
 11
2635.288079342935
 21
3050.553312001889
 31
0.0
  0
CIRCLE
  5
C966
330
1F
100
AcDbEntity
  8
1　製品
 48
15.0
100
AcDbCircle
 10
2635.288079342939
 20
3061.053312001889
 30
0.0
 40
3.5
  0
LINE
  5
C967
330
1F
100
AcDbEntity
  8
1　製品
 48
15.0
100
AcDbLine
 10
2670.288079342949
 20
3138.553312001885
 30
0.0
 11
2625.288079342942
 21
3093.553312001885
 31
0.0
  0
LINE
  5
C968
330
1F
100
AcDbEntity
  8
1　製品
  6
CENTER
100
AcDbLine
 10
2624.788079342939
 20
3061.053312001885
 30
0.0
 11
2645.788079342939
 21
3061.053312001885
 31
0.0
  0
LINE
  5
C969
330
1F
100
AcDbEntity
  8
1　製品
100
AcDbLine
 10
2668.788079342939
 20
3018.553312001871
 30
0.0
 11
2670.288079342939
 21
3018.553312001874
 31
0.0
  0
LINE
  5
C96A
330
1F
100
AcDbEntity
  8
1　製品
100
AcDbLine
 10
2668.788079342931
 20
3140.053312001871
 30
0.0
 11
2668.788079342939
 21
3018.553312001871
 31
0.0
  0
CIRCLE
  5
C96B
330
1F
100
AcDbEntity
  8
1　製品
 48
15.0
100
AcDbCircle
 10
2717.288079342939
 20
3061.053312001874
 30
0.0
 40
15.0
  0
CIRCLE
  5
C96C
330
1F
100
AcDbEntity
  8
1　製品
 48
15.0
100
AcDbCircle
 10
2717.288079342939
 20
2981.053312001874
 30
0.0
 40
15.0
  0
CIRCLE
  5
C96D
330
1F
100
AcDbEntity
  8
1　製品
 48
15.0
100
AcDbCircle
 10
2717.288079342939
 20
2941.053312001874
 30
0.0
 40
15.0
  0
CIRCLE
  5
C96E
330
1F
100
AcDbEntity
  8
1　製品
 48
15.0
100
AcDbCircle
 10
2717.288079342939
 20
3021.053312001874
 30
0.0
 40
15.0
  0
LINE
  5
C96F
330
1F
100
AcDbEntity
  8
1　製品
100
AcDbLine
 10
2668.788079342931
 20
3140.053312001871
 30
0.0
 11
2790.288079342939
 21
3140.053312001874
 31
0.0
  0
CIRCLE
  5
C970
330
1F
100
AcDbEntity
  8
1　製品
 48
15.0
100
AcDbCircle
 10
2717.288079342939
 20
3101.053312001874
 30
0.0
 40
15.0
  0
LINE
  5
C971
330
1F
100
AcDbEntity
  8
1　製品
 48
50.0
100
AcDbLine
 10
2670.288079342949
 20
3138.553312001885
 30
0.0
 11
2710.288079342935
 21
3138.553312001885
 31
0.0
  0
CIRCLE
  5
C972
330
1F
100
AcDbEntity
  8
1　製品
 48
15.0
100
AcDbCircle
 10
2837.288079342939
 20
2881.053312001874
 30
0.0
 40
15.0
  0
CIRCLE
  5
C973
330
1F
100
AcDbEntity
  8
1　製品
 48
15.0
100
AcDbCircle
 10
2837.288079342939
 20
2841.053312001874
 30
0.0
 40
15.0
  0
CIRCLE
  5
C974
330
1F
100
AcDbEntity
  8
1　製品
 48
15.0
100
AcDbCircle
 10
2757.288079342939
 20
2881.053312001874
 30
0.0
 40
15.0
  0
CIRCLE
  5
C975
330
1F
100
AcDbEntity
  8
1　製品
 48
15.0
100
AcDbCircle
 10
2757.288079342939
 20
2841.053312001874
 30
0.0
 40
15.0
  0
CIRCLE
  5
C976
330
1F
100
AcDbEntity
  8
1　製品
 48
15.0
100
AcDbCircle
 10
2797.288079342939
 20
2821.053312001874
 30
0.0
 40
15.0
  0
CIRCLE
  5
C977
330
1F
100
AcDbEntity
  8
1　製品
 48
15.0
100
AcDbCircle
 10
2797.288079342939
 20
2861.053312001874
 30
0.0
 40
15.0
  0
CIRCLE
  5
C978
330
1F
100
AcDbEntity
  8
1　製品
 48
15.0
100
AcDbCircle
 10
2837.288079342939
 20
2761.053312001874
 30
0.0
 40
15.0
  0
CIRCLE
  5
C979
330
1F
100
AcDbEntity
  8
1　製品
 48
15.0
100
AcDbCircle
 10
2837.288079342939
 20
2721.053312001874
 30
0.0
 40
15.0
  0
CIRCLE
  5
C97A
330
1F
100
AcDbEntity
  8
1　製品
 48
15.0
100
AcDbCircle
 10
2757.288079342939
 20
2761.053312001874
 30
0.0
 40
15.0
  0
CIRCLE
  5
C97B
330
1F
100
AcDbEntity
  8
1　製品
 48
15.0
100
AcDbCircle
 10
2757.288079342939
 20
2721.053312001874
 30
0.0
 40
15.0
  0
CIRCLE
  5
C97C
330
1F
100
AcDbEntity
  8
1　製品
 48
15.0
100
AcDbCircle
 10
2797.288079342939
 20
2741.053312001874
 30
0.0
 40
15.0
  0
CIRCLE
  5
C97D
330
1F
100
AcDbEntity
  8
1　製品
 48
15.0
100
AcDbCircle
 10
2797.288079342939
 20
2701.053312001874
 30
0.0
 40
15.0
  0
CIRCLE
  5
C97E
330
1F
100
AcDbEntity
  8
1　製品
 48
15.0
100
AcDbCircle
 10
2797.288079342939
 20
2781.053312001874
 30
0.0
 40
15.0
  0
CIRCLE
  5
C97F
330
1F
100
AcDbEntity
  8
1　製品
 48
15.0
100
AcDbCircle
 10
2757.288079342939
 20
2801.053312001874
 30
0.0
 40
15.0
  0
CIRCLE
  5
C980
330
1F
100
AcDbEntity
  8
1　製品
 48
15.0
100
AcDbCircle
 10
2837.288079342939
 20
2801.053312001874
 30
0.0
 40
15.0
  0
LINE
  5
C981
330
1F
100
AcDbEntity
  8
1　製品
  6
CENTER
100
AcDbLine
 10
2624.788079342942
 20
2911.053312001889
 30
0.0
 11
2645.788079342942
 21
2911.053312001889
 31
0.0
  0
CIRCLE
  5
C982
330
1F
100
AcDbEntity
  8
1　製品
 48
15.0
100
AcDbCircle
 10
2635.288079342939
 20
2761.053312001889
 30
0.0
 40
3.5
  0
LINE
  5
C983
330
1F
100
AcDbEntity
  8
1　製品
  6
CENTER
100
AcDbLine
 10
2635.288079342939
 20
2771.553312001893
 30
0.0
 11
2635.288079342939
 21
2750.553312001893
 31
0.0
  0
LINE
  5
C984
330
1F
100
AcDbEntity
  8
1　製品
  6
CENTER
100
AcDbLine
 10
2624.788079342942
 20
2761.053312001889
 30
0.0
 11
2645.788079342942
 21
2761.053312001889
 31
0.0
  0
CIRCLE
  5
C985
330
1F
100
AcDbEntity
  8
1　製品
 48
15.0
100
AcDbCircle
 10
2717.288079342939
 20
2701.053312001874
 30
0.0
 40
15.0
  0
CIRCLE
  5
C986
330
1F
100
AcDbEntity
  8
1　製品
 48
15.0
100
AcDbCircle
 10
2717.288079342939
 20
2781.053312001874
 30
0.0
 40
15.0
  0
CIRCLE
  5
C987
330
1F
100
AcDbEntity
  8
1　製品
 48
15.0
100
AcDbCircle
 10
2717.288079342939
 20
2741.053312001874
 30
0.0
 40
15.0
  0
CIRCLE
  5
C988
330
1F
100
AcDbEntity
  8
1　製品
 48
15.0
100
AcDbCircle
 10
2717.288079342939
 20
2821.053312001874
 30
0.0
 40
15.0
  0
CIRCLE
  5
C989
330
1F
100
AcDbEntity
  8
1　製品
 48
15.0
100
AcDbCircle
 10
2717.288079342939
 20
2861.053312001874
 30
0.0
 40
15.0
  0
CIRCLE
  5
C98A
330
1F
100
AcDbEntity
  8
1　製品
 48
15.0
100
AcDbCircle
 10
2797.288079342939
 20
2901.053312001874
 30
0.0
 40
15.0
  0
LINE
  5
C98B
330
1F
100
AcDbEntity
  8
1　製品
  6
CENTER
100
AcDbLine
 10
2635.288079342939
 20
2921.553312001893
 30
0.0
 11
2635.288079342939
 21
2900.553312001893
 31
0.0
  0
CIRCLE
  5
C98C
330
1F
100
AcDbEntity
  8
1　製品
 48
15.0
100
AcDbCircle
 10
2635.288079342939
 20
2911.053312001889
 30
0.0
 40
3.5
  0
CIRCLE
  5
C98D
330
1F
100
AcDbEntity
  8
1　製品
 48
15.0
100
AcDbCircle
 10
2717.288079342939
 20
2901.053312001874
 30
0.0
 40
15.0
  0
CIRCLE
  5
C98E
330
1F
100
AcDbEntity
  8
1　製品
 48
15.0
100
AcDbCircle
 10
2757.288079342939
 20
2921.053312001874
 30
0.0
 40
15.0
  0
CIRCLE
  5
C98F
330
1F
100
AcDbEntity
  8
1　製品
 48
15.0
100
AcDbCircle
 10
2837.288079342939
 20
2921.053312001874
 30
0.0
 40
15.0
  0
CIRCLE
  5
C990
330
1F
100
AcDbEntity
  8
1　製品
 48
15.0
100
AcDbCircle
 10
2837.288079342939
 20
2641.053312001874
 30
0.0
 40
15.0
  0
CIRCLE
  5
C991
330
1F
100
AcDbEntity
  8
1　製品
 48
15.0
100
AcDbCircle
 10
2837.288079342939
 20
2601.053312001874
 30
0.0
 40
15.0
  0
CIRCLE
  5
C992
330
1F
100
AcDbEntity
  8
1　製品
 48
15.0
100
AcDbCircle
 10
2757.288079342939
 20
2641.053312001874
 30
0.0
 40
15.0
  0
CIRCLE
  5
C993
330
1F
100
AcDbEntity
  8
1　製品
 48
15.0
100
AcDbCircle
 10
2757.288079342939
 20
2601.053312001874
 30
0.0
 40
15.0
  0
CIRCLE
  5
C994
330
1F
100
AcDbEntity
  8
1　製品
 48
15.0
100
AcDbCircle
 10
2797.288079342939
 20
2661.053312001874
 30
0.0
 40
15.0
  0
CIRCLE
  5
C995
330
1F
100
AcDbEntity
  8
1　製品
 48
15.0
100
AcDbCircle
 10
2797.288079342939
 20
2621.053312001874
 30
0.0
 40
15.0
  0
CIRCLE
  5
C996
330
1F
100
AcDbEntity
  8
1　製品
 48
15.0
100
AcDbCircle
 10
2837.288079342939
 20
2481.053312001874
 30
0.0
 40
15.0
  0
CIRCLE
  5
C997
330
1F
100
AcDbEntity
  8
1　製品
 48
15.0
100
AcDbCircle
 10
2837.288079342939
 20
2521.053312001874
 30
0.0
 40
15.0
  0
CIRCLE
  5
C998
330
1F
100
AcDbEntity
  8
1　製品
 48
15.0
100
AcDbCircle
 10
2757.288079342939
 20
2481.053312001874
 30
0.0
 40
15.0
  0
CIRCLE
  5
C999
330
1F
100
AcDbEntity
  8
1　製品
 48
15.0
100
AcDbCircle
 10
2757.288079342939
 20
2521.053312001874
 30
0.0
 40
15.0
  0
CIRCLE
  5
C99A
330
1F
100
AcDbEntity
  8
1　製品
 48
15.0
100
AcDbCircle
 10
2797.288079342939
 20
2501.053312001874
 30
0.0
 40
15.0
  0
CIRCLE
  5
C99B
330
1F
100
AcDbEntity
  8
1　製品
 48
15.0
100
AcDbCircle
 10
2797.288079342939
 20
2541.053312001874
 30
0.0
 40
15.0
  0
CIRCLE
  5
C99C
330
1F
100
AcDbEntity
  8
1　製品
 48
15.0
100
AcDbCircle
 10
2797.288079342939
 20
2581.053312001874
 30
0.0
 40
15.0
  0
CIRCLE
  5
C99D
330
1F
100
AcDbEntity
  8
1　製品
 48
15.0
100
AcDbCircle
 10
2757.288079342939
 20
2561.053312001874
 30
0.0
 40
15.0
  0
CIRCLE
  5
C99E
330
1F
100
AcDbEntity
  8
1　製品
 48
15.0
100
AcDbCircle
 10
2837.288079342939
 20
2561.053312001874
 30
0.0
 40
15.0
  0
LINE
  5
C99F
330
1F
100
AcDbEntity
  8
1　製品
  6
CENTER
100
AcDbLine
 10
2635.288079342939
 20
2621.553312001893
 30
0.0
 11
2635.288079342939
 21
2600.553312001893
 31
0.0
  0
CIRCLE
  5
C9A0
330
1F
100
AcDbEntity
  8
1　製品
 48
15.0
100
AcDbCircle
 10
2635.288079342939
 20
2611.053312001889
 30
0.0
 40
3.5
  0
LINE
  5
C9A1
330
1F
100
AcDbEntity
  8
1　製品
  6
CENTER
100
AcDbLine
 10
2624.788079342942
 20
2611.053312001889
 30
0.0
 11
2645.788079342942
 21
2611.053312001889
 31
0.0
  0
LINE
  5
C9A2
330
1F
100
AcDbEntity
  8
1　製品
100
AcDbLine
 10
2668.788079342935
 20
2503.553312001874
 30
0.0
 11
2670.288079342939
 21
2503.553312001874
 31
0.0
  0
LINE
  5
C9A3
330
1F
100
AcDbEntity
  8
1　製品
  6
CENTER
100
AcDbLine
 10
2635.288079342939
 20
2471.553312001889
 30
0.0
 11
2635.288079342939
 21
2450.553312001889
 31
0.0
  0
CIRCLE
  5
C9A4
330
1F
100
AcDbEntity
  8
1　製品
 48
15.0
100
AcDbCircle
 10
2635.288079342939
 20
2461.053312001885
 30
0.0
 40
3.5
  0
LINE
  5
C9A5
330
1F
100
AcDbEntity
  8
1　製品
  6
CENTER
100
AcDbLine
 10
2624.788079342942
 20
2461.053312001885
 30
0.0
 11
2645.788079342942
 21
2461.053312001885
 31
0.0
  0
CIRCLE
  5
C9A6
330
1F
100
AcDbEntity
  8
1　製品
 48
15.0
100
AcDbCircle
 10
2717.288079342939
 20
2541.053312001874
 30
0.0
 40
15.0
  0
CIRCLE
  5
C9A7
330
1F
100
AcDbEntity
  8
1　製品
 48
15.0
100
AcDbCircle
 10
2717.288079342939
 20
2501.053312001874
 30
0.0
 40
15.0
  0
CIRCLE
  5
C9A8
330
1F
100
AcDbEntity
  8
1　製品
 48
15.0
100
AcDbCircle
 10
2717.288079342939
 20
2621.053312001874
 30
0.0
 40
15.0
  0
CIRCLE
  5
C9A9
330
1F
100
AcDbEntity
  8
1　製品
 48
15.0
100
AcDbCircle
 10
2717.288079342939
 20
2581.053312001874
 30
0.0
 40
15.0
  0
CIRCLE
  5
C9AA
330
1F
100
AcDbEntity
  8
1　製品
 48
15.0
100
AcDbCircle
 10
2717.288079342939
 20
2661.053312001874
 30
0.0
 40
15.0
  0
LINE
  5
C9AB
330
1F
100
AcDbEntity
  8
1　製品
100
AcDbLine
 10
2790.288079342939
 20
2383.553312001874
 30
0.0
 11
2790.288079342939
 21
2382.053312001874
 31
0.0
  0
CIRCLE
  5
C9AC
330
1F
100
AcDbEntity
  8
1　製品
 48
15.0
100
AcDbCircle
 10
2797.288079342939
 20
2421.053312001874
 30
0.0
 40
15.0
  0
LINE
  5
C9AD
330
1F
100
AcDbEntity
  8
1　製品
 48
15.0
100
AcDbLine
 10
2670.288079342935
 20
2383.553312001885
 30
0.0
 11
2625.288079342935
 21
2428.553312001885
 31
0.0
  0
CIRCLE
  5
C9AE
330
1F
100
AcDbEntity
  8
1　製品
 48
15.0
100
AcDbCircle
 10
2717.288079342939
 20
2421.053312001874
 30
0.0
 40
15.0
  0
LINE
  5
C9AF
330
1F
100
AcDbEntity
  8
1　製品
100
AcDbLine
 10
2668.788079342931
 20
2382.053312001874
 30
0.0
 11
2790.288079342939
 21
2382.053312001874
 31
0.0
  0
LINE
  5
C9B0
330
1F
100
AcDbEntity
  8
1　製品
 48
50.0
100
AcDbLine
 10
2670.288079342935
 20
2383.553312001885
 30
0.0
 11
2710.288079342935
 21
2383.553312001885
 31
0.0
  0
CIRCLE
  5
C9B1
330
1F
100
AcDbEntity
  8
1　製品
 48
15.0
100
AcDbCircle
 10
2797.288079342939
 20
2461.053312001874
 30
0.0
 40
15.0
  0
CIRCLE
  5
C9B2
330
1F
100
AcDbEntity
  8
1　製品
 48
15.0
100
AcDbCircle
 10
2757.288079342939
 20
2441.053312001874
 30
0.0
 40
15.0
  0
LINE
  5
C9B3
330
1F
100
AcDbEntity
  8
1　製品
100
AcDbLine
 10
2668.788079342935
 20
2503.553312001874
 30
0.0
 11
2668.788079342931
 21
2382.053312001874
 31
0.0
  0
CIRCLE
  5
C9B4
330
1F
100
AcDbEntity
  8
1　製品
 48
15.0
100
AcDbCircle
 10
2717.288079342939
 20
2461.053312001874
 30
0.0
 40
15.0
  0
CIRCLE
  5
C9B5
330
1F
100
AcDbEntity
  8
1　製品
 48
15.0
100
AcDbCircle
 10
2837.288079342939
 20
2441.053312001874
 30
0.0
 40
15.0
  0
LINE
  5
C9B6
330
1F
100
AcDbEntity
  8
1　製品
 48
15.0
100
AcDbLine
 10
2625.288079342942
 20
3093.553312001885
 30
0.0
 11
2625.288079342935
 21
2428.553312001885
 31
0.0
  0
LINE
  5
C9B7
330
1F
100
AcDbEntity
  8
1　製品
 48
50.0
100
AcDbLine
 10
2670.288079342935
 20
2383.553312001885
 30
0.0
 11
2670.288079342935
 21
3138.553312001874
 31
0.0
  0
LINE
  5
C9B8
330
1F
100
AcDbEntity
  8
1　製品
100
AcDbLine
 10
2670.288079342935
 20
3138.553312001874
 30
0.0
 11
2670.288079342935
 21
2383.553312001871
 31
0.0
  0
LINE
  5
C9B9
330
1F
100
AcDbEntity
  8
1　製品
  6
HIDDEN
 48
10.0
100
AcDbLine
 10
2671.488079342939
 20
3137.353312001874
 30
0.0
 11
2671.488079342936
 21
2384.753312001872
 31
0.0
  0
CIRCLE
  5
C9BA
330
1F
100
AcDbEntity
  8
1　製品
 48
15.0
100
AcDbCircle
 10
2757.288079342939
 20
2681.053312001874
 30
0.0
 40
15.0
  0
CIRCLE
  5
C9BB
330
1F
100
AcDbEntity
  8
1　製品
 48
15.0
100
AcDbCircle
 10
2837.288079342939
 20
2681.053312001874
 30
0.0
 40
15.0
  0
LINE
  5
C9BC
330
1F
100
AcDbEntity
  8
1　製品
  6
HIDDEN
 48
10.0
100
AcDbLine
 10
2671.488079342936
 20
2384.753312001872
 30
0.0
 11
3483.088079342938
 21
2384.753312001875
 31
0.0
  0
LINE
  5
C9BD
330
1F
100
AcDbEntity
  8
1　製品
100
AcDbLine
 10
2670.288079342935
 20
2383.553312001871
 30
0.0
 11
3484.288079342935
 21
2383.553312001874
 31
0.0
  0
CIRCLE
  5
C9BE
330
1F
100
AcDbEntity
  8
1　製品
 48
15.0
100
AcDbCircle
 10
2877.288079342939
 20
2541.053312001874
 30
0.0
 40
15.0
  0
CIRCLE
  5
C9BF
330
1F
100
AcDbEntity
  8
1　製品
 48
15.0
100
AcDbCircle
 10
2877.288079342939
 20
2421.053312001874
 30
0.0
 40
15.0
  0
CIRCLE
  5
C9C0
330
1F
100
AcDbEntity
  8
1　製品
 48
15.0
100
AcDbCircle
 10
2877.288079342939
 20
2461.053312001874
 30
0.0
 40
15.0
  0
CIRCLE
  5
C9C1
330
1F
100
AcDbEntity
  8
1　製品
 48
15.0
100
AcDbCircle
 10
2877.288079342939
 20
2501.053312001874
 30
0.0
 40
15.0
  0
CIRCLE
  5
C9C2
330
1F
100
AcDbEntity
  8
1　製品
 48
15.0
100
AcDbCircle
 10
2877.288079342939
 20
2701.053312001874
 30
0.0
 40
15.0
  0
CIRCLE
  5
C9C3
330
1F
100
AcDbEntity
  8
1　製品
 48
15.0
100
AcDbCircle
 10
2877.288079342939
 20
2621.053312001874
 30
0.0
 40
15.0
  0
CIRCLE
  5
C9C4
330
1F
100
AcDbEntity
  8
1　製品
 48
15.0
100
AcDbCircle
 10
2877.288079342939
 20
2581.053312001874
 30
0.0
 40
15.0
  0
CIRCLE
  5
C9C5
330
1F
100
AcDbEntity
  8
1　製品
 48
15.0
100
AcDbCircle
 10
2877.288079342939
 20
2661.053312001874
 30
0.0
 40
15.0
  0
CIRCLE
  5
C9C6
330
1F
100
AcDbEntity
  8
1　製品
 48
15.0
100
AcDbCircle
 10
2877.288079342939
 20
2781.053312001874
 30
0.0
 40
15.0
  0
CIRCLE
  5
C9C7
330
1F
100
AcDbEntity
  8
1　製品
 48
15.0
100
AcDbCircle
 10
2877.288079342939
 20
2741.053312001874
 30
0.0
 40
15.0
  0
CIRCLE
  5
C9C8
330
1F
100
AcDbEntity
  8
1　製品
 48
15.0
100
AcDbCircle
 10
2877.288079342939
 20
2821.053312001874
 30
0.0
 40
15.0
  0
CIRCLE
  5
C9C9
330
1F
100
AcDbEntity
  8
1　製品
 48
15.0
100
AcDbCircle
 10
2877.288079342939
 20
2861.053312001874
 30
0.0
 40
15.0
  0
LINE
  5
C9CA
330
1F
100
AcDbEntity
  8
1　製品
  6
HIDDEN
 48
10.0
100
AcDbLine
 10
2671.488079342939
 20
3137.353312001874
 30
0.0
 11
3483.088079342934
 21
3137.353312001874
 31
0.0
  0
LINE
  5
C9CB
330
1F
100
AcDbEntity
  8
1　製品
100
AcDbLine
 10
2670.288079342935
 20
3138.553312001874
 30
0.0
 11
3484.288079342935
 21
3138.553312001874
 31
0.0
  0
CIRCLE
  5
C9CC
330
1F
100
AcDbEntity
  8
1　製品
 48
15.0
100
AcDbCircle
 10
2877.288079342939
 20
3061.053312001874
 30
0.0
 40
15.0
  0
CIRCLE
  5
C9CD
330
1F
100
AcDbEntity
  8
1　製品
 48
15.0
100
AcDbCircle
 10
2877.288079342939
 20
2981.053312001874
 30
0.0
 40
15.0
  0
CIRCLE
  5
C9CE
330
1F
100
AcDbEntity
  8
1　製品
 48
15.0
100
AcDbCircle
 10
2877.288079342939
 20
2901.053312001874
 30
0.0
 40
15.0
  0
CIRCLE
  5
C9CF
330
1F
100
AcDbEntity
  8
1　製品
 48
15.0
100
AcDbCircle
 10
2877.288079342939
 20
2941.053312001874
 30
0.0
 40
15.0
  0
CIRCLE
  5
C9D0
330
1F
100
AcDbEntity
  8
1　製品
 48
15.0
100
AcDbCircle
 10
2877.288079342939
 20
3021.053312001874
 30
0.0
 40
15.0
  0
CIRCLE
  5
C9D1
330
1F
100
AcDbEntity
  8
1　製品
 48
15.0
100
AcDbCircle
 10
2877.288079342939
 20
3101.053312001874
 30
0.0
 40
15.0
  0
LINE
  5
C9D2
330
1F
100
AcDbEntity
  8
1　製品
 48
5.0
100
AcDbLine
 10
3529.288079342931
 20
1128.579819788135
 30
0.0
 11
3529.288079342931
 21
1127.379819788134
 31
0.0
  0
LINE
  5
C9D3
330
1F
100
AcDbEntity
  8
1　製品
  6
HIDDEN
 48
10.0
100
AcDbLine
 10
3483.088079342934
 20
1626.179819788137
 30
0.0
 11
3483.088079342934
 21
1587.379819788138
 31
0.0
  0
LINE
  5
C9D4
330
1F
100
AcDbEntity
  8
1　製品
  6
CENTER
100
AcDbLine
 10
3439.28807934331
 20
1614.379819788156
 30
0.0
 11
3439.28807934331
 21
1600.379819788156
 31
0.0
  0
ARC
  5
C9D5
330
1F
100
AcDbEntity
  8
1　製品
 48
15.0
100
AcDbCircle
 10
3441.78807934331
 20
1607.379819788156
 30
0.0
 40
3.49999999999967
100
AcDbArc
 50
270.0
 51
90.0
  0
CIRCLE
  5
C9D6
330
1F
100
AcDbEntity
  8
1　製品
 48
15.0
100
AcDbCircle
 10
3439.28807934331
 20
1607.379819788152
 30
0.0
 40
3.0
  0
ARC
  5
C9D7
330
1F
100
AcDbEntity
  8
1　製品
 48
15.0
100
AcDbCircle
 10
3436.78807934331
 20
1607.379819788156
 30
0.0
 40
3.50000000000024
100
AcDbArc
 50
90.0
 51
270.0
  0
LINE
  5
C9D8
330
1F
100
AcDbEntity
  8
1　製品
100
AcDbLine
 10
3436.78807934331
 20
1603.879819788156
 30
0.0
 11
3441.78807934331
 21
1603.879819788156
 31
0.0
  0
LINE
  5
C9D9
330
1F
100
AcDbEntity
  8
1　製品
100
AcDbLine
 10
3436.78807934331
 20
1610.879819788156
 30
0.0
 11
3441.78807934331
 21
1610.879819788156
 31
0.0
  0
LINE
  5
C9DA
330
1F
100
AcDbEntity
  8
1　製品
  6
CENTER
100
AcDbLine
 10
3369.78807934331
 20
1607.379819788152
 30
0.0
 11
3388.78807934331
 21
1607.379819788152
 31
0.0
  0
LINE
  5
C9DB
330
1F
100
AcDbEntity
  8
1　製品
  6
CENTER
100
AcDbLine
 10
3379.28807934331
 20
1614.379819788152
 30
0.0
 11
3379.28807934331
 21
1600.379819788152
 31
0.0
  0
ARC
  5
C9DC
330
1F
100
AcDbEntity
  8
1　製品
 48
15.0
100
AcDbCircle
 10
3381.78807934331
 20
1607.379819788152
 30
0.0
 40
3.49999999999967
100
AcDbArc
 50
270.0
 51
90.0
  0
ARC
  5
C9DD
330
1F
100
AcDbEntity
  8
1　製品
 48
15.0
100
AcDbCircle
 10
3376.78807934331
 20
1607.379819788152
 30
0.0
 40
3.50000000000024
100
AcDbArc
 50
90.0
 51
270.0
  0
CIRCLE
  5
C9DE
330
1F
100
AcDbEntity
  8
1　製品
 48
15.0
100
AcDbCircle
 10
3379.28807934331
 20
1607.379819788152
 30
0.0
 40
3.0
  0
LINE
  5
C9DF
330
1F
100
AcDbEntity
  8
1　製品
100
AcDbLine
 10
3376.78807934331
 20
1603.879819788152
 30
0.0
 11
3381.78807934331
 21
1603.879819788152
 31
0.0
  0
LINE
  5
C9E0
330
1F
100
AcDbEntity
  8
1　製品
100
AcDbLine
 10
3376.78807934331
 20
1610.879819788152
 30
0.0
 11
3381.78807934331
 21
1610.879819788152
 31
0.0
  0
LINE
  5
C9E1
330
1F
100
AcDbEntity
  8
1　製品
  6
CENTER
100
AcDbLine
 10
3431.388079342937
 20
1607.379819788152
 30
0.0
 11
3450.388079342937
 21
1607.379819788152
 31
0.0
  0
LINE
  5
C9E2
330
1F
100
AcDbEntity
  8
1　製品
 48
15.0
100
AcDbLine
 10
3364.288079342909
 20
1627.379819788138
 30
0.0
 11
3364.288079342909
 21
1587.379819788138
 31
0.0
  0
LINE
  5
C9E3
330
1F
100
AcDbEntity
  8
1　製品
  6
HIDDEN
 48
10.0
100
AcDbLine
 10
3364.288079342909
 20
1588.579819788157
 30
0.0
 11
3484.288079342931
 21
1588.579819788135
 31
0.0
  0
LINE
  5
C9E4
330
1F
100
AcDbEntity
  8
1　製品
  6
HIDDEN
 48
10.0
100
AcDbLine
 10
3364.288079342909
 20
1587.379819788156
 30
0.0
 11
3484.288079342931
 21
1587.379819788138
 31
0.0
  0
LINE
  5
C9E5
330
1F
100
AcDbEntity
  8
1　製品
 48
15.0
100
AcDbLine
 10
3364.288079342909
 20
1587.379819788163
 30
0.0
 11
3444.288079342917
 21
1507.379819788174
 31
0.0
  0
ARC
  5
C9E6
330
1F
100
AcDbEntity
  8
1　製品
 48
15.0
100
AcDbCircle
 10
3464.288079342931
 20
1184.879819788138
 30
0.0
 40
3.50000000000024
100
AcDbArc
 50
0.0
 51
180.0
  0
LINE
  5
C9E7
330
1F
100
AcDbEntity
  8
1　製品
  6
HIDDEN
 48
10.0
100
AcDbLine
 10
3484.288079342931
 20
1197.379819788076
 30
0.0
 11
3444.288079342931
 21
1197.379819788076
 31
0.0
  0
LINE
  5
C9E8
330
1F
100
AcDbEntity
  8
1　製品
  6
CENTER
100
AcDbLine
 10
3464.288079342931
 20
1151.879819788138
 30
0.0
 11
3464.288079342931
 21
1132.879819788138
 31
0.0
  0
LINE
  5
C9E9
330
1F
100
AcDbEntity
  8
1　製品
100
AcDbLine
 10
3467.788079342931
 20
1144.879819788138
 30
0.0
 11
3467.788079342931
 21
1139.879819788138
 31
0.0
  0
LINE
  5
C9EA
330
1F
100
AcDbEntity
  8
1　製品
100
AcDbLine
 10
3467.788079342931
 20
1144.879819788138
 30
0.0
 11
3467.788079342931
 21
1139.879819788138
 31
0.0
  0
LINE
  5
C9EB
330
1F
100
AcDbEntity
  8
1　製品
 48
15.0
100
AcDbLine
 10
3483.088079342931
 20
1128.579819788139
 30
0.0
 11
3483.088079342931
 21
1127.379819788134
 31
0.0
  0
LINE
  5
C9EC
330
1F
100
AcDbEntity
  8
1　製品
100
AcDbLine
 10
3460.788079342931
 20
1144.879819788138
 30
0.0
 11
3460.788079342931
 21
1139.879819788138
 31
0.0
  0
ARC
  5
C9ED
330
1F
100
AcDbEntity
  8
1　製品
 48
15.0
100
AcDbCircle
 10
3464.288079342931
 20
1179.879819788138
 30
0.0
 40
3.49999999999967
100
AcDbArc
 50
180.0
 51
0.0
  0
LINE
  5
C9EE
330
1F
100
AcDbEntity
  8
1　製品
  6
CENTER
100
AcDbLine
 10
3471.288079342931
 20
1142.379819788138
 30
0.0
 11
3457.288079342931
 21
1142.379819788138
 31
0.0
  0
ARC
  5
C9EF
330
1F
100
AcDbEntity
  8
1　製品
 48
15.0
100
AcDbCircle
 10
3464.288079342931
 20
1139.879819788138
 30
0.0
 40
3.49999999999967
100
AcDbArc
 50
180.0
 51
0.0
  0
CIRCLE
  5
C9F0
330
1F
100
AcDbEntity
  8
1　製品
 48
15.0
100
AcDbCircle
 10
3464.288079342931
 20
1142.379819788138
 30
0.0
 40
3.0
  0
ARC
  5
C9F1
330
1F
100
AcDbEntity
  8
1　製品
 48
15.0
100
AcDbCircle
 10
3464.288079342931
 20
1144.879819788138
 30
0.0
 40
3.50000000000024
100
AcDbArc
 50
0.0
 51
180.0
  0
LINE
  5
C9F2
330
1F
100
AcDbEntity
  8
1　製品
  6
CENTER
100
AcDbLine
 10
3471.288079342931
 20
1182.379819788138
 30
0.0
 11
3457.288079342931
 21
1182.379819788138
 31
0.0
  0
LINE
  5
C9F3
330
1F
100
AcDbEntity
  8
1　製品
  6
HIDDEN
 48
10.0
100
AcDbLine
 10
3483.088079342934
 20
1197.379819788076
 30
0.0
 11
3483.088079342931
 21
1128.579819788139
 31
0.0
  0
LINE
  5
C9F4
330
1F
100
AcDbEntity
  8
1　製品
  6
CENTER
100
AcDbLine
 10
3464.288079342931
 20
1191.879819788138
 30
0.0
 11
3464.288079342931
 21
1172.879819788138
 31
0.0
  0
LINE
  5
C9F5
330
1F
100
AcDbEntity
  8
1　製品
100
AcDbLine
 10
3467.788079342931
 20
1184.879819788138
 30
0.0
 11
3467.788079342931
 21
1179.879819788138
 31
0.0
  0
LINE
  5
C9F6
330
1F
100
AcDbEntity
  8
1　製品
100
AcDbLine
 10
3467.788079342931
 20
1184.879819788138
 30
0.0
 11
3467.788079342931
 21
1179.879819788138
 31
0.0
  0
LINE
  5
C9F7
330
1F
100
AcDbEntity
  8
1　製品
100
AcDbLine
 10
3460.788079342931
 20
1184.879819788138
 30
0.0
 11
3460.788079342931
 21
1179.879819788138
 31
0.0
  0
CIRCLE
  5
C9F8
330
1F
100
AcDbEntity
  8
1　製品
 48
15.0
100
AcDbCircle
 10
3464.288079342931
 20
1182.379819788138
 30
0.0
 40
3.0
  0
LINE
  5
C9F9
330
1F
100
AcDbEntity
  8
1　製品
  6
HIDDEN
 48
10.0
100
AcDbLine
 10
3484.288079342931
 20
1627.379819788138
 30
0.0
 11
3484.288079342931
 21
1128.579819788139
 31
0.0
  0
LINE
  5
C9FA
330
1F
100
AcDbEntity
  8
1　製品
100
AcDbLine
 10
3485.788079342931
 20
1627.379819788138
 30
0.0
 11
3485.788079342931
 21
1128.579819788139
 31
0.0
  0
LINE
  5
C9FB
330
1F
100
AcDbEntity
  8
1　製品
100
AcDbLine
 10
3444.288079342931
 20
1507.379819788156
 30
0.0
 11
3444.288079342931
 21
1128.579819788139
 31
0.0
  0
LINE
  5
C9FC
330
1F
100
AcDbEntity
  8
1　製品
100
AcDbLine
 10
3529.288079342931
 20
1128.579819788135
 30
0.0
 11
3444.288079342931
 21
1128.579819788139
 31
0.0
  0
LINE
  5
C9FD
330
1F
100
AcDbEntity
  8
1　製品
100
AcDbLine
 10
3529.288079342931
 20
1127.379819788134
 30
0.0
 11
3483.088079342927
 21
1127.379819788134
 31
0.0
  0
ARC
  5
C9FE
330
1F
100
AcDbEntity
  8
1　製品
 48
15.0
100
AcDbCircle
 10
2772.788079343433
 20
1607.379819788149
 30
0.0
 40
3.49999999999967
100
AcDbArc
 50
90.0
 51
270.0
  0
CIRCLE
  5
C9FF
330
1F
100
AcDbEntity
  8
1　製品
 48
15.0
100
AcDbCircle
 10
2775.288079343433
 20
1607.379819788152
 30
0.0
 40
3.0
  0
LINE
  5
CA00
330
1F
100
AcDbEntity
  8
1　製品
  6
CENTER
100
AcDbLine
 10
2775.288079343433
 20
1614.379819788149
 30
0.0
 11
2775.288079343433
 21
1600.379819788149
 31
0.0
  0
ARC
  5
CA01
330
1F
100
AcDbEntity
  8
1　製品
 48
15.0
100
AcDbCircle
 10
2777.788079343433
 20
1607.379819788149
 30
0.0
 40
3.50000000000024
100
AcDbArc
 50
270.0
 51
90.0
  0
LINE
  5
CA02
330
1F
100
AcDbEntity
  8
1　製品
  6
CENTER
100
AcDbLine
 10
2784.788079343433
 20
1607.379819788149
 30
0.0
 11
2765.788079343433
 21
1607.379819788149
 31
0.0
  0
LINE
  5
CA03
330
1F
100
AcDbEntity
  8
1　製品
100
AcDbLine
 10
2777.788079343433
 20
1603.879819788149
 30
0.0
 11
2772.788079343433
 21
1603.879819788149
 31
0.0
  0
LINE
  5
CA04
330
1F
100
AcDbEntity
  8
1　製品
100
AcDbLine
 10
2777.788079343433
 20
1610.879819788149
 30
0.0
 11
2772.788079343433
 21
1610.879819788149
 31
0.0
  0
LINE
  5
CA05
330
1F
100
AcDbEntity
  8
1　製品
100
AcDbLine
 10
2777.788079343433
 20
1610.879819788149
 30
0.0
 11
2772.788079343433
 21
1610.879819788149
 31
0.0
  0
ARC
  5
CA06
330
1F
100
AcDbEntity
  8
1　製品
 48
15.0
100
AcDbCircle
 10
2712.788079343433
 20
1607.379819788152
 30
0.0
 40
3.49999999999967
100
AcDbArc
 50
90.0
 51
270.0
  0
LINE
  5
CA07
330
1F
100
AcDbEntity
  8
1　製品
  6
CENTER
100
AcDbLine
 10
2715.288079343433
 20
1614.379819788152
 30
0.0
 11
2715.288079343433
 21
1600.379819788152
 31
0.0
  0
ARC
  5
CA08
330
1F
100
AcDbEntity
  8
1　製品
 48
15.0
100
AcDbCircle
 10
2717.788079343433
 20
1607.379819788152
 30
0.0
 40
3.50000000000024
100
AcDbArc
 50
270.0
 51
90.0
  0
CIRCLE
  5
CA09
330
1F
100
AcDbEntity
  8
1　製品
 48
15.0
100
AcDbCircle
 10
2715.288079343433
 20
1607.379819788152
 30
0.0
 40
3.0
  0
LINE
  5
CA0A
330
1F
100
AcDbEntity
  8
1　製品
100
AcDbLine
 10
2717.788079343433
 20
1603.879819788152
 30
0.0
 11
2712.788079343433
 21
1603.879819788152
 31
0.0
  0
LINE
  5
CA0B
330
1F
100
AcDbEntity
  8
1　製品
100
AcDbLine
 10
2717.788079343433
 20
1610.879819788152
 30
0.0
 11
2712.788079343433
 21
1610.879819788152
 31
0.0
  0
LINE
  5
CA0C
330
1F
100
AcDbEntity
  8
1　製品
100
AcDbLine
 10
2717.788079343433
 20
1610.879819788152
 30
0.0
 11
2712.788079343433
 21
1610.879819788152
 31
0.0
  0
LINE
  5
CA0D
330
1F
100
AcDbEntity
  8
1　製品
 48
15.0
100
AcDbLine
 10
2790.288079342935
 20
1627.379819788138
 30
0.0
 11
2790.288079342935
 21
1587.379819788138
 31
0.0
  0
LINE
  5
CA0E
330
1F
100
AcDbEntity
  8
1　製品
  6
HIDDEN
 48
10.0
100
AcDbLine
 10
2671.488079342936
 20
1626.179819788137
 30
0.0
 11
2671.488079342936
 21
1587.379819788138
 31
0.0
  0
LINE
  5
CA0F
330
1F
100
AcDbEntity
  8
1　製品
  6
HIDDEN
 48
10.0
100
AcDbLine
 10
2788.688079342933
 20
1588.579819788135
 30
0.0
 11
2670.288079342935
 21
1588.579819788135
 31
0.0
  0
LINE
  5
CA10
330
1F
100
AcDbEntity
  8
1　製品
  6
HIDDEN
 48
10.0
100
AcDbLine
 10
2788.688079342933
 20
1587.379819788134
 30
0.0
 11
2670.288079342935
 21
1587.379819788138
 31
0.0
  0
LINE
  5
CA11
330
1F
100
AcDbEntity
  8
1　製品
  6
CENTER
100
AcDbLine
 10
2724.788079343433
 20
1607.379819788152
 30
0.0
 11
2705.788079343433
 21
1607.379819788152
 31
0.0
  0
LINE
  5
CA12
330
1F
100
AcDbEntity
  8
1　製品
 48
15.0
100
AcDbLine
 10
2790.288079342935
 20
1587.379819788134
 30
0.0
 11
2710.288079342939
 21
1507.379819788134
 31
0.0
  0
ARC
  5
CA13
330
1F
100
AcDbEntity
  8
1　製品
 48
15.0
100
AcDbCircle
 10
2690.288079342935
 20
1184.879819788134
 30
0.0
 40
3.50000000000024
100
AcDbArc
 50
0.0
 51
180.0
  0
ARC
  5
CA14
330
1F
100
AcDbEntity
  8
1　製品
 48
15.0
100
AcDbCircle
 10
2690.288079342931
 20
1179.879819788138
 30
0.0
 40
3.49999999999967
100
AcDbArc
 50
180.0
 51
0.0
  0
LINE
  5
CA15
330
1F
100
AcDbEntity
  8
1　製品
  6
CENTER
100
AcDbLine
 10
2683.288079342935
 20
1142.379819788138
 30
0.0
 11
2697.288079342935
 21
1142.379819788138
 31
0.0
  0
LINE
  5
CA16
330
1F
100
AcDbEntity
  8
1　製品
 48
15.0
100
AcDbLine
 10
2671.488079342936
 20
1128.579819788135
 30
0.0
 11
2671.488079342936
 21
1127.379819788138
 31
0.0
  0
LINE
  5
CA17
330
1F
100
AcDbEntity
  8
1　製品
  6
CENTER
100
AcDbLine
 10
2690.288079342935
 20
1151.879819788138
 30
0.0
 11
2690.288079342935
 21
1132.879819788138
 31
0.0
  0
ARC
  5
CA18
330
1F
100
AcDbEntity
  8
1　製品
 48
15.0
100
AcDbCircle
 10
2690.288079342931
 20
1139.879819788138
 30
0.0
 40
3.49999999999967
100
AcDbArc
 50
180.0
 51
0.0
  0
ARC
  5
CA19
330
1F
100
AcDbEntity
  8
1　製品
 48
15.0
100
AcDbCircle
 10
2690.288079342935
 20
1144.879819788138
 30
0.0
 40
3.50000000000024
100
AcDbArc
 50
0.0
 51
180.0
  0
LINE
  5
CA1A
330
1F
100
AcDbEntity
  8
1　製品
100
AcDbLine
 10
2686.788079342935
 20
1144.879819788138
 30
0.0
 11
2686.788079342935
 21
1139.879819788138
 31
0.0
  0
LINE
  5
CA1B
330
1F
100
AcDbEntity
  8
1　製品
100
AcDbLine
 10
2693.788079342935
 20
1144.879819788138
 30
0.0
 11
2693.788079342935
 21
1139.879819788138
 31
0.0
  0
LINE
  5
CA1C
330
1F
100
AcDbEntity
  8
1　製品
100
AcDbLine
 10
2686.788079342935
 20
1144.879819788138
 30
0.0
 11
2686.788079342935
 21
1139.879819788138
 31
0.0
  0
CIRCLE
  5
CA1D
330
1F
100
AcDbEntity
  8
1　製品
 48
15.0
100
AcDbCircle
 10
2690.288079342935
 20
1142.379819788138
 30
0.0
 40
3.0
  0
LINE
  5
CA1E
330
1F
100
AcDbEntity
  8
1　製品
  6
CENTER
100
AcDbLine
 10
2683.288079342935
 20
1182.379819788138
 30
0.0
 11
2697.288079342935
 21
1182.379819788138
 31
0.0
  0
LINE
  5
CA1F
330
1F
100
AcDbEntity
  8
1　製品
 48
5.0
100
AcDbLine
 10
2625.288079342931
 20
1128.579819788135
 30
0.0
 11
2625.288079342931
 21
1127.379819788138
 31
0.0
  0
LINE
  5
CA20
330
1F
100
AcDbEntity
  8
1　製品
100
AcDbLine
 10
2625.288079342931
 20
1127.379819788138
 30
0.0
 11
2671.488079342936
 21
1127.379819788138
 31
0.0
  0
LINE
  5
CA21
330
1F
100
AcDbEntity
  8
1　製品
  6
HIDDEN
 48
10.0
100
AcDbLine
 10
2671.488079342936
 20
1197.379819788138
 30
0.0
 11
2671.488079342936
 21
1128.579819788139
 31
0.0
  0
LINE
  5
CA22
330
1F
100
AcDbEntity
  8
1　製品
  6
CENTER
100
AcDbLine
 10
2690.288079342935
 20
1191.879819788134
 30
0.0
 11
2690.288079342935
 21
1172.879819788138
 31
0.0
  0
LINE
  5
CA23
330
1F
100
AcDbEntity
  8
1　製品
100
AcDbLine
 10
2686.788079342935
 20
1184.879819788134
 30
0.0
 11
2686.788079342935
 21
1179.879819788138
 31
0.0
  0
LINE
  5
CA24
330
1F
100
AcDbEntity
  8
1　製品
100
AcDbLine
 10
2693.788079342935
 20
1184.879819788134
 30
0.0
 11
2693.788079342935
 21
1179.879819788138
 31
0.0
  0
LINE
  5
CA25
330
1F
100
AcDbEntity
  8
1　製品
100
AcDbLine
 10
2686.788079342935
 20
1184.879819788134
 30
0.0
 11
2686.788079342935
 21
1179.879819788138
 31
0.0
  0
CIRCLE
  5
CA26
330
1F
100
AcDbEntity
  8
1　製品
 48
15.0
100
AcDbCircle
 10
2690.288079342935
 20
1182.379819788134
 30
0.0
 40
3.0
  0
LINE
  5
CA27
330
1F
100
AcDbEntity
  8
1　製品
100
AcDbLine
 10
2625.288079342931
 20
1128.579819788135
 30
0.0
 11
2710.288079342935
 21
1128.579819788139
 31
0.0
  0
LINE
  5
CA28
330
1F
100
AcDbEntity
  8
1　製品
  6
HIDDEN
 48
10.0
100
AcDbLine
 10
2670.288079342935
 20
1197.379819788138
 30
0.0
 11
2710.288079342935
 21
1197.379819788138
 31
0.0
  0
LINE
  5
CA29
330
1F
100
AcDbEntity
  8
1　製品
  6
HIDDEN
 48
10.0
100
AcDbLine
 10
2670.288079342935
 20
1627.379819788138
 30
0.0
 11
2670.288079342935
 21
1128.579819788139
 31
0.0
  0
LINE
  5
CA2A
330
1F
100
AcDbEntity
  8
1　製品
100
AcDbLine
 10
2668.788079342931
 20
1627.379819788138
 30
0.0
 11
2668.788079342931
 21
1128.579819788135
 31
0.0
  0
LINE
  5
CA2B
330
1F
100
AcDbEntity
  8
1　製品
100
AcDbLine
 10
2710.288079342935
 20
1507.379819788134
 30
0.0
 11
2710.288079342935
 21
1128.579819788139
 31
0.0
  0
LINE
  5
CA2C
330
1F
100
AcDbEntity
  8
1　製品
  6
HIDDEN
 48
10.0
100
AcDbLine
 10
2788.688079342933
 20
1588.579819788135
 30
0.0
 11
3364.288079342909
 21
1588.579819788157
 31
0.0
  0
LINE
  5
CA2D
330
1F
100
AcDbEntity
  8
1　製品
  6
HIDDEN
 48
10.0
100
AcDbLine
 10
2671.488079342936
 20
1626.179819788137
 30
0.0
 11
3483.088079342934
 21
1626.179819788137
 31
0.0
  0
LINE
  5
CA2E
330
1F
100
AcDbEntity
  8
1　製品
100
AcDbLine
 10
2668.788079342931
 20
1627.379819788138
 30
0.0
 11
3485.788079342931
 21
1627.379819788138
 31
0.0
  0
LINE
  5
CA2F
330
1F
100
AcDbEntity
  8
1　製品
100
AcDbLine
 10
2788.688079342933
 20
1587.379819788134
 30
0.0
 11
3364.288079342909
 21
1587.379819788156
 31
0.0
  0
ENDSEC
  0
SECTION
  2
OBJECTS
  0
DICTIONARY
  5
C
330
0
100
AcDbDictionary
281
     1
  3
ACAD_CIP_PREVIOUS_PRODUCT_INFO
350
D1A4
  3
ACAD_GROUP
350
D
  3
ACAD_IMAGE_VARS
350
D2F7
  3
ACAD_LAYOUT
350
1A
  3
ACAD_MLINESTYLE
350
17
  3
ACAD_PLOTSETTINGS
350
19
  3
ACAD_PLOTSTYLENAME
350
E
  3
ACAD_SCALELIST
350
AE79
  3
AcadDim
350
3CE9
  3
AcDbVariableDictionary
350
6EF
  3
APPDATA
350
D2F6
  3
DWGPROPS
350
D41A
  0
DICTIONARY
  5
C034
330
8
100
AcDbDictionary
280
     1
281
     1
  0
DICTIONARY
  5
AAEE
330
2
100
AcDbDictionary
280
     1
281
     1
  3
ACAD_LAYERSTATES
360
AAEF
  0
DICTIONARY
  5
BB39
330
10
100
AcDbDictionary
280
     1
281
     1
  3
ADSK_XREC_LAYER_RECONCILED
360
BB3A
  0
DICTIONARY
  5
BB3B
330
44
100
AcDbDictionary
280
     1
281
     1
  3
ADSK_XREC_LAYER_RECONCILED
360
BB3C
  0
DICTIONARY
  5
BB3D
330
45
100
AcDbDictionary
280
     1
281
     1
  3
ADSK_XREC_LAYER_RECONCILED
360
BB3E
  0
DICTIONARY
  5
BB3F
330
46
100
AcDbDictionary
280
     1
281
     1
  3
ADSK_XREC_LAYER_RECONCILED
360
BB40
  0
DICTIONARY
  5
BB41
330
47
100
AcDbDictionary
280
     1
281
     1
  3
ADSK_XREC_LAYER_RECONCILED
360
BB42
  0
DICTIONARY
  5
BB43
330
48
100
AcDbDictionary
280
     1
281
     1
  3
ADSK_XREC_LAYER_RECONCILED
360
BB44
  0
DICTIONARY
  5
BB45
330
49
100
AcDbDictionary
280
     1
281
     1
  3
ADSK_XREC_LAYER_RECONCILED
360
BB46
  0
DICTIONARY
  5
BB47
330
59
100
AcDbDictionary
280
     1
281
     1
  3
ADSK_XREC_LAYER_RECONCILED
360
BB48
  0
DICTIONARY
  5
BB49
330
553
100
AcDbDictionary
280
     1
281
     1
  3
ADSK_XREC_LAYER_RECONCILED
360
BB4A
  0
DICTIONARY
  5
BB4B
330
F13
100
AcDbDictionary
280
     1
281
     1
  3
ADSK_XREC_LAYER_RECONCILED
360
BB4C
  0
DICTIONARY
  5
BB4D
330
F14
100
AcDbDictionary
280
     1
281
     1
  3
ADSK_XREC_LAYER_RECONCILED
360
BB4E
  0
DICTIONARY
  5
AA3C
330
1F
100
AcDbDictionary
280
     1
281
     1
  3
ACAD_SORTENTS
360
CDED
  0
XRECORD
  5
D1A4
102
{ACAD_REACTORS
330
C
102
}
330
C
100
AcDbXrecord
280
     1
300
ACDLT
300
2012
300
ACDLT_F_S
  0
DICTIONARY
  5
D
102
{ACAD_REACTORS
330
C
102
}
330
C
100
AcDbDictionary
281
     1
  0
RASTERVARIABLES
  5
D2F7
102
{ACAD_REACTORS
330
C
102
}
330
C
100
AcDbRasterVariables
 90
        0
 70
     1
 71
     1
 72
     1
  0
DICTIONARY
  5
1A
102
{ACAD_REACTORS
330
C
102
}
330
C
100
AcDbDictionary
281
     1
  3
Layout1
350
1E
  3
Layout2
350
26
  3
Model
350
22
  0
DICTIONARY
  5
17
102
{ACAD_REACTORS
330
C
102
}
330
C
100
AcDbDictionary
281
     1
  3
Standard
350
18
  0
DICTIONARY
  5
19
102
{ACAD_REACTORS
330
C
102
}
330
C
100
AcDbDictionary
281
     1
  0
ACDBDICTIONARYWDFLT
  5
E
102
{ACAD_REACTORS
330
C
102
}
330
C
100
AcDbDictionary
281
     1
  3
Normal
350
F
100
AcDbDictionaryWithDefault
340
F
  0
DICTIONARY
  5
AE79
102
{ACAD_REACTORS
330
C
102
}
330
C
100
AcDbDictionary
281
     1
  3
A0
350
AE7A
  3
A1
350
AE7B
  3
A2
350
AE7C
  3
A3
350
AE7D
  3
A4
350
AE7E
  3
A5
350
AE7F
  3
A6
350
AE80
  3
A7
350
AE81
  3
A8
350
AE82
  3
A9
350
AE83
  3
B0
350
AE84
  3
B1
350
AE85
  3
B2
350
AE86
  3
B3
350
AE87
  3
B4
350
AE88
  3
B5
350
AE89
  3
B6
350
AE8A
  0
XRECORD
  5
3CE9
102
{ACAD_REACTORS
330
C
102
}
330
C
100
AcDbXrecord
280
     1
 90
   990106
  3

 60
     0
 61
     0
 62
     4
 63
     4
 64
     1
 65
     0
 66
     0
 67
     3
 68
     1
 69
     0
 70
     0
 71
     0
 72
     0
 40
0.0
170
     1
340
0
  0
DICTIONARY
  5
6EF
102
{ACAD_REACTORS
330
C
102
}
330
C
100
AcDbDictionary
281
     1
  3
CANNOSCALE
350
D41B
  3
DIMASSOC
350
6F0
  3
INDEXCTL
350
C069
  3
SORTENTS
350
C068
  0
DICTIONARY
  5
D2F6
102
{ACAD_REACTORS
330
C
102
}
330
C
100
AcDbDictionary
281
     1
  0
XRECORD
  5
D41A
102
{ACAD_REACTORS
330
C
102
}
330
C
100
AcDbXrecord
280
     1
  1
DWGPROPS COOKIE
  2

  3

  4

  6

  7

  8
shimeno
  9

300
=
301
=
302
=
303
=
304
=
305
=
306
=
307
=
308
=
309
=
 40
0.0
 41
2454740.218452685
 42
2456636.612839572
  1

 90
        0
  0
DICTIONARY
  5
AAEF
102
{ACAD_REACTORS
330
AAEE
102
}
330
AAEE
100
AcDbDictionary
281
     1
  0
XRECORD
  5
BB3A
102
{ACAD_REACTORS
330
BB39
102
}
330
BB39
100
AcDbXrecord
280
     1
290
     1
  0
XRECORD
  5
BB3C
102
{ACAD_REACTORS
330
BB3B
102
}
330
BB3B
100
AcDbXrecord
280
     1
290
     1
  0
XRECORD
  5
BB3E
102
{ACAD_REACTORS
330
BB3D
102
}
330
BB3D
100
AcDbXrecord
280
     1
290
     1
  0
XRECORD
  5
BB40
102
{ACAD_REACTORS
330
BB3F
102
}
330
BB3F
100
AcDbXrecord
280
     1
290
     1
  0
XRECORD
  5
BB42
102
{ACAD_REACTORS
330
BB41
102
}
330
BB41
100
AcDbXrecord
280
     1
290
     1
  0
XRECORD
  5
BB44
102
{ACAD_REACTORS
330
BB43
102
}
330
BB43
100
AcDbXrecord
280
     1
290
     1
  0
XRECORD
  5
BB46
102
{ACAD_REACTORS
330
BB45
102
}
330
BB45
100
AcDbXrecord
280
     1
290
     1
  0
XRECORD
  5
BB48
102
{ACAD_REACTORS
330
BB47
102
}
330
BB47
100
AcDbXrecord
280
     1
290
     1
  0
XRECORD
  5
BB4A
102
{ACAD_REACTORS
330
BB49
102
}
330
BB49
100
AcDbXrecord
280
     1
290
     1
  0
XRECORD
  5
BB4C
102
{ACAD_REACTORS
330
BB4B
102
}
330
BB4B
100
AcDbXrecord
280
     1
290
     1
  0
XRECORD
  5
BB4E
102
{ACAD_REACTORS
330
BB4D
102
}
330
BB4D
100
AcDbXrecord
280
     1
290
     1
  0
SORTENTSTABLE
  5
CDED
102
{ACAD_REACTORS
330
AA3C
102
}
330
AA3C
100
AcDbSortentsTable
330
1F
331
0
  5
BED8
331
D43
  5
B14A
331
0
  5
B14B
331
0
  5
B14C
331
0
  5
B14D
331
0
  5
B14E
331
0
  5
B14F
331
0
  5
B150
331
0
  5
B151
331
0
  5
B152
331
0
  5
B153
331
0
  5
B154
331
0
  5
B155
331
0
  5
B156
331
0
  5
B158
331
0
  5
B159
331
0
  5
B15A
331
0
  5
B15B
331
0
  5
B15D
331
0
  5
B15E
331
0
  5
B15F
331
0
  5
B160
331
0
  5
B161
331
0
  5
B162
331
0
  5
B163
331
0
  5
B164
331
0
  5
B165
331
0
  5
B166
331
0
  5
B167
331
0
  5
B168
331
0
  5
B169
331
0
  5
B16A
331
0
  5
B16B
331
0
  5
B16C
331
0
  5
B16D
331
0
  5
B16E
331
0
  5
B16F
331
0
  5
B170
331
0
  5
B171
331
0
  5
B172
331
0
  5
B173
331
0
  5
B174
331
0
  5
B175
331
0
  5
B176
331
0
  5
B177
331
0
  5
B178
331
0
  5
B179
331
0
  5
B17A
331
0
  5
B17B
331
0
  5
B17C
331
0
  5
B17D
331
0
  5
B17E
331
0
  5
B17F
331
0
  5
B180
331
0
  5
B181
331
0
  5
B182
331
0
  5
B183
331
0
  5
B184
331
0
  5
B185
331
0
  5
B186
331
0
  5
B187
331
0
  5
B188
331
0
  5
B189
331
0
  5
B18A
331
0
  5
B18B
331
0
  5
B18C
331
0
  5
B18D
331
0
  5
B18E
331
0
  5
B18F
331
0
  5
B190
331
0
  5
B191
331
0
  5
B192
331
0
  5
B193
331
0
  5
B194
331
0
  5
B195
331
0
  5
B196
331
0
  5
B197
331
0
  5
B198
331
0
  5
B199
331
0
  5
B19A
331
0
  5
B19B
331
0
  5
B19C
331
0
  5
B19D
331
0
  5
B19E
331
0
  5
B19F
331
0
  5
B1A0
331
0
  5
B1A1
331
0
  5
B1A3
331
0
  5
B1A4
331
0
  5
B1A5
331
0
  5
B1A6
331
0
  5
B1A7
331
0
  5
B1A8
331
0
  5
B1A9
331
0
  5
B1AA
331
0
  5
B1AB
331
0
  5
B1AD
331
0
  5
B1AE
331
0
  5
B1AF
331
0
  5
B1B0
331
0
  5
B1B1
331
0
  5
B1B2
331
0
  5
B1B3
331
0
  5
B1B4
331
0
  5
B1B5
331
0
  5
B1B6
331
0
  5
B1B7
331
0
  5
B1B8
331
0
  5
B1B9
331
0
  5
B1BA
331
0
  5
B1BB
331
0
  5
B1BC
331
0
  5
B1BD
331
0
  5
B1BE
331
0
  5
B1BF
331
0
  5
B1C0
331
0
  5
B1C1
331
0
  5
B1C2
331
0
  5
B1C3
331
0
  5
B1C4
331
0
  5
B1C8
331
0
  5
B1CA
331
0
  5
B1CE
331
0
  5
B1D0
331
0
  5
B1D1
331
0
  5
B1D2
331
0
  5
B1D3
331
0
  5
B1D4
331
0
  5
B1D5
331
0
  5
B1D6
331
0
  5
B1D7
331
0
  5
B1D8
331
0
  5
B1D9
331
0
  5
B1DA
331
0
  5
B1DB
331
0
  5
B1DC
331
0
  5
B1DD
331
0
  5
B1DE
331
0
  5
B1DF
331
0
  5
B1E0
331
0
  5
B1E1
331
0
  5
B49E
331
0
  5
B49F
331
0
  5
B775
331
0
  5
BEBE
331
0
  5
BEBF
331
0
  5
BEC0
331
0
  5
BEC1
331
0
  5
BEC2
331
0
  5
BEC3
331
0
  5
BEC4
331
0
  5
BEC5
331
0
  5
BEC6
331
0
  5
BEC7
331
0
  5
BEC8
331
0
  5
BEC9
331
0
  5
BECA
331
0
  5
BECB
331
0
  5
BECC
331
0
  5
BECD
331
0
  5
BECE
331
0
  5
BECF
331
0
  5
BED0
331
0
  5
BED1
331
0
  5
BED2
331
0
  5
BED3
331
0
  5
BED4
331
0
  5
BED5
331
0
  5
BED6
331
0
  5
BED7
331
0
  5
BEDA
331
0
  5
BEDB
331
0
  5
BEDC
331
0
  5
BEDD
331
0
  5
BEE0
331
0
  5
BEE1
331
0
  5
BEE2
331
0
  5
BEE3
331
0
  5
BEE4
331
0
  5
BEE5
331
0
  5
BEE6
331
0
  5
BEE7
331
0
  5
BEE9
331
0
  5
BEEA
331
0
  5
BEEB
331
0
  5
BEEC
331
0
  5
BEED
331
0
  5
BEEE
331
0
  5
BEEF
331
0
  5
BEF0
331
0
  5
BEF1
331
0
  5
BEF2
331
0
  5
BEF3
331
0
  5
BEF4
331
0
  5
BEF6
331
0
  5
BEF7
331
0
  5
BEF8
331
0
  5
BEF9
331
0
  5
BEFD
331
0
  5
BEFE
331
0
  5
BEFF
331
0
  5
BF00
331
0
  5
BF01
331
0
  5
BF02
331
0
  5
BF03
331
0
  5
BF04
331
0
  5
BF05
331
0
  5
BF06
331
0
  5
BF07
331
0
  5
BF08
331
0
  5
BF09
331
0
  5
BF0A
331
0
  5
BF0B
331
0
  5
BF0C
331
0
  5
BF0D
331
0
  5
BF0E
331
0
  5
BF0F
331
0
  5
BF10
331
0
  5
BF11
331
0
  5
BF1E
331
0
  5
BF1F
331
0
  5
BF20
331
0
  5
BF21
331
0
  5
BF22
331
0
  5
BF23
331
0
  5
BF24
331
0
  5
BF25
331
0
  5
BF26
331
0
  5
BF27
331
0
  5
BF28
331
0
  5
BF29
331
0
  5
BF2A
331
0
  5
BF2B
331
0
  5
BF2C
331
0
  5
BF2D
331
0
  5
BF2E
331
0
  5
BF2F
331
0
  5
BF30
331
0
  5
BF31
331
0
  5
BF32
331
0
  5
BF33
331
0
  5
BF34
331
0
  5
BF35
331
0
  5
BF36
331
0
  5
BF37
331
0
  5
BF38
331
0
  5
BF39
331
0
  5
BF3A
331
0
  5
BF3B
331
0
  5
BF3C
331
0
  5
BF3D
331
0
  5
BF3E
331
0
  5
BF3F
331
0
  5
BF40
331
0
  5
BF41
331
0
  5
BF42
331
0
  5
BF43
331
0
  5
BF44
331
0
  5
BF45
331
0
  5
BF47
331
0
  5
BF48
331
0
  5
BF49
331
0
  5
BF4E
331
0
  5
BF50
331
0
  5
BF51
331
0
  5
BF52
331
0
  5
BF53
331
0
  5
BF54
331
0
  5
BF55
331
0
  5
BF57
331
0
  5
BF58
331
0
  5
BF59
331
0
  5
BF5A
331
0
  5
BF5B
331
0
  5
BF60
331
0
  5
BF65
331
0
  5
BF67
331
0
  5
BF68
331
0
  5
BF69
331
0
  5
BF6A
331
0
  5
BF6B
331
0
  5
BF6C
331
0
  5
C0DE
331
0
  5
C0DF
331
0
  5
C0E0
331
0
  5
C0E1
331
0
  5
C0E2
331
0
  5
C0E3
331
0
  5
C0F4
331
0
  5
C4E4
331
C4E4
  5
C4E5
331
C4E5
  5
C4E6
331
C4E6
  5
C4E7
331
C4E7
  5
C4E8
331
C4E8
  5
C4E9
331
C4E9
  5
C4EA
331
C4EA
  5
C4EB
331
0
  5
C4EC
331
C4EC
  5
C4ED
331
C4ED
  5
C4EE
331
C4EE
  5
C4EF
331
C4EF
  5
C4F0
331
C4F0
  5
C4F1
331
C4F1
  5
C4F3
331
C4F3
  5
C4F4
331
C4F4
  5
C4F5
331
C4F5
  5
C4F6
331
C4F6
  5
C4F7
331
C4F7
  5
C4F8
331
C4F8
  5
C4F9
331
C4F9
  5
C4FA
331
C4FA
  5
C4FB
331
C4FB
  5
C4FC
331
C4FC
  5
C4FD
331
C4FD
  5
C4FE
331
C4FE
  5
C4FF
331
C4FF
  5
C500
331
C500
  5
C501
331
C501
  5
C502
331
C502
  5
C503
331
C503
  5
C504
331
C504
  5
C505
331
C505
  5
C506
331
C506
  5
C507
331
C507
  5
C508
331
C508
  5
C509
331
C509
  5
C50A
331
C50A
  5
C50B
331
C50B
  5
C50C
331
C50C
  5
C50D
331
C50D
  5
C50E
331
C50E
  5
C50F
331
C50F
  5
C510
331
C510
  5
C511
331
C511
  5
C512
331
C512
  5
C513
331
C513
  5
C514
331
C514
  5
C515
331
C515
  5
C516
331
C516
  5
C517
331
C517
  5
C518
331
C518
  5
C519
331
C519
  5
C51A
331
C51A
  5
C51B
331
C51B
  5
C51C
331
C51C
  5
C51D
331
C51D
  5
C51E
331
C51E
  5
C51F
331
C51F
  5
C520
331
C520
  5
C521
331
C521
  5
C522
331
C522
  5
C523
331
C523
  5
C524
331
C524
  5
C525
331
C525
  5
C526
331
C526
  5
C527
331
C527
  5
C528
331
C528
  5
C529
331
C529
  5
C52A
331
C52A
  5
C52B
331
C52B
  5
C52C
331
C52C
  5
C52D
331
C52D
  5
C52E
331
C52E
  5
C52F
331
C52F
  5
C530
331
C530
  5
C531
331
C531
  5
C532
331
C532
  5
C533
331
C533
  5
C534
331
C534
  5
C535
331
C535
  5
C536
331
C536
  5
C537
331
C537
  5
C538
331
C538
  5
C539
331
C539
  5
C53A
331
C53A
  5
C53B
331
C53B
  5
C53C
331
C53C
  5
C53D
331
C53D
  5
C53E
331
C53E
  5
C53F
331
C53F
  5
C540
331
C540
  5
C541
331
C541
  5
C542
331
C542
  5
C543
331
C543
  5
C544
331
C544
  5
C545
331
C545
  5
C546
331
C546
  5
C547
331
C547
  5
C548
331
C548
  5
C549
331
C549
  5
C54A
331
C54A
  5
C54B
331
C54B
  5
C54C
331
C54C
  5
C54D
331
C54D
  5
C54E
331
C54E
  5
C54F
331
C54F
  5
C550
331
C550
  5
C551
331
C551
  5
C552
331
C552
  5
C553
331
C553
  5
C554
331
C554
  5
C555
331
C555
  5
C556
331
C556
  5
C557
331
C557
  5
C558
331
C558
  5
C559
331
C559
  5
C55A
331
C55A
  5
C55B
331
C55B
  5
C55C
331
C55C
  5
C55D
331
C55D
  5
C55E
331
C55E
  5
C55F
331
C55F
  5
C560
331
C560
  5
C561
331
C561
  5
C562
331
C562
  5
C563
331
C563
  5
C564
331
C564
  5
C565
331
C565
  5
C566
331
C566
  5
C567
331
C567
  5
C568
331
C568
  5
C569
331
C569
  5
C56A
331
C56A
  5
C56B
331
C56B
  5
C56C
331
C56C
  5
C56D
331
C56D
  5
C56E
331
C56E
  5
C56F
331
C56F
  5
C570
331
C570
  5
C571
331
C571
  5
C572
331
C572
  5
C573
331
C573
  5
C574
331
C574
  5
C575
331
C575
  5
C576
331
C576
  5
C577
331
C577
  5
C578
331
C578
  5
C579
331
0
  5
C57A
331
C57A
  5
C57B
331
C57B
  5
C57C
331
C57C
  5
C57D
331
C57D
  5
C57E
331
C57E
  5
C57F
331
C57F
  5
C580
331
C580
  5
C581
331
C581
  5
C582
331
C582
  5
C583
331
C583
  5
C584
331
C584
  5
C585
331
C585
  5
C586
331
C586
  5
C587
331
C587
  5
C588
331
C588
  5
C589
331
C589
  5
C58A
331
C58A
  5
C58B
331
C58B
  5
C58C
331
C58C
  5
C58E
331
C58E
  5
C58F
331
C58F
  5
C590
331
C590
  5
C591
331
C591
  5
C592
331
C592
  5
C593
331
C593
  5
C594
331
C594
  5
C595
331
C595
  5
C596
331
C596
  5
C597
331
C597
  5
C598
331
C598
  5
C599
331
C599
  5
C59A
331
C59A
  5
C59B
331
C59B
  5
C59C
331
C59C
  5
C59D
331
C59D
  5
C59E
331
C59E
  5
C59F
331
C59F
  5
C5A0
331
C5A0
  5
C5A1
331
C5A1
  5
C5A2
331
C5A2
  5
C5A3
331
C5A3
  5
C5A4
331
C5A4
  5
C5A5
331
C5A5
  5
C5A6
331
C5A6
  5
C5A7
331
C5A7
  5
C5A8
331
C5A8
  5
C5A9
331
C5A9
  5
C5AA
331
C5AA
  5
C5AB
331
C5AB
  5
C5AC
331
C5AC
  5
C5AD
331
C5AD
  5
C5AE
331
C5AE
  5
C5AF
331
C5AF
  5
C5B0
331
C5B0
  5
C5B1
331
C5B1
  5
C5B2
331
C5B2
  5
C5B3
331
C5B3
  5
C5B4
331
C5B4
  5
C5B5
331
C5B5
  5
C5B6
331
C5B6
  5
C5B7
331
C5B7
  5
C5B8
331
C5B8
  5
C5B9
331
C5B9
  5
C5BA
331
C5BA
  5
C5BB
331
C5BB
  5
C5BC
331
C5BC
  5
C5BD
331
C5BD
  5
C5BE
331
C5BE
  5
C5BF
331
C5BF
  5
C5C0
331
C5C0
  5
C5C1
331
C5C1
  5
C5C2
331
C5C2
  5
C5C3
331
C5C3
  5
C5C4
331
C5C4
  5
C5C5
331
C5C5
  5
C5C6
331
C5C6
  5
C5C7
331
C5C7
  5
C5C8
331
C5C8
  5
C5C9
331
C5C9
  5
C5CA
331
C5CA
  5
C5CB
331
C5CB
  5
C5CC
331
C5CC
  5
C5CD
331
C5CD
  5
C5CE
331
C5CE
  5
C5CF
331
C5CF
  5
C5D0
331
C5D0
  5
C5D1
331
C5D1
  5
C5D2
331
C5D2
  5
C5D3
331
C5D3
  5
C5D4
331
C5D4
  5
C5D5
331
C5D5
  5
C5D6
331
C5D6
  5
C5D7
331
C5D7
  5
C5D8
331
C5D8
  5
C5D9
331
C5D9
  5
C5DA
331
C5DA
  5
C5DB
331
C5DB
  5
C5DC
331
C5DC
  5
C5DD
331
C5DD
  5
C5DE
331
C5DE
  5
C5DF
331
C5DF
  5
C5E0
331
C5E0
  5
C5E1
331
C5E1
  5
C5E2
331
C5E2
  5
C5E3
331
C5E3
  5
C5E4
331
C5E4
  5
C5E5
331
C5E5
  5
C5E6
331
C5E6
  5
C5E7
331
C5E7
  5
C5E8
331
C5E8
  5
C5E9
331
C5E9
  5
C5EA
331
C5EA
  5
C5EB
331
C5EB
  5
C5EC
331
C5EC
  5
C5ED
331
C5ED
  5
C5EE
331
C5EE
  5
C5EF
331
C5EF
  5
C5F0
331
C5F0
  5
C5F1
331
C5F1
  5
C5F2
331
C5F2
  5
C5F3
331
C5F3
  5
C5F4
331
C5F4
  5
C5F5
331
C5F5
  5
C5F6
331
C5F6
  5
C5F7
331
C5F7
  5
C5F8
331
C5F8
  5
C5F9
331
C5F9
  5
C5FA
331
C5FA
  5
C5FB
331
C5FB
  5
C5FC
331
C5FC
  5
C5FD
331
C5FD
  5
C5FE
331
C5FE
  5
C5FF
331
C5FF
  5
C600
331
C600
  5
C601
331
C601
  5
C602
331
C602
  5
C603
331
C603
  5
C604
331
C604
  5
C605
331
C605
  5
C606
331
C606
  5
C607
331
C607
  5
C608
331
C608
  5
C609
331
C609
  5
C60A
331
C60A
  5
C60B
331
C60B
  5
C60C
331
C60C
  5
C60D
331
C60D
  5
C60E
331
C60E
  5
C60F
331
C60F
  5
C610
331
C610
  5
C611
331
C611
  5
C612
331
C612
  5
C613
331
C613
  5
C614
331
C614
  5
C615
331
C615
  5
C616
331
C616
  5
C617
331
C617
  5
C618
331
C618
  5
C619
331
C619
  5
C61A
331
C61A
  5
C61B
331
C61B
  5
C61C
331
C61C
  5
C61D
331
C61D
  5
C61E
331
C61E
  5
C61F
331
C61F
  5
C620
331
C620
  5
C621
331
C621
  5
C622
331
C622
  5
C623
331
C623
  5
C624
331
C624
  5
C625
331
C625
  5
C626
331
C626
  5
C627
331
C627
  5
C628
331
C628
  5
C629
331
C629
  5
C62A
331
C62A
  5
C62B
331
C62B
  5
C62C
331
C62C
  5
C62D
331
C62D
  5
C62E
331
C62E
  5
C62F
331
C62F
  5
C630
331
C630
  5
C631
331
C631
  5
C632
331
C632
  5
C633
331
C633
  5
C634
331
C634
  5
C635
331
C635
  5
C636
331
C636
  5
C637
331
C637
  5
C638
331
C638
  5
C639
331
C639
  5
C63A
331
C63A
  5
C63B
331
C63B
  5
C63C
331
C63C
  5
C63D
331
C63D
  5
C63E
331
C63E
  5
C63F
331
C63F
  5
C640
331
C640
  5
C641
331
C641
  5
C642
331
C642
  5
C643
331
C643
  5
C644
331
C644
  5
C645
331
C645
  5
C646
331
C646
  5
C647
331
C647
  5
C648
331
C648
  5
C649
331
C649
  5
C64A
331
C64A
  5
C64B
331
C64B
  5
C64C
331
C64C
  5
C64D
331
C64D
  5
C64E
331
C64E
  5
C64F
331
C64F
  5
C650
331
C650
  5
C651
331
C651
  5
C652
331
C652
  5
C653
331
C653
  5
C654
331
C654
  5
C655
331
C655
  5
C656
331
C656
  5
C657
331
C657
  5
C658
331
C658
  5
C659
331
C659
  5
C65A
331
C65A
  5
C65B
331
C65B
  5
C65C
331
C65C
  5
C65D
331
C65D
  5
C65E
331
C65E
  5
C65F
331
C65F
  5
C660
331
C660
  5
C661
331
C661
  5
C662
331
C662
  5
C663
331
C663
  5
C664
331
C664
  5
C665
331
C665
  5
C666
331
C666
  5
C667
331
C667
  5
C668
331
C668
  5
C669
331
C669
  5
C66A
331
C66A
  5
C66B
331
C66B
  5
C66C
331
C66C
  5
C66D
331
C66D
  5
C66E
331
C66E
  5
C66F
331
C66F
  5
C670
331
C670
  5
C671
331
C671
  5
C672
331
C672
  5
C673
331
C673
  5
C674
331
C674
  5
C675
331
C675
  5
C676
331
C676
  5
C677
331
C677
  5
C678
331
C678
  5
C679
331
C679
  5
C67A
331
C67A
  5
C67B
331
C67B
  5
C67C
331
C67C
  5
C67D
331
C67D
  5
C67E
331
C67E
  5
C67F
331
C67F
  5
C680
331
C680
  5
C681
331
C681
  5
C682
331
C682
  5
C683
331
C683
  5
C684
331
C684
  5
C685
331
C685
  5
C686
331
C686
  5
C687
331
C687
  5
C688
331
C688
  5
C689
331
C689
  5
C68A
331
C68A
  5
C68B
331
C68B
  5
C68C
331
C68C
  5
C68D
331
C68D
  5
C68E
331
C68E
  5
C68F
331
C68F
  5
C690
331
C690
  5
C691
331
C691
  5
C692
331
C692
  5
C693
331
C693
  5
C694
331
C694
  5
C695
331
C695
  5
C696
331
C696
  5
C697
331
C697
  5
C698
331
C698
  5
C699
331
C699
  5
C69A
331
C69A
  5
C69B
331
C69B
  5
C69C
331
C69C
  5
C69D
331
C69D
  5
C69E
331
C69E
  5
C69F
331
C69F
  5
C6A0
331
C6A0
  5
C6A1
331
C6A1
  5
C6A2
331
C6A2
  5
C6A3
331
C6A3
  5
C6A4
331
C6A4
  5
C6A5
331
C6A5
  5
C6A6
331
C6A6
  5
C6A7
331
C6A7
  5
C6A8
331
C6A8
  5
C6A9
331
C6A9
  5
C6AA
331
C6AA
  5
C6AB
331
C6AB
  5
C6AC
331
C6AC
  5
C6AD
331
C6AD
  5
C6AE
331
C6AE
  5
C6AF
331
C6AF
  5
C6B0
331
C6B0
  5
C6B1
331
C6B1
  5
C6B2
331
C6B2
  5
C6B3
331
C6B3
  5
C6B4
331
C6B4
  5
C6B5
331
C6B5
  5
C6B6
331
C6B6
  5
C6B7
331
C6B7
  5
C6B8
331
C6B8
  5
C6B9
331
C6B9
  5
C6BA
331
C6BA
  5
C6BB
331
C6BB
  5
C6BC
331
C6BC
  5
C6BD
331
C6BD
  5
C6BE
331
C6BE
  5
C6BF
331
C6BF
  5
C6C0
331
C6C0
  5
C6C1
331
C6C1
  5
C6C2
331
C6C2
  5
C6C3
331
C6C3
  5
C6C4
331
C6C4
  5
C6C5
331
C6C5
  5
C6C6
331
C6C6
  5
C6C7
331
C6C7
  5
C6C8
331
C6C8
  5
C6C9
331
C6C9
  5
C6CA
331
C6CA
  5
C6CB
331
C6CB
  5
C6CC
331
C6CC
  5
C6CD
331
C6CD
  5
C6CE
331
C6CE
  5
C6CF
331
C6CF
  5
C6D0
331
C6D0
  5
C6D1
331
C6D1
  5
C6D2
331
C6D2
  5
C6D3
331
C6D3
  5
C6D4
331
C6D4
  5
C6D5
331
C6D5
  5
C6D6
331
C6D6
  5
C6D7
331
C6D7
  5
C6D8
331
C6D8
  5
C6D9
331
C6D9
  5
C6DA
331
C6DA
  5
C6DB
331
C6DB
  5
C6DC
331
C6DC
  5
C6DD
331
C6DD
  5
C6DE
331
C6DE
  5
C6DF
331
C6DF
  5
C6E0
331
C6E0
  5
C6E1
331
C6E1
  5
C6E2
331
C6E2
  5
C6E3
331
C6E3
  5
C6E4
331
C6E4
  5
C6E5
331
C6E5
  5
C6E6
331
C6E6
  5
C6E7
331
C6E7
  5
C6E8
331
C6E8
  5
C6E9
331
C6E9
  5
C6EA
331
C6EA
  5
C6EB
331
C6EB
  5
C6EC
331
C6EC
  5
C6ED
331
C6ED
  5
C6EE
331
C6EE
  5
C6EF
331
C6EF
  5
C6F0
331
C6F0
  5
C6F1
331
C6F1
  5
C6F2
331
C6F2
  5
C6F3
331
C6F3
  5
C6F4
331
C6F4
  5
C6F5
331
C6F5
  5
C6F6
331
C6F6
  5
C6F7
331
C6F7
  5
C6F8
331
C6F8
  5
C6F9
331
C6F9
  5
C6FA
331
C6FA
  5
C6FB
331
C6FB
  5
C6FC
331
C6FC
  5
C6FD
331
C6FD
  5
C6FE
331
C6FE
  5
C6FF
331
C6FF
  5
C700
331
C700
  5
C701
331
C701
  5
C702
331
C702
  5
C703
331
C703
  5
C723
331
C723
  5
C724
331
C724
  5
C725
331
C725
  5
C726
331
C726
  5
C727
331
C727
  5
C728
331
C728
  5
C729
331
C729
  5
C72A
331
C72A
  5
C72B
331
C72B
  5
C72C
331
C72C
  5
C72D
331
C72D
  5
C72E
331
C72E
  5
C72F
331
C72F
  5
C730
331
C730
  5
C731
331
C731
  5
C732
331
C732
  5
C733
331
C733
  5
C734
331
C734
  5
C735
331
C735
  5
C736
331
C736
  5
C737
331
C737
  5
C738
331
C738
  5
C739
331
C739
  5
C73A
331
C73A
  5
C73B
331
C73B
  5
C73C
331
C73C
  5
C73D
331
C73D
  5
C73E
331
C73E
  5
C73F
331
C73F
  5
C740
331
C740
  5
C741
331
C741
  5
C742
331
C742
  5
C743
331
C743
  5
C744
331
C744
  5
C745
331
C745
  5
C746
331
C746
  5
C747
331
C747
  5
C748
331
C748
  5
C749
331
C749
  5
C74A
331
C74A
  5
C843
331
C843
  5
C844
331
C844
  5
C845
331
C845
  5
C846
331
C846
  5
C847
331
C847
  5
C848
331
C848
  5
C849
331
C849
  5
C84A
331
C84A
  5
C84B
331
C84B
  5
C84C
331
C84C
  5
C84D
331
C84D
  5
C84E
331
C84E
  5
C84F
331
C84F
  5
C850
331
C850
  5
C851
331
C851
  5
C852
331
C852
  5
C853
331
C853
  5
C854
331
C854
  5
C855
331
C855
  5
C856
331
C856
  5
C857
331
C857
  5
C858
331
C858
  5
C859
331
C859
  5
C85A
331
C85A
  5
C85B
331
C85B
  5
C85C
331
C85C
  5
C85D
331
C85D
  5
C85E
331
C85E
  5
C85F
331
C85F
  5
C860
331
C860
  5
C861
331
C861
  5
C862
331
C862
  5
C863
331
C863
  5
C864
331
C864
  5
C865
331
C865
  5
C866
331
C866
  5
C867
331
C867
  5
C868
331
C868
  5
C869
331
C869
  5
C86A
331
C86A
  5
C86B
331
C86B
  5
C86C
331
C86C
  5
C86D
331
C86D
  5
C86E
331
C86E
  5
C86F
331
C86F
  5
C870
331
C870
  5
C871
331
C871
  5
C872
331
C872
  5
C873
331
C873
  5
C874
331
C874
  5
C875
331
C875
  5
C876
331
C876
  5
C877
331
C877
  5
C878
331
C878
  5
C879
331
C879
  5
C87A
331
C87A
  5
C87B
331
C87B
  5
C87C
331
C87C
  5
C87D
331
C87D
  5
C87E
331
C87E
  5
C87F
331
C87F
  5
C880
331
C880
  5
C881
331
C881
  5
C882
331
C882
  5
C883
331
C883
  5
C884
331
C884
  5
C885
331
C885
  5
C886
331
C886
  5
C887
331
C887
  5
C888
331
C888
  5
C889
331
C889
  5
C88A
331
C88A
  5
C88B
331
C88B
  5
C88C
331
C88C
  5
C88D
331
C88D
  5
C88E
331
C88E
  5
C88F
331
C88F
  5
C890
331
C890
  5
C891
331
C891
  5
C892
331
C892
  5
C893
331
C893
  5
C894
331
C894
  5
C895
331
C895
  5
C896
331
C896
  5
C897
331
C897
  5
C898
331
C898
  5
C899
331
C899
  5
C89A
331
C89A
  5
C89B
331
C89B
  5
C89C
331
C89C
  5
C89D
331
C89D
  5
C89E
331
C89E
  5
C89F
331
C89F
  5
C8A0
331
C8A0
  5
C8A1
331
C8A1
  5
C8A2
331
C8A2
  5
C8A3
331
C8A3
  5
C8A4
331
C8A4
  5
C8A5
331
C8A5
  5
C8A6
331
C8A6
  5
C8A7
331
C8A7
  5
C8A8
331
C8A8
  5
C8A9
331
C8A9
  5
C8AA
331
C8AA
  5
C8AB
331
C8AB
  5
C8AC
331
C8AC
  5
C8AD
331
C8AD
  5
C8AE
331
C8AE
  5
C8AF
331
C8AF
  5
C8B0
331
C8B0
  5
C8B1
331
C8B1
  5
C8B2
331
C8B2
  5
C8B3
331
C8B3
  5
C8B4
331
C8B4
  5
C8B5
331
C8B5
  5
C8B6
331
C8B6
  5
C8B7
331
C8B7
  5
C8B8
331
C8B8
  5
C8B9
331
C8B9
  5
C8BA
331
C8BA
  5
C8BB
331
C8BB
  5
C8BC
331
C8BC
  5
C8BD
331
C8BD
  5
C8BE
331
C8BE
  5
C8BF
331
C8BF
  5
C8C0
331
C8C0
  5
C8C1
331
C8C1
  5
C8C2
331
C8C2
  5
C8C3
331
C8C3
  5
C8C4
331
C8C4
  5
C8C5
331
C8C5
  5
C8C6
331
C8C6
  5
C8C7
331
C8C7
  5
C8C8
331
C8C8
  5
C8C9
331
C8C9
  5
C8CA
331
C8CA
  5
C8CB
331
C8CB
  5
C8CC
331
C8CC
  5
C8CD
331
C8CD
  5
C8CE
331
C8CE
  5
C8CF
331
C8CF
  5
C8D0
331
C8D0
  5
C8D1
331
C8D1
  5
C8D2
331
C8D2
  5
C8D3
331
C8D3
  5
C8D4
331
C8D4
  5
C8D5
331
C8D5
  5
C8D6
331
C8D6
  5
C8D7
331
C8D7
  5
C8D8
331
C8D8
  5
C8D9
331
C8D9
  5
C8DA
331
C8DA
  5
C8DB
331
C8DB
  5
C8DC
331
C8DC
  5
C8DD
331
C8DD
  5
C8DE
331
C8DE
  5
C8DF
331
C8DF
  5
C8E0
331
C8E0
  5
C8E1
331
C8E1
  5
C8E2
331
C8E2
  5
C8E3
331
C8E3
  5
C8E4
331
C8E4
  5
C8E5
331
C8E5
  5
C8E6
331
C8E6
  5
C8E7
331
C8E7
  5
C8E8
331
C8E8
  5
C8E9
331
C8E9
  5
C8EA
331
C8EA
  5
C8EB
331
C8EB
  5
C8EC
331
C8EC
  5
C8ED
331
C8ED
  5
C8EE
331
C8EE
  5
C8EF
331
C8EF
  5
C8F0
331
C8F0
  5
C8F1
331
C8F1
  5
C8F2
331
C8F2
  5
C8F3
331
C8F3
  5
C8F4
331
C8F4
  5
C8F5
331
C8F5
  5
C8F6
331
C8F6
  5
C8F7
331
C8F7
  5
C8F8
331
C8F8
  5
C8F9
331
C8F9
  5
C8FA
331
C8FA
  5
C8FB
331
C8FB
  5
C8FC
331
C8FC
  5
C8FD
331
C8FD
  5
C8FE
331
C8FE
  5
C8FF
331
C8FF
  5
C900
331
C900
  5
C901
331
C901
  5
C902
331
C902
  5
C903
331
C903
  5
C904
331
C904
  5
C905
331
C905
  5
C906
331
C906
  5
C907
331
C907
  5
C908
331
C908
  5
C909
331
C909
  5
C90A
331
C90A
  5
C90B
331
C90B
  5
C90C
331
C90C
  5
C90D
331
C90D
  5
C90E
331
C90E
  5
C90F
331
C90F
  5
C910
331
C910
  5
C911
331
C911
  5
C912
331
C912
  5
C913
331
C913
  5
C914
331
C914
  5
C915
331
C915
  5
C916
331
C916
  5
C917
331
C917
  5
C918
331
C918
  5
C919
331
C919
  5
C91A
331
C91A
  5
C91B
331
C91B
  5
C91C
331
C91C
  5
C91D
331
C91D
  5
C91E
331
C91E
  5
C91F
331
C91F
  5
C920
331
C920
  5
C921
331
C921
  5
C922
331
C922
  5
C923
331
C923
  5
C924
331
C924
  5
C925
331
C925
  5
C926
331
C926
  5
C927
331
C927
  5
C928
331
C928
  5
C929
331
C929
  5
C92A
331
C92A
  5
C92B
331
C92B
  5
C92C
331
C92C
  5
C92D
331
C92D
  5
C92E
331
C92E
  5
C92F
331
C92F
  5
C930
331
C930
  5
C931
331
C931
  5
C932
331
C932
  5
C933
331
C933
  5
C934
331
C934
  5
C935
331
C935
  5
C936
331
C936
  5
C937
331
C937
  5
C938
331
C938
  5
C939
331
C939
  5
C93A
331
C93A
  5
C93B
331
C93B
  5
C93C
331
C93C
  5
C93D
331
C93D
  5
C93E
331
C93E
  5
C93F
331
C93F
  5
C940
331
C940
  5
C941
331
C941
  5
C942
331
C942
  5
C943
331
C943
  5
C944
331
C944
  5
C945
331
C945
  5
C946
331
C946
  5
C947
331
C947
  5
C948
331
C948
  5
C949
331
C949
  5
C94A
331
C94A
  5
C94B
331
C94B
  5
C94C
331
C94C
  5
C94D
331
C94D
  5
C94E
331
C94E
  5
C94F
331
C94F
  5
C950
331
C950
  5
C951
331
C951
  5
C952
331
C952
  5
C953
331
C953
  5
C954
331
C954
  5
C955
331
C955
  5
C956
331
C956
  5
C957
331
C957
  5
C958
331
C958
  5
C959
331
C959
  5
C95A
331
C95A
  5
C95B
331
C95B
  5
C95C
331
C95C
  5
C95D
331
C95D
  5
C95E
331
C95E
  5
C95F
331
C95F
  5
C960
331
C960
  5
C961
331
C961
  5
C962
331
C962
  5
C963
331
C963
  5
C964
331
C964
  5
C965
331
C965
  5
C966
331
C966
  5
C967
331
C967
  5
C968
331
C968
  5
C969
331
C969
  5
C96A
331
C96A
  5
C96B
331
C96B
  5
C96C
331
C96C
  5
C96D
331
C96D
  5
C96E
331
C96E
  5
C96F
331
C96F
  5
C970
331
C970
  5
C971
331
C971
  5
C972
331
C972
  5
C973
331
C973
  5
C974
331
C974
  5
C975
331
C975
  5
C976
331
C976
  5
C977
331
C977
  5
C978
331
C978
  5
C979
331
C979
  5
C97A
331
C97A
  5
C97B
331
C97B
  5
C97C
331
C97C
  5
C97D
331
C97D
  5
C97E
331
C97E
  5
C97F
331
C97F
  5
C980
331
C980
  5
C981
331
C981
  5
C982
331
C982
  5
C983
331
C983
  5
C984
331
C984
  5
C985
331
C985
  5
C986
331
C986
  5
C987
331
C987
  5
C988
331
C988
  5
C989
331
C989
  5
C98A
331
C98A
  5
C98B
331
C98B
  5
C98C
331
C98C
  5
C98D
331
C98D
  5
C98E
331
C98E
  5
C98F
331
C98F
  5
C990
331
C990
  5
C991
331
C991
  5
C992
331
C992
  5
C993
331
C993
  5
C994
331
C994
  5
C995
331
C995
  5
C996
331
C996
  5
C997
331
C997
  5
C998
331
C998
  5
C999
331
C999
  5
C99A
331
C99A
  5
C99B
331
C99B
  5
C99C
331
C99C
  5
C99D
331
C99D
  5
C99E
331
C99E
  5
C99F
331
C99F
  5
C9A0
331
C9A0
  5
C9A1
331
C9A1
  5
C9A2
331
C9A2
  5
C9A3
331
C9A3
  5
C9A4
331
C9A4
  5
C9A5
331
C9A5
  5
C9A6
331
C9A6
  5
C9A7
331
C9A7
  5
C9A8
331
C9A8
  5
C9A9
331
C9A9
  5
C9AA
331
C9AA
  5
C9AB
331
C9AB
  5
C9AC
331
C9AC
  5
C9AD
331
C9AD
  5
C9AE
331
C9AE
  5
C9AF
331
C9AF
  5
C9B0
331
C9B0
  5
C9B1
331
C9B1
  5
C9B2
331
C9B2
  5
C9B3
331
C9B3
  5
C9B4
331
C9B4
  5
C9B5
331
C9B5
  5
C9B6
331
C9B6
  5
C9B7
331
C9B7
  5
C9B8
331
C9B8
  5
C9B9
331
C9B9
  5
C9BA
331
C9BA
  5
C9BB
331
C9BB
  5
C9BC
331
C9BC
  5
C9BD
331
C9BD
  5
C9BE
331
C9BE
  5
C9BF
331
C9BF
  5
C9C0
331
C9C0
  5
C9C1
331
C9C1
  5
C9C2
331
C9C2
  5
C9C3
331
C9C3
  5
C9C4
331
C9C4
  5
C9C5
331
C9C5
  5
C9C6
331
C9C6
  5
C9C7
331
C9C7
  5
C9C8
331
C9C8
  5
C9C9
331
C9C9
  5
C9CA
331
C9CA
  5
C9CB
331
C9CB
  5
C9CC
331
C9CC
  5
C9CD
331
C9CD
  5
C9CE
331
C9CE
  5
C9CF
331
C9CF
  5
C9D0
331
C9D0
  5
C9D1
331
C9D1
  5
C9D2
331
C9D2
  5
C9D3
331
C9D3
  5
C9D4
331
C9D4
  5
C9D5
331
C9D5
  5
C9D6
331
C9D6
  5
C9D7
331
C9D7
  5
C9D8
331
C9D8
  5
C9D9
331
C9D9
  5
C9DA
331
C9DA
  5
C9DB
331
C9DB
  5
C9DC
331
C9DC
  5
C9DD
331
C9DD
  5
C9DE
331
C9DE
  5
C9DF
331
C9DF
  5
C9E0
331
C9E0
  5
C9E1
331
C9E1
  5
C9E2
331
C9E2
  5
C9E3
331
C9E3
  5
C9E4
331
C9E4
  5
C9E5
331
C9E5
  5
C9E6
331
C9E6
  5
C9E7
331
C9E7
  5
C9E8
331
C9E8
  5
C9E9
331
C9E9
  5
C9EA
331
C9EA
  5
C9EB
331
C9EB
  5
C9EC
331
C9EC
  5
C9ED
331
C9ED
  5
C9EE
331
C9EE
  5
C9EF
331
C9EF
  5
C9F0
331
C9F0
  5
C9F1
331
C9F1
  5
C9F2
331
C9F2
  5
C9F3
331
C9F3
  5
C9F4
331
C9F4
  5
C9F5
331
C9F5
  5
C9F6
331
C9F6
  5
C9F7
331
C9F7
  5
C9F8
331
C9F8
  5
C9F9
331
C9F9
  5
C9FA
331
C9FA
  5
C9FB
331
C9FB
  5
C9FC
331
C9FC
  5
C9FD
331
C9FD
  5
C9FE
331
C9FE
  5
C9FF
331
C9FF
  5
CA00
331
CA00
  5
CA01
331
CA01
  5
CA02
331
CA02
  5
CA03
331
CA03
  5
CA04
331
CA04
  5
CA05
331
CA05
  5
CA06
331
CA06
  5
CA07
331
CA07
  5
CA08
331
CA08
  5
CA09
331
CA09
  5
CA0A
331
CA0A
  5
CA0B
331
CA0B
  5
CA0C
331
CA0C
  5
CA0D
331
CA0D
  5
CA0E
331
CA0E
  5
CA0F
331
CA0F
  5
CA10
331
CA10
  5
CA11
331
CA11
  5
CA12
331
CA12
  5
CA13
331
CA13
  5
CA14
331
CA14
  5
CA15
331
CA15
  5
CA16
331
CA16
  5
CA17
331
CA17
  5
CA18
331
CA18
  5
CA19
331
CA19
  5
CA1A
331
CA1A
  5
CA1B
331
CA1B
  5
CA1C
331
CA1C
  5
CA1D
331
CA1D
  5
CA1E
331
CA1E
  5
CA1F
331
CA1F
  5
CA20
331
CA20
  5
CA21
331
CA21
  5
CA22
331
CA22
  5
CA23
331
CA23
  5
CA24
331
CA24
  5
CA25
331
CA25
  5
CA26
331
CA26
  5
CA27
331
CA27
  5
CA28
331
CA28
  5
CA29
331
CA29
  5
CA2A
331
CA2A
  5
CA2B
331
CA2B
  5
CA2C
331
CA2C
  5
CA2D
331
CA2D
  5
CA2E
331
CA2E
  5
CA2F
331
CA2F
  5
CA3D
331
0
  5
CA3E
331
0
  5
CA48
331
0
  5
CA55
331
0
  5
CA74
331
0
  5
CD0D
331
0
  5
CD0E
331
0
  5
CD12
331
0
  5
CD1F
331
0
  5
CDC5
331
0
  5
CDC6
331
0
  5
CDC7
331
0
  5
CDC8
331
0
  5
CDC9
331
0
  5
CDCA
331
0
  5
CDCB
331
0
  5
CDCC
331
0
  5
CDCD
331
0
  5
CDCE
331
0
  5
CDCF
331
0
  5
CDD0
331
0
  5
CDD1
331
0
  5
CDD3
331
0
  5
CDD4
331
0
  5
CDD5
331
0
  5
CDDC
331
0
  5
CDDD
331
0
  5
CDDE
331
0
  5
CDDF
331
0
  5
CDE1
331
0
  5
CDE2
331
0
  5
CDE4
331
0
  5
CDE5
331
0
  5
CDE7
331
0
  5
D43
331
0
  5
CDE8
331
0
  5
CDEA
331
0
  5
CDFE
331
0
  5
CDFF
331
0
  5
CE00
331
0
  5
CE01
331
0
  5
CE02
331
0
  5
CE0D
331
0
  5
CE10
331
0
  5
CE11
331
0
  5
CE12
331
0
  5
CE13
331
0
  5
CE14
331
0
  5
CE19
331
0
  5
CE1A
331
0
  5
CE1B
331
0
  5
CE1C
331
0
  5
CE1D
331
0
  5
CE1E
331
0
  5
CE1F
331
0
  5
CE20
331
0
  5
CE28
331
0
  5
CE29
331
0
  5
CE33
331
0
  5
CE34
331
0
  5
CE35
331
0
  5
CE36
331
0
  5
CE37
331
0
  5
CE38
331
0
  5
CFBA
331
0
  5
CFBB
331
0
  5
CFFC
331
0
  5
CFFD
331
0
  5
CE0E
331
0
  5
D0CC
331
0
  5
D0D2
331
0
  5
CE0F
331
0
  5
D155
331
0
  5
D15A
331
0
  5
D15B
331
0
  5
D15C
331
0
  5
D15D
331
0
  5
D1C4
331
0
  5
D1C5
331
0
  5
D1C6
331
0
  5
D1C7
331
0
  5
D1C8
331
0
  5
D1C9
  0
LAYOUT
  5
1E
102
{ACAD_REACTORS
330
1A
102
}
330
1A
100
AcDbPlotSettings
  1

  2

  4

  6

 40
0.0
 41
0.0
 42
0.0
 43
0.0
 44
0.0
 45
0.0
 46
0.0
 47
0.0
 48
0.0
 49
0.0
140
0.0
141
0.0
142
1.0
143
1.0
 70
   688
 72
     0
 73
     0
 74
     5
  7
monochrome.ctb
 75
    16
147
1.0
148
0.0
149
0.0
100
AcDbLayout
  1
Layout1
 70
     1
 71
     1
 10
0.0
 20
0.0
 11
420.0
 21
297.0
 12
0.0
 22
0.0
 32
0.0
 14
1.000000000000000E+20
 24
1.000000000000000E+20
 34
1.000000000000000E+20
 15
-1.000000000000000E+20
 25
-1.000000000000000E+20
 35
-1.000000000000000E+20
146
0.0
 13
0.0
 23
0.0
 33
0.0
 16
1.0
 26
0.0
 36
0.0
 17
0.0
 27
1.0
 37
0.0
 76
     0
330
1B
  0
LAYOUT
  5
26
102
{ACAD_REACTORS
330
1A
102
}
330
1A
100
AcDbPlotSettings
  1

  2

  4

  6

 40
0.0
 41
0.0
 42
0.0
 43
0.0
 44
0.0
 45
0.0
 46
0.0
 47
0.0
 48
0.0
 49
0.0
140
0.0
141
0.0
142
1.0
143
1.0
 70
   688
 72
     0
 73
     0
 74
     5
  7
monochrome.ctb
 75
    16
147
1.0
148
0.0
149
0.0
100
AcDbLayout
  1
Layout2
 70
     1
 71
     2
 10
0.0
 20
0.0
 11
12.0
 21
9.0
 12
0.0
 22
0.0
 32
0.0
 14
0.0
 24
0.0
 34
0.0
 15
0.0
 25
0.0
 35
0.0
146
0.0
 13
0.0
 23
0.0
 33
0.0
 16
1.0
 26
0.0
 36
0.0
 17
0.0
 27
1.0
 37
0.0
 76
     0
330
23
  0
LAYOUT
  5
22
102
{ACAD_REACTORS
330
1A
102
}
102
{ACAD_XDICTIONARY
360
BAF7
102
}
330
1A
100
AcDbPlotSettings
  1

  2
none_device
  4
A4
  6

 40
5.873749732971191
 41
5.873747825622559
 42
5.873748779296875
 43
5.873748779296875
 44
209.9733276367188
 45
296.9259948730469
 46
35.98814602507218
 47
0.0
 48
-2322.02768843752
 49
42.03579763271591
140
7463.301296732669
141
4374.035797632716
142
1.0
143
34.31299710390484
 70
 11956
 72
     1
 73
     1
 74
     4
  7
monochrome.ctb
 75
     0
147
0.0291434757789257
148
2322.02768843752
149
-42.03579763271591
100
AcDbLayout
  1
Model
 70
     1
 71
     0
 10
0.0
 20
0.0
 11
12.0
 21
9.0
 12
0.0
 22
0.0
 32
0.0
 14
0.0
 24
0.0
 34
0.0
 15
0.0
 25
0.0
 35
0.0
146
0.0
 13
0.0
 23
0.0
 33
0.0
 16
1.0
 26
0.0
 36
0.0
 17
0.0
 27
1.0
 37
0.0
 76
     0
330
1F
331
CDA0
1001
ACAD_PSEXT
1000
iR-ADV C5030
1000
Canon iR-ADV C5030/5035 LIPSLX
1000
IP_192.168.5.225
1000

1070
     0
  0
MLINESTYLE
  5
18
102
{ACAD_REACTORS
330
17
102
}
330
17
100
AcDbMlineStyle
  2
STANDARD
 70
     0
  3

 62
   256
 51
90.0
 52
90.0
 71
     2
 49
0.5
 62
   256
  6
BYLAYER
 49
-0.5
 62
   256
  6
BYLAYER
  0
ACDBPLACEHOLDER
  5
F
102
{ACAD_REACTORS
330
E
102
}
330
E
  0
SCALE
  5
AE7A
102
{ACAD_REACTORS
330
AE79
102
}
330
AE79
100
AcDbScale
 70
     0
300
1:1
140
1.0
141
1.0
290
     1
  0
SCALE
  5
AE7B
102
{ACAD_REACTORS
330
AE79
102
}
330
AE79
100
AcDbScale
 70
     0
300
1:2
140
1.0
141
2.0
290
     0
  0
SCALE
  5
AE7C
102
{ACAD_REACTORS
330
AE79
102
}
330
AE79
100
AcDbScale
 70
     0
300
1:4
140
1.0
141
4.0
290
     0
  0
SCALE
  5
AE7D
102
{ACAD_REACTORS
330
AE79
102
}
330
AE79
100
AcDbScale
 70
     0
300
1:5
140
1.0
141
5.0
290
     0
  0
SCALE
  5
AE7E
102
{ACAD_REACTORS
330
AE79
102
}
330
AE79
100
AcDbScale
 70
     0
300
1:8
140
1.0
141
8.0
290
     0
  0
SCALE
  5
AE7F
102
{ACAD_REACTORS
330
AE79
102
}
330
AE79
100
AcDbScale
 70
     0
300
1:10
140
1.0
141
10.0
290
     0
  0
SCALE
  5
AE80
102
{ACAD_REACTORS
330
AE79
102
}
330
AE79
100
AcDbScale
 70
     0
300
1:16
140
1.0
141
16.0
290
     0
  0
SCALE
  5
AE81
102
{ACAD_REACTORS
330
AE79
102
}
330
AE79
100
AcDbScale
 70
     0
300
1:20
140
1.0
141
20.0
290
     0
  0
SCALE
  5
AE82
102
{ACAD_REACTORS
330
AE79
102
}
330
AE79
100
AcDbScale
 70
     0
300
1:30
140
1.0
141
30.0
290
     0
  0
SCALE
  5
AE83
102
{ACAD_REACTORS
330
AE79
102
}
330
AE79
100
AcDbScale
 70
     0
300
1:40
140
1.0
141
40.0
290
     0
  0
SCALE
  5
AE84
102
{ACAD_REACTORS
330
AE79
102
}
330
AE79
100
AcDbScale
 70
     0
300
1:50
140
1.0
141
50.0
290
     0
  0
SCALE
  5
AE85
102
{ACAD_REACTORS
330
AE79
102
}
330
AE79
100
AcDbScale
 70
     0
300
1:100
140
1.0
141
100.0
290
     0
  0
SCALE
  5
AE86
102
{ACAD_REACTORS
330
AE79
102
}
330
AE79
100
AcDbScale
 70
     0
300
2:1
140
2.0
141
1.0
290
     0
  0
SCALE
  5
AE87
102
{ACAD_REACTORS
330
AE79
102
}
330
AE79
100
AcDbScale
 70
     0
300
4:1
140
4.0
141
1.0
290
     0
  0
SCALE
  5
AE88
102
{ACAD_REACTORS
330
AE79
102
}
330
AE79
100
AcDbScale
 70
     0
300
8:1
140
8.0
141
1.0
290
     0
  0
SCALE
  5
AE89
102
{ACAD_REACTORS
330
AE79
102
}
330
AE79
100
AcDbScale
 70
     0
300
10:1
140
10.0
141
1.0
290
     0
  0
SCALE
  5
AE8A
102
{ACAD_REACTORS
330
AE79
102
}
330
AE79
100
AcDbScale
 70
     0
300
100:1
140
100.0
141
1.0
290
     0
  0
DICTIONARYVAR
  5
D41B
102
{ACAD_REACTORS
330
6EF
102
}
330
6EF
100
DictionaryVariables
280
     0
  1
1:1
  0
DICTIONARYVAR
  5
6F0
102
{ACAD_REACTORS
330
6EF
102
}
330
6EF
100
DictionaryVariables
280
     0
  1
1
  0
DICTIONARYVAR
  5
C069
102
{ACAD_REACTORS
330
6EF
102
}
330
6EF
100
DictionaryVariables
280
     0
  1
0
  0
DICTIONARYVAR
  5
C068
102
{ACAD_REACTORS
330
6EF
102
}
330
6EF
100
DictionaryVariables
280
     0
  1
127
  0
DICTIONARY
  5
BAF7
330
22
100
AcDbDictionary
280
     1
281
     1
  3
AcPublish_PlotSettingsOverride
360
BAF8
  3
ADSK_XREC_LAYOUTTHUMBNAIL
360
BB27
  0
PLOTSETTINGS
  5
BAF8
102
{ACAD_REACTORS
330
BAF7
102
}
330
BAF7
100
AcDbPlotSettings
  1

  2
自動 tokyo01ApeosPort-III C4400 - 東京01ApeosPort-ⅢC4400 (NEMYFS01 上)
  4
A4
  6

 40
4.857749938964844
 41
4.942390441894531
 42
4.942413330078125
 43
4.857757568359375
 44
209.9733276367188
 45
297.0106506347656
 46
17.12482234930536
 47
0.0
 48
-20429.37130966251
 49
-2636.147510505689
140
-8549.371309662514
141
5763.852489494311
142
1.0
143
29.76491733675221
 70
 11956
 72
     1
 73
     1
 74
     0
  7
monochrome.ctb
 75
     0
147
0.0335965992677309
148
7155.735820639254
149
326.8494099490135
  0
XRECORD
  5
BB27
102
{ACAD_REACTORS
330
BAF7
102
}
330
BAF7
100
AcDbXrecord
280
     1
310
2800000000010000D2000000010008000000000000D20000000000000000000000010000000000003028210000000000C8C8C8000000000000000000000000000000000000000000000000000000000000000000330000006600000099000000CC000000FF00000000330000333300006633000099330000CC330000FF3300
310
0000660000336600006666000099660000CC660000FF66000000990000339900006699000099990000CC990000FF99000000CC000033CC000066CC000099CC0000CCCC0000FFCC000000FF000033FF000066FF000099FF0000CCFF0000FFFF000000003300330033006600330099003300CC003300FF003300003333003333
310
33006633330099333300CC333300FF33330000663300336633006666330099663300CC663300FF66330000993300339933006699330099993300CC993300FF99330000CC330033CC330066CC330099CC3300CCCC3300FFCC330000FF330033FF330066FF330099FF3300CCFF3300FFFF330000006600330066006600660099
310
006600CC006600FF00660000336600333366006633660099336600CC336600FF33660000666600336666006666660099666600CC666600FF66660000996600339966006699660099996600CC996600FF99660000CC660033CC660066CC660099CC6600CCCC6600FFCC660000FF660033FF660066FF660099FF6600CCFF6600
310
FFFF660000009900330099006600990099009900CC009900FF00990000339900333399006633990099339900CC339900FF33990000669900336699006666990099669900CC669900FF66990000999900339999006699990099999900CC999900FF99990000CC990033CC990066CC990099CC9900CCCC9900FFCC990000FF99
310
0033FF990066FF990099FF9900CCFF9900FFFF99000000CC003300CC006600CC009900CC00CC00CC00FF00CC000033CC003333CC006633CC009933CC00CC33CC00FF33CC000066CC003366CC006666CC009966CC00CC66CC00FF66CC000099CC003399CC006699CC009999CC00CC99CC00FF99CC0000CCCC0033CCCC0066CC
310
CC0099CCCC00CCCCCC00FFCCCC0000FFCC0033FFCC0066FFCC0099FFCC00CCFFCC00FFFFCC000000FF003300FF006600FF009900FF00CC00FF00FF00FF000033FF003333FF006633FF009933FF00CC33FF00FF33FF000066FF003366FF006666FF009966FF00CC66FF00FF66FF000099FF003399FF006699FF009999FF00CC
310
99FF00FF99FF0000CCFF0033CCFF0066CCFF0099CCFF00CCCCFF00FFCCFF0000FFFF0033FFFF0066FFFF0099FFFF00CCFFFF00FFFFFF00000000000D0D0D001A1A1A00282828003535350043434300505050005D5D5D006B6B6B00787878008686860093939300A1A1A100AEAEAE00BBBBBB00C9C9C900D6D6D600E4E4E400
310
F1F1F100FFFFFF000000000000000000000000000000000000000000000000000000000000000000000000000000000000000000000000000000000000000000000000000000000000000000000000000000000000000000000000000000000000000000000000000000000000000000000000000000000000000000000000
310
00000000000000000000000000000000000000000000000000000000000000000000000000000000000000000000000000000000000000000000000000000000000000000000000000000000000000000000000000000000000000000000000000000000000000000000000000000000000000000000000000000000000000
310
00000000000000000000000000000000000000000000000000000000000000000000000000000000000000000000000000000000000000000000000000000000000000000000000000000000000000000000000000000000000000000000000000000000000000000000000000000000000000000000000000000000000000
310
00000000000000000000000000000000000000000000000000000000000000000000000000000000000000000000000000000000000000000000000000000000000000000000000000000000000000000000000000000000000000000000000000000000000000000000000000000000000000000000000000000000000000
310
00000000000000000000000000000000000000000000000000000000000000000000000000000000000000000000000000000000000000000000000000000000000000000000000000000000000000000000000000000000000000000000000000000000000000000000000000000000000000000000000000000000000000
310
00000000000000000000000000000000000000000000000000000000000000000000000000000000000000000000000000000000000000000000000000000000000000000000000000000000000000000000000000000000000000000000000000000000000000000000000000000000000000000000000000000000000000
310
00000000000000000000000000000000000000000000000000000000000000000000000000000000000000000000000000000000000000000000000000000000000000000000000000000000000000000000000000000000000000000000000000000000000000000000000000000000000000000000000000000000000000
310
00000000000000000000000000000000000000000000000000000000000000000000000000000000000000000000000000000000000000000000000000000000000000000000000000000000000000000000000000000000000000000000000000000000000000000000000000000000000000000000000000000000000000
310
00000000000000000000000000000000000000000000000000000000000000000000000000000000000000000000000000000000000000000000000000000000000000000000000000000000000000000000000000000000000000000000000000000000000000000000000000000000000000000000000000000000000000
310
00000000000000000000000000000000000000000000000000000000000000000000000000000000000000000000000000000000000000000000000000000000000000000000000000000000000000000000000000000000000000000000000000000000000000000000000000000000000000000000000000000000000000
310
00000000000000000000000000000000000000000000000000000000000000000000000000000000000000000000000000000000000000000000000000000000000000000000000000000000000000000000000000000000000000000000000000000000000000000000000000000000000000000000000000000000000000
310
00000000000000000000000000000000000000000000000000000000000000000000000000000000000000000000000000000000000000000000000000000000000000000000000000000000000000000000000000000000000000000000000000000000000000000000000000000000000000000000000000000000000000
310
00000000000000000000000000000000000000000000000000000000000000000000000000000000000000000000000000000000000000000000000000000000000000000000000000000000000000000000000000000000000000000000000000000000000000000000000000000000000000000000000000000000000000
310
00000000000000000000000000000000000000000000000000000000000000000000000000000000000000000000000000000000000000000000000000000000000000000000000000000000000000000000000000000000000000000000000000000000000000000000000000000000000000000000000000000000000000
310
00000000000000000000000000000000000000000000000000000000000000000000000000000000000000000000000000000000000000000000000000000000000000000000000000000000000000000000000000000000000000000000000000000000000000000000000000000000000000000000000000000000000000
310
00000000000000000000000000000000000000000000000000000000000000000000000000000000000000000000000000000000000000000000000000000000000000000000000000000000000000000000000000000000000000000000000000000000000000000000000000000000000000000000000000000000000000
310
00000000000000000000000000000000000000000000000000000000000000000000000000000000000000000000000000000000000000000000000000000000000000000000000000000000000000000000000000000000000000000000000000000000000000000000000000000000000000000000000000000000000000
310
00000000000000000000000000000000000000000000000000000000000000000000000000000000000000000000000000000000000000000000000000000000000000000000000000000000000000000000000000000000000000000000000000000000000000000000000000000000000000000000000000000000000000
310
00000000000000000000000000000000000000000000000000000000000000000000000000000000000000000000000000000000000000000000000000000000000000000000000000000000000000000000000000000000000000000000000000000000000000000000000000000000000000000000000000000000000000
310
00000000000000000000000000000000000000000000000000000000000000000000000000000000000000000000000000000000000000000000000000000000000000000000000000000000000000000000000000000000000000000000000000000000000000000000000000000000000000000000000000000000000000
310
00000000000000000000000000000000000000000000000000000000000000000000000000000000000000000000000000000000000000000000000000000000000000000000000000000000000000000000000000000000000000000000000000000000000000000000000000000000000000000000000000000000000000
310
00000000000000000000000000000000000000000000000000000000000000000000000000000000000000000000000000000000000000000000000000000000000000000000000000000000000000000000000000000000000000000000000000000000000000000000000000000000000000000000000000000000000000
310
00000000000000000000000000000000000000000000000000000000000000000000000000000000000000000000000000000000000000000000000000000000000000000000000000000000000000000000000000000000000000000000000000000000000000000000000000000000000000000000000000000000000000
310
00000000000000000000000000000000000000000000000000000000000000000000000000000000000000000000000000000000000000000000000000000000000000000000000000000000000000000000000000000000000000000000000000000000000000000000000000000000000000000000000000000000000000
310
00000000000000000000000000000000000000000000000000000000000000000000000000000000000000000000000000000000000000000000000000000000000000000000000000000000000000000000000000000000000000000000000000000000000000000000000000000000000000000000000000000000000000
310
00000000000000000000000000000000000000000000000000000000000000000000000000000000000000000000000000000000000000000000000000000000000000000000000000000000000000000000000000000000000000000000000000000000000000000000000000000000000000000000000000000000000000
310
00000000000000000000000000000000000000000000000000000000000000000000000000000000000000000000000000000000000000000000000000000000000000000000000000000000000000000000000000000000000000000000000000000000000000000000000000000000000000000000000000000000000000
310
00000000000000000000000000000000000000000000000000000000000000000000000000000000000000000000000000000000000000000000000000000000000000000000000000000000000000000000000000000000000000000000000000000000000000000000000000000000000000000000000000000000000000
310
00000000000000000000000000000000000000000000000000000000000000000000000000000000000000000000000000000000000000000000000000000000000000000000000000000000000000000000000000000000000000000000000000000000000000000000000000000000000000000000000000000000000000
310
00000000000000000000000000000000000000000000000000000000000000000000000000000000000000000000000000000000000000000000000000000000000000000000000000000000000000000000000000000000000000000000000000000000000000000000000000000000000000000000000000000000000000
310
00000000000000000000000000000000000000000000000000000000000000000000000000000000000000000000000000000000000000000000000000000000000000000000000000000000000000000000000000000000000000000000000000000000000000000000000000000000000000000000000000000000000000
310
00000000000000000000000000000000000000000000000000000000000000000000000000000000000000000000000000000000000000000000000000000000000000000000000000000000000000000000000000000000000000000000000000000000000000000000000000000000000000000000000000000000000000
310
00000000000000000000000000000000000000000000000000000000000000000000000000000000000000000000000000000000000000000000000000000000000000000000000000000000000000000000000000000000000000000000000000000000000000000000000000000000000000000000000000000000000000
310
00000000000000000000000000000000000000000000000000000000000000000000000000000000000000000000000000000000000000000000000000000000000000000000000000000000000000000000000000000000000000000000000000000000000000000000000000000000000000000000000000000000000000
310
00000000000000000000000000000000000000000000000000000000000000000000000000000000000000000000000000000000000000000000000000000000000000000000000000000000000000000000000000000000000000000000000000000000000000000000000000000000000000000000000000000000000000
310
00000000000000000000000000000000000000000000000000000000000000000000000000000000000000000000000000000000000000000000000000000000000000000000000000000000000000000000000000000000000000000000000000000000000000000000000000000000000000000000000000000000000000
310
00000000000000000000000000000000000000000000000000000000000000000000000000000000000000000000000000000000000000000000000000000000000000000000000000000000000000000000000000000000000000000000000000000000000000000000000000000000000000000000000000000000000000
310
00000000000000000000000000000000000000000000000000000000000000000000000000000000000000000000000000000000000000000000000000000000000000000000000000000000000000000000000000000000000000000000000000000000000000000000000000000000000000000000000000000000000000
310
00000000000000000000000000000000000000000000000000000000000000000000000000000000000000000000000000000000000000000000000000000000000000000000000000000000000000000000000000000000000000000000000000000000000000000000000000000000000000000000000000000000000000
310
00000000000000000000000000000000000000000000000000000000000000000000000000000000000000000000000000000000000000000000000000000000000000000000000000000000000000000000000000000000000000000000000000000000000000000000000000000000000000000000000000000000000000
310
00000000000000000000000000000000000000000000000000000000000000000000000000000000000000000000000000000000000000000000000000000000000000000000000000000000000000000000000000000000000000000000000000000000000000000000000000000000000000000000000000000000000000
310
00000000000000000000000000000000000000000000000000000000000000000000000000000000000000000000000000000000000000000000000000000000000000000000000000000000000000000000000000000000000000000000000000000000000000000000000000000000000000000000000000000000000000
310
00000000000000000000000000000000000000000000000000000000000000000000000000000000000000000000000000000000000000000000000000000000000000000000000000000000000000000000000000000000000000000000000000000000000000000000000000000000000000000000000000000000000000
310
00000000000000000000000000000000000000000000000000000000000000000000000000000000000000000000000000000000000000000000000000000000000000000000000000000000000000000000000000000000000000000000000000000000000000000000000000000000000000000000000000000000000000
310
00000000000000000000000000000000000000000000000000000000000000000000000000000000000000000000000000000000000000000000000000000000000000000000000000000000000000000000000000000000000000000000000000000000000000000000000000000000000000000000000000000000000000
310
00000000000000000000000000000000000000000000000000000000000000000000000000000000000000000000000000000000000000000000000000000000000000000000000000000000000000000000000000000000000000000000000000000000000000000000000000000000000000000000000000000000000000
310
00000000000000000000000000000000000000000000000000000000000000000000000000000000000000000000000000000000000000000000000000000000000000000000000000000000000000000000000000000000000000000000000000000000000000000000000000000000000000000000000000000000000000
310
00000000000000000000000000000000000000000000000000000000000000000000000000000000000000000000000000000000000000000000000000000000000000000000000000000000000000000000000000000000000000000000000000000000000000000000000000000000000000000000000000000000000000
310
00000000000000000000000000000000000000000000000000000000000000000000000000000000000000000000000000000000000000000000000000000000000000000000000000000000000000000000000000000000000000000000000000000000000000000000000000000000000000000000000000000000000000
310
00000000000000000000000000000000000000000000000000000000000000000000000000000000000000000000000000000000000000000000000000000000000000000000000000000000000000000000000000000000000000000000000000000000000000000000000000000000000000000000000000000000000000
310
00000000000000000000000000000000000000000000000000000000000000000000000000000000000000000000000000000000000000000000000000000000000000000000000000000000000000000000000000000000000000000000000000000000000000000000000000000000000000000000000000000000000000
310
00000000000000000000000000000000000000000000000000000000000000000000000000000000000000000000000000000000000000000000000000000000000000000000000000000000000000000000000000000000000000000000000000000000000000000000000000000000000000000000000000000000000000
310
00000000000000000000000000000000000000000000000000000000000000000000000000000000000000000000000000000000000000000000000000000000000000000000000000000000000000000000000000000000000000000000000000000000000000000000000000000000000000000000000000000000000000
310
00000000000000000000000000000000000000000000000000000000000000000000000000000000000000000000000000000000000000000000000000000000000000000000000000000000000000000000000000000000000000000000000000000000000000000000000000000000000000000000000000000000000000
310
00000000000000000000000000000000000000000000000000000000000000000000000000000000000000000000000000000000000000000000000000000000000000000000000000000000000000000000000000000000000000000000000000000000000000000000000000000000000000000000000000000000000000
310
00000000000000000000000000000000000000000000000000000000000000000000000000000000000000000000000000000000000000000000000000000000000000000000000000000000000000000000000000000000000000000000000000000000000000000000000000000000000000000000000000000000000000
310
00000000000000000000000000000000000000000000000000000000000000000000000000000000000000000000000000000000000000000000000000000000000000000000000000000000000000000000000000000000000000000000000000000000000000000000000000000000000000000000000000000000000000
310
00000000000000000000000000000000000000000000000000000000000000000000000000000000000000000000000000000000000000000000000000000000000000000000000000000000000000000000000000000000000000000000000000000000000000000000000000000000000000000000000000000000000000
310
00000000000000000000000000000000000000000000000000000000000000000000000000000000000000000000000000000000000000000000000000000000000000000000000000000000000000000000000000000000000000000000000000000000000000000000000000000000000000000000000000000000000000
310
00000000000000000000000000000000000000000000000000000000000000000000000000000000000000000000000000000000000000000000000000000000000000000000000000000000000000000000000000000000000000000000000000000000000000000000000000000000000000000000000000000000000000
310
00000000000000000000000000000000000000000000000000000000000000000000000000000000000000000000000000000000000000000000000000000000000000000000000000000000000000000000000000000000000000000000000000000000000000000000000000000000000000000000000000000000000000
310
00000000000000000000000000000000000000000000000000000000000000000000000000000000000000000000000000000000000000000000000000000000000000000000000000000000000000000000000000000000000000000000000000000000000000000000000000000000000000000000000000000000000000
310
00000000000000000000000000000000000000000000000000000000000000000000000000000000000000000000000000000000000000000000000000000000000000000000000000000000000000000000000000000000000000000000000000000000000000000000000000000000000000000000000000000000000000
310
00000000000000000000000000000000000000000000000000000000000000000000000000000000000000000000000000000000000000000000000000000000000000000000000000000000000000000000000000000000000000000000000000000000000000000000000000000000000000000000000000000000000000
310
00000000000000000000000000000000000000000000000000000000000000000000000000000000000000000000000000000000000000000000000000000000000000000000000000000000000000000000000000000000000000000000000000000000000000000000000000000000000000000000000000000000000000
310
00000000000000000000000000000000000000000000000000000000000000000000000000000000000000000000000000000000000000000000000000000000000000000000000000000000000000000000000000000000000000000000000000000000000000000000000000000000000000000000000000000000000000
310
00000000000000000000000000000000000000000000000000000000000000000000000000000000000000000000000000000000000000000000000000000000000000000000000000000000000000000000000000000000000000000000000000000000000000000000000000000000000000000000000000000000000000
310
00000000000000000000000000000000000000000000000000000000000000000000000000000000000000000000000000000000000000000000000000000000000000000000000000000000000000000000000000000000000000000000000000000000000000000000000000000000000000000000000000000000000000
310
00000000000000000000000000000000000000000000000000000000000000000000000000000000000000000000000000000000000000000000000000000000000000000000000000000000000000000000000000000000000000000000000000000000000000000000000000000000000000000000000000000000000000
310
00000000000000000000000000000000000000000000000000000000000000000000000000000000000000000000000000000000000000000000000000000000000000000000000000000000000000000000000000000000000000000000000000000000000000000000000000000000000000000000000000000000000000
310
00000000000000000000000000000000000000000000000000000000000000000000000000000000000000000000000000000000000000000000000000000000000000000000000000000000000000000000000000000000000000000000000000000000000000000000000000000000000000000000000000000000000000
310
00000000000000000000000000000000000000000000000000000000000000000000000000000000000000000000000000000000000000000000000000000000000000000000000000000000000000000000000000000000000000000000000000000000000000000000000000000000000000000000000000000000000000
310
00000000000000000000000000000000000000000000000000000000000000000000000000000000000000000000000000000000000000000000000000000000000000000000000000000000000000000000000000000000000000000000000000000000000000000000000000000000000000000000000000000000000000
310
00000000000000000000000000000000000000000000000000000000000000000000000000000000000000000000000000000000000000000000000000000000000000000000000000000000000000000000000000000000000000000000000000000000000000000000000000000000000000000000000000000000000000
310
00000000000000000000000000000000000000000000000000000000000000000000000000000000000000000000000000000000000000000000000000000000000000000000000000000000000000000000000000000000000000000000000000000000000000000000000000000000000000000000000000000000000000
310
00000000000000000000000000000000000000000000000000000000000000000000000000000000000000000000000000000000000000000000000000000000000000000000000000000000000000000000000000000000000000000000000000000000000000000000000000000000000000000000000000000000000000
310
00000000000000000000000000000000000000000000000000000000000000000000000000000000000000000000000000000000000000000000000000000000000000000000000000000000000000000000000000000000000000000000000000000000000000000000000000000000000000000000000000000000000000
310
00000000000000000000000000000000000000000000000000000000000000000000000000000000000000000000000000000000000000000000000000000000000000000000000000000000000000000000000000000000000000000000000000000000000000000000000000000000000000000000000000000000000000
310
00000000000000000000000000000000000000000000000000000000000000000000000000000000000000000000000000000000000000000000000000000000000000000000000000000000000000000000000000000000000000000000000000000000000000000000000000000000000000000000000000000000000000
310
00000000000000000000000000000000000000000000000000000000000000000000000000000000000000000000000000000000000000000000000000000000000000000000000000000000000000000000000000000000000000000000000000000000000000000000000000000000000000000000000000000000000000
310
00000000000000000000000000000000000000000000000000000000000000000000000000000000000000000000000000000000000000000000000000000000000000000000000000000000000000000000000000000000000000000000000000000000000000000000000000000000000000000000000000000000000000
310
00000000000000000000000000000000000000000000000000000000000000000000000000000000000000000000000000000000000000000000000000000000000000000000000000000000000000000000000000000000000000000000000000000000000000000000000000000000000000000000000000000000000000
310
00000000000000000000000000000000000000000000000000000000000000000000000000000000000000000000000000000000000000000000000000000000000000000000000000000000000000000000000000000000000000000000000000000000000000000000000000000000000000000000000000000000000000
310
00000000000000000000000000000000000000000000000000000000000000000000000000000000000000000000000000000000000000000000000000000000000000000000000000000000000000000000000000000000000000000000000000000000000000000000000000000000000000000000000000000000000000
310
00000000000000000000000000000000000000000000000000000000000000000000000000000000000000000000000000000000000000000000000000000000000000000000000000000000000000000000000000000000000000000000000000000000000000000000000000000000000000000000000000000000000000
310
00000000000000000000000000000000000000000000000000000000000000000000000000000000000000000000000000000000000000000000000000000000000000000000000000000000000000000000000000000000000000000000000000000000000000000000000000000000000000000000000000000000000000
310
00000000000000000000000000000000000000000000000000000000000000000000000000000000000000000000000000000000000000000000000000000000000000000000000000000000000000000000000000000000000000000000000000000000000000000000000000000000000000000000000000000000000000
310
00000000000000000000000000000000000000000000000000000000000000000000000000000000000000000000000000000000000000000000000000000000000000000000000000000000000000000000000000000000000000000000000000000000000000000000000000000000000000000000000000000000000000
310
00000000000000000000000000000000000000000000000000000000000000000000000000000000000000000000000000000000000000000000000000000000000000000000000000000000000000000000000000000000000000000000000000000000000000000000000000000000000000000000000000000000000000
310
00000000000000000000000000000000000000000000000000000000000000000000000000000000000000000000000000000000000000000000000000000000000000000000000000000000000000000000000000000000000000000000000000000000000000000000000000000000000000000000000000000000000000
310
00000000000000000000000000000000000000000000000000000000000000000000000000000000000000000000000000000000000000000000000000000000000000000000000000000000000000000000000000000000000000000000000000000000000000000000000000000000000000000000000000000000000000
310
00000000000000000000000000000000000000000000000000000000000000000000000000000000000000000000000000000000000000000000000000000000000000000000000000000000000000000000000000000000000000000000000000000000000000000000000000000000000000000000000000000000000000
310
00000000000000000000000000000000000000000000000000000000000000000000000000000000000000000000000000000000000000000000000000000000000000000000000000000000000000000000000000000000000000000000000000000000000000000000000000000000000000000000000000000000000000
310
00000000000000000000000000000000000000000000000000000000000000000000000000000000000000000000000000000000000000000000000000000000000000000000000000000000000000000000000000000000000000000000000000000000000000000000000000000000000000000000000000000000000000
310
00000000000000000000000000000000000000000000000000000000000000000000000000000000000000000000000000000000000000000000000000000000000000000000000000000000000000000000000000000000000000000000000000000000000000000000000000000000000000000000000000000000000000
310
00000000000000000000000000000000000000000000000000000000000000000000000000000000000000000000000000000000000000000000000000000000000000000000000000000000000000000000000000000000000000000000000000000000000000000000000000000000000000000000000000000000000000
310
00000000000000000000000000000000000000000000000000000000000000000000000000000000000000000000000000000000000000000000000000000000000000000000000000000000000000000000000000000000000000000000000000000000000000000000000000000000000000000000000000000000000000
310
00000000000000000000000000000000000000000000000000000000000000000000000000000000000000000000000000000000000000000000000000000000000000000000000000000000000000000000000000000000000000000000000000000000000000000000000000000000000000000000000000000000000000
310
00000000000000000000000000000000000000000000000000000000000000000000000000000000000000000000000000000000000000000000000000000000000000000000000000000000000000000000000000000000000000000000000000000000000000000000000000000000000000000000000000000000000000
310
00000000000000000000000000000000000000000000000000000000000000000000000000000000000000000000000000000000000000000000000000000000000000000000000000000000000000000000000000000000000000000000000000000000000000000000000000000000000000000000000000000000000000
310
00000000000000000000000000000000000000000000000000000000000000000000000000000000000000000000000000000000000000000000000000000000000000000000000000000000000000000000000000000000000000000000000000000000000000000000000000000000000000000000000000000000000000
310
00000000000000000000000000000000000000000000000000000000000000000000000000000000000000000000000000000000000000000000000000000000000000000000000000000000000000000000000000000000000000000000000000000000000000000000000000000000000000000000000000000000000000
310
00000000000000000000000000000000000000000000000000000000000000000000000000000000000000000000000000000000000000000000000000000000000000000000000000000000000000000000000000000000000000000000000000000000000000000000000000000000000000000000000000000000000000
310
00000000000000000000000000000000000000000000000000000000000000000000000000000000000000000000000000000000000000000000000000000000000000000000000000000000000000000000000000000000000000000000000000000000000000000000000000000000000000000000000000000000000000
310
00000000000000000000000000000000000000000000000000000000000000000000000000000000000000000000000000000000000000000000000000000000000000000000000000000000000000000000000000000000000000000000000000000000000000000000000000000000000000000000000000000000000000
310
00000000000000000000000000000000000000000000000000000000000000000000000000000000000000000000000000000000000000000000000000000000000000000000000000000000000000000000000000000000000000000000000000000000000000000000000000000000000000000000000000000000000000
310
00000000000000000000000000000000000000000000000000000000000000000000000000000000000000000000000000000000000000000000000000000000000000000000000000000000000000000000000000000000000000000000000000000000000000000000000000000000000000000000000000000000000000
310
00000000000000000000000000000000000000000000000000000000000000000000000000000000000000000000000000000000000000000000000000000000000000000000000000000000000000000000000000000000000000000000000000000000000000000000000000000000000000000000000000000000000000
310
00000000000000000000000000000000000000000000000000000000000000000000000000000000000000000000000000000000000000000000000000000000000000000000000000000000000000000000000000000000000000000000000000000000000000000000000000000000000000000000000000000000000000
310
00000000000000000000000000000000000000000000000000000000000000000000000000000000000000000000000000000000000000000000000000000000000000000000000000000000000000000000000000000000000000000000000000000000000000000000000000000000000000000000000000000000000000
310
00000000000000000000000000000000000000000000000000000000000000000000000000000000000000000000000000000000000000000000000000000000000000000000000000000000000000000000000000000000000000000000000000000000000000000000000000000000000000000000000000000000000000
310
00000000000000000000000000000000000000000000000000000000000000000000000000000000000000000000000000000000000000000000000000000000000000000000000000000000000000000000000000000000000000000000000000000000000000000000000000000000000000000000000000000000000000
310
00000000000000000000000000000000000000000000000000000000000000000000000000000000000000000000000000000000000000000000000000000000000000000000000000000000000000000000000000000000000000000000000000000000000000000000000000000000000000000000000000000000000000
310
0000000000000000000000000000000000000000000000000000000000000000000000000000000000000000000000000000000000000000000000000000000000000000000000000000000000000000000000000000000000002D2D2D2D2D2D2D2D2D2D2D2D2D2D2D2D2D2D2D2D2D2D2D2D2D2D2D2D2D2D2D2D2D2D2D2D2D
310
2D2D2D2D2D2D2D2D2D2D2D2D2D2D2D2D2D2D2D2D2D2D2D2D2D2D2D2D2D2D2D2D2D2D2D2D2D2D2D2D2D2D2D2D2D2D2D2D2D2D2D2D2D2D2D2D2D2D2D2D2D2D2D2D2D2D2D2D2D2D2D2D2D2D2D2D2D2D2D2D2D2D2D2D2D2D2D2D2D2D2D2D2D2D2D2D00000000000000000000000000000000000000000000000000000000000000
310
00000000000000000000000000000000000000000000000000000000000000000000000000000000000000000000000000000000000000000000000000000000000000000000000000000000000000000000000000000000000000002D2D2D2D2D2D2D2D2D2D2D2D2D2D2D2D2D2D2D2D2D2D2D2D2D2D2D2D2D2D2D2D2D2D2D
310
2D2D2D2D2D2D2D2D2D2D2D2D2D2D2D2D2D2D2D2D2D2D2D2D2D2D2D2D2D2D2D2D2D2D2D2D2D2D2D2D2D2D2D2D2D2D2D2D2D2D2D2D2D2D2D2D2D2D2D2D2D2D2D2D2D2D2D2D2D2D2D2D2D2D2D2D2D2D2D2D2D2D2D2D2D2D2D2D2D2D2D2D2D2D2D2D2D2D0000000000000000000000000000000000000000000000000000000000
310
000000000000000000000000000000000000000000000000000000000000000000000000000000000000000000000000000000000000000000000000000000000000000000000000000000000000000000000000000000000000000000002D2D00000000000000000000000000000000000000000000000000000000000000
310
00000000000000000000000000000000000000000000000000000000000000000000000000000000000000000000000000000000000000000000000000000000000000000000000000000000000000000000000000000000000000000000000000002D2D000000000000000000000000000000000000000000000000000000
310
0000000000000000000000000000000000000000000000000000000000000000000000000000000000000000000000000000000000000000000000000000000000000000000000000000000000000000000000000000000000000000000000002D2D00BEBEBEBEBEBEBEBEBEBEBEBEBEBEBEBEBEBEBEBEBEBEBEBEBEBEBEBE
310
BEBEBEBEBEBEBEBEBEBEBEBEBEBEBEBEBEBEBEBEBEBEBEBEBEBEBEBEBEBEBEBEBEBEBEBEBEBEBEBEBEBEBEBEBEBEBEBEBEF5F5F5BEBEBEBEBEBEF5F5F5F5F5F5F5F5F5F5F5BEBEBEBEBEF5F5F5F5F5BEBEBEF5F5F5F5F5F5F5F5F5F5F5F5F5BEBEBEBE002D2D00000000000000000000000000000000000000000000000000
310
00000000000000000000000000000000000000000000000000000000000000000000000000000000000000000000000000000000000000000000000000000000000000000000000000000000000000000000000000000000000000000000000000002D2D00BE00000000000000000000000000000000000000000000000000
310
0000000000000000000000000000000000000000000000000000000000000000000000000000000000000000000000000000BEF5F5F50000BE000000F5F5F5F5F5F5F5F5F5F5F500000000BEF5F5F5F5F5BE0000F5F5F5F5F5F5F5F5F5F5F5F5F5000000BE002D2D0000000000000000000000000000000000000000000000
310
000000000000000000000000000000000000000000000000000000000000000000000000000000000000000000000000000000000000000000000000000000000000000000000000000000000000000000000000000000000000000000000000000000002D2D00BE0000000000000000000000000000000000000000000000
310
00000000000000000000000000000000000000000000000000000000000000000000000000000000000000000000000000000000BE0000000000BE000000000000000000000000000000000000BE0000000000BE000000000000000000000000000000000000BE002D2D000000000000000000000000000000000000000000
310
0000000000000000000000000000000000000000000000000000000000000000000000000000000000000000000000000000000000000000000000000000000000000000000000000000000000000000000000000000000000000000000000000000000000002D2D00BE000000000000000000000000000000000000000000
310
000000000000000000000000000000000000000000000000000000000000000000000000000000000000000000000000000000000000BEBEBEBEBEBEBEBEBEBEBEBEBEBEBEBEBEBEBEBEBEBEBEBEBEBEBEBEBEBEBEBEBEBEBEBEBEBEBEBEBEBEBEBEBEBEBEBEBEBEBE002D2D00000000000000000000000000000000000000
310
00000000000000000000000000000000000000000000000000000000000000000000000000000000000000000000000000000000000000000000000000000000000000000000000000000000000000000000000000000000000000000000000000000000000000002D2D00BE00000000000000000000000000000000000000
310
000000000000000000000000000000000000000000000000000000000000000000000000000000000000000000000000000000000000000000000000000000000000000000000000000000000000000000BE0000000000F5F5F5F5F5F5F5F5F5F5F5F5F5F5F500000000BE002D2D0000000000000000000000000000000000
310
000000000000000000000000000000000000000000000000000000000000000000000000000000000000000000000000000000000000000000000000000000000000000000000000000000000000000000000000000000000000000000000000000000000000000000002D2D00BE0000000000000000000000000000000000
310
0000000000000000000000000000000000000000000000000000000000000000000000000000000000000000000000000000000000000000000000000000000000000000000000000000000000000000000000BE00000000F500000000000000000000000000000000000000BE002D2D000000000000000000000000000000
310
0000000000000000000000000000000000000000000000000000000000000000000000000000000000000000000000000000000000000000000000000000000000000000000000000000000000000000000000000000000000000000000000000000000000000000000000002D2D00BE000000000000000000000000000000
310
00000000000000000000000000000000000000000000000000000000000000000000000000000000000000000000000000000000000000000000000000000000000000000000000000000000000000000000000000BE000000F500F5F500F500F5F5F5F5F5F5F5F500F500000000BE002D2D00000000000000000000000000
310
00000000000000000000000000000000000000000000000000000000000000000000000000000000000000000000000000000000000000000000000000000000000000000000000000000000000000000000000000000000000000000000000000000000000000000000000000002D2D00BE00000000000000000000000000
310
000000000000000000000000000000000000000000000000000000000000000000000000000000000000000000000000000000000000000000000000000000000000000000000000000000000000000000000000000000BE000000F5F5F5F500F5F5F5F5F5F5F5F5F5F500F500000000BE002D2D0000000000000000000000
310
000000000000000000000000000000000000000000000000000000000000000000000000000000000000000000000000000000000000000000000000000000000000000000000000000000000000000000000000000000000000000000000000000000000000000000000000000000002D2D00BE0000000000000000000000
310
0000000000000000000000000000000000000000000000000000000000000000000000000000000000000000000000000000000000000000000000000000000000000000000000000000000000000000000000000000000000BE000000F5F5F5F500F5F5F5F5F5F5F5F5F5F500F5F5000000BE002D2D000000000000000000
310
0000000000000000000000000000000000000000000000000000000000000000000000000000000000000000000000000000000000000000000000000000000000000000000000000000000000000000000000000000000000000000000000000000000000000000000000000000000000002D2D00BE000000000000000000
310
00000000000000000000000000000000000000000000000000000000000000000000000000000000000000000000000000000000000000000000000000000000000000000000000000000000000000000000000000000000000000BE000000F5F5F5F500F500F5F5F5F5F50000F5F500F5000000BE002D2D00000000000000
310
00000000000000000000000000000000000000000000000000000000000000000000000000000000000000000000000000000000000000000000000000000000000000000000000000000000000000000000000000000000000000000000000000000000000000000000000000000000000000002D2D00BE00000000000000
310
000000000000000000000000000000000000000000000000000000000000000000000000000000000000000000000000000000000000000000000000000000000000000000000000000000000000000000000000000000000000000000BE00000000000000F5F5F5F5F5F5F5F5F50000000000000000BE002D2D0000000000
310
000000000000000000000000000000000000000000000000000000000000000000000000000000000000000000000000000000000000000000000000000000000000000000000000000000000000000000000000000000000000000000000000000000000000000000000000000000000000000000002D2D00BE0000000000
310
0000000000000000000000000000000000000000000000000000000000000000000000000000000000000000000000000000000000000000000000000000000000000000000000000000000000000000000000000000000000000000000000BE000000000000000000000000000000000000000000000000BE002D2D000000
310
0000000000000000000000000000000000000000000000000000000000000000000000000000000000000000000000000000000000000000000000000000000000000000000000000000000000000000000000000000000000000000000000000000000000000000000000000000000000000000000000002D2D00BE000000
310
00000000000000000000000000000000000000000000000000000000000000000000000000000000000000000000000000000000000000000000000000000000000000000000000000000000000000000000000000000000000000000000000000BEBEBEBEBEBEBEBEBEBEBEF5BEBEBEBEF5BEBEBEF5BEBEBEBEBE002D2D00
310
00000000000000000000000000000000000000000000000000000000000000000000000000000000000000000000000000000000000000000000000000000000000000000000000000000000000000000000000000000000000000000000000000000000000000000000000000000000000000000000000000002D2D00BE00
310
000000000000000000000000000000000000000000000000000000000000000000000000000000000000000000000000000000000000000000000000000000000000000000000000000000000000000000000000000000000000000000000000000000BE0000F5F5F5F5F5000000F5F5F50000F5F5F500F500F5F500BE002D
310
2D0000000000000000000000000000000000000000000000000000000000000000000000000000000000000000000000000000000000000000000000000000000000000000000000000000000000000000000000000000000000000000000000000000000000000000000000000000000000000000000000000000002D2D00
310
BE00000000000000000000000000000000000000000000000000000000000000000000000000000000000000000000000000000000000000000000000000000000000000000000000000000000000000000000000000000000000000000000000000000000BE0000F5F5F5F5F5000000F5F5F50000F5F5F500F500F5F500BE
310
002D2D0000000000000000000000000000000000000000000000000000000000000000000000000000000000000000000000000000000000000000000000000000000000000000000000000000000000000000000000000000000000000000000000000000000000000000000000000000000000000000000000000000002D
310
2D00BE00000000000000000000000000000000000000000000000000000000000000000000000000000000000000000000000000000000000000000000000000000000000000000000000000000000000000000000000000000000000000000000000000000000BE00000000000000000000F500000000F5000000F5000000
310
00BE002D2D0000000000000000000000000000000000000000000000000000000000000000000000000000000000000000000000000000000000000000000000000000000000000000000000000000000000000000000000000000000000000000000000000000000000000000000000000000000000000000000000000000
310
002D2D00BE0000000000F50000000000000000000000000000000000000000000000000000000000000000000000000000F500000000000000000000000000000000000000000000000000000000000000000000000000000000000000000000000000000000000000F5F5F5F5F5F5F5F5F5F5F5F5F5F5F5F5F5F5F5F5F5F5
310
F5F5F5F5002D2D000000000000000000000000000000000000000000000000000000000000000000000000000000000000000000000000000000000000000000000000000000000000000000000000000000000000000000000000000000000000000000000000000000000000000000000000000000000000000000000000
310
0000002D2D00BE0000000000F5F5F5F5F5F5F5F5F5F5F5F5F5F5F5F5F5F5F5F5F5F5F5F5F5F5F5F5F5F5F5F5F5F5F5F5F5F5F5F500000000000000000000000000000000000000000000000000000000000000000000000000000000000000000000000000000000000000BE00000000000000000000F500000000F5000000
310
F500000000BE002D2D00000000000000000000000000000000000000000000000000000000000000000000000000000000000000000000000000000000000000000000000000000000000000000000000000000000000000000000000000000000000000000000000000000000000000000000000000000000000000000000
310
00000000002D2D00BE0000000000F50000000000000000000000000000000000000000000000000000000000000000000000000000F500000000000000000000000000000000000000000000000000000000000000000000000000000000000000000000000000000000000000F5F5F5F5F5F5F5F5F5F5F5F5F5F5F5F5F5F5
310
F5F5F5F5F5F5F5F5002D2D0000000000000000000000000000000000000000000000000000000000000000000000000000000000000000000000000000000000000000000000000000000000000000000000000000000000000000000000000000000000000000000000000000000000000000000000000000000000000000
310
000000000000002D2D00BE0000000000F50000000000000000000000000000000000000000000000000000000000000000000000000000F500000000000000000000000000000000000000000000000000000000000000000000000000000000000000000000000000000000000000BE00000000F5000000000000F5000000
310
00F500000000000000BE002D2D000000000000000000000000000000000000000000000000000000000000000000000000000000000000000000000000000000000000000000000000000000000000000000000000000000000000000000000000000000000000000000000000000000000000000000000000000000000000
310
0000000000000000002D2D00BE0000000000F50000000000000000000000000000000000000000000000000000000000000000000000000000F500000000000000000000000000000000000000000000000000000000000000000000000000000000000000000000000000000000000000F5F5F5F5F5F5F5F5F5F5F5F5F5F5
310
F5F5F5F5F5F5F5F5F5F5F5F5002D2D00000000000000000000000000000000000000000000000000000000000000000000000000000000000000000000000000000000000000000000000000000000000000000000000000000000000000000000000000000000000000000000000000000000000000000000000000000000
310
00000000000000000000002D2D00BE0000000000DCDCDC0000000000000000000000000000DCDCDCDCDCDC0000000000000000000000000000DCDCF5F5F5F5F50000000000000000DCDCDCDCDCDCDCDCDCDCDCDCDCDCDCDCDC00000000C3C3C3C3C3C3C3C3C3C30F0F0F0F0F0F0F0F0F0F0F0F0F0000F50000000000F50000
310
00000000000000000000000000BE002D2D0000000000000000000000000000000000000000000000000000000000000000000000000000000000000000000000000000000000000000000000000000000000000000000000000000000000000000000000000000000000000000000000000000000000000000000000000000
310
000000000000000000000000002D2D00BE000000000000DCDC0000000000000000000000000000DCDC0000DCDC0000000000000000000000000000DCDC000000F5000000000000000000DCDCDCDCDCDCDCDCDCDCDCDCDCDCDCDCDC000000000F0000000000000000000000000000000000000000000FF5F5F5F5F5F5F5F5F5
310
F5F5F5F5F5F5F5F5F5F5F5F5F5F5F5F5002D2D000000000000000000000000000000000000000000000000000000000000000000000000000000000000000000000000000000000000000000000000000000000000000000000000000000000000000000000000000000000000000000000000000000000000000000000000
310
0000000000000000000000000000002D2D00BE000000000000DCDC0000000000000000000000000000DCDC0000DCDC0000000000000000000000000000DCDC000000F5000000000000000000DCDC00000000000000000000000000DCDC00000000C3C3C3C3C3C3C3C3C3F5F5F5F5F5F5F5F5F5F5F5F5F5F5F5F5F5F5F5F5F5
310
F5F5F5F5F5F5F5F5F5F5F5F5F5F5F5F5F5F5002D2D00000000000000000000000000000000000000000000000000000000000000000000000000000000000000000000000000000000000000000000000000000000000000000000000000000000000000000000000000000000000000000000000000000000000000000000
310
00000000000000000000000000000000002D2D00BE000000000000DCDC0000000000000000000000000000DCDC0000DCDC0000000000000000000000000000DCDC000000F5000000000000000000DCDC00000000000000000000000000DCDC000000000F0000000000000000000000000000000000000000000F0000F50000
310
000000F5000000000000000000000000000000BE002D2D0000000000000000000000000000000000000000000000000000000000000000000000000000000000000000000000000000000000000000000000000000000000000000000000000000000000000000000000000000000000000000000000000000000000000000
310
000000000000000000000000000000000000002D2D00BE000000000000DCDC0000000000000000000000000000DCDC0000DCDC0000000000000000000000000000DCDC0000F5F5000000000000000000DCDC00000000000000000000000000DCDC00000000C3C3C3C3C3C3C3C3C3C3F5F5F5F5F5F5F5F5F5F5F5F5F50F0FF5
310
F5F5F5F5F5F5F5F5F5F5F5F5F5F5F5F5F5F5F5F5F5F5002D2D000000000000000000000000000000000000000000000000000000000000000000000000000000000000000000000000000000000000000000000000000000000000000000000000000000000000000000000000000000000000000000000000000000000000
310
0000000000000000000000000000000000000000002D2D00BE000000000000DCDC0000000000000000000000000000DCDC0000DCDC0000000000000000000000000000DCDC0000F5F5000000000000000000DCDC00000000000000000000000000DCDC000000000F0000000000000000000000000000000000000000000F0F
310
0F0F0F0F0F0F0FF50F0F0F0F0F0F0F0000000000000000BE002D2D00000000000000000000000000000000000000000000000000000000000000000000000000000000000000000000000000000000000000000000000000000000000000000000000000000000000000000000000000000000000000000000000000000000
310
00000000000000000000000000000000000000000000002D2D00BE000000000000DCDC0000000000000000000000000000DCDC0000DCDC0000000000000000000000000000DCDC000000F5000000000000000000DCDC00000000000000000000000000DCDC00000000C3C3C3C3C3C3C3C3C3F5F5F5F5F5F5F5F5F5F5F5F5F5
310
F50FF5F5F5F5F5F5F5F5F5F5F5F5F5F5F5F5F5F5F5F5F5F5F5F5002D2D0000000000000000000000000000000000000000000000000000000000000000000000000000000000000000000000000000000000000000000000000000000000000000000000000000000000000000000000000000000000000000000000000000
310
000000000000000000000000000000000000000000000000002D2D00BE000000000000DCDC0000000000000000000000000000DCDC0000DCDC0000000000000000000000000000DCDC000000F5000000000000000000DCDC00000000000000000000000000DCDC000000000F00000000000000000000000000000000000000
310
00000FF5F5F500F5F50000F50000000000F5F5F5F5F50000000000BE002D2D000000000000000000000000000000000000000000000000000000000000000000000000000000000000000000000000000000000000000000000000000000000000000000000000000000000000000000000000000000000000000000000000
310
0000000000000000000000000000000000000000000000000000002D2D00BE000000000000DCDC0000000000000000000000000000DCDC0000DCDC0000000000000000000000000000DCDC000000F5000000000000000000DCDC00000000000000000000000000DCDC00000000C3C3C3C3C3C3C3C3C3C3F5F5F5F5F5F5F5F5
310
F5F5F5F5F5BEF5F5BEBEF5BEBEF5BEBEBEBEBEBEBEBEBEBEBEBEBEBEBEBE002D2D00000000000000000000000000000000000000000000000000000000000000000000000000000000000000000000000000000000000000000000000000000000000000000000000000000000000000000000000000000000000000000000
310
00000000000000000000000000000000000000000000000000000000002D2D00BE000000000000DCDCDCDCDCDCDCDCDCDCDCDCDCDCDCDCDCDC0000DCDCDCDCDCDCDCDCDCDCDCDCDCDCDCDCDCDC000000F5000000000000000000DCDCDCDCDCDCDCDCDCDCDCDCDCDCDCDCDC00000000F5F5F5F5F5F5F5F5F5F5F5F5F5F5F5F5
310
F5F5F5F5F5F5F500F5000000F5000000000000000000000000000000000000BE002D2D0000000000000000000000000000000000000000000000000000000000000000000000000000000000000000000000000000000000000000000000000000000000000000000000000000000000000000000000000000000000000000
310
000000000000000000000000000000000000000000000000000000000000002D2D00BE000000000000DCDCDCDCDCDCDCDCDCDCDCDCDCDCDCDCDCDC0000DCDCDCDCDCDCDCDCDCDCDCDCDCDCDCDCDCF5F5F5F5F5F50000000000000000DCDCDCDCDCDCDCDCDCDCDCDCDCDCDCDCDC00000000C3C3C3C3C3C3C3C3C3C3C3C30000
310
00000000000000000F00F5F5F5F5F5F5F5F5F5F5F5F5F5F5F5F5F5F5F5F5F5F5F5F5002D2D000000000000000000000000000000000000000000000000000000000000000000000000000000000000000000000000000000000000000000000000000000000000000000000000000000000000000000000000000000000000
310
0000000000000000000000000000000000000000000000000000000000000000002D2D00BE000000000000000000000000000000000000000000000000000000000000000000000000000000000000000000000000000000000000000000000000000000000000000000000000000000000000F5F5F5F5F5F5F5F5F5F5F5F5
310
F5F5F5F5F5F5F5F5F5F5F500F5000000F5000000000000000000000000000000000000BE002D2D00000000000000000000000000000000000000000000000000000000000000000000000000000000000000000000000000000000000000000000000000000000000000000000000000000000000000000000000000000000
310
00000000000000000000000000000000000000000000000000000000000000000000002D2D00BE000000000000000000000000000000000000000000000000000000000000000000000000000000000000000000000000000000000000000000000000000000000000000000000000000000000000C3C3C3C3C3C3C3C3C3C3
310
C3C3C30000000000000000000F00F5F5F5F5F5F5F5F5F5F5F5F5F5F5F5F5F5F5F5F5F5F5F5F5002D2D0000000000000000000000000000000000000000000000000000000000000000000000000000000000000000000000000000000000000000000000000000000000000000000000000000000000000000000000000000
310
000000000000000000000000000000000000000000000000000000000000000000000000002D2D00BE0000000000000000000000000000000000000000000000000000000000000000000000000000000000000000000000000000000000000000000000000000000000000000000000000000000F0F0F0F0F0F0F0F0F0F0F
310
0F0F0F0F0FF5F5F5F5F5F5F5F5F50F00F5000000F5000000000000000000000000000000000000BE002D2D000000000000000000000000000000000000000000000000000000000000000000000000000000000000000000000000000000000000000000000000000000000000000000000000000000000000000000000000
310
0000000000000000000000000000000000000000000000000000000000000000000000000000002D2D00BE000000000000000000000000000000000000000000000000000000000000000000000000000000000000000000000000000000000000000000000000000000000000000000000000000000000F0F0F0F0F0F0F0F
310
0F0F0F0F0F0F0FF5F5F500F5F5F5F5000F00F5F5F5F5F5F5F5F5F5F5F5F5F5F5F5F5F5F5F5F5F5F5F5F5002D2D00000000000000000000000000000000000000000000000000000000000000000000000000000000000000000000000000000000000000000000000000000000000000000000000000000000000000000000
310
00000000000000000000000000000000000000000000000000000000000000000000000000000000002D2D00BE000000000000000000000000000000000000000000000000000000000000000000000000000000000000000000000000000000000000000000000000000000000000000000000000000000000F000F0F0F0F
310
0F0F0F0F0F0FF5F5F5F5F5F5F5F5F5F5F5F5F500F5F5F500F5000000000000000000000000000000000000BE002D2D0000000000000000000000000000000000000000000000000000000000000000000000000000000000000000000000000000000000000000000000000000000000000000000000000000000000000000
310
0000000F0F0F0F0F0F0F0F0F0F0F0F0F0F0F0F0F0F000000000000000000000000000000000000000000002D2D00BE0000000000000000000000000000000000000000000000000000000000000000000000000000000000000000000000000000000000000000000000000000000000000000000000000000000000000F0F
310
0F0F0F0F0F0F0F0F0000F5F5F5F5F5F5F5F5F5000F00F5F5F5F5F5F5F5F5F5F5F5F5F5F5F5F5F5F5F5F5F5F5F5F5002D2D000000000000000000000000000000000000000000000000000000000000000000000000000000000000000000000000000000000000000000000000000000000000000000000000000000000000
310
0000000000000000000000000000000000000000000000000000000000000000000000000000000000000000002D2D00BE000000000000000000000000000000000000000000000000000000000000000000000000000000000000000000000000000000000000000000000000000000000000000000000000000000000000
310
0F0F0F0F0F0F0F0F0F0FF5F5F5F5F5F5F5F5F5F5F5F5F500F5F5F500F5000000000000000000000000000000000000BE002D2D00000000000000000000000000000000000000000000000000000000000000000000000000000000000000000000000000000000000000000000000000000000000000000000000000000000
310
000000000000000F0F0F0F0F0F0F0F0F0F0F0F0F0F0F0F0F0F0F0F0F0F0F0F0F0000000000000000000000000000002D2D00BE00000000000000000000000000000000000000000000000000000000000000000000000000000000000000000000000000000000000000000000000000000000000000000000000000000000
310
0F000F0F0F0F0F0F0F0F0F0F0000F5F5F5F5F5F5F5F5F5000F00F5F5F5F5F5F5F5F5F5F5F5F5F5F5F5F5F5F5F5F5F5F5F5F5002D2D0000000000000000000000000000000000000000000000000000000000000000000000000000000000000000000000000000000000000000000000000000000000000000000000000000
310
000000000000000000000000000000000000000000000000000000000000000000000000000000000000000000000000002D2D00BE0000000000000000000000000000000000000000000000000000000000000000000000000000000000000000000000000000000000000000000000000000000000000000000000000000
310
000F0F0F0F0F0F0F0F0F0F0F0F0F0F0F0F0F0F0FF5F5F5F5F5F5F500F5000000F5000000000000000000000000000000000000BE002D2D000000000000000000000000000000000000000000000000000000000000000000000000000000000000000000000000000000000000000000000000000000000000000000000000
310
00000000000000000000000F0F0F0F0F0F0F0F0F0F0F0F0F0F0F0F0F0F0F0F0F0F0F00000000000000000000000000000000002D2D00BE0000000000000000000000000000000000000000000000000000F5F5F5F5F5F5F5F5F500000000000000000000000000000000000000000000000000000000000000000000000000
310
000000000F0F0F0000000000000000000000000000000000000000000FBEF5F5F5F5F5F5F5F5F5F5F5F5F5F5F5F5F5F5F5F5BEBEBEBE002D2D00000000000000000000000000000000000000000000000000000000000000000000000000000000000000000000000000000000000000000000000000000000000000000000
310
000000000000000000000000000F0F0F0F0F0F0F0F0F0F0F0F0F0F0F0F0F00000000000000000000000000000000000000000000002D2D00BE0000000000000000000000000000000000000000000000000000F500000000000000000000000000000000000000000000000000000000000000000000000000000000000000
310
0000000000000F000F0F0F0F0F0F0F0F0FF5F5F5F5F5F5F5F5F5F5F5F5F5F5000000000000000000000000000000000000000000000000BE002D2D0000000000000000000000000000000000000000000000000000000000000000000000000000000000000000000000000000000000000000000000000000000000000000
310
0000000000000000000000000000000F0F0F0F0F0F0F0F0F0F0F0F0F0F0F0F0F00000000000000000000000000000000000000000000002D2D00BE00000000000000000000000000000000000000000000F5F5F5F5F5F500000000000000000000000000000000000000000000000000000000000000000000000000000000
310
000000000000000000000F0000000000000000000000F500000000F5000000000F000000000000000000000000000000000000000000000000BE002D2D000000000000000000000000000000000000000000000000000000000000000000000000000000000000000000000000000000000000000000000000000000000000
310
00000000000000000000000000000000000F0F0F0F0F0F0F0F0F0F0F0F0F0F0F0F0F00000000000000000000000000000000000000000000002D2D00BE0000000000000000000000000000000000000000000000F5F5F5F5000000000000000000000000000000000000000000000000000000000000000000000000000000
310
0000000000000000000000000F0F0F0F0F0F0F0F0FF5F5F5F5F5F5F5F5F5F5F5F5F5F5F5F5F5F5F5F5F5F5F5F5F5F5F5F5F5F5F5F5F5F5F5F5F5F5F5002D2D00000000000000000000000000000000000000000000000000000000000000000000000000000000000000000000000000000000000000000000000000000000
310
000000000000000000000000000000000000000F0F0F0F0F0F0F0F0F0F0F0F0F0F0F0F0F00000000000000000000000000000000000000000000002D2D00BE000000000000000000000000000000000000000000000000F5F50000000000000000000000000000000000000000000000000000000000000000000000000000
310
0000000000000000000000000F000F0000000000000000000000F500000000F5000000000F00F5F5F5F500000000000000000000000000000000000000BE002D2D0000000000000000000000000000000000000000000000000000000000000000000000000000000000000000000000000000000000000000000000000000
310
0000000000000000000000000000000000000000000F0F0F0F0F0F0F0F0F0F0F0F0F0F0F0F0F00000000000000000000000000000000000000000000002D2D00BE000000000000000000000000000000000000000000000000F5F5000000000000000000000000000000000000000000000000000000000000000000000000
310
000000000000000000000000000F0F0F0F0F0F0F0F0F0F0F0F0F0F0F0F0F0FF5F5F5F5F5F5F5F5000000000000000000000000000000000000000000000000BE002D2D000000000000000000000000000000000000000000000000000000000000000000000000000000000000000000000000000000000000000000000000
310
0000000000000000000000000000000000000000000000000000000000000000000000000000000000000000000000000000000000000000000000000000002D2D00BE000000000000DCDCDCDCDCDCDCDCDCDCDCDCDCDCDCDCDCDCF5F5DCDCDCDCDCDCDCDCDCDCDCDCDCDCDCDCDCF5F5F5F5F5F50000000000000000000000
310
000000000000000000000000000000000F00F5F5F5F5F5F5F5F5F5F5F5F5F52DF5F52DF52DF5F52D2DBEBEBEBEBEBEBEBEBEBEBEBEBEBEBEBEBEBEBEBEBEBEBEBEBE002D2D00000000000000000000000000000000000000000000000000000000000000000000000000000000000000000000000000000000000000000000
310
000000000000000000000000000000000000000000000000000F0F0F0F0F0F0F0F0F0F0F0F0F0F0F0F0F00000000000000000000000000000000000000000000002D2D00BE0000000000DCDCDCDCDCDCDCDCDCDCDCDCDCDCDCDCDCDCDCF5F5DCDCDCDCDCDCDCDCDCDCDCDCDCDCDCDCDCDCDC0000F500000000000000000000
310
0000000000000000000000000000000000000000F5F5F5F5F5F5F5F500000000F5002D2D00F5002D2D000F000000000000000000000000000000000000000000000000BE002D2D0000000000000000000000000000000000000000000000000000000000000000000000000000000000000000000000000000000000000000
310
0000000000000000000000000000000000000000000000000F0F00000000000000000000000000000000000000000000000000000000000000000000000000000000002D2D00BE0000000000DCDCDCDCDCDCDCDCDCDCDCDCDCDCDCDCDCDCDCDCDCDCDCDCDCDCDCDCDCDCDCDCDCDCDCDCDCDCDCDC0000F50000000000000000
310
00000000000000000000000000000000000000000000F5F5F5F5F5F5F5F5F5F5F5F5F52DF5F52DF52DF5F52D2D000000000000000000000000000000000000000000000000BE002D2D000000000000000000000000000000000000000000000000000000000000000000000000000000000000000000000000000000000000
310
000000000000000000000000000000000000000000000000000F0F0F0F0F0F0F0F0F0F0F0F0F0F0F0F0F0000000000000000000000000000000000000000000000000000002D2D00BE0000000000DCDCDCDCDCDCDCDCDCDCDCDCDCDCDCDCDCDCDCDCDCDCDCDCDCDCDCDCDCDCDCDCDCDCDCDCDCDCDCDC0000F5000000000000
310
000000000000000000000000000000000000000000000000F5F5F5F5F5F5000000000000F500F5F500F5F5F5F5000F000000000000000000000000000000000000000000000000BE002D2D00000000000000000000000000000000000000000000000000000000000000000000000000000000000000000000000000000000
310
000000000000000000000000000000000000000000000000000000000F0000000000000000000000000000000000000000000000000000000000000000000000000000000000002D2D00BE0000000000DCDCDCDCDCDCDCDCDCDCDCDCDCDCDCDCDCDCDCDCDCDCDCDCDCDCDCDCDCDCDCDCDCDCDCDCDCDCDCDC0000F500000000
310
0000000000000000000000000000000000000000000000000000F5F5F5F5F5F5F5F5F5F5F5F5F5F5F5F5F5F5F5F5F5F5F5000000000000000000000000000000000000000000000000BE002D2D0000000000000000000000000000000000000000000000000000000000000000000000000000000000000000000000000000
310
000000000000000000000000000000000000000000000000000000000000000000C3C3C3C3C3C3C3C3C3C3C3C3C3C3C3C3C3C3C3C300000000000000000000000000000000000000002D2D00BE0000000000DCDCDCDCDCDCDCDCDCDCDCDCDCDCDCDCDCDCDCDCDCDCDCDCDCDCDCDCDCDCDCDCDCDCDCDCDCDCDCDC0000F50000
310
00000000000000000000000000000000000000000000000000000000F5F5F5F5F5F5000000000000F5F5F5F500F5F5F5F5000F000000000000000000000000000000000000000000000000BE002D2D000000000000000000000000000000000000000000000000000000000000000000000000000000000000000000000000
310
0000000000000000000000000000000000000000000000000000000000000000000000000000000000000000000000000000000000000000000000000000000000000000000000000000002D2D00BE0000000000DCDCDCDCDCDCDCDCDCDCDCDCDCDCDCDCDCDCDCDCDCDCDCDCDCDCDCDCDCDCDCDCDCDCDCDCDCDCDCDC0000F5
310
000000000000000000000000000000000000000000000000000000000000F5F5F5F5F5F5F5F5F5F5F5F5F5F5F5F5F5F5F5F5F5F5F5000000000000000000000000000000000000000000000000BE002D2D00000000000000000000000000000000000000000000000000000000000000000000000000000000000000000000
310
0000000000000000000000000000000000000000F5F5F5F5F5F5F5F5F50000000000000000C3C3C3C3C3C3C3C3C3C3C3C3C3C3C3C3C3C3000000000000000000000000000000000000000000002D2D00BE0000000000DCDCDCDCDCDCDCDCDCDCDCDCDCDCDCDCDCDCDCDCDCDCDCDCDCDCDCDCDCDCDCDCDCDCDCDCDCDCDCDC00
310
F5F5000000000000000000000000000000000000000000000000000000000000F5F5F5F5F5F5000000000000F5F5F5F500F5F5F5F5000F000000000000000000000000000000000000000000000000BE002D2D0000000000000000000000000000000000000000000000000000000000000000000000000000000000000000
310
000000000000000000000000000000000000000000000000000000000000000000000000000000000000000000000000000000000000000000000000000000000000000000000000000000000000002D2D00BE0000000000DCDCDCDCDCDCDCDCDCDCDCDCDCDCDCDCDCDCDCDCDCDCDCDCDCDCDCDCDCDCDCDCDCDCDCDCDCDCDC
310
DC00F5F5000000000000000000000000000000000000000000000000000000000000F5F5F5F5F5F5F5F5F5F5F5F5F5F5F5F5F5F5F5F5F5F5F50000F5F5F5F5F5F5F5F5F5F5F50000000000000000000000BE002D2D000000000000000000000000000000000000000000000000000000000000000000000000000000000000
310
000000000000000000000000000000000000000000000000F5F5F5F5F5F5F5F5F50000000000000000C3C3C3C3C3C3C3C3C3C3C3C3C3C3C3C3C3C3C3C3C3C30000000000000000000000000000000000002D2D00BE0000000000DCDCDCDCDCDCDCDCDCDCDCDCDCDCDCDCDCDCDCDCDCDCDCDCDCDCDCDCDCDCDCDCDCDCDCDCDC
310
DCDCDC0000F5000000000000000000000000000000000000000000000000000000000000F5F5F5F5F5F5000000000000F500F5F500F5F5F5F5000F0000F5F5F5F5F5F5F5F5F5F5F50000000000000000000000BE002D2D00000000000000000000000000000000000000000000000000000000000000000000000000000000
310
00000000000000000000000000000000000000000000000000000000000000000000000000000000000000000000000000000000000000000000000000000000000000000000000000000000000000000000002D2D00BE0000000000DCDCDCDCDCDCDCDCDCDCDCDCDCDCDCDCDCDCDCDCDCDCDCDCDCDCDCDCDCDCDCDCDCDCDC
310
DCDCDCDCDC0000F5000000000000000000000000000000000000000000000000000000000000F5F5F5F5F5F5F5F5F5F5F5F5F5F5F5F5F5F5F5F5F5F5F5BEBEBEBEBEBEBE0000000000000000000000000000000000BE002D2D0000000000000000000000000000000000000000000000000000000000000000000000000000
310
000000000000000000000000000000000000000000000000000000000000000000000000000000000000000000C3C3C3C3C3C3C3C3C3C3C3C3C3C3C3C3C3C3C3C3C3C30000000000000000000000000000000000002D2D00BE0000000000DCDCDCDCDCDCDCDCDCDCDCDCDCDCDCDCDCDCDCDCDCDCDCDCDCDCDCDCDCDCDCDCDC
310
DCDCDCDCDCDCDC0000F50000000000000000000000000000000000000000000000000000000000000F0000000000000000000000F500000000F5000000000FBE000000000000BE00000000000000000000000000000000BE002D2D000000000000000000000000000000000000000000000000000000000000000000000000
310
0000000000000000000000000000000000000000000000000000000000000000000000000000000000000000000000000000000000000000000000000000000000000000000000000000000000000000000000000000002D2D00BE0000000000DCDCDCDCDCDCDCDCDCDCDCDCDCDCDCDCDCDCDCDCDCDCDCDCDCDCDCDCDCDCDC
310
DCDCDCDCDCDCDCDCDC0000F5000000000000000000000000000000000000000000000000000000000000F5F5F5F5F5F5F5F5F5F5F5F5F5F5F5F5F5F5F5F5F5F5F5BEBEBEBEBEBEBEF5F5F5F5F5F5F5F5F5F5F5F5F5F5F5F5F5F5002D2D00000000000000000000000000000000000000000000000000000000000000000000
310
00000000000000000000000000000000000000000000000000000000000000000000000000000000000000000000000000C3C3C3C3C3C3C3C3C3C3C3C3C3C3C3C3C3C3C3C3C3C3C3C3C30000000000000000000000000000002D2D00BE0000000000DCDCDCDCDCDCDCDCDCDCDCDCDCDCDCDCDCDCDCDCDCDCDCDCDCDCDCDCDC
310
DCDCDCDCDCDCDCDCDCDCDC0000F50000000000000000000000000000000000000000000000000000000000000F0000000000000000000000F500000000F5000000000F0000F5F5F5F5F5F50000000000000000000000000000F500BE002D2D0000000000000000000000000000000000000000000000000000000000000000
310
000000000000000000000000000000000000000000000000000000000000000000000000000000000000000000000000000000000000000000000000000000000000000000000000000000000000000000000000000000000000002D2D00BE0000000000DCDCDCDCDCDCDCDCDCDCDCDCDCDCDCDCDCDCDCDCDCDCDCDCDCDCDC
310
DCDCDCDCDCDCDCDCDCDCDCDCDC0000F5000000000000000000000000000000000000000000000000000000000000F5F5F5F5F5F5F5F5F5F5F5F5F5F5F5F5F5F5F5F5F5F5F5000000000000000000000000000000000000000000000000BE002D2D000000000000000000000000000000000000000000000000000000000000
310
0000000000000000000000000000000000000000000000000000000000000000000000000000000000000000000000000000000000C3C3C3C3C3C3C3C3C3C3C3C3C3C3C3C3C3C3000000000000000000000000000000000000000000002D2D00BE0000000000DCDCDCDCDCDCDCDCDCDCDCDCDCDCDCDCDCDCDCDCDCDCDCDCDC
310
DCDCDCDCDCDCDCDCDCDCDCDCDCDCDC0000F50000000000000000000000000000000000000000000000000000000000000F0000000000000000000000000000000000000000000F0000F5F5F5F5F50000000000000000000000000000000000BE002D2D00000000000000000000000000000000000000000000000000000000
310
00000000000000000000000000000000000000000000000000000000000000000000000000000000000000000000000000000000000000C3C3C3C3C3C3C3C3C3C3C3C3C3C3C3C3C3C3C3C3C3000000000000000000000000000000000000002D2D00BE000000000000F5DCDCDCDCDCDCDCDCF5DCDCDCDCDCDCDCF50000F5DC
310
DCDCDCDCDCDCDCF5DCDCDCDCDCDCDCF5F5F5F5F5F50000000000000000000000000000000000000000000000000000000000F5F5F5F5F5F5F5F5F5F5F5F5F5F5F5F5F5F5F5F5F5F5F50000F5F5F5F5F5F5F5F5000000000000000000000000F500BE002D2D0000000000000000000000000000000000000000000000000000
310
000000000000000000000000000000000000000000000000000000000000000000000000000000000000000000000000000000000000C3C300C3C3C3C3C3C3C3C3C3C3C3C3C3C3C3C3C3C3C3C3C3000000000000000000000000000000000000002D2D00BE000000000000F50000000000000000F500000000000000F50000
310
F50000000000000000F500000000000000F500000000000000000000000000000000000000000000000000000000000000000000F5F5F5F5F5F5F5F5F5F5F5F5F52D2D2D2DF52D2D2D2D2D000000000000000000000000000000000000000000000000BE002D2D000000000000000000000000000000000000000000000000
310
00000000000000000000000000000000000000000000000000000000000000000000000000000000000000000000000000000000000000C3C3C3C3C3C3C3C3C3C3C3C3C3C3C3C3C30000000000000000000000000000000000000000000000000000002D2D00BE000000000000F5000000000000000000F5F500F5000000F5
310
0000F5000000000000000000F5F500F5000000F5000000000000000000000000000000000000000000000000000000000000000000000F0F0F0F0F0F0F0F0F000000F5F5F5F500F5F5F5F5000F0000F5F5F5F5F5F5F5F5F5F5F5F5F5F50000000000000000BE002D2D00000000000000000000000000000000000000000000
310
00000000000000000000000000000000000000000000000000000000000000000000000000000000000000000000000000000000000000000000C3C300000000000000000000000000000000000000000000000000000000000000000000000000000000002D2D00BE000000000000F50000000000000000000000F5F5F500
310
00F50000F50000000000000000000000F5F5F50000F500000000000000000000000000000000000000000000000000000000000000000000F5F5F5F5F5F5F5F5F5F5F5F5F5F5F5F5F5F5F5F5F5F5F50000F5F5F5F5F5F5F5F5000000000000000000000000F500BE002D2D0000000000000000000000000000000000000000
310
000000000000000000000000000000000000000000000000000000000000000000000000000000000000000000000000000000000000000000000000C30000000000000000000000000000000000000000000000000000000000000000000000000000000000002D2D00BE000000000000F500000000000000000000F5F5F5
310
F50000F50000F500000000000000000000F5F5F5F50000F5000000000000000000000000000000000000000000000000000000000000000000000F0F0F0F0F0F0F0F0F000000F5F5F5F500F5F5F5F5000F0000F5F5F5F5F5F5F5F5000000000000000000000000F500BE002D2D000000000000000000000000000000000000
310
0000000000000000000000000000000000000000000000000000000000000000000000000000000000000000000000000000000000000000000000000000000000000000000000000000000000000000000000000000000000000000000000000000000000000000002D2D00BE000000000000F50000000000000000000000
310
F500F50000F50000F50000000000000000000000F500F50000F500000000000000000000000000000000000000000000000000000000000000000000F5F5F5F5F5F5F5F5F5F5F5F5F5F5F5F5F5F5F5F5F5F5F5BEBEBEBEBEBEBE0000000000000000000000000000000000BE002D2D00000000000000000000000000000000
310
00000000000000000000000000000000000000000000000000000000000000000000000000000000000000000000000000000000000000000000000000000000000000000000000000000000000000000000000000000000000000000000000000000000000000000000002D2D00BE000000000000F5F50000000000000000
310
000000F50000F5F5F5F5F5F50000000000000000000000F50000F5F5000000000000000000000000000000000000000000000000000000000000000000000F0F0F0F0F0F0F0F0F000000F500F5F500F5F5F5F5000FBEF5F5F5F50000BE00000000000000000000000000000000BE002D2D0000000000000000000000000000
310
000000000000000000000000000000000000000000000000000000000000000000000000000000000000000000000000000000000000000000000000000000000000000000000000000000000000000000000000000000000000000000000000000000000000000000000000002D2D00BE000000000000F5F5F5F5F5F5F5F5
310
F5F5F5F5F5F5F5F5F5F5F5F5F5F5F5F5F5F5F5F5F5F5F5F5F5F5F5F5F5F5000000000000000000000000000000000000000000000000000000000000000000000F0F0F0F0F0F0F0F0FF5F5F5F5F5F5F5F5F5F5F5F5F5F5BEBEBEBEBEBEBEF5F5F5F5F5F5F5F5F5F5F5F5F5F5F5F5F5F5002D2D000000000000000000000000
310
0000000000000000000000000000000000000000000000000000000000000000000000000000000000000000000000000000000000000000000000000000000000000000000000000000000000000000000000000000000000000000000000000000000000000000000000000000002D2D00BE000000000000F50000000000
310
00000000000000000000000000000000000000000000000000000000000000F500000000000000000000000000000000000000000000000000000000000000000F000F0F0F0F0F0F0F0F0F000000F5F5F5F500F5F5F5F5000F000000000000000000000000000000000000F5F5F5F5F500BE002D2D00000000000000000000
310
00000000000000000000000000000000000000000000000000000000000000000000000000000000000000000000000000000000000000000000000000000000000000000000000000000000000000000000000000000000000000000000000000000000000000000000000000000000002D2D00BE000000000000F5F5F5F5
310
F5F5F5F5F5F5F5F5F5F5F5F5F5F5F5F5F5F5F5F5F5F5F5F5F5F5F5F5F5F5F5F5F5F5000000000000000000000000000000000000000000000000000000000000000F0F0F0F0F0F0F0F0F0F0F0F0F0F0FF50F0FF5F5F5F5F5F5F5F5000000000000000000000000000000000000000000000000BE002D2D0000000000000000
310
000000000000000000000000000000000000000000000000000000000000000000000000000000000000000000000000000000000000000000000000000000000000000000000000000000000000000000000000000000000000000000000000000000000000000000000000000000000000002D2D00BE0000000000000000
310
00000000000000000000000000000000000000000000000000000000000000000000000000000000000000000000000000000000000000000000000000000000000000000F0F0F0F0F0F0F0F0F0F0F0F0F0F0F0F0F000000000000000F0000F5F5F5F5000000000000000000000000F5F5F5F5F500BE002D2D000000000000
310
0000000000000000000000000000000000000000000000000000000000000000000000000000000000000000000000000000000000000000000000000000000000000000000000000000000000000000000000000000000000000000000000000000000000000000000000000000000000000000002D2D00BE000000000000
310
000000000000000000000000000000000000000000000000000000000000000000000000000000000000000000000000000000000000000000000000000000000000000000000F00F5F5F5F5F5F5F5F5F5F5F5F5F5F5F5F5F5F5F5F5F5F5F5000000000000000000000000000000000000000000000000BE002D2D00000000
310
00000000000000000000000000000000000000000000000000000000000000000000000000000000000000000000000000000000000000000000000000000000000000000000000000000000000000000000000000000000000000000000000000000000000000000000000000000000000000000000002D2D00BE00000000
310
00000000000000000000000000000000000000000000000000000000000000000000000000000000000000000000000000000000000000000000000000000000000000000000000000000F0000000000000000000000F5002D2D00F5000000000F0000F5F50000000000000000000000000000F5F5F5F5F500BE002D2D0000
310
000000000000000000000000000000000000000000000000000000000000000000000000000000000000000000000000000000000000000000000000000000000000000000000000000000000000000000000000000000000000000000000000000000000000000000000000000000000000000000000000002D2D00BE0000
310
00000000000000000000000000000000000000000000000000000000000000000000000000000000000000000000000000000000000000000000000000000000000000000000000000000000F5F5F5F5F5F5F5F5F5F5F5F52D2DF5F52D2DF5F5F5F5F50000000000000000000000000000000000F5F5F5F5F5F500BE002D2D
310
0000000000000000000000000000000000000000000000000000000000000000000000000000000000000000000000000000000000000000000000000000000000000000000000000000000000000000000000000000000000000000000000000000000000000000000000000000000000000000000000000000002D2D00BE
310
0000000000000000000000000000000000000000000000000000000000000000000000000000000000000000000000000000000000000000000000000000000000000000000000000000000000000F0000000000000000000000F5002D2D00F5000000000F0000000000000000000000000000000000F5F5F5F5F5F500BE00
310
2D2D0000000000000000000000000000000000000000000000000000000000000000000000000000000000000000000000000000000000000000000000000000000000000000000000000000000000000000000000000000000000000000000000000000000000000000000000000000000000000000000000000000002D2D
310
00BE000000000000000000000000000000000000000000000000000000000000000000000000000000000000000000000000000000000000000000000000000000000000000000000000000000000000F5F5F5F5F5F5F5F5F5F5F5F52D2DF5F52D2DF5F5F5F5F50000F5F5000000000000000000000000000000F5F5F5F500
310
BE002D2D0000000000000000000000000000000000000000000000000000000000000000000000000000000000000000000000000000000000000000000000000000000000000000000000000000000000000000000000000000000000000000000000000000000000000000000000000000F5000000000000000000000000
310
2D2D00BE0000000000000000000000000000000000000000000000000000000000000000000000000000000000000000000000000000000000000000000000000000000000000000000000000000000000000F0000000000000000000000F500000000F5000000000F00000000000000000000000000000000000000000000
310
0000BE002D2D0000000000000000000000000000000000000000000000000000000000000000000000000000000000000000000000000000000000000000000000000000000000000000000000000000000000000000000000000000000000000000000000000000000000000000000000000000F5F5000000000000000000
310
00002D2D00BE000000000000000000000000000000000000000000000000000000000000000000000000000000000000000000000000000000000000000000000000000000000000000000000000000000000000F5F5F5F5F5F5F5F5F5F5F5F52DF5F5F52D2DF5F5F5F50FBEBEBEBEBEBEBE00000000000000000000000000
310
00000000BE002D2D000000000000000000000000000000000000000000000000000000000000000000000000000000000000000000000000000000000000000000000000000000000000000000000000000000000000000000000000000000000000000000000000000000000000000000000000000000F5F5000000000000
310
000000002D2D00BE0000000000000000000000000000000000000000000000000000000000000000000000000000000000000000000000000000000000000000000000000000000000000000000000000000000000000FF5F5F5F5F5F5F5F5F5F5F52D2D2D2D2D2D2DF5F52D2DBEBEBEBEBEBEBEBE00000000000000000000
310
000000000000BE002D2D0000000000000000000000000000000000000000000000000000000000000000000000000000000000000000000000000000000000000000000000000000000000000000000000000000000000000000000000000000000000000000000000000000000000000000000000000000000000F5F5F500
310
0000000000002D2D00BE000000000000000000000000000000000000000000000000000000000000000000000000000000000000000000000000000000000000000000000000000000000000000000000000000000000000F5F5F5F5F5F5000000000000F500F5F500F5F5F5F5000FBEBEBEBEBEBEBEBEBEBEBEBEBEBEBEBE
310
BEBEBEBEBEBEBEBEBE002D2D00000000000000000000000000000000000000000000000000000000000000000000000000000000000000000000000000000000000000000000000000000000000000000000000000000000000000000000000000000000000000000000000000000000000000000000000000000000F5F5F5
310
00F50000000000002D2D00BE0000000000000000000000000000000000000000000000000000000000000000000000000000000000000000000000000000000000000000000000000000000000000000000000000000000000000FF5F5F5F5F5F5F5F5F5F5F5F52DF5F52DF52DF5F52D2D0000000000000000000000000000
310
00000000000000000000BE002D2D0000000000000000000000000000000000000000000000000000000000000000000000000000000000000000000000000000000000000000000000000000000000000000000000000000000000000000000000000000000000000000000000000000000000000000000000000000000000
310
F500F5000000000000002D2D00BE000000000000000000000000000000000000000000000000000000000000000000000000000000000000000000000000000000000000000000000000000000000000000000000000000000000000F5F5F5F5F5F5F5F5F5F5F5F5F5F5F5F50000000000000FF5F5F5F5F5F5F5F5F5F5F5F5
310
F5F5F5F5F5F5F5F5F5F50000BE002D2D000000000000000000000000000000000000000000000000000000000000000000000000000000000000000000000000000000000000000000000000000000000000000000000000000000000000000000000000000000000000000000000000000000000000000000000000000000
310
000000F500000000000000002D2D00BE0000000000000000000000000000000000000000000000000000000000000000000000000000000000000000000000000000000000000000000000000000000000000000000000000000000000000F0F0F0F0F0F0F0F0F0F0F0F2D2D0F0F2D2D2D0F0F2D2DF5F5F5F5F5F5F5F5F5F5
310
F5F5F5F5F5F5F5F5F5F5F5F50000BE002D2D00000000000000000000000000000000000000000000000000000000000000000000000000000000000000000000000000000000000000000000000000000000000000000000000000000000000000000000000000000000000000000000000000000000000000000000000000
310
00000000000000000000000000002D2D00BE0000000000000000000000000000000000000000000000000000000000000000000000000000000000000000000000000000000000000000000000000000000000000000000000000000000000000F00002DF5F5F5F5F52D0000F5F5F5F500F5F52D2D000F0000000000000000
310
00000000000000000000000000000000BE002D2D0000000000000000000000000000000000000000000000000000000000000000000000000000000000000000000000000000000000000000000000000000000000000000000000000000000000000000000000000000000000000000000000000000000000000000000000
310
000000000000000000000000000000002D2D00BEBEBEBEBEBEBEBEBEBEBEBEBEBEBEBEBEBEBEBEBEBEBEBEBEBEBEBEBEBEBEBEBEBEBEBEBEBEBEBEBEBEBEBEBEBEBEBEBEBEBEBEBEBEBEBEBEBEBEBEBEBEBEBEBEBEBEBEBEBEBEBEBEBEBEBEBEBEBE0F0F0F0F0F0F0F0F0F0F0F0F2D2D0F0F2D2D2D0F0F2D2DBEBEBEBEBEBE
310
BEBEBEBEBEBEBEBEBEBEBEBEBEBEBEBEBEBEBE002D2D000000000000000000000000000000000000000000000000000000000000000000000000000000000000000000000000000000000000000000000000000000000000000000000000000000000000000000000000000000000000000000000000000000000000000000
310
0000000000000000000000000000000000002D2D0000000000000000000000000000000000000000000000000000000000000000000000000000000000000000000000000000000000000000000000000000000000000000000000000000000000000000000000000000000000000000000000000000000000000000000000
310
000000000000000000000000000000000000000000002D2D00000000000000000000000000000000000000000000000000000000000000000000000000000000000000000000000000000000000000000000000000000000000000000000000000000000000000000000000000000000000000000000000000000000000000
310
00000000000000000000000000000000000000002D2D2D2D2D2D2D2D2D2D2D2D2D2D2D2D2D2D2D2D2D2D2D2D2D2D2D2D2D2D2D2D2D2D2D2D2D2D2D2D2D2D2D2D2D2D2D2D2D2D2D2D2D2D2D2D2D2D2D2D2D2D2D2D2D2D2D2D2D2D2D2D2D2D2D2D2D2D2D2D2D2D2D2D2D2D2D2D2D2D2D2D2D2D2D2D2D2D2D2D2D2D2D2D2D2D2D
310
2D2D2D2D2D2D2D2D2D2D2D2D2D2D2D2D2D2D2D2D2D2D2D2D2D2D0000000000000000000000000000000000000000000000000000000000000000000000000000000000000000000000000000000000000000000000000000000000000000000000000000000000000000000000000000000000000000000000000000000000
310
000000000000000000000000000000000000000000002D2D2D2D2D2D2D2D2D2D2D2D2D2D2D2D2D2D2D2D2D2D2D2D2D2D2D2D2D2D2D2D2D2D2D2D2D2D2D2D2D2D2D2D2D2D2D2D2D2D2D2D2D2D2D2D2D2D2D2D2D2D2D2D2D2D2D2D2D2D2D2D2D2D2D2D2D2D2D2D2D2D2D2D2D2D2D2D2D2D2D2D2D2D2D2D2D2D2D2D2D2D2D2D2D
310
2D2D2D2D2D2D2D2D2D2D2D2D2D2D2D2D2D2D2D2D2D2D2D2D2D2D2D2D000000000000000000000000000000000000000000000000000000000000000000000000000000000000000000000000000000000000000000000000000000000000000000000000000000000000000000000000000000000000000000000000000000
310
00000000000000000000000000000000000000000000000000000000000000000000000000000000000000000000000000000000000000000000000000000000000000000000000000000000000000000000000000000000000000000000000000000000000000000000000000000000000000000000000000000000000000
310
00000000000000000000000000000000000000000000000000000000000000000000000000000000000000000000000000000000000000000000000000000000000000000000000000000000000000000000000000000000000000000000000000000000000000000000000000000000000000000000000000000000000000
310
00000000000000000000000000000000000000000000000000000000000000000000000000000000000000000000000000000000000000000000000000000000000000000000000000000000000000000000000000000000000000000000000000000000000000000000000000000000000000000000000000000000000000
310
00000000000000000000000000000000000000000000000000000000000000000000000000000000000000000000000000000000000000000000000000000000000000000000000000000000000000000000000000000000000000000000000000000000000000000000000000000000000000000000000000000000000000
310
00000000000000000000000000000000000000000000000000000000000000000000000000000000000000000000000000000000000000000000000000000000000000000000000000000000000000000000000000000000000000000000000000000000000000000000000000000000000000000000000000000000000000
310
00000000000000000000000000000000000000000000000000000000000000000000000000000000000000000000000000000000000000000000000000000000000000000000000000000000000000000000000000000000000000000000000000000000000000000000000000000000000000000000000000000000000000
310
00000000000000000000000000000000000000000000000000000000000000000000000000000000000000000000000000000000000000000000000000000000000000000000000000000000000000000000000000000000000000000000000000000000000000000000000000000000000000000000000000000000000000
310
00000000000000000000000000000000000000000000000000000000000000000000000000000000000000000000000000000000000000000000000000000000000000000000000000000000000000000000000000000000000000000000000000000000000000000000000000000000000000000000000000000000000000
310
00000000000000000000000000000000000000000000000000000000000000000000000000000000000000000000000000000000000000000000000000000000000000000000000000000000000000000000000000000000000000000000000000000000000000000000000000000000000000000000000000000000000000
310
00000000000000000000000000000000000000000000000000000000000000000000000000000000000000000000000000000000000000000000000000000000000000000000000000000000000000000000000000000000000000000000000000000000000000000000000000000000000000000000000000000000000000
310
00000000000000000000000000000000000000000000000000000000000000000000000000000000000000000000000000000000000000000000000000000000000000000000000000000000000000000000000000000000000000000000000000000000000000000000000000000000000000000000000000000000000000
310
00000000000000000000000000000000000000000000000000000000000000000000000000000000000000000000000000000000000000000000000000000000000000000000000000000000000000000000000000000000000000000000000000000000000000000000000000000000000000000000000000000000000000
310
00000000000000000000000000000000000000000000000000000000000000000000000000000000000000000000000000000000000000000000000000000000000000000000000000000000000000000000000000000000000000000000000000000000000000000000000000000000000000000000000000000000000000
310
00000000000000000000000000000000000000000000000000000000000000000000000000000000000000000000000000000000000000000000000000000000000000000000000000000000000000000000000000000000000000000000000000000000000000000000000000000000000000000000000000000000000000
310
00000000000000000000000000000000000000000000000000000000000000000000000000000000000000000000000000000000000000000000000000000000000000000000000000000000000000000000000000000000000000000000000000000000000000000000000000000000000000000000000000000000000000
310
00000000000000000000000000000000000000000000000000000000000000000000000000000000000000000000000000000000000000000000000000000000000000000000000000000000000000000000000000000000000000000000000000000000000000000000000000000000000000000000000000000000000000
310
00000000000000000000000000000000000000000000000000000000000000000000000000000000000000000000000000000000000000000000000000000000000000000000000000000000000000000000000000000000000000000000000000000000000000000000000000000000000000000000000000000000000000
310
00000000000000000000000000000000000000000000000000000000000000000000000000000000000000000000000000000000000000000000000000000000000000000000000000000000000000000000000000000000000000000000000000000000000000000000000000000000000000000000000000000000000000
310
00000000000000000000000000000000000000000000000000000000000000000000000000000000000000000000000000000000000000000000000000000000000000000000000000000000000000000000000000000000000000000000000000000000000000000000000000000000000000000000000000000000000000
310
00000000000000000000000000000000000000000000000000000000000000000000000000000000000000000000000000000000000000000000000000000000000000000000000000000000000000000000000000000000000000000000000000000000000000000000000000000000000000000000000000000000000000
310
00000000000000000000000000000000000000000000000000000000000000000000000000000000000000000000000000000000000000000000000000000000000000000000000000000000000000000000000000000000000000000000000000000000000000000000000000000000000000000000000000000000000000
310
00000000000000000000000000000000000000000000000000000000000000000000000000000000000000000000000000000000000000000000000000000000000000000000000000000000000000000000000000000000000000000000000000000000000000000000000000000000000000000000000000000000000000
310
00000000000000000000000000000000000000000000000000000000000000000000000000000000000000000000000000000000000000000000000000000000000000000000000000000000000000000000000000000000000000000000000000000000000000000000000000000000000000000000000000000000000000
310
00000000000000000000000000000000000000000000000000000000000000000000000000000000000000000000000000000000000000000000000000000000000000000000000000000000000000000000000000000000000000000000000000000000000000000000000000000000000000000000000000000000000000
310
00000000000000000000000000000000000000000000000000000000000000000000000000000000000000000000000000000000000000000000000000000000000000000000000000000000000000000000000000000000000000000000000000000000000000000000000000000000000000000000000000000000000000
310
00000000000000000000000000000000000000000000000000000000000000000000000000000000000000000000000000000000000000000000000000000000000000000000000000000000000000000000000000000000000000000000000000000000000000000000000000000000000000000000000000000000000000
310
00000000000000000000000000000000000000000000000000000000000000000000000000000000000000000000000000000000000000000000000000000000000000000000000000000000000000000000000000000000000000000000000000000000000000000000000000000000000000000000000000000000000000
310
00000000000000000000000000000000000000000000000000000000000000000000000000000000000000000000000000000000000000000000000000000000000000000000000000000000000000000000000000000000000000000000000000000000000000000000000000000000000000000000000000000000000000
310
00000000000000000000000000000000000000000000000000000000000000000000000000000000000000000000000000000000000000000000000000000000000000000000000000000000000000000000000000000000000000000000000000000000000000000000000000000000000000000000000000000000000000
310
00000000000000000000000000000000000000000000000000000000000000000000000000000000000000000000000000000000000000000000000000000000000000000000000000000000000000000000000000000000000000000000000000000000000000000000000000000000000000000000000000000000000000
310
00000000000000000000000000000000000000000000000000000000000000000000000000000000000000000000000000000000000000000000000000000000000000000000000000000000000000000000000000000000000000000000000000000000000000000000000000000000000000000000000000000000000000
310
00000000000000000000000000000000000000000000000000000000000000000000000000000000000000000000000000000000000000000000000000000000000000000000000000000000000000000000000000000000000000000000000000000000000000000000000000000000000000000000000000000000000000
310
00000000000000000000000000000000000000000000000000000000000000000000000000000000000000000000000000000000000000000000000000000000000000000000000000000000000000000000000000000000000000000000000000000000000000000000000000000000000000000000000000000000000000
310
00000000000000000000000000000000000000000000000000000000000000000000000000000000000000000000000000000000000000000000000000000000000000000000000000000000000000000000000000000000000000000000000000000000000000000000000000000000000000000000000000000000000000
310
00000000000000000000000000000000000000000000000000000000000000000000000000000000000000000000000000000000000000000000000000000000000000000000000000000000000000000000000000000000000000000000000000000000000000000000000000000000000000000000000000000000000000
310
00000000000000000000000000000000000000000000000000000000000000000000000000000000000000000000000000000000000000000000000000000000000000000000000000000000000000000000000000000000000000000000000000000000000000000000000000000000000000000000000000000000000000
310
00000000000000000000000000000000000000000000000000000000000000000000000000000000000000000000000000000000000000000000000000000000000000000000000000000000000000000000000000000000000000000000000000000000000000000000000000000000000000000000000000000000000000
310
00000000000000000000000000000000000000000000000000000000000000000000000000000000000000000000000000000000000000000000000000000000000000000000000000000000000000000000000000000000000000000000000000000000000000000000000000000000000000000000000000000000000000
310
00000000000000000000000000000000000000000000000000000000000000000000000000000000000000000000000000000000000000000000000000000000000000000000000000000000000000000000000000000000000000000000000000000000000000000000000000000000000000000000000000000000000000
310
00000000000000000000000000000000000000000000000000000000000000000000000000000000000000000000000000000000000000000000000000000000000000000000000000000000000000000000000000000000000000000000000000000000000000000000000000000000000000000000000000000000000000
310
00000000000000000000000000000000000000000000000000000000000000000000000000000000000000000000000000000000000000000000000000000000000000000000000000000000000000000000000000000000000000000000000000000000000000000000000000000000000000000000000000000000000000
310
00000000000000000000000000000000000000000000000000000000000000000000000000000000000000000000000000000000000000000000000000000000000000000000000000000000000000000000000000000000000000000000000000000000000000000000000000000000000000000000000000000000000000
310
00000000000000000000000000000000000000000000000000000000000000000000000000000000000000000000000000000000000000000000000000000000000000000000000000000000000000000000000000000000000000000000000000000000000000000000000000000000000000000000000000000000000000
310
00000000000000000000000000000000000000000000000000000000000000000000000000000000000000000000000000000000000000000000000000000000000000000000000000000000000000000000000000000000000000000000000000000000000000000000000000000000000000000000000000000000000000
310
00000000000000000000000000000000000000000000000000000000000000000000000000000000000000000000000000000000000000000000000000000000000000000000000000000000000000000000000000000000000000000000000000000000000000000000000000000000000000000000000000000000000000
310
00000000000000000000000000000000000000000000000000000000000000000000000000000000000000000000000000000000000000000000000000000000000000000000000000000000000000000000000000000000000000000000000000000000000000000000000000000000000000000000000000000000000000
310
00000000000000000000000000000000000000000000000000000000000000000000000000000000000000000000000000000000000000000000000000000000000000000000000000000000000000000000000000000000000000000000000000000000000000000000000000000000000000000000000000000000000000
310
00000000000000000000000000000000000000000000000000000000000000000000000000000000000000000000000000000000000000000000000000000000000000000000000000000000000000000000000000000000000000000000000000000000000000000000000000000000000000000000000000000000000000
310
00000000000000000000000000000000000000000000000000000000000000000000000000000000000000000000000000000000000000000000000000000000000000000000000000000000000000000000000000000000000000000000000000000000000000000000000000000000000000000000000000000000000000
310
00000000000000000000000000000000000000000000000000000000000000000000000000000000000000000000000000000000000000000000000000000000000000000000000000000000000000000000000000000000000000000000000000000000000000000000000000000000000000000000000000000000000000
310
00000000000000000000000000000000000000000000000000000000000000000000000000000000000000000000000000000000000000000000000000000000000000000000000000000000000000000000000000000000000000000000000000000000000000000000000000000000000000000000000000000000000000
310
00000000000000000000000000000000000000000000000000000000000000000000000000000000000000000000000000000000000000000000000000000000000000000000000000000000000000000000000000000000000000000000000000000000000000000000000000000000000000000000000000000000000000
310
00000000000000000000000000000000000000000000000000000000000000000000000000000000000000000000000000000000000000000000000000000000000000000000000000000000000000000000000000000000000000000000000000000000000000000000000000000000000000000000000000000000000000
310
00000000000000000000000000000000000000000000000000000000000000000000000000000000000000000000000000000000000000000000000000000000000000000000000000000000000000000000000000000000000000000000000000000000000000000000000000000000000000000000000000000000000000
310
00000000000000000000000000000000000000000000000000000000000000000000000000000000000000000000000000000000000000000000000000000000000000000000000000000000000000000000000000000000000000000000000000000000000000000000000000000000000000000000000000000000000000
310
00000000000000000000000000000000000000000000000000000000000000000000000000000000000000000000000000000000000000000000000000000000000000000000000000000000000000000000000000000000000000000000000000000000000000000000000000000000000000000000000000000000000000
310
00000000000000000000000000000000000000000000000000000000000000000000000000000000000000000000000000000000000000000000000000000000000000000000000000000000000000000000000000000000000000000000000000000000000000000000000000000000000000000000000000000000000000
310
00000000000000000000000000000000000000000000000000000000000000000000000000000000000000000000000000000000000000000000000000000000000000000000000000000000000000000000000000000000000000000000000000000000000000000000000000000000000000000000000000000000000000
310
00000000000000000000000000000000000000000000000000000000000000000000000000000000000000000000000000000000000000000000000000000000000000000000000000000000000000000000000000000000000000000000000000000000000000000000000000000000000000000000000000000000000000
310
00000000000000000000000000000000000000000000000000000000000000000000000000000000000000000000000000000000000000000000000000000000000000000000000000000000000000000000000000000000000000000000000000000000000000000000000000000000000000000000000000000000000000
310
00000000000000000000000000000000000000000000000000000000000000000000000000000000000000000000000000000000000000000000000000000000000000000000000000000000000000000000000000000000000000000000000000000000000000000000000000000000000000000000000000000000000000
310
00000000000000000000000000000000000000000000000000000000000000000000000000000000000000000000000000000000000000000000000000000000000000000000000000000000000000000000000000000000000000000000000000000000000000000000000000000000000000000000000000000000000000
310
00000000000000000000000000000000000000000000000000000000000000000000000000000000000000000000000000000000000000000000000000000000000000000000000000000000000000000000000000000000000000000000000000000000000000000000000000000000000000000000000000000000000000
310
00000000000000000000000000000000000000000000000000000000000000000000000000000000000000000000000000000000000000000000000000000000000000000000000000000000000000000000000000000000000000000000000000000000000000000000000000000000000000000000000000000000000000
310
00000000000000000000000000000000000000000000000000000000000000000000000000000000000000000000000000000000000000000000000000000000000000000000000000000000000000000000000000000000000000000000000000000000000000000000000000000000000000000000000000000000000000
310
00000000000000000000000000000000000000000000000000000000000000000000000000000000000000000000000000000000000000000000000000000000000000000000000000000000000000000000000000000000000000000000000000000000000000000000000000000000000000000000000000000000000000
310
00000000000000000000000000000000000000000000000000000000000000000000000000000000000000000000000000000000000000000000000000000000000000000000000000000000000000000000000000000000000000000000000000000000000000000000000000000000000000000000000000000000000000
310
00000000000000000000000000000000000000000000000000000000000000000000000000000000000000000000000000000000000000000000000000000000000000000000000000000000000000000000000000000000000000000000000000000000000000000000000000000000000000000000000000000000000000
310
00000000000000000000000000000000000000000000000000000000000000000000000000000000000000000000000000000000000000000000000000000000000000000000000000000000000000000000000000000000000000000000000000000000000000000000000000000000000000000000000000000000000000
310
00000000000000000000000000000000000000000000000000000000000000000000000000000000000000000000000000000000000000000000000000000000000000000000000000000000000000000000000000000000000000000000000000000000000000000000000000000000000000000000000000000000000000
310
00000000000000000000000000000000000000000000000000000000000000000000000000000000000000000000000000000000000000000000000000000000000000000000000000000000000000000000000000000000000000000000000000000000000000000000000000000000000000000000000000000000000000
310
00000000000000000000000000000000000000000000000000000000000000000000000000000000000000000000000000000000000000000000000000000000000000000000000000000000000000000000000000000000000000000000000000000000000000000000000000000000000000000000000000000000000000
310
00000000000000000000000000000000000000000000000000000000000000000000000000000000000000000000000000000000000000000000000000000000000000000000000000000000000000000000000000000000000000000000000000000000000000000000000000000000000000000000000000000000000000
310
00000000000000000000000000000000000000000000000000000000000000000000000000000000000000000000000000000000000000000000000000000000000000000000000000000000000000000000000000000000000000000000000000000000000000000000000000000000000000000000000000000000000000
310
00000000000000000000000000000000000000000000000000000000000000000000000000000000000000000000000000000000000000000000000000000000000000000000000000000000000000000000000000000000000000000000000000000000000000000000000000000000000000000000000000000000000000
310
00000000000000000000000000000000000000000000000000000000000000000000000000000000000000000000000000000000000000000000000000000000000000000000000000000000000000000000000000000000000000000000000000000000000000000000000000000000000000000000000000000000000000
310
00000000000000000000000000000000000000000000000000000000000000000000000000000000000000000000000000000000000000000000000000000000000000000000000000000000000000000000000000000000000000000000000000000000000000000000000000000000000000000000000000000000000000
310
00000000000000000000000000000000000000000000000000000000000000000000000000000000000000000000000000000000000000000000000000000000000000000000000000000000000000000000000000000000000000000000000000000000000000000000000000000000000000000000000000000000000000
310
00000000000000000000000000000000000000000000000000000000000000000000000000000000000000000000000000000000000000000000000000000000000000000000000000000000000000000000000000000000000000000000000000000000000000000000000000000000000000000000000000000000000000
310
00000000000000000000000000000000000000000000000000000000000000000000000000000000000000000000000000000000000000000000000000000000000000000000000000000000000000000000000000000000000000000000000000000000000000000000000000000000000000000000000000000000000000
310
00000000000000000000000000000000000000000000000000000000000000000000000000000000000000000000000000000000000000000000000000000000000000000000000000000000000000000000000000000000000000000000000000000000000000000000000000000000000000000000000000000000000000
310
00000000000000000000000000000000000000000000000000000000000000000000000000000000000000000000000000000000000000000000000000000000000000000000000000000000000000000000000000000000000000000000000000000000000000000000000000000000000000000000000000000000000000
310
00000000000000000000000000000000000000000000000000000000000000000000000000000000000000000000000000000000000000000000000000000000000000000000000000000000000000000000000000000000000000000000000000000000000000000000000000000000000000000000000000000000000000
310
00000000000000000000000000000000000000000000000000000000000000000000000000000000000000000000000000000000000000000000000000000000000000000000000000000000000000000000000000000000000000000000000000000000000000000000000000000000000000000000000000000000000000
310
00000000000000000000000000000000000000000000000000000000000000000000000000000000000000000000000000000000000000000000000000000000000000000000000000000000000000000000000000000000000000000000000000000000000000000000000000000000000000000000000000000000000000
310
00000000000000000000000000000000000000000000000000000000000000000000000000000000000000000000000000000000000000000000000000000000000000000000000000000000000000000000000000000000000000000000000000000000000000000000000000000000000000000000000000000000000000
310
00000000000000000000000000000000000000000000000000000000000000000000000000000000000000000000000000000000000000000000000000000000000000000000000000000000000000000000000000000000000000000000000000000000000000000000000000000000000000000000000000000000000000
310
00000000000000000000000000000000000000000000000000000000000000000000000000000000000000000000000000000000000000000000000000000000000000000000000000000000000000000000000000000000000000000000000000000000000000000000000000000000000000000000000000000000000000
310
00000000000000000000000000000000000000000000000000000000000000000000000000000000000000000000000000000000000000000000000000000000000000000000000000000000000000000000000000000000000000000000000000000000000000000000000000000000000000000000000000000000000000
310
00000000000000000000000000000000000000000000000000000000000000000000000000000000000000000000000000000000000000000000000000000000000000000000000000000000000000000000000000000000000000000000000000000000000000000000000000000000000000000000000000000000000000
310
00000000000000000000000000000000000000000000000000000000000000000000000000000000000000000000000000000000000000000000000000000000000000000000000000000000000000000000000000000000000000000000000000000000000000000000000000000000000000000000000000000000000000
310
00000000000000000000000000000000000000000000000000000000000000000000000000000000000000000000000000000000000000000000000000000000000000000000000000000000000000000000000000000000000000000000000000000000000000000000000000000000000000000000000000000000000000
310
00000000000000000000000000000000000000000000000000000000000000000000000000000000000000000000000000000000000000000000000000000000000000000000000000000000000000000000000000000000000000000000000000000000000000000000000000000000000000000000000000000000000000
310
00000000000000000000000000000000000000000000000000000000000000000000000000000000000000000000000000000000000000000000000000000000000000000000000000000000000000000000000000000000000000000000000000000000000000000000000000000000000000000000000000000000000000
310
00000000000000000000000000000000000000000000000000000000000000000000000000000000000000000000000000000000000000000000000000000000000000000000000000000000000000000000000000000000000000000000000000000000000000000000000000000000000000000000000000000000000000
310
00000000000000000000000000000000000000000000000000000000000000000000000000000000000000000000000000000000000000000000000000000000000000000000000000000000000000000000000000000000000000000000000000000000000000000000000000000000000000000000000000000000000000
310
00000000000000000000000000000000000000000000000000000000000000000000000000000000000000000000000000000000000000000000000000000000000000000000000000000000000000000000000000000000000000000000000000000000000000000000000000000000000000000000000000000000000000
310
00000000000000000000000000000000000000000000000000000000000000000000000000000000000000000000000000000000000000000000000000000000000000000000000000000000000000000000000000000000000000000000000000000000000000000000000000000000000000000000000000000000000000
310
00000000000000000000000000000000000000000000000000000000000000000000000000000000000000000000000000000000000000000000000000000000000000000000000000000000000000000000000000000000000000000000000000000000000000000000000000000000000000000000000000000000000000
310
00000000000000000000000000000000000000000000000000000000000000000000000000000000000000000000000000000000000000000000000000000000000000000000000000000000000000000000000000000000000000000000000000000000000000000000000000000000000000000000000000000000000000
310
00000000000000000000000000000000000000000000000000000000000000000000000000000000000000000000000000000000000000000000000000000000000000000000000000000000000000000000000000000000000000000000000000000000000000000000000000000000000000000000000000000000000000
310
00000000000000000000000000000000000000000000000000000000000000000000000000000000000000000000000000000000000000000000000000000000000000000000000000000000000000000000000000000000000000000000000000000000000000000000000000000000000000000000000000000000000000
310
00000000000000000000000000000000000000000000000000000000000000000000000000000000000000000000000000000000000000000000000000000000000000000000000000000000000000000000000000000000000000000000000000000000000000000000000000000000000000000000000000000000000000
310
00000000000000000000000000000000000000000000000000000000000000000000000000000000000000000000000000000000000000000000000000000000000000000000000000000000000000000000000000000000000000000000000000000000000000000000000000000000000000000000000000000000000000
310
00000000000000000000000000000000000000000000000000000000000000000000000000000000000000000000000000000000000000000000000000000000000000000000000000000000000000000000000000000000000000000000000000000000000000000000000000000000000000000000000000000000000000
310
00000000000000000000000000000000000000000000000000000000000000000000000000000000000000000000000000000000000000000000000000000000000000000000000000000000000000000000000000000000000000000000000000000000000000000000000000000000000000000000000000000000000000
310
00000000000000000000000000000000000000000000000000000000000000000000000000000000000000000000000000000000000000000000000000000000000000000000000000000000000000000000000000000000000000000000000000000000000000000000000000000000000000000000000000000000000000
310
00000000000000000000000000000000000000000000000000000000000000000000000000000000000000000000000000000000000000000000000000000000000000000000000000000000000000000000000000000000000000000000000000000000000000000000000000000000000000000000000000000000000000
310
00000000000000000000000000000000000000000000000000000000000000000000000000000000000000000000000000000000000000000000000000000000000000000000000000000000000000000000000000000000000000000000000000000000000000000000000000000000000000000000000000000000000000
310
00000000000000000000000000000000000000000000000000000000000000000000000000000000000000000000000000000000000000000000000000000000000000000000000000000000000000000000000000000000000000000000000000000000000000000000000000000000000000000000000000000000000000
310
00000000000000000000000000000000000000000000000000000000000000000000000000000000000000000000000000000000000000000000000000000000000000000000000000000000000000000000000000000000000000000000000000000000000000000000000000000000000000000000000000000000000000
310
00000000000000000000000000000000000000000000000000000000000000000000000000000000000000000000000000000000000000000000000000000000000000000000000000000000000000000000000000000000000000000000000000000000000000000000000000000000000000000000000000000000000000
310
00000000000000000000000000000000000000000000000000000000000000000000000000000000000000000000000000000000000000000000000000000000000000000000000000000000000000000000000000000000000000000000000000000000000000000000000000000000000000000000000000000000000000
310
00000000000000000000000000000000000000000000000000000000000000000000000000000000000000000000000000000000000000000000000000000000000000000000000000000000000000000000000000000000000000000000000000000000000000000000000000000000000000000000000000000000000000
310
00000000000000000000000000000000000000000000000000000000000000000000000000000000000000000000000000000000000000000000000000000000000000000000000000000000000000000000000000000000000000000000000000000000000000000000000000000000000000000000000000000000000000
310
00000000000000000000000000000000000000000000000000000000000000000000000000000000000000000000000000000000000000000000000000000000000000000000000000000000000000000000000000000000000000000000000000000000000000000000000000000000000000000000000000000000000000
310
00000000000000000000000000000000000000000000000000000000000000000000000000000000000000000000000000000000000000000000000000000000000000000000000000000000000000000000000000000000000000000000000000000000000000000000000000000000000000000000000000000000000000
310
00000000000000000000000000000000000000000000000000000000000000000000000000000000000000000000000000000000000000000000000000000000000000000000000000000000000000000000000000000000000000000000000000000000000000000000000000000000000000000000000000000000000000
310
00000000000000000000000000000000000000000000000000000000000000000000000000000000000000000000000000000000000000000000000000000000000000000000000000000000000000000000000000000000000000000000000000000000000000000000000000000000000000000000000000000000000000
310
00000000000000000000000000000000000000000000000000000000000000000000000000000000000000000000000000000000000000000000000000000000000000000000000000000000000000000000000000000000000000000000000000000000000000000000000000000000000000000000000000000000000000
310
000000000000000000000000000000000000000000000000000000000000000000000000000000000000000000000000000000000000000000000000000000000000000000000000000000000000000000000000000000
  0
ENDSEC
  0
EOF
