  0
SECTION
  2
HEADER
  9
$ACADVER
  1
AC1015
  9
$ACADMAINTVER
 70
     6
  9
$DWGCODEPAGE
  3
ANSI_932
  9
$INSBASE
 10
0.0
 20
0.0
 30
0.0
  9
$EXTMIN
 10
-1090.960403341876
 20
-53.60993407247406
 30
-0.0000000100000378
  9
$EXTMAX
 10
7724.913638018195
 20
4476.037506019846
 30
0.0000000100006294
  9
$LIMMIN
 10
1483.169657229679
 20
82.53748492606428
  9
$LIMMAX
 10
7660.169657229679
 20
4414.537484926062
  9
$ORTHOMODE
 70
     0
  9
$REGENMODE
 70
     1
  9
$FILLMODE
 70
     1
  9
$QTEXTMODE
 70
     0
  9
$MIRRTEXT
 70
     1
  9
$LTSCALE
 40
0.3
  9
$ATTMODE
 70
     1
  9
$TEXTSIZE
 40
3.0
  9
$TRACEWID
 40
1.0
  9
$TEXTSTYLE
  7
Standard
  9
$CLAYER
  8
1　製品
  9
$CELTYPE
  6
ByLayer
  9
$CECOLOR
 62
   256
  9
$CELTSCALE
 40
1.0
  9
$DISPSILH
 70
     0
  9
$DIMSCALE
 40
1.0
  9
$DIMASZ
 40
45.0
  9
$DIMEXO
 40
22.5
  9
$DIMDLI
 40
150.0
  9
$DIMRND
 40
0.0
  9
$DIMDLE
 40
0.0
  9
$DIMEXE
 40
15.0
  9
$DIMTP
 40
0.0
  9
$DIMTM
 40
0.0
  9
$DIMTXT
 40
45.0
  9
$DIMCEN
 40
22.5
  9
$DIMTSZ
 40
0.0
  9
$DIMTOL
 70
     0
  9
$DIMLIM
 70
     0
  9
$DIMTIH
 70
     0
  9
$DIMTOH
 70
     0
  9
$DIMSE1
 70
     0
  9
$DIMSE2
 70
     0
  9
$DIMTAD
 70
     1
  9
$DIMZIN
 70
     8
  9
$DIMBLK
  1
Open
  9
$DIMASO
 70
     1
  9
$DIMSHO
 70
     1
  9
$DIMPOST
  1

  9
$DIMAPOST
  1

  9
$DIMALT
 70
     0
  9
$DIMALTD
 70
     3
  9
$DIMALTF
 40
0.03937007874016
  9
$DIMLFAC
 40
1.0
  9
$DIMTOFL
 70
     1
  9
$DIMTVP
 40
0.0
  9
$DIMTIX
 70
     0
  9
$DIMSOXD
 70
     0
  9
$DIMSAH
 70
     0
  9
$DIMBLK1
  1

  9
$DIMBLK2
  1

  9
$DIMSTYLE
  2
NEMY-15
  9
$DIMCLRD
 70
     0
  9
$DIMCLRE
 70
     0
  9
$DIMCLRT
 70
     0
  9
$DIMTFAC
 40
1.0
  9
$DIMGAP
 40
15.0
  9
$DIMJUST
 70
     0
  9
$DIMSD1
 70
     0
  9
$DIMSD2
 70
     0
  9
$DIMTOLJ
 70
     0
  9
$DIMTZIN
 70
     8
  9
$DIMALTZ
 70
     0
  9
$DIMALTTZ
 70
     0
  9
$DIMUPT
 70
     0
  9
$DIMDEC
 70
     2
  9
$DIMTDEC
 70
     2
  9
$DIMALTU
 70
     2
  9
$DIMALTTD
 70
     3
  9
$DIMTXSTY
  7
Standard
  9
$DIMAUNIT
 70
     0
  9
$DIMADEC
 70
     0
  9
$DIMALTRND
 40
0.0
  9
$DIMAZIN
 70
     0
  9
$DIMDSEP
 70
    46
  9
$DIMATFIT
 70
     3
  9
$DIMFRAC
 70
     0
  9
$DIMLDRBLK
  1
Open
  9
$DIMLUNIT
 70
     2
  9
$DIMLWD
 70
    -2
  9
$DIMLWE
 70
    -2
  9
$DIMTMOVE
 70
     0
  9
$LUNITS
 70
     2
  9
$LUPREC
 70
     4
  9
$SKETCHINC
 40
1.0
  9
$FILLETRAD
 40
0.0
  9
$AUNITS
 70
     0
  9
$AUPREC
 70
     0
  9
$MENU
  1
.
  9
$ELEVATION
 40
0.0
  9
$PELEVATION
 40
0.0
  9
$THICKNESS
 40
0.0
  9
$LIMCHECK
 70
     0
  9
$CHAMFERA
 40
10.0
  9
$CHAMFERB
 40
10.0
  9
$CHAMFERC
 40
20.0
  9
$CHAMFERD
 40
0.0
  9
$SKPOLY
 70
     0
  9
$TDCREATE
 40
2454740.593452685
  9
$TDUCREATE
 40
2454740.218452685
  9
$TDUPDATE
 40
2456636.971641597
  9
$TDUUPDATE
 40
2456636.596641597
  9
$TDINDWG
 40
0.8314565509
  9
$TDUSRTIMER
 40
2456636.596327257
  9
$USRTIMER
 70
     1
  9
$ANGBASE
 50
0.0
  9
$ANGDIR
 70
     0
  9
$PDMODE
 70
     0
  9
$PDSIZE
 40
0.0
  9
$PLINEWID
 40
0.0
  9
$SPLFRAME
 70
     0
  9
$SPLINETYPE
 70
     6
  9
$SPLINESEGS
 70
     8
  9
$HANDSEED
  5
3C41
  9
$SURFTAB1
 70
     6
  9
$SURFTAB2
 70
     6
  9
$SURFTYPE
 70
     6
  9
$SURFU
 70
     6
  9
$SURFV
 70
     6
  9
$UCSBASE
  2

  9
$UCSNAME
  2

  9
$UCSORG
 10
0.0
 20
0.0
 30
0.0
  9
$UCSXDIR
 10
1.0
 20
0.0
 30
0.0
  9
$UCSYDIR
 10
0.0
 20
1.0
 30
0.0
  9
$UCSORTHOREF
  2

  9
$UCSORTHOVIEW
 70
     0
  9
$UCSORGTOP
 10
0.0
 20
0.0
 30
0.0
  9
$UCSORGBOTTOM
 10
0.0
 20
0.0
 30
0.0
  9
$UCSORGLEFT
 10
0.0
 20
0.0
 30
0.0
  9
$UCSORGRIGHT
 10
0.0
 20
0.0
 30
0.0
  9
$UCSORGFRONT
 10
0.0
 20
0.0
 30
0.0
  9
$UCSORGBACK
 10
0.0
 20
0.0
 30
0.0
  9
$PUCSBASE
  2

  9
$PUCSNAME
  2

  9
$PUCSORG
 10
0.0
 20
0.0
 30
0.0
  9
$PUCSXDIR
 10
1.0
 20
0.0
 30
0.0
  9
$PUCSYDIR
 10
0.0
 20
1.0
 30
0.0
  9
$PUCSORTHOREF
  2

  9
$PUCSORTHOVIEW
 70
     0
  9
$PUCSORGTOP
 10
0.0
 20
0.0
 30
0.0
  9
$PUCSORGBOTTOM
 10
0.0
 20
0.0
 30
0.0
  9
$PUCSORGLEFT
 10
0.0
 20
0.0
 30
0.0
  9
$PUCSORGRIGHT
 10
0.0
 20
0.0
 30
0.0
  9
$PUCSORGFRONT
 10
0.0
 20
0.0
 30
0.0
  9
$PUCSORGBACK
 10
0.0
 20
0.0
 30
0.0
  9
$USERI1
 70
     0
  9
$USERI2
 70
     0
  9
$USERI3
 70
     0
  9
$USERI4
 70
     0
  9
$USERI5
 70
     0
  9
$USERR1
 40
0.0
  9
$USERR2
 40
0.0
  9
$USERR3
 40
0.0
  9
$USERR4
 40
0.0
  9
$USERR5
 40
0.0
  9
$WORLDVIEW
 70
     1
  9
$SHADEDGE
 70
     3
  9
$SHADEDIF
 70
    70
  9
$TILEMODE
 70
     1
  9
$MAXACTVP
 70
    64
  9
$PINSBASE
 10
0.0
 20
0.0
 30
0.0
  9
$PLIMCHECK
 70
     0
  9
$PEXTMIN
 10
1.000000000000000E+20
 20
1.000000000000000E+20
 30
1.000000000000000E+20
  9
$PEXTMAX
 10
-1.000000000000000E+20
 20
-1.000000000000000E+20
 30
-1.000000000000000E+20
  9
$PLIMMIN
 10
0.0
 20
0.0
  9
$PLIMMAX
 10
420.0
 20
297.0
  9
$UNITMODE
 70
     0
  9
$VISRETAIN
 70
     1
  9
$PLINEGEN
 70
     0
  9
$PSLTSCALE
 70
     1
  9
$TREEDEPTH
 70
  3020
  9
$CMLSTYLE
  2
Standard
  9
$CMLJUST
 70
     0
  9
$CMLSCALE
 40
20.0
  9
$PROXYGRAPHICS
 70
     1
  9
$MEASUREMENT
 70
     1
  9
$CELWEIGHT
370
    -1
  9
$ENDCAPS
280
     0
  9
$JOINSTYLE
280
     0
  9
$LWDISPLAY
290
     0
  9
$INSUNITS
 70
     4
  9
$HYPERLINKBASE
  1

  9
$STYLESHEET
  1
monochrome.ctb
  9
$XEDIT
290
     1
  9
$CEPSNTYPE
380
     0
  9
$PSTYLEMODE
290
     1
  9
$FINGERPRINTGUID
  2
{FDEAD578-A652-11D2-9A35-0060089B3A3F}
  9
$VERSIONGUID
  2
{BB6E3AD6-EC91-4137-8833-66A2C88C7E55}
  9
$EXTNAMES
290
     1
  9
$PSVPSCALE
 40
0.0
  9
$OLESTARTUP
290
     0
  0
ENDSEC
  0
SECTION
  2
CLASSES
  0
CLASS
  1
ACDBDICTIONARYWDFLT
  2
AcDbDictionaryWithDefault
  3
ObjectDBX Classes
 90
        0
280
     0
281
     0
  0
CLASS
  1
ACDBPLACEHOLDER
  2
AcDbPlaceHolder
  3
ObjectDBX Classes
 90
        0
280
     0
281
     0
  0
CLASS
  1
LAYOUT
  2
AcDbLayout
  3
ObjectDBX Classes
 90
        0
280
     0
281
     0
  0
CLASS
  1
DICTIONARYVAR
  2
AcDbDictionaryVar
  3
ObjectDBX Classes
 90
        0
280
     0
281
     0
  0
CLASS
  1
MATERIAL
  2
AcDbMaterial
  3
ObjectDBX Classes
 90
     1153
280
     0
281
     0
  0
CLASS
  1
VISUALSTYLE
  2
AcDbVisualStyle
  3
ObjectDBX Classes
 90
     4095
280
     0
281
     0
  0
CLASS
  1
TABLESTYLE
  2
AcDbTableStyle
  3
ObjectDBX Classes
 90
     4095
280
     0
281
     0
  0
CLASS
  1
SCALE
  2
AcDbScale
  3
ObjectDBX Classes
 90
     1153
280
     0
281
     0
  0
CLASS
  1
MLEADERSTYLE
  2
AcDbMLeaderStyle
  3
ACDB_MLEADERSTYLE_CLASS
 90
     4095
280
     0
281
     0
  0
CLASS
  1
CELLSTYLEMAP
  2
AcDbCellStyleMap
  3
ObjectDBX Classes
 90
     1152
280
     0
281
     0
  0
CLASS
  1
RASTERVARIABLES
  2
AcDbRasterVariables
  3
ISM
 90
        0
280
     0
281
     0
  0
ENDSEC
  0
SECTION
  2
TABLES
  0
TABLE
  2
VPORT
  5
8
330
0
100
AcDbSymbolTable
 70
     3
  0
VPORT
  5
3C3C
330
8
100
AcDbSymbolTableRecord
100
AcDbViewportTableRecord
  2
*Active
 70
     0
 10
0.0
 20
0.0
 11
1.0
 21
1.0
 12
3761.230951617201
 22
2616.681966528618
 13
0.0
 23
0.0
 14
10.0
 24
10.0
 15
10.0
 25
10.0
 16
0.0
 26
0.0
 36
1.0
 17
0.0
 27
0.0
 37
0.0
 40
3480.320784662234
 41
2.038934426229508
 42
50.0
 43
0.0
 44
0.0
 50
0.0
 51
0.0
 71
    16
 72
   100
 73
     1
 74
     2
 75
     0
 76
     0
 77
     0
 78
     0
281
     0
 65
     1
110
0.0
120
0.0
130
0.0
111
1.0
121
0.0
131
0.0
112
0.0
122
1.0
132
0.0
 79
     0
146
0.0
  0
ENDTAB
  0
TABLE
  2
LTYPE
  5
5
330
0
100
AcDbSymbolTable
 70
     8
  0
LTYPE
  5
14
330
5
100
AcDbSymbolTableRecord
100
AcDbLinetypeTableRecord
  2
ByBlock
 70
     0
  3

 72
    65
 73
     0
 40
0.0
  0
LTYPE
  5
15
330
5
100
AcDbSymbolTableRecord
100
AcDbLinetypeTableRecord
  2
ByLayer
 70
     0
  3

 72
    65
 73
     0
 40
0.0
  0
LTYPE
  5
16
330
5
100
AcDbSymbolTableRecord
100
AcDbLinetypeTableRecord
  2
Continuous
 70
     0
  3
Solid line
 72
    65
 73
     0
 40
0.0
  0
LTYPE
  5
BA
330
5
100
AcDbSymbolTableRecord
100
AcDbLinetypeTableRecord
  2
HIDDEN
 70
     0
  3
Hidden __ __ __ __ __ __ __ __ __ __ __ __ __ _
 72
    65
 73
     2
 40
9.524999999999999
 49
6.35
 74
     0
 49
-3.175
 74
     0
  0
LTYPE
  5
BB
330
5
100
AcDbSymbolTableRecord
100
AcDbLinetypeTableRecord
  2
PHANTOM
 70
     0
  3
Phantom ______  __  __  ______  __  __  ______
 72
    65
 73
     6
 40
63.5
 49
31.75
 74
     0
 49
-6.35
 74
     0
 49
6.35
 74
     0
 49
-6.35
 74
     0
 49
6.35
 74
     0
 49
-6.35
 74
     0
  0
LTYPE
  5
BC
330
5
100
AcDbSymbolTableRecord
100
AcDbLinetypeTableRecord
  2
CENTER
 70
     0
  3
Center ____ _ ____ _ ____ _ ____ _ ____ _ ____
 72
    65
 73
     4
 40
50.8
 49
31.75
 74
     0
 49
-6.35
 74
     0
 49
6.35
 74
     0
 49
-6.35
 74
     0
  0
LTYPE
  5
47C
330
5
100
AcDbSymbolTableRecord
100
AcDbLinetypeTableRecord
  2
DOT
 70
     0
  3
Dot . . . . . . . . . . . . . . . . . . . . . .
 72
    65
 73
     2
 40
6.35
 49
0.0
 74
     0
 49
-6.35
 74
     0
  0
LTYPE
  5
F11
330
5
100
AcDbSymbolTableRecord
100
AcDbLinetypeTableRecord
  2
HIDDEN2
 70
     0
  3
Hidden (.5x) _ _ _ _ _ _ _ _ _ _ _ _ _ _ _ _ _
 72
    65
 73
     2
 40
0.1875
 49
0.125
 74
     0
 49
-0.0625
 74
     0
  0
LTYPE
  5
F12
330
5
100
AcDbSymbolTableRecord
100
AcDbLinetypeTableRecord
  2
CENTER2
 70
     0
  3
Center (.5x) ___ _ ___ _ ___ _ ___ _ ___ _ ___
 72
    65
 73
     4
 40
28.575
 49
19.05
 74
     0
 49
-3.175
 74
     0
 49
3.175
 74
     0
 49
-3.175
 74
     0
  0
LTYPE
  5
2B45
330
5
100
AcDbSymbolTableRecord
100
AcDbLinetypeTableRecord
  2
DASHED
 70
     0
  3
__ __ __ __ __ __ __ __ __ __ __ __ __ __ __
 72
    65
 73
     2
 40
0.75
 49
0.5
 74
     0
 49
-0.25
 74
     0
  0
ENDTAB
  0
TABLE
  2
LAYER
  5
2
102
{ACAD_XDICTIONARY
360
39C7
102
}
330
0
100
AcDbSymbolTable
 70
    12
  0
LAYER
  5
10
102
{ACAD_XDICTIONARY
360
39AE
102
}
330
2
100
AcDbSymbolTableRecord
100
AcDbLayerTableRecord
  2
0
 70
     0
 62
     7
  6
Continuous
370
    -3
390
F
  0
LAYER
  5
44
102
{ACAD_XDICTIONARY
360
39B0
102
}
330
2
100
AcDbSymbolTableRecord
100
AcDbLayerTableRecord
  2
1　製品
 70
     0
 62
     2
  6
Continuous
370
    15
390
F
  0
LAYER
  5
45
102
{ACAD_XDICTIONARY
360
39B2
102
}
330
2
100
AcDbSymbolTableRecord
100
AcDbLayerTableRecord
  2
2　寸法
 70
     0
 62
     7
  6
Continuous
370
     9
390
F
  0
LAYER
  5
46
102
{ACAD_XDICTIONARY
360
39B4
102
}
330
2
100
AcDbSymbolTableRecord
100
AcDbLayerTableRecord
  2
4　注記
 70
     0
 62
     7
  6
Continuous
370
     9
390
F
  0
LAYER
  5
47
102
{ACAD_XDICTIONARY
360
39B6
102
}
330
2
100
AcDbSymbolTableRecord
100
AcDbLayerTableRecord
  2
3　補助線
 70
     0
 62
     3
  6
Continuous
290
     0
370
     9
390
F
  0
LAYER
  5
48
102
{ACAD_XDICTIONARY
360
39B8
102
}
330
2
100
AcDbSymbolTableRecord
100
AcDbLayerTableRecord
  2
5　図枠
 70
     0
 62
     1
  6
Continuous
370
    30
390
F
  0
LAYER
  5
49
102
{ACAD_XDICTIONARY
360
39BA
102
}
330
2
100
AcDbSymbolTableRecord
100
AcDbLayerTableRecord
  2
6　その他（細）
 70
     0
 62
     6
  6
Continuous
370
     9
390
F
  0
LAYER
  5
59
102
{ACAD_XDICTIONARY
360
39BC
102
}
330
2
100
AcDbSymbolTableRecord
100
AcDbLayerTableRecord
  2
8　用紙
 70
     0
 62
     4
  6
Continuous
290
     0
370
     5
390
F
  0
LAYER
  5
5F
330
2
100
AcDbSymbolTableRecord
100
AcDbLayerTableRecord
  2
Defpoints
 70
     0
 62
     7
  6
Continuous
290
     0
370
    -3
390
F
  0
LAYER
  5
553
102
{ACAD_XDICTIONARY
360
39BE
102
}
330
2
100
AcDbSymbolTableRecord
100
AcDbLayerTableRecord
  2
7　その他（太）
 70
     0
 62
     5
  6
Continuous
370
    15
390
F
  0
LAYER
  5
F13
102
{ACAD_XDICTIONARY
360
39C0
102
}
330
2
100
AcDbSymbolTableRecord
100
AcDbLayerTableRecord
  2
SS400
 70
     0
 62
     7
  6
Continuous
370
    -3
390
F
  0
LAYER
  5
F14
102
{ACAD_XDICTIONARY
360
39C2
102
}
330
2
100
AcDbSymbolTableRecord
100
AcDbLayerTableRecord
  2
注記
 70
     0
 62
     7
  6
Continuous
290
     0
370
    -3
390
F
  0
ENDTAB
  0
TABLE
  2
STYLE
  5
3
330
0
100
AcDbSymbolTable
 70
     4
  0
STYLE
  5
11
330
3
100
AcDbSymbolTableRecord
100
AcDbTextStyleTableRecord
  2
Standard
 70
     0
 40
0.0
 41
1.0
 50
0.0
 71
     0
 42
3.0
  3
msgothic.ttc
  4

1001
ACAD
1000
MS Gothic
1071
    32817
  0
STYLE
  5
47B
330
3
100
AcDbSymbolTableRecord
100
AcDbTextStyleTableRecord
  2

 70
     1
 40
0.0
 41
1.0
 50
0.0
 71
     0
 42
3.0
  3
ltypeshp.shx
  4

  0
STYLE
  5
F15
330
3
100
AcDbSymbolTableRecord
100
AcDbTextStyleTableRecord
  2
STYLE1
 70
     0
 40
0.0
 41
0.9
 50
0.0
 71
     0
 42
39.375
  3
TXT.shx
  4
extfont.shx
  0
STYLE
  5
2B46
330
3
100
AcDbSymbolTableRecord
100
AcDbTextStyleTableRecord
  2
Standard-tate
 70
     0
 40
0.0
 41
1.0
 50
0.0
 71
     0
 42
3.0
  3
msgothic.ttc
  4

1001
ACAD
1000
@MS PGothic
1071
    32818
  0
ENDTAB
  0
TABLE
  2
VIEW
  5
6
330
0
100
AcDbSymbolTable
 70
     0
  0
ENDTAB
  0
TABLE
  2
UCS
  5
7
330
0
100
AcDbSymbolTable
 70
     0
  0
ENDTAB
  0
TABLE
  2
APPID
  5
9
330
0
100
AcDbSymbolTable
 70
     4
  0
APPID
  5
12
330
9
100
AcDbSymbolTableRecord
100
AcDbRegAppTableRecord
  2
ACAD
 70
     0
  0
APPID
  5
F19
330
9
100
AcDbSymbolTableRecord
100
AcDbRegAppTableRecord
  2
ACAD_PSEXT
 70
     0
  0
APPID
  5
33FD
330
9
100
AcDbSymbolTableRecord
100
AcDbRegAppTableRecord
  2
ACAD_EXEMPT_FROM_CAD_STANDARDS
 70
     0
  0
APPID
  5
3AC6
330
9
100
AcDbSymbolTableRecord
100
AcDbRegAppTableRecord
  2
ACAD_MLEADERVER
 70
     0
  0
ENDTAB
  0
TABLE
  2
DIMSTYLE
  5
A
330
0
100
AcDbSymbolTable
 70
    15
100
AcDbDimStyleTable
  0
DIMSTYLE
105
73
330
A
100
AcDbSymbolTableRecord
100
AcDbDimStyleTableRecord
  2
NEMY-1
 70
     0
 41
3.0
 42
1.5
 43
10.0
 44
1.0
 73
     0
 74
     0
 77
     1
 78
     8
140
3.0
141
1.5
143
0.03937007874016
147
1.0
171
     3
172
     1
178
     0
271
     2
272
     2
274
     3
283
     0
284
     8
340
11
341
8F
342
8F
  0
DIMSTYLE
105
405
330
A
100
AcDbSymbolTableRecord
100
AcDbDimStyleTableRecord
  2
NEMY-5
 70
     0
 40
5.0
 41
3.0
 42
1.5
 43
10.0
 44
1.0
 73
     0
 74
     0
 77
     1
 78
     8
140
3.0
141
1.5
143
0.03937007874016
147
1.0
171
     3
172
     1
178
     0
271
     2
272
     2
274
     3
283
     0
284
     8
340
11
341
8F
342
8F
  0
DIMSTYLE
105
66E
330
A
100
AcDbSymbolTableRecord
100
AcDbDimStyleTableRecord
  2
NEMY-10
 70
     0
 40
10.0
 41
3.0
 42
1.5
 43
10.0
 44
1.0
 73
     0
 74
     0
 77
     1
 78
     8
140
3.0
141
1.5
143
0.03937007874016
147
1.0
171
     3
172
     1
178
     0
271
     2
272
     2
274
     3
283
     0
284
     8
340
11
341
8F
342
8F
  0
DIMSTYLE
105
BB5
330
A
100
AcDbSymbolTableRecord
100
AcDbDimStyleTableRecord
  2
NEMY-8
 70
     0
 41
24.0
 42
12.0
 43
80.0
 44
8.0
 73
     0
 74
     0
 77
     1
 78
     8
140
24.0
141
12.0
143
0.03937007874016
147
8.0
171
     3
172
     1
178
     0
271
     2
272
     2
274
     3
283
     0
284
     8
340
11
341
8F
342
8F
  0
DIMSTYLE
105
BF3
330
A
100
AcDbSymbolTableRecord
100
AcDbDimStyleTableRecord
  2
NEMY-20
 70
     0
 41
60.0
 42
30.0
 43
200.0
 44
20.0
 73
     0
 74
     0
 77
     1
 78
     8
140
60.0
141
30.0
143
0.03937007874016
147
20.0
171
     3
172
     1
178
     0
271
     2
272
     2
274
     3
283
     0
284
     8
340
11
341
8F
342
8F
  0
DIMSTYLE
105
D9B
330
A
100
AcDbSymbolTableRecord
100
AcDbDimStyleTableRecord
  2
NEMY-100
 70
     0
 41
300.0
 42
150.0
 43
1000.0
 44
100.0
 73
     0
 74
     0
 77
     1
 78
     8
140
300.0
141
150.0
143
0.03937007874016
147
100.0
171
     3
172
     1
178
     0
271
     2
272
     2
274
     3
283
     0
284
     8
340
11
341
8F
342
8F
  0
DIMSTYLE
105
D9C
330
A
100
AcDbSymbolTableRecord
100
AcDbDimStyleTableRecord
  2
NEMY-15
 70
     0
 41
45.0
 42
22.5
 43
150.0
 44
15.0
 73
     0
 74
     0
 77
     1
 78
     8
140
45.0
141
22.5
143
0.03937007874016
147
15.0
171
     3
172
     1
178
     0
271
     2
272
     2
274
     3
283
     0
284
     8
340
11
341
8F
342
8F
  0
DIMSTYLE
105
D9D
330
A
100
AcDbSymbolTableRecord
100
AcDbDimStyleTableRecord
  2
NEMY-2
 70
     0
 41
6.0
 42
3.0
 43
20.0
 44
2.0
 73
     0
 74
     0
 77
     1
 78
     8
140
6.0
141
3.0
143
0.03937007874016
147
2.0
171
     3
172
     1
174
     1
178
     0
271
     2
272
     2
274
     3
283
     0
284
     8
340
11
341
8F
342
8F
  0
DIMSTYLE
105
D9E
330
A
100
AcDbSymbolTableRecord
100
AcDbDimStyleTableRecord
  2
NEMY-25
 70
     0
 41
75.0
 42
37.5
 43
250.0
 44
25.0
 73
     0
 74
     0
 77
     1
 78
     8
140
75.0
141
37.5
143
0.03937007874016
147
25.0
171
     3
172
     1
178
     0
271
     2
272
     2
274
     3
283
     0
284
     8
340
11
341
8F
342
8F
  0
DIMSTYLE
105
D9F
330
A
100
AcDbSymbolTableRecord
100
AcDbDimStyleTableRecord
  2
NEMY-3
 70
     0
 41
9.0
 42
4.5
 43
30.0
 44
4.0
 73
     0
 74
     0
 77
     1
 78
     8
140
9.0
141
4.5
143
0.03937007874016
147
3.0
171
     3
172
     1
174
     1
178
     0
271
     2
272
     2
274
     3
283
     0
284
     8
340
11
341
8F
342
8F
  0
DIMSTYLE
105
DA0
330
A
100
AcDbSymbolTableRecord
100
AcDbDimStyleTableRecord
  2
NEMY-30
 70
     0
 41
90.0
 42
45.0
 43
300.0
 44
30.0
 73
     0
 74
     0
 77
     1
 78
     8
140
90.0
141
45.0
143
0.03937007874016
147
30.0
171
     3
172
     1
178
     0
271
     2
272
     2
274
     3
283
     0
284
     8
340
11
341
8F
342
8F
  0
DIMSTYLE
105
DA1
330
A
100
AcDbSymbolTableRecord
100
AcDbDimStyleTableRecord
  2
NEMY-50
 70
     0
 41
150.0
 42
75.0
 43
500.0
 44
50.0
 73
     0
 74
     0
 77
     1
 78
     8
140
150.0
141
75.0
143
0.03937007874016
147
50.0
171
     3
172
     1
178
     0
271
     2
272
     2
274
     3
283
     0
284
     8
340
11
341
8F
342
8F
  0
DIMSTYLE
105
F16
330
A
100
AcDbSymbolTableRecord
100
AcDbDimStyleTableRecord
  2
STANDARD-WS-15
 70
     0
 40
11.25
 41
2.5
 42
2.0
 43
3.75
 44
1.25
 73
     0
 74
     0
 77
     1
 78
     8
140
3.75
141
2.0
143
0.0394
147
1.5
171
     4
172
     1
173
     1
176
     7
177
     7
271
     2
178
   256
271
     2
272
     2
273
     8
274
     4
284
     8
340
F15
341
643
343
8F
344
8F
  0
DIMSTYLE
105
F17
330
A
100
AcDbSymbolTableRecord
100
AcDbDimStyleTableRecord
  2
STANDARD-WS-20
 70
     0
 40
15.0
 41
2.5
 42
2.0
 43
3.75
 44
1.25
 73
     0
 74
     0
 77
     1
 78
     8
140
3.75
141
2.0
143
0.0394
147
1.5
171
     4
172
     1
173
     1
176
     7
177
     7
271
     2
178
   256
271
     2
272
     2
273
     8
274
     4
284
     8
340
F15
341
643
343
8F
344
8F
  0
DIMSTYLE
105
F18
330
A
100
AcDbSymbolTableRecord
100
AcDbDimStyleTableRecord
  2
STANDARD-WS-20黒丸1
 70
     0
 40
14.0
 41
2.5
 42
2.0
 43
3.75
 44
1.25
 73
     0
 74
     0
 77
     1
 78
     8
140
3.75
141
2.5
147
1.5
172
     1
176
   256
177
   256
271
     1
178
   256
271
     1
272
     1
284
     8
340
F15
341
8F
342
8F
343
8F
344
626
  0
ENDTAB
  0
TABLE
  2
BLOCK_RECORD
  5
1
330
0
100
AcDbSymbolTable
 70
    24
  0
BLOCK_RECORD
  5
1F
330
1
100
AcDbSymbolTableRecord
100
AcDbBlockTableRecord
  2
*Model_Space
340
22
  0
BLOCK_RECORD
  5
1B
330
1
100
AcDbSymbolTableRecord
100
AcDbBlockTableRecord
  2
*Paper_Space
340
1E
  0
BLOCK_RECORD
  5
23
330
1
100
AcDbSymbolTableRecord
100
AcDbBlockTableRecord
  2
*Paper_Space0
340
26
  0
BLOCK_RECORD
  5
8F
330
1
100
AcDbSymbolTableRecord
100
AcDbBlockTableRecord
  2
_Open
340
0
102
{BLKREFS
331
3AEC
331
3AED
331
3AF5
331
3AF6
331
3B00
331
3B01
331
3B09
331
3B0A
331
3B12
331
3B13
331
3B1D
331
3B1E
331
3B2C
331
3B2D
331
3B34
331
3B35
331
3B3D
331
3B3E
331
3B48
331
3B49
331
3B51
331
3B52
331
3B5A
331
3B5B
331
3B65
331
3B66
331
3B6E
331
3B6F
331
3B7D
331
3B7E
331
3B87
331
3B88
331
3B90
331
3B91
331
3B9B
331
3B9C
102
}
  0
BLOCK_RECORD
  5
626
330
1
100
AcDbSymbolTableRecord
100
AcDbBlockTableRecord
  2
_DotSmall
340
0
  0
BLOCK_RECORD
  5
643
330
1
100
AcDbSymbolTableRecord
100
AcDbBlockTableRecord
  2
_None
340
0
  0
BLOCK_RECORD
  5
BCD
330
1
100
AcDbSymbolTableRecord
100
AcDbBlockTableRecord
  2
矢印
340
0
310
2800000020000000200000000100080000000000000400000000000000000000000000000000000000000000000080000080000000808000800000008000800080800000C0C0C000C0DCC000F0CAA6000020400000206000002080000020A0000020C0000020E00000400000004020000040400000406000004080000040A0
310
000040C0000040E00000600000006020000060400000606000006080000060A0000060C0000060E00000800000008020000080400000806000008080000080A0000080C0000080E00000A0000000A0200000A0400000A0600000A0800000A0A00000A0C00000A0E00000C0000000C0200000C0400000C0600000C0800000C0
310
A00000C0C00000C0E00000E0000000E0200000E0400000E0600000E0800000E0A00000E0C00000E0E00040000000400020004000400040006000400080004000A0004000C0004000E00040200000402020004020400040206000402080004020A0004020C0004020E000404000004040200040404000404060004040800040
310
40A0004040C0004040E00040600000406020004060400040606000406080004060A0004060C0004060E00040800000408020004080400040806000408080004080A0004080C0004080E00040A0000040A0200040A0400040A0600040A0800040A0A00040A0C00040A0E00040C0000040C0200040C0400040C0600040C08000
310
40C0A00040C0C00040C0E00040E0000040E0200040E0400040E0600040E0800040E0A00040E0C00040E0E00080000000800020008000400080006000800080008000A0008000C0008000E00080200000802020008020400080206000802080008020A0008020C0008020E00080400000804020008040400080406000804080
310
008040A0008040C0008040E00080600000806020008060400080606000806080008060A0008060C0008060E00080800000808020008080400080806000808080008080A0008080C0008080E00080A0000080A0200080A0400080A0600080A0800080A0A00080A0C00080A0E00080C0000080C0200080C0400080C0600080C0
310
800080C0A00080C0C00080C0E00080E0000080E0200080E0400080E0600080E0800080E0A00080E0C00080E0E000C0000000C0002000C0004000C0006000C0008000C000A000C000C000C000E000C0200000C0202000C0204000C0206000C0208000C020A000C020C000C020E000C0400000C0402000C0404000C0406000C0
310
408000C040A000C040C000C040E000C0600000C0602000C0604000C0606000C0608000C060A000C060C000C060E000C0800000C0802000C0804000C0806000C0808000C080A000C080C000C080E000C0A00000C0A02000C0A04000C0A06000C0A08000C0A0A000C0A0C000C0A0E000C0C00000C0C02000C0C04000C0C06000
310
C0C08000C0C0A000F0FBFF00A4A0A000808080000000FF0000FF000000FFFF00FF000000FF00FF00FFFF0000FFFFFF0000000000000000000000000000000000000000000000000000000000000000000000000000000000000000000000000000000000000000000000000000000000000000000000000000000000000000
310
00000000000000000000000000000000000000000000000000000000000000000000000000000000000000000000000000000000000000000000000000000000000000000000000000000000000000000000000000000000000000000000000000000000000000000000000000000000000000000000000000000000000000
310
000000000000000000000000000000000000000000000000000000000000000000000000000000000000000000000000000000000000000000000000000000000000000000000000000000000000000000000000000000000000000000000000000000000000000000000000000000000000000000000000000000000000FD
310
FD00000000000000000000000000000000000000000000000000000000FDFD00FD0000000000000000000000000000000000000000000000000000FDFD000000FD0000000000000000000000000000000000000000000000FDFDFD0000000000FDFDFDFDFDFDFDFDFDFDFDFDFDFDFDFDFDFD00000000FDFD00000000000000
310
000000000000000000000000000000000000FD0000FDFD000000000000000000000000000000000000000000000000000000FD000000FDFD0000000000000000000000000000000000000000000000000000FD0000000000FDFD000000000000000000000000000000000000000000000000FD00000000000000FDFD000000
310
0000FDFDFDFDFDFDFDFDFDFDFDFDFDFDFDFDFDFD000000000000000000FDFD000000FD00000000000000000000000000000000000000000000000000000000FDFD00FD000000000000000000000000000000000000000000000000000000000000FDFD00000000000000000000000000000000000000000000000000000000
310
00000000000000000000000000000000000000000000000000000000000000000000000000000000000000000000000000000000000000000000000000000000000000000000000000000000000000000000000000000000000000000000000000000000000000000000000000000000000000000000000000000000000000
310
00000000000000000000000000000000000000000000000000000000000000000000000000000000000000000000000000000000000000000000000000000000000000000000000000000000000000000000000000000000000000000000000000000000000000000000000000000000000000000000000000000000000000
310
0000000000000000000000000000000000000000000000000000000000000000000000000000000000000000000000000000000000000000
1001
ACAD
1000
DesignCenter Data
1002
{
1070
     1
1070
     4
1002
}
  0
BLOCK_RECORD
  5
2A08
330
1
100
AcDbSymbolTableRecord
100
AcDbBlockTableRecord
  2
A$C39B974CC
340
0
  0
BLOCK_RECORD
  5
3808
330
1
100
AcDbSymbolTableRecord
100
AcDbBlockTableRecord
  2
*D6
340
0
  0
BLOCK_RECORD
  5
3816
330
1
100
AcDbSymbolTableRecord
100
AcDbBlockTableRecord
  2
*D7
340
0
  0
BLOCK_RECORD
  5
3822
330
1
100
AcDbSymbolTableRecord
100
AcDbBlockTableRecord
  2
*D8
340
0
  0
BLOCK_RECORD
  5
3830
330
1
100
AcDbSymbolTableRecord
100
AcDbBlockTableRecord
  2
*D9
340
0
  0
BLOCK_RECORD
  5
3841
330
1
100
AcDbSymbolTableRecord
100
AcDbBlockTableRecord
  2
*D10
340
0
  0
BLOCK_RECORD
  5
384D
330
1
100
AcDbSymbolTableRecord
100
AcDbBlockTableRecord
  2
*D11
340
0
  0
BLOCK_RECORD
  5
385B
330
1
100
AcDbSymbolTableRecord
100
AcDbBlockTableRecord
  2
*D12
340
0
  0
BLOCK_RECORD
  5
3867
330
1
100
AcDbSymbolTableRecord
100
AcDbBlockTableRecord
  2
*D13
340
0
  0
BLOCK_RECORD
  5
3873
330
1
100
AcDbSymbolTableRecord
100
AcDbBlockTableRecord
  2
*D14
340
0
  0
BLOCK_RECORD
  5
3881
330
1
100
AcDbSymbolTableRecord
100
AcDbBlockTableRecord
  2
*D15
340
0
  0
BLOCK_RECORD
  5
388D
330
1
100
AcDbSymbolTableRecord
100
AcDbBlockTableRecord
  2
*D16
340
0
  0
BLOCK_RECORD
  5
3899
330
1
100
AcDbSymbolTableRecord
100
AcDbBlockTableRecord
  2
*D17
340
0
  0
BLOCK_RECORD
  5
38AA
330
1
100
AcDbSymbolTableRecord
100
AcDbBlockTableRecord
  2
*D18
340
0
  0
BLOCK_RECORD
  5
38B8
330
1
100
AcDbSymbolTableRecord
100
AcDbBlockTableRecord
  2
*D19
340
0
  0
BLOCK_RECORD
  5
38C4
330
1
100
AcDbSymbolTableRecord
100
AcDbBlockTableRecord
  2
*D20
340
0
  0
BLOCK_RECORD
  5
38D0
330
1
100
AcDbSymbolTableRecord
100
AcDbBlockTableRecord
  2
*D21
340
0
  0
BLOCK_RECORD
  5
38DE
330
1
100
AcDbSymbolTableRecord
100
AcDbBlockTableRecord
  2
*D22
340
0
  0
BLOCK_RECORD
  5
38EA
330
1
100
AcDbSymbolTableRecord
100
AcDbBlockTableRecord
  2
*D23
340
0
  0
ENDTAB
  0
ENDSEC
  0
SECTION
  2
BLOCKS
  0
BLOCK
  5
20
330
1F
100
AcDbEntity
  8
0
100
AcDbBlockBegin
  2
*Model_Space
 70
     0
 10
0.0
 20
0.0
 30
0.0
  3
*Model_Space
  1

  0
ENDBLK
  5
21
330
1F
100
AcDbEntity
  8
0
100
AcDbBlockEnd
  0
BLOCK
  5
1C
330
1B
100
AcDbEntity
 67
     1
  8
0
100
AcDbBlockBegin
  2
*Paper_Space
 70
     0
 10
0.0
 20
0.0
 30
0.0
  3
*Paper_Space
  1

  0
ENDBLK
  5
1D
330
1B
100
AcDbEntity
 67
     1
  8
0
100
AcDbBlockEnd
  0
BLOCK
  5
24
330
23
100
AcDbEntity
  8
0
100
AcDbBlockBegin
  2
*Paper_Space0
 70
     0
 10
0.0
 20
0.0
 30
0.0
  3
*Paper_Space0
  1

  0
ENDBLK
  5
25
330
23
100
AcDbEntity
  8
0
100
AcDbBlockEnd
  0
BLOCK
  5
93
330
8F
100
AcDbEntity
  8
0
100
AcDbBlockBegin
  2
_Open
 70
     0
 10
0.0
 20
0.0
 30
0.0
  3
_Open
  1

  0
LINE
  5
90
330
8F
100
AcDbEntity
  8
2　寸法
 62
     0
370
    -2
100
AcDbLine
 10
-1.0
 20
0.1666666666666667
 30
0.0
 11
0.0
 21
0.0
 31
0.0
  0
LINE
  5
91
330
8F
100
AcDbEntity
  8
2　寸法
 62
     0
370
    -2
100
AcDbLine
 10
-1.0
 20
-0.1666666666666667
 30
0.0
 11
0.0
 21
0.0
 31
0.0
  0
LINE
  5
92
330
8F
100
AcDbEntity
  8
2　寸法
 62
     0
370
    -2
100
AcDbLine
 10
0.0
 20
0.0
 30
0.0
 11
-1.0
 21
0.0
 31
0.0
  0
ENDBLK
  5
94
330
8F
100
AcDbEntity
  8
0
100
AcDbBlockEnd
  0
BLOCK
  5
628
330
626
100
AcDbEntity
  8
0
100
AcDbBlockBegin
  2
_DotSmall
 70
     0
 10
0.0
 20
0.0
 30
0.0
  3
_DotSmall
  1

  0
LWPOLYLINE
  5
627
330
626
100
AcDbEntity
  8
2　寸法
 62
     0
100
AcDbPolyline
 90
        2
 70
     1
 43
0.5
 10
-0.0625
 20
0.0
 42
1.0
 10
0.0625
 20
0.0
 42
1.0
  0
ENDBLK
  5
629
330
626
100
AcDbEntity
  8
0
100
AcDbBlockEnd
  0
BLOCK
  5
644
330
643
100
AcDbEntity
  8
0
100
AcDbBlockBegin
  2
_None
 70
     0
 10
0.0
 20
0.0
 30
0.0
  3
_None
  1

  0
ENDBLK
  5
645
330
643
100
AcDbEntity
  8
0
100
AcDbBlockEnd
  0
BLOCK
  5
BCE
330
BCD
100
AcDbEntity
  8
0
100
AcDbBlockBegin
  2
矢印
 70
     0
 10
0.0
 20
0.0
 30
0.0
  3
矢印
  1

  0
LINE
  5
BD0
330
BCD
100
AcDbEntity
  8
6　その他（細）
100
AcDbLine
 10
254.0616470530396
 20
130.975183949022
 30
0.0
 11
248.0616470530396
 21
133.975183949022
 31
0.0
  0
LINE
  5
BD1
330
BCD
100
AcDbEntity
  8
6　その他（細）
100
AcDbLine
 10
248.0616470530396
 20
133.975183949022
 30
0.0
 11
254.0616470530396
 21
136.975183949022
 31
0.0
  0
LINE
  5
BD2
330
BCD
100
AcDbEntity
  8
6　その他（細）
100
AcDbLine
 10
263.0616470530396
 20
132.775183949022
 30
0.0
 11
254.0616470530396
 21
132.775183949022
 31
0.0
  0
LINE
  5
BD3
330
BCD
100
AcDbEntity
  8
6　その他（細）
100
AcDbLine
 10
263.0616470530396
 20
135.175183949022
 30
0.0
 11
254.0616470530396
 21
135.175183949022
 31
0.0
  0
LINE
  5
BD4
330
BCD
100
AcDbEntity
  8
6　その他（細）
100
AcDbLine
 10
254.0616470530396
 20
130.975183949022
 30
0.0
 11
254.0616470530396
 21
132.775183949022
 31
0.0
  0
LINE
  5
BD5
330
BCD
100
AcDbEntity
  8
6　その他（細）
100
AcDbLine
 10
254.0616470530396
 20
135.175183949022
 30
0.0
 11
254.0616470530396
 21
136.975183949022
 31
0.0
  0
LINE
  5
BD6
330
BCD
100
AcDbEntity
  8
6　その他（細）
100
AcDbLine
 10
263.0616470530396
 20
132.775183949022
 30
0.0
 11
263.0616470530396
 21
135.175183949022
 31
0.0
  0
ENDBLK
  5
BCF
330
BCD
100
AcDbEntity
  8
0
100
AcDbBlockEnd
  0
BLOCK
  5
2A0A
330
2A08
100
AcDbEntity
  8
0
100
AcDbBlockBegin
  2
A$C39B974CC
 70
     0
 10
0.0
 20
0.0
 30
0.0
  3
A$C39B974CC
  1

  0
TEXT
  5
2A09
330
2A08
100
AcDbEntity
  8
4　注記
 48
6.0
380
     1
100
AcDbText
 10
-3458.420170893946
 20
1648.917014877084
 30
0.0
 40
45.0
  1
Ｂ
 72
     2
 11
-3399.94301353354
 21
1671.417014877084
 31
0.0
100
AcDbText
 73
     2
  0
ENDBLK
  5
2A0B
330
2A08
100
AcDbEntity
  8
0
100
AcDbBlockEnd
  0
BLOCK
  5
3809
330
3808
100
AcDbEntity
  8
0
100
AcDbBlockBegin
  2
*D6
 70
     1
 10
0.0
 20
0.0
 30
0.0
  3
*D6
  1

  0
LINE
  5
3B96
330
3808
100
AcDbEntity
  8
8　用紙
 62
     0
370
    -2
100
AcDbLine
 10
3878.760201663236
 20
1722.296524983801
 30
0.0
 11
3878.760201663236
 21
1568.908082993495
 31
0.0
  0
LINE
  5
3B97
330
3808
100
AcDbEntity
  8
8　用紙
 62
     0
370
    -2
100
AcDbLine
 10
3893.760201663236
 20
1737.296524983801
 30
0.0
 11
3893.760201663236
 21
1568.908082993495
 31
0.0
  0
LINE
  5
3B98
330
3808
100
AcDbEntity
  8
8　用紙
 62
     0
370
    -2
100
AcDbLine
 10
3833.760201663236
 20
1583.908082993495
 30
0.0
 11
3788.760201663236
 21
1583.908082993495
 31
0.0
  0
LINE
  5
3B99
330
3808
100
AcDbEntity
  8
8　用紙
 62
     0
370
    -2
100
AcDbLine
 10
3938.760201663236
 20
1583.908082993495
 30
0.0
 11
4063.100303186079
 21
1583.908082993495
 31
0.0
  0
LINE
  5
3B9A
330
3808
100
AcDbEntity
  8
8　用紙
 62
     0
370
    -2
100
AcDbLine
 10
3878.760201663236
 20
1583.908082993495
 30
0.0
 11
3893.760201663236
 21
1583.908082993495
 31
0.0
  0
INSERT
  5
3B9B
330
3808
100
AcDbEntity
  8
8　用紙
 62
     0
370
    -2
100
AcDbBlockReference
  2
_Open
 10
3878.760201663236
 20
1583.908082993495
 30
0.0
 41
45.0
 42
45.0
 43
45.0
  0
INSERT
  5
3B9C
330
3808
100
AcDbEntity
  8
8　用紙
 62
     0
370
    -2
100
AcDbBlockReference
  2
_Open
 10
3893.760201663236
 20
1583.908082993495
 30
0.0
 41
45.0
 42
45.0
 43
45.0
 50
180.0
  0
MTEXT
  5
3B9D
330
3808
100
AcDbEntity
  8
8　用紙
 62
     0
100
AcDbMText
 10
4023.430252424658
 20
1621.408082993495
 30
0.0
 40
45.0
 41
0.0
 71
     5
 72
     1
  1
15
 73
     1
 44
1.0
  0
POINT
  5
3B9E
330
3808
100
AcDbEntity
  8
Defpoints
 62
     0
100
AcDbPoint
 10
3878.760201663236
 20
1744.796524983801
 30
0.0
  0
POINT
  5
3B9F
330
3808
100
AcDbEntity
  8
Defpoints
 62
     0
100
AcDbPoint
 10
3893.760201663236
 20
1759.796524983801
 30
0.0
  0
POINT
  5
3BA0
330
3808
100
AcDbEntity
  8
Defpoints
 62
     0
100
AcDbPoint
 10
3893.760201663236
 20
1583.908082993495
 30
0.0
  0
ENDBLK
  5
380A
330
3808
100
AcDbEntity
  8
0
100
AcDbBlockEnd
  0
BLOCK
  5
3817
330
3816
100
AcDbEntity
  8
0
100
AcDbBlockBegin
  2
*D7
 70
     1
 10
0.0
 20
0.0
 30
0.0
  3
*D7
  1

  0
LINE
  5
3B8D
330
3816
100
AcDbEntity
  8
2　寸法
 62
     0
370
    -2
100
AcDbLine
 10
3916.260201663236
 20
1759.796524983801
 30
0.0
 11
4099.470077047928
 21
1759.796524983801
 31
0.0
  0
LINE
  5
3B8E
330
3816
100
AcDbEntity
  8
2　寸法
 62
     0
370
    -2
100
AcDbLine
 10
3920.260201663236
 20
2259.796524983801
 30
0.0
 11
4099.470077047929
 21
2259.796524983801
 31
0.0
  0
LINE
  5
3B8F
330
3816
100
AcDbEntity
  8
2　寸法
 62
     0
370
    -2
100
AcDbLine
 10
4084.470077047929
 20
1804.796524983801
 30
0.0
 11
4084.470077047929
 21
2214.796524983801
 31
0.0
  0
INSERT
  5
3B90
330
3816
100
AcDbEntity
  8
2　寸法
 62
     0
370
    -2
100
AcDbBlockReference
  2
_Open
 10
4084.470077047929
 20
1759.796524983801
 30
0.0
 41
45.0
 42
45.0
 43
45.0
 50
270.0
  0
INSERT
  5
3B91
330
3816
100
AcDbEntity
  8
2　寸法
 62
     0
370
    -2
100
AcDbBlockReference
  2
_Open
 10
4084.470077047929
 20
2259.796524983801
 30
0.0
 41
45.0
 42
45.0
 43
45.0
 50
90.0
  0
MTEXT
  5
3B92
330
3816
100
AcDbEntity
  8
2　寸法
 62
     0
100
AcDbMText
 10
4046.970077047929
 20
2009.796524983801
 30
0.0
 40
45.0
 41
0.0
 71
     5
 72
     1
  1
500
 11
6.123031769111886E-17
 21
1.0
 31
0.0
 73
     1
 44
1.0
  0
POINT
  5
3B93
330
3816
100
AcDbEntity
  8
Defpoints
 62
     0
100
AcDbPoint
 10
3893.760201663236
 20
1759.796524983801
 30
0.0
  0
POINT
  5
3B94
330
3816
100
AcDbEntity
  8
Defpoints
 62
     0
100
AcDbPoint
 10
3897.760201663236
 20
2259.796524983801
 30
0.0
  0
POINT
  5
3B95
330
3816
100
AcDbEntity
  8
Defpoints
 62
     0
100
AcDbPoint
 10
4084.470077047929
 20
2259.796524983801
 30
0.0
  0
ENDBLK
  5
3818
330
3816
100
AcDbEntity
  8
0
100
AcDbBlockEnd
  0
BLOCK
  5
3823
330
3822
100
AcDbEntity
  8
0
100
AcDbBlockBegin
  2
*D8
 70
     1
 10
0.0
 20
0.0
 30
0.0
  3
*D8
  1

  0
LINE
  5
3B82
330
3822
100
AcDbEntity
  8
8　用紙
 62
     0
370
    -2
100
AcDbLine
 10
1918.794923172818
 20
1722.296524983802
 30
0.0
 11
1918.794923172818
 21
1568.908082993495
 31
0.0
  0
LINE
  5
3B83
330
3822
100
AcDbEntity
  8
8　用紙
 62
     0
370
    -2
100
AcDbLine
 10
1903.794923172818
 20
1737.296524983802
 30
0.0
 11
1903.794923172818
 21
1568.908082993495
 31
0.0
  0
LINE
  5
3B84
330
3822
100
AcDbEntity
  8
8　用紙
 62
     0
370
    -2
100
AcDbLine
 10
1963.794923172818
 20
1583.908082993495
 30
0.0
 11
2008.794923172818
 21
1583.908082993495
 31
0.0
  0
LINE
  5
3B85
330
3822
100
AcDbEntity
  8
8　用紙
 62
     0
370
    -2
100
AcDbLine
 10
1858.794923172818
 20
1583.908082993495
 30
0.0
 11
1734.454821649975
 21
1583.908082993495
 31
0.0
  0
LINE
  5
3B86
330
3822
100
AcDbEntity
  8
8　用紙
 62
     0
370
    -2
100
AcDbLine
 10
1918.794923172818
 20
1583.908082993495
 30
0.0
 11
1903.794923172818
 21
1583.908082993495
 31
0.0
  0
INSERT
  5
3B87
330
3822
100
AcDbEntity
  8
8　用紙
 62
     0
370
    -2
100
AcDbBlockReference
  2
_Open
 10
1918.794923172818
 20
1583.908082993495
 30
0.0
 41
45.0
 42
45.0
 43
45.0
 50
180.0
  0
INSERT
  5
3B88
330
3822
100
AcDbEntity
  8
8　用紙
 62
     0
370
    -2
100
AcDbBlockReference
  2
_Open
 10
1903.794923172818
 20
1583.908082993495
 30
0.0
 41
45.0
 42
45.0
 43
45.0
  0
MTEXT
  5
3B89
330
3822
100
AcDbEntity
  8
8　用紙
 62
     0
100
AcDbMText
 10
1774.124872411397
 20
1621.408082993495
 30
0.0
 40
45.0
 41
0.0
 71
     5
 72
     1
  1
15
 73
     1
 44
1.0
  0
POINT
  5
3B8A
330
3822
100
AcDbEntity
  8
Defpoints
 62
     0
100
AcDbPoint
 10
1918.794923172818
 20
1744.796524983802
 30
0.0
  0
POINT
  5
3B8B
330
3822
100
AcDbEntity
  8
Defpoints
 62
     0
100
AcDbPoint
 10
1903.794923172818
 20
1759.796524983802
 30
0.0
  0
POINT
  5
3B8C
330
3822
100
AcDbEntity
  8
Defpoints
 62
     0
100
AcDbPoint
 10
1903.794923172818
 20
1583.908082993495
 30
0.0
  0
ENDBLK
  5
3824
330
3822
100
AcDbEntity
  8
0
100
AcDbBlockEnd
  0
BLOCK
  5
3831
330
3830
100
AcDbEntity
  8
0
100
AcDbBlockBegin
  2
*D9
 70
     1
 10
0.0
 20
0.0
 30
0.0
  3
*D9
  1

  0
LINE
  5
3B74
330
3830
100
AcDbEntity
  8
8　用紙
 62
     0
370
    -2
100
AcDbLine
 10
2918.777562418028
 20
1722.296524983801
 30
0.0
 11
2918.777562418028
 21
1568.908082993495
 31
0.0
  0
LINE
  5
3B75
330
3830
100
AcDbEntity
  8
8　用紙
 62
     0
370
    -2
100
AcDbLine
 10
2878.777562418027
 20
1722.296524983802
 30
0.0
 11
2878.777562418027
 21
1568.908082993495
 31
0.0
  0
LINE
  5
3B76
330
3830
100
AcDbEntity
  8
8　用紙
 62
     0
370
    -2
100
AcDbLine
 10
2963.777562418028
 20
1583.908082993495
 30
0.0
 11
3008.777562418028
 21
1583.908082993495
 31
0.0
  0
LINE
  5
3B77
330
3830
100
AcDbEntity
  8
8　用紙
 62
     0
370
    -2
100
AcDbLine
 10
2833.777562418027
 20
1583.908082993495
 30
0.0
 11
2788.777562418027
 21
1583.908082993495
 31
0.0
  0
LINE
  5
3B78
330
3830
100
AcDbEntity
  8
8　用紙
 62
     0
370
    -2
100
AcDbLine
 10
2898.777562418027
 20
1583.908082993495
 30
0.0
 11
3021.950793545428
 21
1458.302440161789
 31
0.0
  0
LINE
  5
3B79
330
3830
100
AcDbEntity
  8
8　用紙
 62
     0
370
    -2
100
AcDbLine
 10
3021.950793545428
 20
1458.302440161789
 30
0.0
 11
3106.31627577893
 21
1458.302440161789
 31
0.0
  0
MTEXT
  5
3B7A
330
3830
100
AcDbEntity
  8
8　用紙
 62
     0
100
AcDbMText
 10
3064.133534662179
 20
1495.802440161789
 30
0.0
 40
45.0
 41
0.0
 71
     5
 72
     1
  1
40
 73
     1
 44
1.0
  0
LINE
  5
3B7B
330
3830
100
AcDbEntity
  8
8　用紙
 62
     0
370
    -2
100
AcDbLine
 10
2918.777562418028
 20
1583.908082993495
 30
0.0
 11
2878.777562418027
 21
1583.908082993495
 31
0.0
  0
LINE
  5
3B7C
330
3830
100
AcDbEntity
  8
8　用紙
 62
     0
370
    -2
100
AcDbLine
 10
2918.777562418028
 20
1583.908082993495
 30
0.0
 11
2878.777562418027
 21
1583.908082993495
 31
0.0
  0
INSERT
  5
3B7D
330
3830
100
AcDbEntity
  8
8　用紙
 62
     0
370
    -2
100
AcDbBlockReference
  2
_Open
 10
2918.777562418028
 20
1583.908082993495
 30
0.0
 41
45.0
 42
45.0
 43
45.0
 50
180.0
  0
INSERT
  5
3B7E
330
3830
100
AcDbEntity
  8
8　用紙
 62
     0
370
    -2
100
AcDbBlockReference
  2
_Open
 10
2878.777562418027
 20
1583.908082993495
 30
0.0
 41
45.0
 42
45.0
 43
45.0
  0
POINT
  5
3B7F
330
3830
100
AcDbEntity
  8
Defpoints
 62
     0
100
AcDbPoint
 10
2918.777562418028
 20
1744.796524983801
 30
0.0
  0
POINT
  5
3B80
330
3830
100
AcDbEntity
  8
Defpoints
 62
     0
100
AcDbPoint
 10
2878.777562418027
 20
1744.796524983802
 30
0.0
  0
POINT
  5
3B81
330
3830
100
AcDbEntity
  8
Defpoints
 62
     0
100
AcDbPoint
 10
2878.777562418027
 20
1583.908082993495
 30
0.0
  0
ENDBLK
  5
3832
330
3830
100
AcDbEntity
  8
0
100
AcDbBlockEnd
  0
BLOCK
  5
3842
330
3841
100
AcDbEntity
  8
0
100
AcDbBlockBegin
  2
*D10
 70
     1
 10
0.0
 20
0.0
 30
0.0
  3
*D10
  1

  0
LINE
  5
3B6B
330
3841
100
AcDbEntity
  8
8　用紙
 62
     0
370
    -2
100
AcDbLine
 10
4780.437200283775
 20
1722.296524983801
 30
0.0
 11
4780.437200283775
 21
1570.573935547373
 31
0.0
  0
LINE
  5
3B6C
330
3841
100
AcDbEntity
  8
8　用紙
 62
     0
370
    -2
100
AcDbLine
 10
4970.437200283775
 20
1722.296524983801
 30
0.0
 11
4970.437200283775
 21
1570.573935547373
 31
0.0
  0
LINE
  5
3B6D
330
3841
100
AcDbEntity
  8
8　用紙
 62
     0
370
    -2
100
AcDbLine
 10
4825.437200283775
 20
1585.573935547373
 30
0.0
 11
4925.437200283775
 21
1585.573935547373
 31
0.0
  0
INSERT
  5
3B6E
330
3841
100
AcDbEntity
  8
8　用紙
 62
     0
370
    -2
100
AcDbBlockReference
  2
_Open
 10
4780.437200283775
 20
1585.573935547373
 30
0.0
 41
45.0
 42
45.0
 43
45.0
 50
180.0
  0
INSERT
  5
3B6F
330
3841
100
AcDbEntity
  8
8　用紙
 62
     0
370
    -2
100
AcDbBlockReference
  2
_Open
 10
4970.437200283775
 20
1585.573935547373
 30
0.0
 41
45.0
 42
45.0
 43
45.0
  0
MTEXT
  5
3B70
330
3841
100
AcDbEntity
  8
8　用紙
 62
     0
100
AcDbMText
 10
4875.437200283775
 20
1623.073935547373
 30
0.0
 40
45.0
 41
0.0
 71
     5
 72
     1
  1
190
 73
     1
 44
1.0
  0
POINT
  5
3B71
330
3841
100
AcDbEntity
  8
Defpoints
 62
     0
100
AcDbPoint
 10
4780.437200283775
 20
1744.796524983801
 30
0.0
  0
POINT
  5
3B72
330
3841
100
AcDbEntity
  8
Defpoints
 62
     0
100
AcDbPoint
 10
4970.437200283775
 20
1744.796524983801
 30
0.0
  0
POINT
  5
3B73
330
3841
100
AcDbEntity
  8
Defpoints
 62
     0
100
AcDbPoint
 10
4970.437200283775
 20
1585.573935547373
 30
0.0
  0
ENDBLK
  5
3843
330
3841
100
AcDbEntity
  8
0
100
AcDbBlockEnd
  0
BLOCK
  5
384E
330
384D
100
AcDbEntity
  8
0
100
AcDbBlockBegin
  2
*D11
 70
     1
 10
0.0
 20
0.0
 30
0.0
  3
*D11
  1

  0
LINE
  5
3B60
330
384D
100
AcDbEntity
  8
8　用紙
 62
     0
370
    -2
100
AcDbLine
 10
4590.437200283775
 20
1722.296524983801
 30
0.0
 11
4590.437200283775
 21
1570.573935547373
 31
0.0
  0
LINE
  5
3B61
330
384D
100
AcDbEntity
  8
8　用紙
 62
     0
370
    -2
100
AcDbLine
 10
4550.437200283775
 20
1737.296524983801
 30
0.0
 11
4550.437200283775
 21
1570.573935547373
 31
0.0
  0
LINE
  5
3B62
330
384D
100
AcDbEntity
  8
8　用紙
 62
     0
370
    -2
100
AcDbLine
 10
4635.437200283775
 20
1585.573935547373
 30
0.0
 11
4680.437200283775
 21
1585.573935547373
 31
0.0
  0
LINE
  5
3B63
330
384D
100
AcDbEntity
  8
8　用紙
 62
     0
370
    -2
100
AcDbLine
 10
4505.437200283775
 20
1585.573935547373
 30
0.0
 11
4376.071718050272
 21
1585.573935547373
 31
0.0
  0
LINE
  5
3B64
330
384D
100
AcDbEntity
  8
8　用紙
 62
     0
370
    -2
100
AcDbLine
 10
4590.437200283775
 20
1585.573935547373
 30
0.0
 11
4550.437200283775
 21
1585.573935547373
 31
0.0
  0
INSERT
  5
3B65
330
384D
100
AcDbEntity
  8
8　用紙
 62
     0
370
    -2
100
AcDbBlockReference
  2
_Open
 10
4590.437200283775
 20
1585.573935547373
 30
0.0
 41
45.0
 42
45.0
 43
45.0
 50
180.0
  0
INSERT
  5
3B66
330
384D
100
AcDbEntity
  8
8　用紙
 62
     0
370
    -2
100
AcDbBlockReference
  2
_Open
 10
4550.437200283775
 20
1585.573935547373
 30
0.0
 41
45.0
 42
45.0
 43
45.0
  0
MTEXT
  5
3B67
330
384D
100
AcDbEntity
  8
8　用紙
 62
     0
100
AcDbMText
 10
4418.254459167024
 20
1623.073935547373
 30
0.0
 40
45.0
 41
0.0
 71
     5
 72
     1
  1
40
 73
     1
 44
1.0
  0
POINT
  5
3B68
330
384D
100
AcDbEntity
  8
Defpoints
 62
     0
100
AcDbPoint
 10
4590.437200283775
 20
1744.796524983801
 30
0.0
  0
POINT
  5
3B69
330
384D
100
AcDbEntity
  8
Defpoints
 62
     0
100
AcDbPoint
 10
4550.437200283775
 20
1759.796524983801
 30
0.0
  0
POINT
  5
3B6A
330
384D
100
AcDbEntity
  8
Defpoints
 62
     0
100
AcDbPoint
 10
4550.437200283775
 20
1585.573935547373
 30
0.0
  0
ENDBLK
  5
384F
330
384D
100
AcDbEntity
  8
0
100
AcDbBlockEnd
  0
BLOCK
  5
385C
330
385B
100
AcDbEntity
  8
0
100
AcDbBlockBegin
  2
*D12
 70
     1
 10
0.0
 20
0.0
 30
0.0
  3
*D12
  1

  0
LINE
  5
3B57
330
385B
100
AcDbEntity
  8
8　用紙
 62
     0
370
    -2
100
AcDbLine
 10
4590.437200283775
 20
1722.296524983801
 30
0.0
 11
4590.437200283775
 21
1570.573935547373
 31
0.0
  0
LINE
  5
3B58
330
385B
100
AcDbEntity
  8
8　用紙
 62
     0
370
    -2
100
AcDbLine
 10
4780.437200283775
 20
1722.296524983801
 30
0.0
 11
4780.437200283775
 21
1570.573935547373
 31
0.0
  0
LINE
  5
3B59
330
385B
100
AcDbEntity
  8
8　用紙
 62
     0
370
    -2
100
AcDbLine
 10
4635.437200283775
 20
1585.573935547373
 30
0.0
 11
4735.437200283775
 21
1585.573935547373
 31
0.0
  0
INSERT
  5
3B5A
330
385B
100
AcDbEntity
  8
8　用紙
 62
     0
370
    -2
100
AcDbBlockReference
  2
_Open
 10
4590.437200283775
 20
1585.573935547373
 30
0.0
 41
45.0
 42
45.0
 43
45.0
 50
180.0
  0
INSERT
  5
3B5B
330
385B
100
AcDbEntity
  8
8　用紙
 62
     0
370
    -2
100
AcDbBlockReference
  2
_Open
 10
4780.437200283775
 20
1585.573935547373
 30
0.0
 41
45.0
 42
45.0
 43
45.0
  0
MTEXT
  5
3B5C
330
385B
100
AcDbEntity
  8
8　用紙
 62
     0
100
AcDbMText
 10
4685.437200283775
 20
1623.073935547373
 30
0.0
 40
45.0
 41
0.0
 71
     5
 72
     1
  1
190
 73
     1
 44
1.0
  0
POINT
  5
3B5D
330
385B
100
AcDbEntity
  8
Defpoints
 62
     0
100
AcDbPoint
 10
4590.437200283775
 20
1744.796524983801
 30
0.0
  0
POINT
  5
3B5E
330
385B
100
AcDbEntity
  8
Defpoints
 62
     0
100
AcDbPoint
 10
4780.437200283775
 20
1744.796524983801
 30
0.0
  0
POINT
  5
3B5F
330
385B
100
AcDbEntity
  8
Defpoints
 62
     0
100
AcDbPoint
 10
4780.437200283775
 20
1585.573935547373
 30
0.0
  0
ENDBLK
  5
385D
330
385B
100
AcDbEntity
  8
0
100
AcDbBlockEnd
  0
BLOCK
  5
3868
330
3867
100
AcDbEntity
  8
0
100
AcDbBlockBegin
  2
*D13
 70
     1
 10
0.0
 20
0.0
 30
0.0
  3
*D13
  1

  0
LINE
  5
3B4E
330
3867
100
AcDbEntity
  8
8　用紙
 62
     0
370
    -2
100
AcDbLine
 10
5160.437200283776
 20
1722.296524983801
 30
0.0
 11
5160.437200283776
 21
1570.573935547373
 31
0.0
  0
LINE
  5
3B4F
330
3867
100
AcDbEntity
  8
8　用紙
 62
     0
370
    -2
100
AcDbLine
 10
5350.437200283776
 20
1722.296524983801
 30
0.0
 11
5350.437200283776
 21
1570.573935547373
 31
0.0
  0
LINE
  5
3B50
330
3867
100
AcDbEntity
  8
8　用紙
 62
     0
370
    -2
100
AcDbLine
 10
5205.437200283776
 20
1585.573935547373
 30
0.0
 11
5305.437200283776
 21
1585.573935547373
 31
0.0
  0
INSERT
  5
3B51
330
3867
100
AcDbEntity
  8
8　用紙
 62
     0
370
    -2
100
AcDbBlockReference
  2
_Open
 10
5160.437200283776
 20
1585.573935547373
 30
0.0
 41
45.0
 42
45.0
 43
45.0
 50
180.0
  0
INSERT
  5
3B52
330
3867
100
AcDbEntity
  8
8　用紙
 62
     0
370
    -2
100
AcDbBlockReference
  2
_Open
 10
5350.437200283776
 20
1585.573935547373
 30
0.0
 41
45.0
 42
45.0
 43
45.0
  0
MTEXT
  5
3B53
330
3867
100
AcDbEntity
  8
8　用紙
 62
     0
100
AcDbMText
 10
5255.437200283776
 20
1623.073935547373
 30
0.0
 40
45.0
 41
0.0
 71
     5
 72
     1
  1
190
 73
     1
 44
1.0
  0
POINT
  5
3B54
330
3867
100
AcDbEntity
  8
Defpoints
 62
     0
100
AcDbPoint
 10
5160.437200283776
 20
1744.796524983801
 30
0.0
  0
POINT
  5
3B55
330
3867
100
AcDbEntity
  8
Defpoints
 62
     0
100
AcDbPoint
 10
5350.437200283776
 20
1744.796524983801
 30
0.0
  0
POINT
  5
3B56
330
3867
100
AcDbEntity
  8
Defpoints
 62
     0
100
AcDbPoint
 10
5350.437200283776
 20
1585.573935547373
 30
0.0
  0
ENDBLK
  5
3869
330
3867
100
AcDbEntity
  8
0
100
AcDbBlockEnd
  0
BLOCK
  5
3874
330
3873
100
AcDbEntity
  8
0
100
AcDbBlockBegin
  2
*D14
 70
     1
 10
0.0
 20
0.0
 30
0.0
  3
*D14
  1

  0
LINE
  5
3B43
330
3873
100
AcDbEntity
  8
8　用紙
 62
     0
370
    -2
100
AcDbLine
 10
5350.437200283776
 20
1722.296524983801
 30
0.0
 11
5350.437200283776
 21
1570.573935547373
 31
0.0
  0
LINE
  5
3B44
330
3873
100
AcDbEntity
  8
8　用紙
 62
     0
370
    -2
100
AcDbLine
 10
5390.437200283775
 20
1737.296524983801
 30
0.0
 11
5390.437200283775
 21
1570.573935547373
 31
0.0
  0
LINE
  5
3B45
330
3873
100
AcDbEntity
  8
8　用紙
 62
     0
370
    -2
100
AcDbLine
 10
5305.437200283776
 20
1585.573935547373
 30
0.0
 11
5260.437200283776
 21
1585.573935547373
 31
0.0
  0
LINE
  5
3B46
330
3873
100
AcDbEntity
  8
8　用紙
 62
     0
370
    -2
100
AcDbLine
 10
5435.437200283775
 20
1585.573935547373
 30
0.0
 11
5564.802682517278
 21
1585.573935547373
 31
0.0
  0
LINE
  5
3B47
330
3873
100
AcDbEntity
  8
8　用紙
 62
     0
370
    -2
100
AcDbLine
 10
5350.437200283776
 20
1585.573935547373
 30
0.0
 11
5390.437200283775
 21
1585.573935547373
 31
0.0
  0
INSERT
  5
3B48
330
3873
100
AcDbEntity
  8
8　用紙
 62
     0
370
    -2
100
AcDbBlockReference
  2
_Open
 10
5350.437200283776
 20
1585.573935547373
 30
0.0
 41
45.0
 42
45.0
 43
45.0
  0
INSERT
  5
3B49
330
3873
100
AcDbEntity
  8
8　用紙
 62
     0
370
    -2
100
AcDbBlockReference
  2
_Open
 10
5390.437200283775
 20
1585.573935547373
 30
0.0
 41
45.0
 42
45.0
 43
45.0
 50
180.0
  0
MTEXT
  5
3B4A
330
3873
100
AcDbEntity
  8
8　用紙
 62
     0
100
AcDbMText
 10
5522.619941400527
 20
1623.073935547373
 30
0.0
 40
45.0
 41
0.0
 71
     5
 72
     1
  1
40
 73
     1
 44
1.0
  0
POINT
  5
3B4B
330
3873
100
AcDbEntity
  8
Defpoints
 62
     0
100
AcDbPoint
 10
5350.437200283776
 20
1744.796524983801
 30
0.0
  0
POINT
  5
3B4C
330
3873
100
AcDbEntity
  8
Defpoints
 62
     0
100
AcDbPoint
 10
5390.437200283775
 20
1759.796524983801
 30
0.0
  0
POINT
  5
3B4D
330
3873
100
AcDbEntity
  8
Defpoints
 62
     0
100
AcDbPoint
 10
5390.437200283775
 20
1585.573935547373
 30
0.0
  0
ENDBLK
  5
3875
330
3873
100
AcDbEntity
  8
0
100
AcDbBlockEnd
  0
BLOCK
  5
3882
330
3881
100
AcDbEntity
  8
0
100
AcDbBlockBegin
  2
*D15
 70
     1
 10
0.0
 20
0.0
 30
0.0
  3
*D15
  1

  0
LINE
  5
3B3A
330
3881
100
AcDbEntity
  8
8　用紙
 62
     0
370
    -2
100
AcDbLine
 10
4970.437200283775
 20
1722.296524983801
 30
0.0
 11
4970.437200283775
 21
1570.573935547373
 31
0.0
  0
LINE
  5
3B3B
330
3881
100
AcDbEntity
  8
8　用紙
 62
     0
370
    -2
100
AcDbLine
 10
5160.437200283776
 20
1722.296524983801
 30
0.0
 11
5160.437200283776
 21
1570.573935547373
 31
0.0
  0
LINE
  5
3B3C
330
3881
100
AcDbEntity
  8
8　用紙
 62
     0
370
    -2
100
AcDbLine
 10
5015.437200283775
 20
1585.573935547373
 30
0.0
 11
5115.437200283776
 21
1585.573935547373
 31
0.0
  0
INSERT
  5
3B3D
330
3881
100
AcDbEntity
  8
8　用紙
 62
     0
370
    -2
100
AcDbBlockReference
  2
_Open
 10
4970.437200283775
 20
1585.573935547373
 30
0.0
 41
45.0
 42
45.0
 43
45.0
 50
180.0
  0
INSERT
  5
3B3E
330
3881
100
AcDbEntity
  8
8　用紙
 62
     0
370
    -2
100
AcDbBlockReference
  2
_Open
 10
5160.437200283776
 20
1585.573935547373
 30
0.0
 41
45.0
 42
45.0
 43
45.0
  0
MTEXT
  5
3B3F
330
3881
100
AcDbEntity
  8
8　用紙
 62
     0
100
AcDbMText
 10
5065.437200283775
 20
1623.073935547373
 30
0.0
 40
45.0
 41
0.0
 71
     5
 72
     1
  1
190
 73
     1
 44
1.0
  0
POINT
  5
3B40
330
3881
100
AcDbEntity
  8
Defpoints
 62
     0
100
AcDbPoint
 10
4970.437200283775
 20
1744.796524983801
 30
0.0
  0
POINT
  5
3B41
330
3881
100
AcDbEntity
  8
Defpoints
 62
     0
100
AcDbPoint
 10
5160.437200283776
 20
1744.796524983801
 30
0.0
  0
POINT
  5
3B42
330
3881
100
AcDbEntity
  8
Defpoints
 62
     0
100
AcDbPoint
 10
5160.437200283776
 20
1585.573935547373
 30
0.0
  0
ENDBLK
  5
3883
330
3881
100
AcDbEntity
  8
0
100
AcDbBlockEnd
  0
BLOCK
  5
388E
330
388D
100
AcDbEntity
  8
0
100
AcDbBlockBegin
  2
*D16
 70
     1
 10
0.0
 20
0.0
 30
0.0
  3
*D16
  1

  0
LINE
  5
3B31
330
388D
100
AcDbEntity
  8
2　寸法
 62
     0
370
    -2
100
AcDbLine
 10
3916.260201663236
 20
2962.844429144797
 30
0.0
 11
4081.241867688236
 21
2962.844429144797
 31
0.0
  0
LINE
  5
3B32
330
388D
100
AcDbEntity
  8
2　寸法
 62
     0
370
    -2
100
AcDbLine
 10
3916.260201663236
 20
3802.844429144797
 30
0.0
 11
4081.241867688236
 21
3802.844429144797
 31
0.0
  0
LINE
  5
3B33
330
388D
100
AcDbEntity
  8
2　寸法
 62
     0
370
    -2
100
AcDbLine
 10
4066.241867688236
 20
3007.844429144797
 30
0.0
 11
4066.241867688236
 21
3757.844429144797
 31
0.0
  0
INSERT
  5
3B34
330
388D
100
AcDbEntity
  8
2　寸法
 62
     0
370
    -2
100
AcDbBlockReference
  2
_Open
 10
4066.241867688236
 20
2962.844429144797
 30
0.0
 41
45.0
 42
45.0
 43
45.0
 50
270.0
  0
INSERT
  5
3B35
330
388D
100
AcDbEntity
  8
2　寸法
 62
     0
370
    -2
100
AcDbBlockReference
  2
_Open
 10
4066.241867688236
 20
3802.844429144797
 30
0.0
 41
45.0
 42
45.0
 43
45.0
 50
90.0
  0
MTEXT
  5
3B36
330
388D
100
AcDbEntity
  8
2　寸法
 62
     0
100
AcDbMText
 10
4028.741867688235
 20
3382.844429144797
 30
0.0
 40
45.0
 41
0.0
 71
     5
 72
     1
  1
840
 11
6.123031769111886E-17
 21
1.0
 31
0.0
 73
     1
 44
1.0
  0
POINT
  5
3B37
330
388D
100
AcDbEntity
  8
Defpoints
 62
     0
100
AcDbPoint
 10
3893.760201663236
 20
2962.844429144797
 30
0.0
  0
POINT
  5
3B38
330
388D
100
AcDbEntity
  8
Defpoints
 62
     0
100
AcDbPoint
 10
3893.760201663236
 20
3802.844429144797
 30
0.0
  0
POINT
  5
3B39
330
388D
100
AcDbEntity
  8
Defpoints
 62
     0
100
AcDbPoint
 10
4066.241867688236
 20
3802.844429144797
 30
0.0
  0
ENDBLK
  5
388F
330
388D
100
AcDbEntity
  8
0
100
AcDbBlockEnd
  0
BLOCK
  5
389A
330
3899
100
AcDbEntity
  8
0
100
AcDbBlockBegin
  2
*D17
 70
     1
 10
0.0
 20
0.0
 30
0.0
  3
*D17
  1

  0
LINE
  5
3B23
330
3899
100
AcDbEntity
  8
2　寸法
 62
     0
370
    -2
100
AcDbLine
 10
2903.777562418028
 20
2940.344429144797
 30
0.0
 11
2903.777562418028
 21
2710.912935341953
 31
0.0
  0
LINE
  5
3B24
330
3899
100
AcDbEntity
  8
2　寸法
 62
     0
370
    -2
100
AcDbLine
 10
2893.777562418027
 20
2940.344429144798
 30
0.0
 11
2893.777562418027
 21
2710.912935341953
 31
0.0
  0
LINE
  5
3B25
330
3899
100
AcDbEntity
  8
2　寸法
 62
     0
370
    -2
100
AcDbLine
 10
2948.777562418028
 20
2725.912935341953
 30
0.0
 11
2993.777562418028
 21
2725.912935341953
 31
0.0
  0
LINE
  5
3B26
330
3899
100
AcDbEntity
  8
2　寸法
 62
     0
370
    -2
100
AcDbLine
 10
2848.777562418027
 20
2725.912935341953
 30
0.0
 11
2803.777562418027
 21
2725.912935341953
 31
0.0
  0
LINE
  5
3B27
330
3899
100
AcDbEntity
  8
2　寸法
 62
     0
370
    -2
100
AcDbLine
 10
2898.777562418027
 20
2725.912935341953
 30
0.0
 11
2985.639788488119
 21
2617.814007604788
 31
0.0
  0
LINE
  5
3B28
330
3899
100
AcDbEntity
  8
2　寸法
 62
     0
370
    -2
100
AcDbLine
 10
2985.639788488119
 20
2617.814007604788
 30
0.0
 11
3066.122021990657
 21
2617.814007604788
 31
0.0
  0
MTEXT
  5
3B29
330
3899
100
AcDbEntity
  8
2　寸法
 62
     0
100
AcDbMText
 10
3025.880905239388
 20
2655.314007604788
 30
0.0
 40
45.0
 41
0.0
 71
     5
 72
     1
  1
10
 73
     1
 44
1.0
  0
LINE
  5
3B2A
330
3899
100
AcDbEntity
  8
2　寸法
 62
     0
370
    -2
100
AcDbLine
 10
2903.777562418028
 20
2725.912935341953
 30
0.0
 11
2893.777562418027
 21
2725.912935341953
 31
0.0
  0
LINE
  5
3B2B
330
3899
100
AcDbEntity
  8
2　寸法
 62
     0
370
    -2
100
AcDbLine
 10
2903.777562418028
 20
2725.912935341953
 30
0.0
 11
2893.777562418027
 21
2725.912935341953
 31
0.0
  0
INSERT
  5
3B2C
330
3899
100
AcDbEntity
  8
2　寸法
 62
     0
370
    -2
100
AcDbBlockReference
  2
_Open
 10
2903.777562418028
 20
2725.912935341953
 30
0.0
 41
45.0
 42
45.0
 43
45.0
 50
180.0
  0
INSERT
  5
3B2D
330
3899
100
AcDbEntity
  8
2　寸法
 62
     0
370
    -2
100
AcDbBlockReference
  2
_Open
 10
2893.777562418027
 20
2725.912935341953
 30
0.0
 41
45.0
 42
45.0
 43
45.0
  0
POINT
  5
3B2E
330
3899
100
AcDbEntity
  8
Defpoints
 62
     0
100
AcDbPoint
 10
2903.777562418028
 20
2962.844429144797
 30
0.0
  0
POINT
  5
3B2F
330
3899
100
AcDbEntity
  8
Defpoints
 62
     0
100
AcDbPoint
 10
2893.777562418027
 20
2962.844429144798
 30
0.0
  0
POINT
  5
3B30
330
3899
100
AcDbEntity
  8
Defpoints
 62
     0
100
AcDbPoint
 10
2893.777562418027
 20
2725.912935341953
 30
0.0
  0
ENDBLK
  5
389B
330
3899
100
AcDbEntity
  8
0
100
AcDbBlockEnd
  0
BLOCK
  5
38AB
330
38AA
100
AcDbEntity
  8
0
100
AcDbBlockBegin
  2
*D18
 70
     1
 10
0.0
 20
0.0
 30
0.0
  3
*D18
  1

  0
LINE
  5
3B18
330
38AA
100
AcDbEntity
  8
8　用紙
 62
     0
370
    -2
100
AcDbLine
 10
4924.779833354832
 20
3304.239460579878
 30
0.0
 11
4801.364684944313
 21
3304.239460579878
 31
0.0
  0
LINE
  5
3B19
330
38AA
100
AcDbEntity
  8
8　用紙
 62
     0
370
    -2
100
AcDbLine
 10
4924.779833354832
 20
3319.225769517585
 30
0.0
 11
4801.364684944313
 21
3319.225769517585
 31
0.0
  0
LINE
  5
3B1A
330
38AA
100
AcDbEntity
  8
8　用紙
 62
     0
370
    -2
100
AcDbLine
 10
4816.364684944313
 20
3259.239460579878
 30
0.0
 11
4816.364684944313
 21
3214.239460579878
 31
0.0
  0
LINE
  5
3B1B
330
38AA
100
AcDbEntity
  8
8　用紙
 62
     0
370
    -2
100
AcDbLine
 10
4816.364684944313
 20
3364.225769517585
 30
0.0
 11
4816.364684944313
 21
3617.542385043312
 31
0.0
  0
LINE
  5
3B1C
330
38AA
100
AcDbEntity
  8
8　用紙
 62
     0
370
    -2
100
AcDbLine
 10
4816.364684944313
 20
3304.239460579878
 30
0.0
 11
4816.364684944313
 21
3319.225769517585
 31
0.0
  0
INSERT
  5
3B1D
330
38AA
100
AcDbEntity
  8
8　用紙
 62
     0
370
    -2
100
AcDbBlockReference
  2
_Open
 10
4816.364684944313
 20
3304.239460579878
 30
0.0
 41
45.0
 42
45.0
 43
45.0
 50
90.0
  0
INSERT
  5
3B1E
330
38AA
100
AcDbEntity
  8
8　用紙
 62
     0
370
    -2
100
AcDbBlockReference
  2
_Open
 10
4816.364684944313
 20
3319.225769517585
 30
0.0
 41
45.0
 42
45.0
 43
45.0
 50
270.0
  0
MTEXT
  5
3B1F
330
38AA
100
AcDbEntity
  8
8　用紙
 62
     0
100
AcDbMText
 10
4778.864684944312
 20
3546.920557632145
 30
0.0
 40
45.0
 41
0.0
 71
     5
 72
     1
  1
t2.3
 11
6.123031769111886E-17
 21
1.0
 31
0.0
 73
     1
 44
1.0
  0
POINT
  5
3B20
330
38AA
100
AcDbEntity
  8
Defpoints
 62
     0
100
AcDbPoint
 10
4947.279833354832
 20
3304.239460579878
 30
0.0
  0
POINT
  5
3B21
330
38AA
100
AcDbEntity
  8
Defpoints
 62
     0
100
AcDbPoint
 10
4947.279833354832
 20
3319.225769517585
 30
0.0
  0
POINT
  5
3B22
330
38AA
100
AcDbEntity
  8
Defpoints
 62
     0
100
AcDbPoint
 10
4816.364684944313
 20
3319.225769517585
 30
0.0
  0
ENDBLK
  5
38AC
330
38AA
100
AcDbEntity
  8
0
100
AcDbBlockEnd
  0
BLOCK
  5
38B9
330
38B8
100
AcDbEntity
  8
0
100
AcDbBlockBegin
  2
*D19
 70
     1
 10
0.0
 20
0.0
 30
0.0
  3
*D19
  1

  0
LINE
  5
3B0F
330
38B8
100
AcDbEntity
  8
8　用紙
 62
     0
370
    -2
100
AcDbLine
 10
4568.804352469442
 20
3232.941423665954
 30
0.0
 11
4568.804352469442
 21
2953.07673969061
 31
0.0
  0
LINE
  5
3B10
330
38B8
100
AcDbEntity
  8
8　用紙
 62
     0
370
    -2
100
AcDbLine
 10
5090.231808469372
 20
3232.941423665954
 30
0.0
 11
5090.231808469372
 21
2953.07673969061
 31
0.0
  0
LINE
  5
3B11
330
38B8
100
AcDbEntity
  8
8　用紙
 62
     0
370
    -2
100
AcDbLine
 10
4613.804352469442
 20
2968.07673969061
 30
0.0
 11
5045.231808469372
 21
2968.07673969061
 31
0.0
  0
INSERT
  5
3B12
330
38B8
100
AcDbEntity
  8
8　用紙
 62
     0
370
    -2
100
AcDbBlockReference
  2
_Open
 10
4568.804352469442
 20
2968.07673969061
 30
0.0
 41
45.0
 42
45.0
 43
45.0
 50
180.0
  0
INSERT
  5
3B13
330
38B8
100
AcDbEntity
  8
8　用紙
 62
     0
370
    -2
100
AcDbBlockReference
  2
_Open
 10
5090.231808469372
 20
2968.07673969061
 30
0.0
 41
45.0
 42
45.0
 43
45.0
  0
MTEXT
  5
3B14
330
38B8
100
AcDbEntity
  8
8　用紙
 62
     0
100
AcDbMText
 10
4829.518080469406
 20
3005.57673969061
 30
0.0
 40
45.0
 41
0.0
 71
     5
 72
     1
  1
76.2
 73
     1
 44
1.0
  0
POINT
  5
3B15
330
38B8
100
AcDbEntity
  8
Defpoints
 62
     0
100
AcDbPoint
 10
4568.804352469442
 20
3255.441423665954
 30
0.0
  0
POINT
  5
3B16
330
38B8
100
AcDbEntity
  8
Defpoints
 62
     0
100
AcDbPoint
 10
5090.231808469372
 20
3255.441423665954
 30
0.0
  0
POINT
  5
3B17
330
38B8
100
AcDbEntity
  8
Defpoints
 62
     0
100
AcDbPoint
 10
5090.231808469372
 20
2968.07673969061
 30
0.0
  0
ENDBLK
  5
38BA
330
38B8
100
AcDbEntity
  8
0
100
AcDbBlockEnd
  0
BLOCK
  5
38C5
330
38C4
100
AcDbEntity
  8
0
100
AcDbBlockBegin
  2
*D20
 70
     1
 10
0.0
 20
0.0
 30
0.0
  3
*D20
  1

  0
LINE
  5
3B06
330
38C4
100
AcDbEntity
  8
8　用紙
 62
     0
370
    -2
100
AcDbLine
 10
4781.827858240293
 20
3383.010115369218
 30
0.0
 11
4409.009486788094
 21
3383.010115369218
 31
0.0
  0
LINE
  5
3B07
330
38C4
100
AcDbEntity
  8
8　用紙
 62
     0
370
    -2
100
AcDbLine
 10
4781.827858240291
 20
3150.35219536925
 30
0.0
 11
4409.009486788094
 21
3150.35219536925
 31
0.0
  0
LINE
  5
3B08
330
38C4
100
AcDbEntity
  8
8　用紙
 62
     0
370
    -2
100
AcDbLine
 10
4424.009486788094
 20
3338.010115369218
 30
0.0
 11
4424.009486788094
 21
3195.35219536925
 31
0.0
  0
INSERT
  5
3B09
330
38C4
100
AcDbEntity
  8
8　用紙
 62
     0
370
    -2
100
AcDbBlockReference
  2
_Open
 10
4424.009486788094
 20
3383.010115369218
 30
0.0
 41
45.0
 42
45.0
 43
45.0
 50
90.0
  0
INSERT
  5
3B0A
330
38C4
100
AcDbEntity
  8
8　用紙
 62
     0
370
    -2
100
AcDbBlockReference
  2
_Open
 10
4424.009486788094
 20
3150.35219536925
 30
0.0
 41
45.0
 42
45.0
 43
45.0
 50
270.0
  0
MTEXT
  5
3B0B
330
38C4
100
AcDbEntity
  8
8　用紙
 62
     0
100
AcDbMText
 10
4386.509486788093
 20
3266.681155369235
 30
0.0
 40
45.0
 41
0.0
 71
     5
 72
     1
  1
34
 11
6.123031769111886E-17
 21
1.0
 31
0.0
 73
     1
 44
1.0
  0
POINT
  5
3B0C
330
38C4
100
AcDbEntity
  8
Defpoints
 62
     0
100
AcDbPoint
 10
4804.327858240293
 20
3383.010115369218
 30
0.0
  0
POINT
  5
3B0D
330
38C4
100
AcDbEntity
  8
Defpoints
 62
     0
100
AcDbPoint
 10
4804.327858240291
 20
3150.35219536925
 30
0.0
  0
POINT
  5
3B0E
330
38C4
100
AcDbEntity
  8
Defpoints
 62
     0
100
AcDbPoint
 10
4424.009486788094
 20
3150.35219536925
 30
0.0
  0
ENDBLK
  5
38C6
330
38C4
100
AcDbEntity
  8
0
100
AcDbBlockEnd
  0
BLOCK
  5
38D1
330
38D0
100
AcDbEntity
  8
0
100
AcDbBlockBegin
  2
*D21
 70
     1
 10
0.0
 20
0.0
 30
0.0
  3
*D21
  1

  0
LINE
  5
3AFB
330
38D0
100
AcDbEntity
  8
8　用紙
 62
     0
370
    -2
100
AcDbLine
 10
4891.388180817434
 20
3172.741380313188
 30
0.0
 11
4894.444223725662
 21
3179.590511772216
 31
0.0
  0
LINE
  5
3AFC
330
38D0
100
AcDbEntity
  8
8　用紙
 62
     0
370
    -2
100
AcDbLine
 10
4916.578403046551
 20
3161.501648609908
 30
0.0
 11
4919.634445954778
 21
3168.350780068935
 31
0.0
  0
LINE
  5
3AFD
330
38D0
100
AcDbEntity
  8
8　用紙
 62
     0
370
    -2
100
AcDbLine
 10
4859.461520787941
 20
3211.625032139646
 30
0.0
 11
4818.366732033765
 21
3229.961289589016
 31
0.0
  0
LINE
  5
3AFE
330
38D0
100
AcDbEntity
  8
8　用紙
 62
     0
370
    -2
100
AcDbLine
 10
4966.841320525412
 20
3163.712785537624
 30
0.0
 11
5056.610139952894
 21
3123.658456659219
 31
0.0
  0
LINE
  5
3AFF
330
38D0
100
AcDbEntity
  8
8　用紙
 62
     0
370
    -2
100
AcDbLine
 10
4900.556309542118
 20
3193.288774690275
 30
0.0
 11
4925.746531771235
 21
3182.049042986995
 31
0.0
  0
INSERT
  5
3B00
330
38D0
100
AcDbEntity
  8
8　用紙
 62
     0
370
    -2
100
AcDbBlockReference
  2
_Open
 10
4900.556309542118
 20
3193.288774690275
 30
0.0
 41
45.0
 42
45.0
 43
45.0
 50
335.9538472549796
  0
INSERT
  5
3B01
330
38D0
100
AcDbEntity
  8
8　用紙
 62
     0
370
    -2
100
AcDbBlockReference
  2
_Open
 10
4925.746531771235
 20
3182.049042986995
 30
0.0
 41
45.0
 42
45.0
 43
45.0
 50
155.9538472549796
  0
MTEXT
  5
3B02
330
38D0
100
AcDbEntity
  8
8　用紙
 62
     0
100
AcDbMText
 10
5047.553339157384
 20
3168.763149668883
 30
0.0
 40
45.0
 41
0.0
 71
     5
 72
     1
  1
3
 11
0.9132175278705922
 21
-0.4074723877637897
 31
0.0
 73
     1
 44
1.0
  0
POINT
  5
3B03
330
38D0
100
AcDbEntity
  8
Defpoints
 62
     0
100
AcDbPoint
 10
4900.556309542118
 20
3193.288774690276
 30
0.0
  0
POINT
  5
3B04
330
38D0
100
AcDbEntity
  8
Defpoints
 62
     0
100
AcDbPoint
 10
4925.746531771236
 20
3182.049042986996
 30
0.0
  0
POINT
  5
3B05
330
38D0
100
AcDbEntity
  8
Defpoints
 62
     0
100
AcDbPoint
 10
4925.746531771235
 20
3182.049042986995
 30
0.0
  0
ENDBLK
  5
38D2
330
38D0
100
AcDbEntity
  8
0
100
AcDbBlockEnd
  0
BLOCK
  5
38DF
330
38DE
100
AcDbEntity
  8
0
100
AcDbBlockBegin
  2
*D22
 70
     1
 10
0.0
 20
0.0
 30
0.0
  3
*D22
  1

  0
LINE
  5
3AF2
330
38DE
100
AcDbEntity
  8
2　寸法
 62
     0
370
    -2
100
AcDbLine
 10
1903.794923172818
 20
2940.344429144798
 30
0.0
 11
1903.794923172818
 21
2710.912935341953
 31
0.0
  0
LINE
  5
3AF3
330
38DE
100
AcDbEntity
  8
2　寸法
 62
     0
370
    -2
100
AcDbLine
 10
2893.777562418027
 20
2940.344429144798
 30
0.0
 11
2893.777562418027
 21
2710.912935341953
 31
0.0
  0
LINE
  5
3AF4
330
38DE
100
AcDbEntity
  8
2　寸法
 62
     0
370
    -2
100
AcDbLine
 10
1948.794923172818
 20
2725.912935341953
 30
0.0
 11
2848.777562418027
 21
2725.912935341953
 31
0.0
  0
INSERT
  5
3AF5
330
38DE
100
AcDbEntity
  8
2　寸法
 62
     0
370
    -2
100
AcDbBlockReference
  2
_Open
 10
1903.794923172818
 20
2725.912935341953
 30
0.0
 41
45.0
 42
45.0
 43
45.0
 50
180.0
  0
INSERT
  5
3AF6
330
38DE
100
AcDbEntity
  8
2　寸法
 62
     0
370
    -2
100
AcDbBlockReference
  2
_Open
 10
2893.777562418027
 20
2725.912935341953
 30
0.0
 41
45.0
 42
45.0
 43
45.0
  0
MTEXT
  5
3AF7
330
38DE
100
AcDbEntity
  8
2　寸法
 62
     0
100
AcDbMText
 10
2398.786242795422
 20
2763.412935341953
 30
0.0
 40
45.0
 41
0.0
 71
     5
 72
     1
  1
990
 73
     1
 44
1.0
  0
POINT
  5
3AF8
330
38DE
100
AcDbEntity
  8
Defpoints
 62
     0
100
AcDbPoint
 10
1903.794923172818
 20
2962.844429144798
 30
0.0
  0
POINT
  5
3AF9
330
38DE
100
AcDbEntity
  8
Defpoints
 62
     0
100
AcDbPoint
 10
2893.777562418027
 20
2962.844429144798
 30
0.0
  0
POINT
  5
3AFA
330
38DE
100
AcDbEntity
  8
Defpoints
 62
     0
100
AcDbPoint
 10
2893.777562418027
 20
2725.912935341953
 30
0.0
  0
ENDBLK
  5
38E0
330
38DE
100
AcDbEntity
  8
0
100
AcDbBlockEnd
  0
BLOCK
  5
38EB
330
38EA
100
AcDbEntity
  8
0
100
AcDbBlockBegin
  2
*D23
 70
     1
 10
0.0
 20
0.0
 30
0.0
  3
*D23
  1

  0
LINE
  5
3AE9
330
38EA
100
AcDbEntity
  8
2　寸法
 62
     0
370
    -2
100
AcDbLine
 10
2903.777562418028
 20
2940.344429144797
 30
0.0
 11
2903.777562418028
 21
2710.912935341953
 31
0.0
  0
LINE
  5
3AEA
330
38EA
100
AcDbEntity
  8
2　寸法
 62
     0
370
    -2
100
AcDbLine
 10
3893.760201663236
 20
2940.344429144797
 30
0.0
 11
3893.760201663236
 21
2710.912935341953
 31
0.0
  0
LINE
  5
3AEB
330
38EA
100
AcDbEntity
  8
2　寸法
 62
     0
370
    -2
100
AcDbLine
 10
2948.777562418028
 20
2725.912935341953
 30
0.0
 11
3848.760201663236
 21
2725.912935341953
 31
0.0
  0
INSERT
  5
3AEC
330
38EA
100
AcDbEntity
  8
2　寸法
 62
     0
370
    -2
100
AcDbBlockReference
  2
_Open
 10
2903.777562418028
 20
2725.912935341953
 30
0.0
 41
45.0
 42
45.0
 43
45.0
 50
180.0
  0
INSERT
  5
3AED
330
38EA
100
AcDbEntity
  8
2　寸法
 62
     0
370
    -2
100
AcDbBlockReference
  2
_Open
 10
3893.760201663236
 20
2725.912935341953
 30
0.0
 41
45.0
 42
45.0
 43
45.0
  0
MTEXT
  5
3AEE
330
38EA
100
AcDbEntity
  8
2　寸法
 62
     0
100
AcDbMText
 10
3398.768882040632
 20
2763.412935341953
 30
0.0
 40
45.0
 41
0.0
 71
     5
 72
     1
  1
990
 73
     1
 44
1.0
  0
POINT
  5
3AEF
330
38EA
100
AcDbEntity
  8
Defpoints
 62
     0
100
AcDbPoint
 10
2903.777562418028
 20
2962.844429144797
 30
0.0
  0
POINT
  5
3AF0
330
38EA
100
AcDbEntity
  8
Defpoints
 62
     0
100
AcDbPoint
 10
3893.760201663236
 20
2962.844429144797
 30
0.0
  0
POINT
  5
3AF1
330
38EA
100
AcDbEntity
  8
Defpoints
 62
     0
100
AcDbPoint
 10
3893.760201663236
 20
2725.912935341953
 30
0.0
  0
ENDBLK
  5
38EC
330
38EA
100
AcDbEntity
  8
0
100
AcDbBlockEnd
  0
ENDSEC
  0
SECTION
  2
ENTITIES
  0
TEXT
  5
D43
330
1F
100
AcDbEntity
  8
4　注記
100
AcDbText
 10
210.2343249531853
 20
3113.932530533866
 30
0.0
 40
45.0
  1

 72
     2
 11
210.2343249531853
 21
3136.432530533866
 31
0.0
100
AcDbText
 73
     2
  0
LINE
  5
3432
330
1F
100
AcDbEntity
  8
3　補助線
100
AcDbLine
 10
3906.249732066436
 20
2189.796524983801
 30
0.0
 11
3888.880977507201
 21
2189.796524983801
 31
0.0
  0
LINE
  5
3433
330
1F
100
AcDbEntity
  8
3　補助線
100
AcDbLine
 10
3906.249732066436
 20
2129.796524983801
 30
0.0
 11
3888.880977507201
 21
2129.796524983801
 31
0.0
  0
LINE
  5
3436
330
1F
100
AcDbEntity
  8
1　製品
 48
15.0
100
AcDbLine
 10
1939.794923172818
 20
2109.796524983802
 30
0.0
 11
2049.794923172818
 21
2219.796524983802
 31
0.0
  0
LINE
  5
3437
330
1F
100
AcDbEntity
  8
1　製品
 48
15.0
100
AcDbLine
 10
1899.794923172818
 20
2259.796524983802
 30
0.0
 11
2049.794923172818
 21
2259.796524983802
 31
0.0
  0
LINE
  5
3438
330
1F
100
AcDbEntity
  8
1　製品
  6
HIDDEN
 48
5.0
100
AcDbLine
 10
2049.794923172818
 20
2219.796524983802
 30
0.0
 11
1906.794923172818
 21
2219.796524983802
 31
0.0
  0
LINE
  5
3439
330
1F
100
AcDbEntity
  8
1　製品
100
AcDbLine
 10
1903.794923172818
 20
2259.796524983802
 30
0.0
 11
2893.777562418029
 21
2259.796524983802
 31
0.0
  0
LINE
  5
343A
330
1F
100
AcDbEntity
  8
1　製品
  6
HIDDEN
 48
5.0
100
AcDbLine
 10
1906.794923172818
 20
2256.796524983802
 30
0.0
 11
2890.777562418027
 21
2256.796524983802
 31
0.0
  0
LINE
  5
343B
330
1F
100
AcDbEntity
  8
1　製品
  6
HIDDEN
 48
5.0
100
AcDbLine
 10
1906.794923172818
 20
1759.796524983802
 30
0.0
 11
1906.794923172818
 21
2214.796524983802
 31
0.0
  0
LINE
  5
343C
330
1F
100
AcDbEntity
  8
1　製品
100
AcDbLine
 10
1943.794923172818
 20
1759.796524983802
 30
0.0
 11
1943.794923172818
 21
2113.796524983802
 31
0.0
  0
LINE
  5
343D
330
1F
100
AcDbEntity
  8
1　製品
100
AcDbLine
 10
1903.794923172818
 20
1759.796524983802
 30
0.0
 11
1903.794923172818
 21
2109.796524983802
 31
0.0
  0
LINE
  5
343F
330
1F
100
AcDbEntity
  8
1　製品
100
AcDbLine
 10
1903.794923172818
 20
1759.796524983802
 30
0.0
 11
1943.794923172818
 21
1759.796524983802
 31
0.0
  0
LINE
  5
3440
330
1F
100
AcDbEntity
  8
1　製品
  6
HIDDEN2
100
AcDbLine
 10
1906.794923172818
 20
1762.796524983802
 30
0.0
 11
1943.794923172818
 21
1762.796524983802
 31
0.0
  0
LINE
  5
3441
330
1F
100
AcDbEntity
  8
3　補助線
100
AcDbLine
 10
1918.794923172818
 20
1774.796524983802
 30
0.0
 11
1918.794923172818
 21
1744.796524983802
 31
0.0
  0
LINE
  5
3442
330
1F
100
AcDbEntity
  8
1　製品
  6
HIDDEN
 48
5.0
100
AcDbLine
 10
1903.794923172818
 20
2109.796524983802
 30
0.0
 11
1903.794923172818
 21
2214.796524983802
 31
0.0
  0
LINE
  5
3443
330
1F
100
AcDbEntity
  8
1　製品
  6
HIDDEN
 48
5.0
100
AcDbLine
 10
1943.794923172818
 20
2214.796524983802
 30
0.0
 11
1943.794923172818
 21
2113.796524983802
 31
0.0
  0
LINE
  5
3444
330
1F
100
AcDbEntity
  8
1　製品
  6
HIDDEN
 48
5.0
100
AcDbLine
 10
1902.994923172819
 20
2259.796524983802
 30
0.0
 11
1902.994923172819
 21
2109.796524983802
 31
0.0
  0
LINE
  5
3445
330
1F
100
AcDbEntity
  8
1　製品
 48
15.0
100
AcDbLine
 10
1899.794923172818
 20
2259.796524983802
 30
0.0
 11
1899.794923172818
 21
2109.796524983802
 31
0.0
  0
CIRCLE
  5
3446
330
1F
100
AcDbEntity
  8
1　製品
 48
15.0
100
AcDbCircle
 10
1928.794923172818
 20
2189.796524983802
 30
0.0
 40
5.0
  0
CIRCLE
  5
3447
330
1F
100
AcDbEntity
  8
1　製品
100
AcDbCircle
 10
1928.794923172818
 20
2189.796524983802
 30
0.0
 40
5.0
  0
LINE
  5
3448
330
1F
100
AcDbEntity
  8
3　補助線
 48
15.0
100
AcDbLine
 10
1928.794923172818
 20
2199.796524983802
 30
0.0
 11
1928.794923172818
 21
2179.796524983802
 31
0.0
  0
LINE
  5
3449
330
1F
100
AcDbEntity
  8
3　補助線
  6
CENTER2
100
AcDbLine
 10
1928.794923172818
 20
2204.796524983802
 30
0.0
 11
1928.794923172818
 21
2174.796524983802
 31
0.0
  0
LINE
  5
344A
330
1F
100
AcDbEntity
  8
1　製品
 48
15.0
100
AcDbLine
 10
1899.794923172818
 20
2109.796524983802
 30
0.0
 11
1939.794923172818
 21
2109.796524983802
 31
0.0
  0
LINE
  5
344B
330
1F
100
AcDbEntity
  8
3　補助線
 48
15.0
100
AcDbLine
 10
1918.794923172818
 20
2129.796524983802
 30
0.0
 11
1938.794923172818
 21
2129.796524983802
 31
0.0
  0
LINE
  5
344C
330
1F
100
AcDbEntity
  8
3　補助線
100
AcDbLine
 10
1943.794923172818
 20
2129.796524983802
 30
0.0
 11
1913.794923172818
 21
2129.796524983802
 31
0.0
  0
LINE
  5
344D
330
1F
100
AcDbEntity
  8
3　補助線
 48
15.0
100
AcDbLine
 10
1928.794923172818
 20
2139.796524983802
 30
0.0
 11
1928.794923172818
 21
2119.796524983802
 31
0.0
  0
LINE
  5
344E
330
1F
100
AcDbEntity
  8
3　補助線
  6
CENTER2
100
AcDbLine
 10
1928.794923172818
 20
2144.796524983802
 30
0.0
 11
1928.794923172818
 21
2114.796524983802
 31
0.0
  0
CIRCLE
  5
344F
330
1F
100
AcDbEntity
  8
1　製品
 48
15.0
100
AcDbCircle
 10
1928.794923172818
 20
2129.796524983802
 30
0.0
 40
5.0
  0
CIRCLE
  5
3450
330
1F
100
AcDbEntity
  8
1　製品
100
AcDbCircle
 10
1928.794923172818
 20
2129.796524983802
 30
0.0
 40
5.0
  0
LINE
  5
3451
330
1F
100
AcDbEntity
  8
3　補助線
100
AcDbLine
 10
1891.305392769618
 20
2129.796524983802
 30
0.0
 11
1908.674147328853
 21
2129.796524983802
 31
0.0
  0
LINE
  5
3452
330
1F
100
AcDbEntity
  8
3　補助線
 48
15.0
100
AcDbLine
 10
1918.794923172818
 20
2189.796524983802
 30
0.0
 11
1938.794923172818
 21
2189.796524983802
 31
0.0
  0
LINE
  5
3453
330
1F
100
AcDbEntity
  8
3　補助線
100
AcDbLine
 10
1943.794923172818
 20
2189.796524983802
 30
0.0
 11
1913.794923172818
 21
2189.796524983802
 31
0.0
  0
LINE
  5
3454
330
1F
100
AcDbEntity
  8
3　補助線
  6
CENTER2
100
AcDbLine
 10
1918.794923172818
 20
2239.796524983802
 30
0.0
 11
1948.794923172818
 21
2239.796524983802
 31
0.0
  0
LINE
  5
3455
330
1F
100
AcDbEntity
  8
3　補助線
 48
15.0
100
AcDbLine
 10
1923.794923172818
 20
2239.796524983802
 30
0.0
 11
1943.794923172818
 21
2239.796524983802
 31
0.0
  0
CIRCLE
  5
3456
330
1F
100
AcDbEntity
  8
1　製品
 48
15.0
100
AcDbCircle
 10
1933.794923172818
 20
2239.796524983802
 30
0.0
 40
5.0
  0
CIRCLE
  5
3457
330
1F
100
AcDbEntity
  8
1　製品
100
AcDbCircle
 10
1933.794923172818
 20
2239.796524983802
 30
0.0
 40
5.0
  0
LINE
  5
3458
330
1F
100
AcDbEntity
  8
1　製品
  6
HIDDEN
 48
5.0
100
AcDbLine
 10
1903.794923172818
 20
2214.796524983802
 30
0.0
 11
1943.794923172818
 21
2214.796524983802
 31
0.0
  0
LINE
  5
3459
330
1F
100
AcDbEntity
  8
3　補助線
  6
CENTER2
100
AcDbLine
 10
1933.794923172818
 20
2254.796524983802
 30
0.0
 11
1933.794923172818
 21
2224.796524983802
 31
0.0
  0
LINE
  5
345A
330
1F
100
AcDbEntity
  8
1　製品
  6
HIDDEN
 48
5.0
100
AcDbLine
 10
1906.794923172818
 20
2219.796524983802
 30
0.0
 11
1906.794923172818
 21
2256.796524983802
 31
0.0
  0
LINE
  5
345B
330
1F
100
AcDbEntity
  8
1　製品
  6
HIDDEN2
100
AcDbLine
 10
1903.794923172818
 20
2219.796524983802
 30
0.0
 11
1903.794923172818
 21
2259.796524983802
 31
0.0
  0
LINE
  5
345C
330
1F
100
AcDbEntity
  8
3　補助線
 48
15.0
100
AcDbLine
 10
1933.794923172818
 20
2249.796524983802
 30
0.0
 11
1933.794923172818
 21
2229.796524983802
 31
0.0
  0
LINE
  5
345D
330
1F
100
AcDbEntity
  8
3　補助線
100
AcDbLine
 10
1891.305392769618
 20
2189.796524983802
 30
0.0
 11
1908.674147328853
 21
2189.796524983802
 31
0.0
  0
LINE
  5
345E
330
1F
100
AcDbEntity
  8
1　製品
  6
HIDDEN
 48
5.0
100
AcDbLine
 10
3049.777562418028
 20
2219.796524983801
 30
0.0
 11
2906.777562418028
 21
2219.796524983801
 31
0.0
  0
LINE
  5
345F
330
1F
100
AcDbEntity
  8
1　製品
 48
15.0
100
AcDbLine
 10
2899.777562418028
 20
2259.796524983801
 30
0.0
 11
3049.777562418028
 21
2259.796524983801
 31
0.0
  0
LINE
  5
3460
330
1F
100
AcDbEntity
  8
1　製品
 48
15.0
100
AcDbLine
 10
2939.777562418028
 20
2109.796524983801
 30
0.0
 11
3049.777562418028
 21
2219.796524983801
 31
0.0
  0
LINE
  5
3463
330
1F
100
AcDbEntity
  8
1　製品
100
AcDbLine
 10
2903.777562418027
 20
2259.796524983801
 30
0.0
 11
3893.760201663237
 21
2259.796524983801
 31
0.0
  0
LINE
  5
3464
330
1F
100
AcDbEntity
  8
1　製品
  6
HIDDEN
 48
5.0
100
AcDbLine
 10
2906.777562418027
 20
2256.796524983801
 30
0.0
 11
3890.760201663236
 21
2256.796524983801
 31
0.0
  0
LINE
  5
3465
330
1F
100
AcDbEntity
  8
1　製品
100
AcDbLine
 10
2943.777562418028
 20
1759.796524983801
 30
0.0
 11
2943.777562418028
 21
2113.796524983801
 31
0.0
  0
LINE
  5
3466
330
1F
100
AcDbEntity
  8
1　製品
  6
HIDDEN
 48
5.0
100
AcDbLine
 10
2906.777562418028
 20
1759.796524983801
 30
0.0
 11
2906.777562418028
 21
2214.796524983801
 31
0.0
  0
LINE
  5
3467
330
1F
100
AcDbEntity
  8
1　製品
100
AcDbLine
 10
2903.777562418028
 20
1759.796524983801
 30
0.0
 11
2903.777562418028
 21
2109.796524983801
 31
0.0
  0
LINE
  5
3468
330
1F
100
AcDbEntity
  8
1　製品
  6
HIDDEN2
100
AcDbLine
 10
2890.777562418027
 20
1759.796524983802
 30
0.0
 11
2890.777562418027
 21
2214.796524983802
 31
0.0
  0
LINE
  5
3469
330
1F
100
AcDbEntity
  8
1　製品
100
AcDbLine
 10
2893.777562418027
 20
1759.796524983802
 30
0.0
 11
2893.777562418028
 21
2109.796524983802
 31
0.0
  0
LINE
  5
346A
330
1F
100
AcDbEntity
  8
1　製品
100
AcDbLine
 10
2853.777562418027
 20
1759.796524983802
 30
0.0
 11
2853.777562418027
 21
2113.796524983802
 31
0.0
  0
LINE
  5
346B
330
1F
100
AcDbEntity
  8
1　製品
100
AcDbLine
 10
2893.777562418027
 20
1759.796524983802
 30
0.0
 11
2853.777562418027
 21
1759.796524983802
 31
0.0
  0
LINE
  5
346C
330
1F
100
AcDbEntity
  8
1　製品
  6
HIDDEN2
100
AcDbLine
 10
2890.777562418029
 20
1762.796524983802
 30
0.0
 11
2853.777562418027
 21
1762.796524983802
 31
0.0
  0
LINE
  5
346D
330
1F
100
AcDbEntity
  8
3　補助線
100
AcDbLine
 10
2878.777562418027
 20
1774.796524983802
 30
0.0
 11
2878.777562418027
 21
1744.796524983802
 31
0.0
  0
LINE
  5
346E
330
1F
100
AcDbEntity
  8
3　補助線
100
AcDbLine
 10
2918.777562418028
 20
1774.796524983801
 30
0.0
 11
2918.777562418028
 21
1744.796524983801
 31
0.0
  0
LINE
  5
346F
330
1F
100
AcDbEntity
  8
1　製品
100
AcDbLine
 10
2903.777562418028
 20
1759.796524983801
 30
0.0
 11
2943.777562418028
 21
1759.796524983801
 31
0.0
  0
LINE
  5
3470
330
1F
100
AcDbEntity
  8
1　製品
  6
HIDDEN2
100
AcDbLine
 10
2906.777562418027
 20
1762.796524983801
 30
0.0
 11
2943.777562418028
 21
1762.796524983801
 31
0.0
  0
LINE
  5
3471
330
1F
100
AcDbEntity
  8
1　製品
100
AcDbLine
 10
2049.794923172818
 20
2219.796524983802
 30
0.0
 11
2747.777562418027
 21
2219.796524983803
 31
0.0
  0
LINE
  5
3472
330
1F
100
AcDbEntity
  8
3　補助線
  6
CENTER2
100
AcDbLine
 10
2013.794923172818
 20
2239.796524983802
 30
0.0
 11
2043.794923172818
 21
2239.796524983802
 31
0.0
  0
LINE
  5
3473
330
1F
100
AcDbEntity
  8
3　補助線
 48
15.0
100
AcDbLine
 10
2018.794923172818
 20
2239.796524983802
 30
0.0
 11
2038.794923172818
 21
2239.796524983802
 31
0.0
  0
LINE
  5
3474
330
1F
100
AcDbEntity
  8
3　補助線
  6
CENTER2
100
AcDbLine
 10
2028.794923172818
 20
2254.796524983802
 30
0.0
 11
2028.794923172818
 21
2224.796524983802
 31
0.0
  0
CIRCLE
  5
3475
330
1F
100
AcDbEntity
  8
1　製品
 48
15.0
100
AcDbCircle
 10
2028.794923172818
 20
2239.796524983802
 30
0.0
 40
5.0
  0
LINE
  5
3476
330
1F
100
AcDbEntity
  8
3　補助線
 48
15.0
100
AcDbLine
 10
2028.794923172818
 20
2249.796524983802
 30
0.0
 11
2028.794923172818
 21
2229.796524983802
 31
0.0
  0
CIRCLE
  5
3477
330
1F
100
AcDbEntity
  8
1　製品
100
AcDbCircle
 10
2028.794923172818
 20
2239.796524983802
 30
0.0
 40
5.0
  0
LINE
  5
3478
330
1F
100
AcDbEntity
  8
1　製品
 48
15.0
100
AcDbLine
 10
2049.794923172818
 20
2259.796524983802
 30
0.0
 11
2049.794923172818
 21
2219.796524983802
 31
0.0
  0
LINE
  5
3479
330
1F
100
AcDbEntity
  8
1　製品
  6
HIDDEN
 48
5.0
100
AcDbLine
 10
2902.977562418027
 20
2259.796524983801
 30
0.0
 11
2902.977562418027
 21
2109.796524983801
 31
0.0
  0
LINE
  5
347A
330
1F
100
AcDbEntity
  8
1　製品
 48
15.0
100
AcDbLine
 10
2899.777562418028
 20
2259.796524983801
 30
0.0
 11
2899.777562418028
 21
2109.796524983801
 31
0.0
  0
CIRCLE
  5
347B
330
1F
100
AcDbEntity
  8
1　製品
 48
15.0
100
AcDbCircle
 10
2928.777562418028
 20
2189.796524983801
 30
0.0
 40
5.0
  0
CIRCLE
  5
347C
330
1F
100
AcDbEntity
  8
1　製品
100
AcDbCircle
 10
2928.777562418028
 20
2189.796524983801
 30
0.0
 40
5.0
  0
LINE
  5
347D
330
1F
100
AcDbEntity
  8
1　製品
  6
HIDDEN
 48
5.0
100
AcDbLine
 10
2903.777562418028
 20
2109.796524983801
 30
0.0
 11
2903.777562418028
 21
2214.796524983801
 31
0.0
  0
LINE
  5
347E
330
1F
100
AcDbEntity
  8
1　製品
  6
HIDDEN
 48
5.0
100
AcDbLine
 10
2943.777562418027
 20
2214.796524983801
 30
0.0
 11
2943.777562418028
 21
2113.796524983801
 31
0.0
  0
LINE
  5
347F
330
1F
100
AcDbEntity
  8
3　補助線
100
AcDbLine
 10
2928.777562418028
 20
2204.796524983801
 30
0.0
 11
2928.777562418028
 21
2174.796524983801
 31
0.0
  0
LINE
  5
3480
330
1F
100
AcDbEntity
  8
1　製品
  6
HIDDEN
 48
5.0
100
AcDbLine
 10
2893.777562418028
 20
2109.796524983802
 30
0.0
 11
2893.777562418027
 21
2214.796524983802
 31
0.0
  0
LINE
  5
3481
330
1F
100
AcDbEntity
  8
1　製品
  6
HIDDEN
 48
5.0
100
AcDbLine
 10
2894.577562418028
 20
2259.796524983802
 30
0.0
 11
2894.577562418028
 21
2109.796524983802
 31
0.0
  0
LINE
  5
3482
330
1F
100
AcDbEntity
  8
1　製品
 48
15.0
100
AcDbLine
 10
2897.777562418027
 20
2259.796524983802
 30
0.0
 11
2897.777562418027
 21
2109.796524983802
 31
0.0
  0
LINE
  5
3483
330
1F
100
AcDbEntity
  8
1　製品
 48
15.0
100
AcDbLine
 10
2897.977562418027
 20
2259.796524983802
 30
0.0
 11
2897.977562418027
 21
2109.796524983801
 31
0.0
  0
LINE
  5
3484
330
1F
100
AcDbEntity
  8
1　製品
 48
15.0
100
AcDbLine
 10
2899.577562418028
 20
2259.796524983801
 30
0.0
 11
2899.577562418028
 21
2109.7965249838
 31
0.0
  0
LINE
  5
3485
330
1F
100
AcDbEntity
  8
1　製品
 48
15.0
100
AcDbLine
 10
2857.777562418027
 20
2109.796524983802
 30
0.0
 11
2747.777562418027
 21
2219.796524983802
 31
0.0
  0
LINE
  5
3486
330
1F
100
AcDbEntity
  8
1　製品
  6
HIDDEN
 48
5.0
100
AcDbLine
 10
2853.777562418029
 20
2214.796524983802
 30
0.0
 11
2853.777562418027
 21
2113.796524983802
 31
0.0
  0
CIRCLE
  5
3487
330
1F
100
AcDbEntity
  8
1　製品
100
AcDbCircle
 10
2868.777562418027
 20
2189.796524983802
 30
0.0
 40
5.0
  0
CIRCLE
  5
3488
330
1F
100
AcDbEntity
  8
1　製品
 48
15.0
100
AcDbCircle
 10
2868.777562418027
 20
2189.796524983802
 30
0.0
 40
5.0
  0
LINE
  5
3489
330
1F
100
AcDbEntity
  8
3　補助線
  6
CENTER2
100
AcDbLine
 10
2868.777562418027
 20
2204.796524983802
 30
0.0
 11
2868.777562418027
 21
2174.796524983802
 31
0.0
  0
LINE
  5
348A
330
1F
100
AcDbEntity
  8
3　補助線
 48
15.0
100
AcDbLine
 10
2868.777562418027
 20
2199.796524983802
 30
0.0
 11
2868.777562418027
 21
2179.796524983802
 31
0.0
  0
LINE
  5
348B
330
1F
100
AcDbEntity
  8
1　製品
 48
15.0
100
AcDbLine
 10
2897.777562418027
 20
2109.796524983802
 30
0.0
 11
2857.777562418027
 21
2109.796524983802
 31
0.0
  0
LINE
  5
348C
330
1F
100
AcDbEntity
  8
3　補助線
100
AcDbLine
 10
2868.777562418027
 20
2144.796524983802
 30
0.0
 11
2868.777562418027
 21
2114.796524983802
 31
0.0
  0
CIRCLE
  5
348D
330
1F
100
AcDbEntity
  8
1　製品
100
AcDbCircle
 10
2868.777562418027
 20
2129.796524983802
 30
0.0
 40
5.0
  0
CIRCLE
  5
348E
330
1F
100
AcDbEntity
  8
1　製品
 48
15.0
100
AcDbCircle
 10
2868.777562418027
 20
2129.796524983802
 30
0.0
 40
5.0
  0
LINE
  5
348F
330
1F
100
AcDbEntity
  8
3　補助線
 48
15.0
100
AcDbLine
 10
2881.115644088335
 20
2129.796524983802
 30
0.0
 11
2855.531520241013
 21
2129.796524983802
 31
0.0
  0
LINE
  5
3490
330
1F
100
AcDbEntity
  8
3　補助線
100
AcDbLine
 10
2887.057783393604
 20
2129.796524983801
 30
0.0
 11
2908.656786574063
 21
2129.796524983801
 31
0.0
  0
LINE
  5
3491
330
1F
100
AcDbEntity
  8
3　補助線
 48
15.0
100
AcDbLine
 10
2928.777562418028
 20
2141.772972523
 30
0.0
 11
2928.777562418028
 21
2117.389853338294
 31
0.0
  0
LINE
  5
3492
330
1F
100
AcDbEntity
  8
1　製品
100
AcDbLine
 10
2897.977562418027
 20
2109.796524983801
 30
0.0
 11
2899.577562418028
 21
2109.7965249838
 31
0.0
  0
CIRCLE
  5
3493
330
1F
100
AcDbEntity
  8
3　補助線
 48
15.0
100
AcDbCircle
 10
2928.777562418028
 20
2129.796524983801
 30
0.0
 40
5.0
  0
LINE
  5
3494
330
1F
100
AcDbEntity
  8
3　補助線
 48
15.0
100
AcDbLine
 10
2916.021048897448
 20
2129.796524983801
 30
0.0
 11
2941.128437236897
 21
2129.796524983801
 31
0.0
  0
LINE
  5
3495
330
1F
100
AcDbEntity
  8
1　製品
 48
15.0
100
AcDbLine
 10
2899.777562418028
 20
2109.796524983801
 30
0.0
 11
2939.777562418028
 21
2109.796524983801
 31
0.0
  0
CIRCLE
  5
3496
330
1F
100
AcDbEntity
  8
1　製品
100
AcDbCircle
 10
2928.777562418028
 20
2129.796524983801
 30
0.0
 40
5.0
  0
LINE
  5
3497
330
1F
100
AcDbEntity
  8
1　製品
  6
HIDDEN
 48
5.0
100
AcDbLine
 10
2747.777562418027
 20
2219.796524983803
 30
0.0
 11
2890.777562418027
 21
2219.796524983802
 31
0.0
  0
LINE
  5
3498
330
1F
100
AcDbEntity
  8
1　製品
 48
15.0
100
AcDbLine
 10
2897.777562418027
 20
2259.796524983802
 30
0.0
 11
2747.777562418027
 21
2259.796524983802
 31
0.0
  0
LINE
  5
3499
330
1F
100
AcDbEntity
  8
3　補助線
 48
15.0
100
AcDbLine
 10
2778.777562418027
 20
2239.796524983802
 30
0.0
 11
2758.777562418027
 21
2239.796524983802
 31
0.0
  0
LINE
  5
349A
330
1F
100
AcDbEntity
  8
3　補助線
  6
CENTER2
100
AcDbLine
 10
2783.777562418027
 20
2239.796524983802
 30
0.0
 11
2753.777562418027
 21
2239.796524983802
 31
0.0
  0
CIRCLE
  5
349B
330
1F
100
AcDbEntity
  8
1　製品
 48
15.0
100
AcDbCircle
 10
2768.777562418027
 20
2239.796524983802
 30
0.0
 40
5.0
  0
CIRCLE
  5
349C
330
1F
100
AcDbEntity
  8
1　製品
100
AcDbCircle
 10
2768.777562418027
 20
2239.796524983802
 30
0.0
 40
5.0
  0
LINE
  5
349D
330
1F
100
AcDbEntity
  8
3　補助線
  6
CENTER2
100
AcDbLine
 10
2768.777562418027
 20
2254.796524983802
 30
0.0
 11
2768.777562418027
 21
2224.796524983802
 31
0.0
  0
LINE
  5
349E
330
1F
100
AcDbEntity
  8
3　補助線
 48
15.0
100
AcDbLine
 10
2768.777562418027
 20
2249.796524983802
 30
0.0
 11
2768.777562418027
 21
2229.796524983802
 31
0.0
  0
LINE
  5
349F
330
1F
100
AcDbEntity
  8
1　製品
 48
15.0
100
AcDbLine
 10
2747.777562418027
 20
2259.796524983802
 30
0.0
 11
2747.777562418027
 21
2219.796524983802
 31
0.0
  0
LINE
  5
34A0
330
1F
100
AcDbEntity
  8
1　製品
  6
HIDDEN
 48
5.0
100
AcDbLine
 10
2893.777562418027
 20
2214.796524983802
 30
0.0
 11
2853.777562418029
 21
2214.796524983802
 31
0.0
  0
LINE
  5
34A1
330
1F
100
AcDbEntity
  8
3　補助線
 48
15.0
100
AcDbLine
 10
2873.777562418027
 20
2239.796524983802
 30
0.0
 11
2853.777562418027
 21
2239.796524983802
 31
0.0
  0
CIRCLE
  5
34A2
330
1F
100
AcDbEntity
  8
1　製品
 48
15.0
100
AcDbCircle
 10
2863.777562418027
 20
2239.796524983802
 30
0.0
 40
5.0
  0
CIRCLE
  5
34A3
330
1F
100
AcDbEntity
  8
1　製品
100
AcDbCircle
 10
2863.777562418027
 20
2239.796524983802
 30
0.0
 40
5.0
  0
LINE
  5
34A4
330
1F
100
AcDbEntity
  8
3　補助線
  6
CENTER2
100
AcDbLine
 10
2863.777562418027
 20
2254.796524983802
 30
0.0
 11
2863.777562418027
 21
2224.796524983802
 31
0.0
  0
LINE
  5
34A5
330
1F
100
AcDbEntity
  8
3　補助線
 48
15.0
100
AcDbLine
 10
2863.777562418027
 20
2249.796524983802
 30
0.0
 11
2863.777562418027
 21
2229.796524983802
 31
0.0
  0
LINE
  5
34A6
330
1F
100
AcDbEntity
  8
3　補助線
100
AcDbLine
 10
2853.777562418027
 20
2189.796524983802
 30
0.0
 11
2883.777562418027
 21
2189.796524983802
 31
0.0
  0
LINE
  5
34A7
330
1F
100
AcDbEntity
  8
3　補助線
 48
15.0
100
AcDbLine
 10
2878.777562418027
 20
2189.796524983802
 30
0.0
 11
2858.777562418027
 21
2189.796524983802
 31
0.0
  0
LINE
  5
34A8
330
1F
100
AcDbEntity
  8
3　補助線
  6
CENTER2
100
AcDbLine
 10
2878.777562418027
 20
2239.796524983802
 30
0.0
 11
2848.777562418027
 21
2239.796524983802
 31
0.0
  0
LINE
  5
34A9
330
1F
100
AcDbEntity
  8
3　補助線
 48
15.0
100
AcDbLine
 10
2933.777562418028
 20
2252.468643106467
 30
0.0
 11
2933.777562418028
 21
2226.463203522077
 31
0.0
  0
LINE
  5
34AA
330
1F
100
AcDbEntity
  8
1　製品
  6
HIDDEN
 48
5.0
100
AcDbLine
 10
2906.777562418028
 20
2219.796524983801
 30
0.0
 11
2906.777562418028
 21
2256.796524983801
 31
0.0
  0
LINE
  5
34AB
330
1F
100
AcDbEntity
  8
1　製品
  6
HIDDEN2
100
AcDbLine
 10
2903.777562418028
 20
2219.796524983801
 30
0.0
 11
2903.777562418028
 21
2259.796524983801
 31
0.0
  0
LINE
  5
34AC
330
1F
100
AcDbEntity
  8
3　補助線
100
AcDbLine
 10
2887.717995437237
 20
2189.796524983801
 30
0.0
 11
2908.656786574063
 21
2189.796524983801
 31
0.0
  0
LINE
  5
34AD
330
1F
100
AcDbEntity
  8
1　製品
  6
HIDDEN
 48
5.0
100
AcDbLine
 10
2890.777562418027
 20
2219.796524983802
 30
0.0
 11
2890.777562418027
 21
2256.796524983802
 31
0.0
  0
LINE
  5
34AE
330
1F
100
AcDbEntity
  8
1　製品
  6
HIDDEN2
100
AcDbLine
 10
2893.777562418027
 20
2219.796524983803
 30
0.0
 11
2893.777562418029
 21
2259.796524983802
 31
0.0
  0
LINE
  5
34AF
330
1F
100
AcDbEntity
  8
1　製品
100
AcDbLine
 10
2897.977562418027
 20
2259.796524983802
 30
0.0
 11
2899.577562418028
 21
2259.796524983801
 31
0.0
  0
LINE
  5
34B0
330
1F
100
AcDbEntity
  8
3　補助線
100
AcDbLine
 10
2943.777562418028
 20
2189.796524983801
 30
0.0
 11
2913.777562418028
 21
2189.796524983801
 31
0.0
  0
LINE
  5
34B1
330
1F
100
AcDbEntity
  8
1　製品
  6
HIDDEN
 48
5.0
100
AcDbLine
 10
2903.777562418028
 20
2214.796524983801
 30
0.0
 11
2943.777562418027
 21
2214.796524983801
 31
0.0
  0
LINE
  5
34B2
330
1F
100
AcDbEntity
  8
3　補助線
  6
CENTER2
100
AcDbLine
 10
2918.777562418028
 20
2239.796524983801
 30
0.0
 11
2948.777562418028
 21
2239.796524983801
 31
0.0
  0
CIRCLE
  5
34B3
330
1F
100
AcDbEntity
  8
1　製品
 48
15.0
100
AcDbCircle
 10
2933.777562418028
 20
2239.796524983801
 30
0.0
 40
5.0
  0
CIRCLE
  5
34B4
330
1F
100
AcDbEntity
  8
1　製品
100
AcDbCircle
 10
2933.777562418028
 20
2239.796524983801
 30
0.0
 40
5.0
  0
LINE
  5
34B5
330
1F
100
AcDbEntity
  8
1　製品
100
AcDbLine
 10
3893.760201663236
 20
1759.796524983801
 30
0.0
 11
3893.760201663236
 21
2109.796524983801
 31
0.0
  0
LINE
  5
34B6
330
1F
100
AcDbEntity
  8
1　製品
  6
HIDDEN2
100
AcDbLine
 10
3890.760201663236
 20
1759.796524983801
 30
0.0
 11
3890.760201663236
 21
2214.796524983801
 31
0.0
  0
LINE
  5
34B7
330
1F
100
AcDbEntity
  8
1　製品
100
AcDbLine
 10
3853.760201663236
 20
1759.796524983801
 30
0.0
 11
3853.760201663236
 21
2113.7965249838
 31
0.0
  0
LINE
  5
34B8
330
1F
100
AcDbEntity
  8
3　補助線
100
AcDbLine
 10
3878.760201663236
 20
1774.796524983801
 30
0.0
 11
3878.760201663236
 21
1744.796524983801
 31
0.0
  0
LINE
  5
34B9
330
1F
100
AcDbEntity
  8
1　製品
100
AcDbLine
 10
3893.760201663236
 20
1759.796524983801
 30
0.0
 11
3853.760201663236
 21
1759.796524983801
 31
0.0
  0
LINE
  5
34BA
330
1F
100
AcDbEntity
  8
1　製品
  6
HIDDEN2
100
AcDbLine
 10
3890.760201663237
 20
1762.796524983801
 30
0.0
 11
3853.760201663236
 21
1762.796524983801
 31
0.0
  0
LINE
  5
34BB
330
1F
100
AcDbEntity
  8
1　製品
100
AcDbLine
 10
3049.777562418028
 20
2219.796524983801
 30
0.0
 11
3747.760201663236
 21
2219.796524983802
 31
0.0
  0
LINE
  5
34BD
330
1F
100
AcDbEntity
  8
1　製品
 48
15.0
100
AcDbLine
 10
3049.777562418028
 20
2259.796524983801
 30
0.0
 11
3049.777562418028
 21
2219.796524983801
 31
0.0
  0
CIRCLE
  5
34BE
330
1F
100
AcDbEntity
  8
1　製品
 48
15.0
100
AcDbCircle
 10
3028.777562418028
 20
2239.796524983801
 30
0.0
 40
5.0
  0
LINE
  5
34BF
330
1F
100
AcDbEntity
  8
3　補助線
 48
15.0
100
AcDbLine
 10
3028.777562418028
 20
2251.770881493523
 30
0.0
 11
3028.777562418028
 21
2227.560414305883
 31
0.0
  0
CIRCLE
  5
34C0
330
1F
100
AcDbEntity
  8
1　製品
100
AcDbCircle
 10
3028.777562418028
 20
2239.796524983801
 30
0.0
 40
5.0
  0
LINE
  5
34C1
330
1F
100
AcDbEntity
  8
3　補助線
 48
15.0
100
AcDbLine
 10
3016.85008101253
 20
2239.796524983801
 30
0.0
 11
3041.173686092425
 21
2239.796524983801
 31
0.0
  0
LINE
  5
34C2
330
1F
100
AcDbEntity
  8
1　製品
  6
HIDDEN
 48
5.0
100
AcDbLine
 10
3894.560201663237
 20
2259.796524983801
 30
0.0
 11
3894.560201663237
 21
2109.796524983801
 31
0.0
  0
LINE
  5
34C3
330
1F
100
AcDbEntity
  8
1　製品
 48
15.0
100
AcDbLine
 10
3897.760201663236
 20
2259.796524983801
 30
0.0
 11
3897.760201663236
 21
2109.796524983801
 31
0.0
  0
LINE
  5
34C4
330
1F
100
AcDbEntity
  8
1　製品
 48
15.0
100
AcDbLine
 10
3857.760201663236
 20
2109.796524983801
 30
0.0
 11
3747.760201663236
 21
2219.796524983801
 31
0.0
  0
LINE
  5
34C5
330
1F
100
AcDbEntity
  8
1　製品
  6
HIDDEN
 48
5.0
100
AcDbLine
 10
3893.760201663236
 20
2109.796524983801
 30
0.0
 11
3893.760201663236
 21
2214.796524983801
 31
0.0
  0
LINE
  5
34C6
330
1F
100
AcDbEntity
  8
1　製品
  6
HIDDEN
 48
5.0
100
AcDbLine
 10
3853.760201663237
 20
2214.796524983801
 30
0.0
 11
3853.760201663236
 21
2113.7965249838
 31
0.0
  0
CIRCLE
  5
34C7
330
1F
100
AcDbEntity
  8
1　製品
100
AcDbCircle
 10
3868.760201663236
 20
2189.796524983801
 30
0.0
 40
5.0
  0
CIRCLE
  5
34C8
330
1F
100
AcDbEntity
  8
1　製品
 48
15.0
100
AcDbCircle
 10
3868.760201663236
 20
2189.796524983801
 30
0.0
 40
5.0
  0
LINE
  5
34C9
330
1F
100
AcDbEntity
  8
3　補助線
  6
CENTER2
100
AcDbLine
 10
3868.760201663236
 20
2204.796524983801
 30
0.0
 11
3868.760201663236
 21
2174.796524983801
 31
0.0
  0
CIRCLE
  5
34CA
330
1F
100
AcDbEntity
  8
1　製品
100
AcDbCircle
 10
3868.760201663236
 20
2129.796524983801
 30
0.0
 40
5.0
  0
CIRCLE
  5
34CB
330
1F
100
AcDbEntity
  8
1　製品
 48
15.0
100
AcDbCircle
 10
3868.760201663236
 20
2129.796524983801
 30
0.0
 40
5.0
  0
LINE
  5
34CC
330
1F
100
AcDbEntity
  8
3　補助線
 48
15.0
100
AcDbLine
 10
3882.606018699811
 20
2129.796524983801
 30
0.0
 11
3855.738779640084
 21
2129.796524983801
 31
0.0
  0
LINE
  5
34CD
330
1F
100
AcDbEntity
  8
1　製品
 48
15.0
100
AcDbLine
 10
3897.760201663236
 20
2109.796524983801
 30
0.0
 11
3857.760201663236
 21
2109.796524983801
 31
0.0
  0
LINE
  5
34CE
330
1F
100
AcDbEntity
  8
3　補助線
 48
15.0
100
AcDbLine
 10
3868.760201663236
 20
2146.192695821015
 30
0.0
 11
3868.760201663236
 21
2114.754739121536
 31
0.0
  0
LINE
  5
34CF
330
1F
100
AcDbEntity
  8
1　製品
  6
HIDDEN
 48
5.0
100
AcDbLine
 10
3747.760201663235
 20
2219.796524983802
 30
0.0
 11
3890.760201663236
 21
2219.796524983801
 31
0.0
  0
LINE
  5
34D0
330
1F
100
AcDbEntity
  8
1　製品
 48
15.0
100
AcDbLine
 10
3897.760201663236
 20
2259.796524983801
 30
0.0
 11
3747.760201663236
 21
2259.796524983801
 31
0.0
  0
LINE
  5
34D1
330
1F
100
AcDbEntity
  8
1　製品
 48
15.0
100
AcDbLine
 10
3747.760201663236
 20
2259.796524983801
 30
0.0
 11
3747.760201663236
 21
2219.796524983801
 31
0.0
  0
LINE
  5
34D2
330
1F
100
AcDbEntity
  8
3　補助線
  6
CENTER2
100
AcDbLine
 10
3768.760201663236
 20
2254.796524983801
 30
0.0
 11
3768.760201663236
 21
2224.796524983801
 31
0.0
  0
LINE
  5
34D3
330
1F
100
AcDbEntity
  8
3　補助線
  6
CENTER2
100
AcDbLine
 10
3783.760201663236
 20
2239.796524983801
 30
0.0
 11
3753.760201663236
 21
2239.796524983801
 31
0.0
  0
CIRCLE
  5
34D4
330
1F
100
AcDbEntity
  8
1　製品
 48
15.0
100
AcDbCircle
 10
3768.760201663236
 20
2239.796524983801
 30
0.0
 40
5.0
  0
CIRCLE
  5
34D5
330
1F
100
AcDbEntity
  8
1　製品
100
AcDbCircle
 10
3768.760201663236
 20
2239.796524983801
 30
0.0
 40
5.0
  0
LINE
  5
34D6
330
1F
100
AcDbEntity
  8
3　補助線
  6
CENTER2
100
AcDbLine
 10
3863.760201663236
 20
2254.796524983801
 30
0.0
 11
3863.760201663236
 21
2224.796524983801
 31
0.0
  0
LINE
  5
34D7
330
1F
100
AcDbEntity
  8
1　製品
  6
HIDDEN
 48
5.0
100
AcDbLine
 10
3890.760201663236
 20
2219.796524983801
 30
0.0
 11
3890.760201663236
 21
2256.796524983801
 31
0.0
  0
LINE
  5
34D8
330
1F
100
AcDbEntity
  8
1　製品
  6
HIDDEN2
100
AcDbLine
 10
3893.760201663236
 20
2219.796524983802
 30
0.0
 11
3893.760201663237
 21
2259.796524983801
 31
0.0
  0
LINE
  5
34D9
330
1F
100
AcDbEntity
  8
1　製品
  6
HIDDEN
 48
5.0
100
AcDbLine
 10
3893.760201663236
 20
2214.796524983801
 30
0.0
 11
3853.760201663237
 21
2214.796524983801
 31
0.0
  0
LINE
  5
34DA
330
1F
100
AcDbEntity
  8
3　補助線
 48
15.0
100
AcDbLine
 10
3883.959760173111
 20
2189.796524983801
 30
0.0
 11
3853.760201663237
 21
2189.841554171328
 31
0.0
  0
CIRCLE
  5
34DB
330
1F
100
AcDbEntity
  8
1　製品
 48
15.0
100
AcDbCircle
 10
3863.760201663236
 20
2239.796524983801
 30
0.0
 40
5.0
  0
CIRCLE
  5
34DC
330
1F
100
AcDbEntity
  8
1　製品
100
AcDbCircle
 10
3863.760201663236
 20
2239.796524983801
 30
0.0
 40
5.0
  0
LINE
  5
34DD
330
1F
100
AcDbEntity
  8
3　補助線
  6
CENTER2
100
AcDbLine
 10
3878.760201663236
 20
2239.796524983801
 30
0.0
 11
3848.760201663236
 21
2239.796524983801
 31
0.0
  0
LINE
  5
3541
330
1F
100
AcDbEntity
  8
1　製品
100
AcDbLine
 10
4550.437200283776
 20
1759.796524983801
 30
0.0
 11
5390.437200283775
 21
1759.796524983801
 31
0.0
  0
LINE
  5
3542
330
1F
100
AcDbEntity
  8
1　製品
  6
HIDDEN2
100
AcDbLine
 10
4553.437200283776
 20
1762.796524983801
 30
0.0
 11
5387.437200283775
 21
1762.796524983801
 31
0.0
  0
LINE
  5
3543
330
1F
100
AcDbEntity
  8
1　製品
100
AcDbLine
 10
4590.437200283776
 20
1799.796524983801
 30
0.0
 11
5350.437200283776
 21
1799.796524983801
 31
0.0
  0
LINE
  5
3544
330
1F
100
AcDbEntity
  8
1　製品
100
AcDbLine
 10
4551.437200283776
 20
2259.796524983801
 30
0.0
 11
5391.437200283776
 21
2259.796524983801
 31
0.0
  0
LINE
  5
3545
330
1F
100
AcDbEntity
  8
1　製品
100
AcDbLine
 10
4596.437200283776
 20
2219.796524983801
 30
0.0
 11
5346.437200283776
 21
2219.796524983801
 31
0.0
  0
LINE
  5
3546
330
1F
100
AcDbEntity
  8
1　製品
  6
HIDDEN
 48
5.0
100
AcDbLine
 10
4591.437200283776
 20
2256.7965249838
 30
0.0
 11
5351.437200283777
 21
2256.7965249838
 31
0.0
  0
LINE
  5
3547
330
1F
100
AcDbEntity
  8
1　製品
  6
HIDDEN
 48
5.0
100
AcDbLine
 10
4553.437200283776
 20
1762.796524983801
 30
0.0
 11
4553.437200283776
 21
2214.796524983801
 31
0.0
  0
LINE
  5
3548
330
1F
100
AcDbEntity
  8
1　製品
100
AcDbLine
 10
4550.437200283776
 20
1759.796524983801
 30
0.0
 11
4550.437200283776
 21
2109.7965249838
 31
0.0
  0
LINE
  5
3549
330
1F
100
AcDbEntity
  8
1　製品
100
AcDbLine
 10
4590.437200283776
 20
1759.796524983801
 30
0.0
 11
4590.437200283776
 21
2109.7965249838
 31
0.0
  0
LINE
  5
354C
330
1F
100
AcDbEntity
  8
3　補助線
  6
CENTER2
100
AcDbLine
 10
4590.437200283776
 20
1744.796524983801
 30
0.0
 11
4590.437200283776
 21
1774.796524983801
 31
0.0
  0
LINE
  5
354D
330
1F
100
AcDbEntity
  8
1　製品
100
AcDbLine
 10
4553.437200283776
 20
1869.796524983801
 30
0.0
 11
4550.437200283776
 21
1869.796524983801
 31
0.0
  0
LINE
  5
354E
330
1F
100
AcDbEntity
  8
3　補助線
  6
CENTER2
100
AcDbLine
 10
4780.437200283776
 20
1744.796524983801
 30
0.0
 11
4780.437200283776
 21
1774.796524983801
 31
0.0
  0
LINE
  5
354F
330
1F
100
AcDbEntity
  8
1　製品
 48
15.0
100
AcDbLine
 10
4596.437200283776
 20
2259.796524983801
 30
0.0
 11
4596.437200283776
 21
2109.796524983801
 31
0.0
  0
LINE
  5
3550
330
1F
100
AcDbEntity
  8
1　製品
  6
HIDDEN
 48
5.0
100
AcDbLine
 10
4549.637200283776
 20
2259.796524983801
 30
0.0
 11
4549.637200283776
 21
2109.796524983801
 31
0.0
  0
LINE
  5
3551
330
1F
100
AcDbEntity
  8
1　製品
 48
15.0
100
AcDbLine
 10
4546.437200283776
 20
2259.796524983801
 30
0.0
 11
4546.437200283776
 21
2109.796524983801
 31
0.0
  0
LINE
  5
3552
330
1F
100
AcDbEntity
  8
1　製品
  6
HIDDEN
 48
5.0
100
AcDbLine
 10
4550.437200283776
 20
2214.796524983801
 30
0.0
 11
4550.437200283776
 21
2109.796524983801
 31
0.0
  0
LINE
  5
3553
330
1F
100
AcDbEntity
  8
1　製品
  6
HIDDEN
 48
5.0
100
AcDbLine
 10
4590.437200283776
 20
2109.796524983801
 30
0.0
 11
4590.437200283776
 21
2214.796524983801
 31
0.0
  0
CIRCLE
  5
3554
330
1F
100
AcDbEntity
  8
3　補助線
 48
15.0
100
AcDbCircle
 10
4575.437200283776
 20
2189.796524983801
 30
0.0
 40
5.0
  0
LINE
  5
3555
330
1F
100
AcDbEntity
  8
3　補助線
  6
CENTER2
100
AcDbLine
 10
4575.437200283776
 20
2204.796524983801
 30
0.0
 11
4575.437200283776
 21
2174.796524983801
 31
0.0
  0
CIRCLE
  5
3556
330
1F
100
AcDbEntity
  8
3　補助線
100
AcDbCircle
 10
4575.437200283776
 20
2189.796524983801
 30
0.0
 40
5.0
  0
LINE
  5
3557
330
1F
100
AcDbEntity
  8
1　製品
 48
15.0
100
AcDbLine
 10
4546.437200283776
 20
2109.796524983801
 30
0.0
 11
4596.437200283776
 21
2109.796524983801
 31
0.0
  0
LINE
  5
3558
330
1F
100
AcDbEntity
  8
3　補助線
100
AcDbLine
 10
4590.437200283776
 20
2129.796524983801
 30
0.0
 11
4560.437200283776
 21
2129.796524983801
 31
0.0
  0
LINE
  5
3559
330
1F
100
AcDbEntity
  8
3　補助線
100
AcDbLine
 10
4559.121577563393
 20
2129.796525573741
 30
0.0
 11
4541.752823004159
 21
2129.796525573741
 31
0.0
  0
CIRCLE
  5
355A
330
1F
100
AcDbEntity
  8
1　製品
 48
15.0
100
AcDbCircle
 10
4575.437200283776
 20
2129.796524983801
 30
0.0
 40
5.0
  0
LINE
  5
355B
330
1F
100
AcDbEntity
  8
3　補助線
  6
CENTER2
100
AcDbLine
 10
4575.437200283776
 20
2144.796524983801
 30
0.0
 11
4575.437200283776
 21
2114.796524983801
 31
0.0
  0
CIRCLE
  5
355C
330
1F
100
AcDbEntity
  8
1　製品
100
AcDbCircle
 10
4575.437200283776
 20
2129.796524983801
 30
0.0
 40
5.0
  0
LINE
  5
355D
330
1F
100
AcDbEntity
  8
1　製品
  6
HIDDEN
 48
5.0
100
AcDbLine
 10
4596.437200283776
 20
2219.796524983801
 30
0.0
 11
4551.437200283776
 21
2219.796524983801
 31
0.0
  0
LINE
  5
355E
330
1F
100
AcDbEntity
  8
3　補助線
100
AcDbLine
 10
4590.437200283776
 20
2189.796524983801
 30
0.0
 11
4560.437200283776
 21
2189.796524983801
 31
0.0
  0
LINE
  5
355F
330
1F
100
AcDbEntity
  8
1　製品
  6
HIDDEN
 48
5.0
100
AcDbLine
 10
4550.437200283776
 20
2214.796524983801
 30
0.0
 11
4590.437200283776
 21
2214.796524983801
 31
0.0
  0
LINE
  5
3560
330
1F
100
AcDbEntity
  8
1　製品
 48
15.0
100
AcDbLine
 10
4546.437200283776
 20
2259.796524983801
 30
0.0
 11
4596.437200283776
 21
2259.796524983801
 31
0.0
  0
LINE
  5
3561
330
1F
100
AcDbEntity
  8
1　製品
  6
HIDDEN
 48
5.0
100
AcDbLine
 10
4591.437200283776
 20
2256.7965249838
 30
0.0
 11
4554.437200283776
 21
2256.7965249838
 31
0.0
  0
LINE
  5
3562
330
1F
100
AcDbEntity
  8
1　製品
  6
HIDDEN
 48
5.0
100
AcDbLine
 10
4554.437200283776
 20
2256.7965249838
 30
0.0
 11
4554.437200283776
 21
2219.796524983801
 31
0.0
  0
LINE
  5
3563
330
1F
100
AcDbEntity
  8
1　製品
  6
HIDDEN
 48
5.0
100
AcDbLine
 10
4551.437200283776
 20
2259.796524983801
 30
0.0
 11
4551.437200283776
 21
2219.796524983801
 31
0.0
  0
LINE
  5
3564
330
1F
100
AcDbEntity
  8
3　補助線
100
AcDbLine
 10
4559.121577563393
 20
2189.796525573741
 30
0.0
 11
4541.752823004159
 21
2189.796525573741
 31
0.0
  0
LINE
  5
3565
330
1F
100
AcDbEntity
  8
3　補助線
 48
15.0
100
AcDbLine
 10
4541.437200283776
 20
2239.796524983801
 30
0.0
 11
4558.546936378825
 21
2239.7965249838
 31
0.0
  0
LINE
  5
3566
330
1F
100
AcDbEntity
  8
3　補助線
100
AcDbLine
 10
4581.437200283776
 20
2254.796524983801
 30
0.0
 11
4581.437200283776
 21
2224.796524983801
 31
0.0
  0
LINE
  5
3567
330
1F
100
AcDbEntity
  8
1　製品
 48
15.0
100
AcDbLine
 10
4576.437200283776
 20
2244.796524983801
 30
0.0
 11
4586.437200283776
 21
2244.796524983801
 31
0.0
  0
LINE
  5
3568
330
1F
100
AcDbEntity
  8
1　製品
 48
15.0
100
AcDbLine
 10
4576.437200283776
 20
2234.796524983801
 30
0.0
 11
4586.437200283776
 21
2234.796524983801
 31
0.0
  0
ARC
  5
3569
330
1F
100
AcDbEntity
  8
1　製品
 48
15.0
100
AcDbCircle
 10
4586.437200283776
 20
2239.796524983801
 30
0.0
 40
5.0
100
AcDbArc
 50
270.0
 51
90.0
  0
ARC
  5
356A
330
1F
100
AcDbEntity
  8
1　製品
 48
15.0
100
AcDbCircle
 10
4576.437200283776
 20
2239.796524983801
 30
0.0
 40
5.0
100
AcDbArc
 50
90.0
 51
270.0
  0
LINE
  5
356B
330
1F
100
AcDbEntity
  8
1　製品
 48
15.0
100
AcDbLine
 10
4566.437200283776
 20
2239.796524983801
 30
0.0
 11
4596.437200283776
 21
2239.796524983801
 31
0.0
  0
LINE
  5
356C
330
1F
100
AcDbEntity
  8
1　製品
100
AcDbLine
 10
4591.437200283776
 20
2259.796524983801
 30
0.0
 11
4591.437200283776
 21
2256.7965249838
 31
0.0
  0
CIRCLE
  5
356D
330
1F
100
AcDbEntity
  8
1　製品
100
AcDbCircle
 10
4581.437200283776
 20
2239.796524983801
 30
0.0
 40
5.0
  0
LINE
  5
356E
330
1F
100
AcDbEntity
  8
3　補助線
100
AcDbLine
 10
4596.437200283776
 20
2239.796524983801
 30
0.0
 11
4566.437200283776
 21
2239.796524983801
 31
0.0
  0
LINE
  5
356F
330
1F
100
AcDbEntity
  8
1　製品
100
AcDbLine
 10
5350.437200283776
 20
1759.796524983801
 30
0.0
 11
5350.437200283776
 21
2109.796524983801
 31
0.0
  0
LINE
  5
3570
330
1F
100
AcDbEntity
  8
1　製品
  6
HIDDEN
 48
5.0
100
AcDbLine
 10
5387.437200283775
 20
1762.796524983801
 30
0.0
 11
5387.437200283776
 21
2214.796524983801
 31
0.0
  0
LINE
  5
3571
330
1F
100
AcDbEntity
  8
1　製品
100
AcDbLine
 10
5390.437200283776
 20
1759.796524983801
 30
0.0
 11
5390.437200283776
 21
2109.7965249838
 31
0.0
  0
LINE
  5
3575
330
1F
100
AcDbEntity
  8
3　補助線
  6
CENTER2
100
AcDbLine
 10
4970.437200283776
 20
1744.796524983801
 30
0.0
 11
4970.437200283776
 21
1774.796524983801
 31
0.0
  0
LINE
  5
3576
330
1F
100
AcDbEntity
  8
3　補助線
  6
CENTER2
100
AcDbLine
 10
5160.437200283776
 20
1744.796524983801
 30
0.0
 11
5160.437200283776
 21
1774.796524983801
 31
0.0
  0
LINE
  5
3577
330
1F
100
AcDbEntity
  8
3　補助線
  6
CENTER2
100
AcDbLine
 10
5350.437200283776
 20
1744.796524983801
 30
0.0
 11
5350.437200283776
 21
1774.796524983801
 31
0.0
  0
LINE
  5
3578
330
1F
100
AcDbEntity
  8
1　製品
100
AcDbLine
 10
5387.437200283776
 20
1869.796524983801
 30
0.0
 11
5390.437200283776
 21
1869.796524983801
 31
0.0
  0
LINE
  5
3579
330
1F
100
AcDbEntity
  8
1　製品
  6
HIDDEN
 48
5.0
100
AcDbLine
 10
5393.237200283776
 20
2259.796524983801
 30
0.0
 11
5393.237200283776
 21
2109.796524983801
 31
0.0
  0
LINE
  5
357A
330
1F
100
AcDbEntity
  8
1　製品
 48
15.0
100
AcDbLine
 10
5346.437200283776
 20
2259.796524983801
 30
0.0
 11
5346.437200283776
 21
2109.796524983801
 31
0.0
  0
LINE
  5
357B
330
1F
100
AcDbEntity
  8
1　製品
  6
HIDDEN
 48
5.0
100
AcDbLine
 10
5390.437200283776
 20
2214.796524983801
 30
0.0
 11
5390.437200283776
 21
2109.796524983801
 31
0.0
  0
LINE
  5
357C
330
1F
100
AcDbEntity
  8
1　製品
  6
HIDDEN
 48
5.0
100
AcDbLine
 10
5350.437200283776
 20
2109.796524983801
 30
0.0
 11
5350.437200283776
 21
2214.796524983801
 31
0.0
  0
CIRCLE
  5
357D
330
1F
100
AcDbEntity
  8
1　製品
 48
15.0
100
AcDbCircle
 10
5367.437200283776
 20
2189.796524983801
 30
0.0
 40
5.0
  0
LINE
  5
357E
330
1F
100
AcDbEntity
  8
3　補助線
 48
15.0
100
AcDbLine
 10
5367.437200283776
 20
2199.796524983801
 30
0.0
 11
5367.437200283776
 21
2179.796524983801
 31
0.0
  0
LINE
  5
357F
330
1F
100
AcDbEntity
  8
3　補助線
  6
CENTER2
100
AcDbLine
 10
5365.437200283776
 20
2204.796524983801
 30
0.0
 11
5365.437200283776
 21
2174.796524983801
 31
0.0
  0
CIRCLE
  5
3580
330
1F
100
AcDbEntity
  8
1　製品
100
AcDbCircle
 10
5365.437200283776
 20
2189.796524983801
 30
0.0
 40
5.0
  0
LINE
  5
3581
330
1F
100
AcDbEntity
  8
1　製品
 48
15.0
100
AcDbLine
 10
5396.437200283776
 20
2259.796524983801
 30
0.0
 11
5396.437200283776
 21
2109.796524983801
 31
0.0
  0
LINE
  5
3582
330
1F
100
AcDbEntity
  8
3　補助線
 48
15.0
100
AcDbLine
 10
5401.437200283776
 20
2129.796524983801
 30
0.0
 11
5384.413716106599
 21
2129.796524983801
 31
0.0
  0
LINE
  5
3583
330
1F
100
AcDbEntity
  8
3　補助線
 48
15.0
100
AcDbLine
 10
5367.437200283776
 20
2139.796524983801
 30
0.0
 11
5367.437200283776
 21
2119.796524983801
 31
0.0
  0
CIRCLE
  5
3584
330
1F
100
AcDbEntity
  8
1　製品
 48
15.0
100
AcDbCircle
 10
5367.437200283776
 20
2129.796524983801
 30
0.0
 40
5.0
  0
LINE
  5
3585
330
1F
100
AcDbEntity
  8
3　補助線
  6
CENTER2
100
AcDbLine
 10
5365.437200283776
 20
2144.796524983801
 30
0.0
 11
5365.437200283776
 21
2114.796524983801
 31
0.0
  0
CIRCLE
  5
3586
330
1F
100
AcDbEntity
  8
1　製品
100
AcDbCircle
 10
5365.437200283776
 20
2129.796524983801
 30
0.0
 40
5.0
  0
LINE
  5
3587
330
1F
100
AcDbEntity
  8
1　製品
 48
15.0
100
AcDbLine
 10
5396.437200283776
 20
2109.796524983801
 30
0.0
 11
5346.437200283776
 21
2109.796524983801
 31
0.0
  0
LINE
  5
3588
330
1F
100
AcDbEntity
  8
3　補助線
100
AcDbLine
 10
5350.437200283776
 20
2129.796524983801
 30
0.0
 11
5380.437200283776
 21
2129.796524983801
 31
0.0
  0
LINE
  5
3589
330
1F
100
AcDbEntity
  8
3　補助線
 48
15.0
100
AcDbLine
 10
5401.437200283776
 20
2239.796524983801
 30
0.0
 11
5388.237200283776
 21
2239.7965249838
 31
0.0
  0
LINE
  5
358A
330
1F
100
AcDbEntity
  8
1　製品
100
AcDbLine
 10
5391.437200283776
 20
2259.796524983801
 30
0.0
 11
5391.437200283776
 21
2219.796524983801
 31
0.0
  0
LINE
  5
358B
330
1F
100
AcDbEntity
  8
1　製品
  6
HIDDEN
 48
5.0
100
AcDbLine
 10
5388.437200283776
 20
2256.796524983801
 30
0.0
 11
5388.437200283776
 21
2219.796524983801
 31
0.0
  0
LINE
  5
358C
330
1F
100
AcDbEntity
  8
3　補助線
100
AcDbLine
 10
5361.437200283776
 20
2254.796524983801
 30
0.0
 11
5361.437200283776
 21
2224.796524983801
 31
0.0
  0
LINE
  5
358D
330
1F
100
AcDbEntity
  8
1　製品
 48
15.0
100
AcDbLine
 10
5366.437200283776
 20
2234.796524983801
 30
0.0
 11
5356.437200283776
 21
2234.796524983801
 31
0.0
  0
LINE
  5
358E
330
1F
100
AcDbEntity
  8
1　製品
 48
15.0
100
AcDbLine
 10
5366.437200283776
 20
2244.796524983801
 30
0.0
 11
5356.437200283776
 21
2244.796524983801
 31
0.0
  0
ARC
  5
358F
330
1F
100
AcDbEntity
  8
1　製品
 48
15.0
100
AcDbCircle
 10
5356.437200283776
 20
2239.796524983801
 30
0.0
 40
5.0
100
AcDbArc
 50
90.0
 51
270.0
  0
ARC
  5
3590
330
1F
100
AcDbEntity
  8
1　製品
 48
15.0
100
AcDbCircle
 10
5366.437200283776
 20
2239.796524983801
 30
0.0
 40
5.0
100
AcDbArc
 50
270.0
 51
90.0
  0
LINE
  5
3591
330
1F
100
AcDbEntity
  8
1　製品
100
AcDbLine
 10
5351.437200283776
 20
2259.796524983801
 30
0.0
 11
5351.437200283776
 21
2256.7965249838
 31
0.0
  0
CIRCLE
  5
3592
330
1F
100
AcDbEntity
  8
1　製品
100
AcDbCircle
 10
5361.437200283776
 20
2239.796524983801
 30
0.0
 40
5.0
  0
LINE
  5
3593
330
1F
100
AcDbEntity
  8
1　製品
 48
15.0
100
AcDbLine
 10
5396.437200283776
 20
2259.796524983801
 30
0.0
 11
5346.437200283776
 21
2259.796524983801
 31
0.0
  0
LINE
  5
3594
330
1F
100
AcDbEntity
  8
1　製品
  6
HIDDEN
 48
5.0
100
AcDbLine
 10
5346.437200283776
 20
2219.796524983801
 30
0.0
 11
5391.530192858313
 21
2219.796524983801
 31
0.0
  0
LINE
  5
3595
330
1F
100
AcDbEntity
  8
3　補助線
100
AcDbLine
 10
5350.437200283776
 20
2189.796524983801
 30
0.0
 11
5380.437200283776
 21
2189.796524983801
 31
0.0
  0
LINE
  5
3596
330
1F
100
AcDbEntity
  8
1　製品
  6
HIDDEN
 48
5.0
100
AcDbLine
 10
5350.437200283776
 20
2214.796524983801
 30
0.0
 11
5390.437200283776
 21
2214.796524983801
 31
0.0
  0
LINE
  5
3597
330
1F
100
AcDbEntity
  8
3　補助線
 48
15.0
100
AcDbLine
 10
5376.437200283776
 20
2239.796524983801
 30
0.0
 11
5346.437200283776
 21
2239.796524983801
 31
0.0
  0
LINE
  5
3598
330
1F
100
AcDbEntity
  8
1　製品
  6
HIDDEN
 48
5.0
100
AcDbLine
 10
5351.437200283776
 20
2256.7965249838
 30
0.0
 11
5388.437200283776
 21
2256.796524983801
 31
0.0
  0
LINE
  5
3599
330
1F
100
AcDbEntity
  8
3　補助線
100
AcDbLine
 10
5346.437200283776
 20
2239.796524983801
 30
0.0
 11
5376.437200283776
 21
2239.796524983801
 31
0.0
  0
LINE
  5
359A
330
1F
100
AcDbEntity
  8
3　補助線
100
AcDbLine
 10
3878.760201663236
 20
3772.844429144797
 30
0.0
 11
3908.760201663236
 21
3772.844429144797
 31
0.0
  0
LINE
  5
359B
330
1F
100
AcDbEntity
  8
3　補助線
100
AcDbLine
 10
3878.760201663236
 20
2992.844429144796
 30
0.0
 11
3908.760201663236
 21
2992.844429144796
 31
0.0
  0
LINE
  5
359E
330
1F
100
AcDbEntity
  8
1　製品
100
AcDbLine
 10
2007.082962949316
 20
3669.798623946325
 30
0.0
 11
1968.794923172818
 21
3687.745144236831
 31
0.0
  0
LINE
  5
359F
330
1F
100
AcDbEntity
  8
1　製品
100
AcDbLine
 10
2005.315822651943
 20
3668.970323009842
 30
0.0
 11
1968.794923172818
 21
3686.088542363867
 31
0.0
  0
LINE
  5
35A0
330
1F
100
AcDbEntity
  8
1　製品
100
AcDbLine
 10
2005.315822651944
 20
3593.871038101875
 30
0.0
 11
1968.794923172818
 21
3610.989257455899
 31
0.0
  0
LINE
  5
35A1
330
1F
100
AcDbEntity
  8
1　製品
100
AcDbLine
 10
2007.082962949316
 20
3594.699339038358
 30
0.0
 11
1968.794923172818
 21
3612.645859328863
 31
0.0
  0
LINE
  5
35A2
330
1F
100
AcDbEntity
  8
1　製品
100
AcDbLine
 10
2005.315822651944
 20
3593.871038101875
 30
0.0
 11
1968.794923172818
 21
3576.752818747851
 31
0.0
  0
LINE
  5
35A3
330
1F
100
AcDbEntity
  8
1　製品
100
AcDbLine
 10
2005.315822651943
 20
3556.321395647891
 30
0.0
 11
1968.794923172818
 21
3573.439615001915
 31
0.0
  0
LINE
  5
35A4
330
1F
100
AcDbEntity
  8
1　製品
100
AcDbLine
 10
2007.082962949315
 20
3557.149696584374
 30
0.0
 11
1968.794923172818
 21
3575.09621687488
 31
0.0
  0
LINE
  5
35A5
330
1F
100
AcDbEntity
  8
1　製品
100
AcDbLine
 10
2007.08296294932
 20
3593.04273716539
 30
0.0
 11
1968.794923172818
 21
3575.096216874882
 31
0.0
  0
LINE
  5
35A6
330
1F
100
AcDbEntity
  8
1　製品
100
AcDbLine
 10
2007.08296294932
 20
3668.142022073357
 30
0.0
 11
1968.794923172818
 21
3650.195501782849
 31
0.0
  0
LINE
  5
35A7
330
1F
100
AcDbEntity
  8
1　製品
100
AcDbLine
 10
2005.315822651943
 20
3668.970323009842
 30
0.0
 11
1968.794923172818
 21
3651.852103655819
 31
0.0
  0
LINE
  5
35A8
330
1F
100
AcDbEntity
  8
1　製品
100
AcDbLine
 10
2007.082962949322
 20
3630.592379619373
 30
0.0
 11
1968.794923172818
 21
3612.645859328864
 31
0.0
  0
LINE
  5
35A9
330
1F
100
AcDbEntity
  8
1　製品
100
AcDbLine
 10
2005.315822651944
 20
3631.420680555859
 30
0.0
 11
1968.794923172818
 21
3614.302461201834
 31
0.0
  0
LINE
  5
35AA
330
1F
100
AcDbEntity
  8
1　製品
100
AcDbLine
 10
2007.082962949316
 20
3632.248981492341
 30
0.0
 11
1968.794923172818
 21
3650.195501782848
 31
0.0
  0
LINE
  5
35AB
330
1F
100
AcDbEntity
  8
1　製品
100
AcDbLine
 10
2005.315822651944
 20
3631.420680555859
 30
0.0
 11
1968.794923172818
 21
3648.538899909882
 31
0.0
  0
LINE
  5
35AC
330
1F
100
AcDbEntity
  8
1　製品
100
AcDbLine
 10
2007.082962949318
 20
3555.493094711407
 30
0.0
 11
1968.794923172818
 21
3537.546574420899
 31
0.0
  0
LINE
  5
35AD
330
1F
100
AcDbEntity
  8
1　製品
100
AcDbLine
 10
2005.315822651943
 20
3556.321395647891
 30
0.0
 11
1968.794923172818
 21
3539.203176293868
 31
0.0
  0
LINE
  5
35AE
330
1F
100
AcDbEntity
  8
1　製品
 48
15.0
100
AcDbLine
 10
1900.594923172818
 20
3806.044429144798
 30
0.0
 11
2048.794923172818
 21
3806.044429144798
 31
0.0
  0
LINE
  5
35AF
330
1F
100
AcDbEntity
  8
1　製品
100
AcDbLine
 10
2007.082962949316
 20
3744.897908854292
 30
0.0
 11
1968.794923172818
 21
3762.844429144799
 31
0.0
  0
LINE
  5
35B0
330
1F
100
AcDbEntity
  8
1　製品
100
AcDbLine
 10
2005.315822651944
 20
3744.069607917809
 30
0.0
 11
1968.794923172818
 21
3761.187827271834
 31
0.0
  0
LINE
  5
35B1
330
1F
100
AcDbEntity
  8
1　製品
100
AcDbLine
 10
2007.082962949322
 20
3743.241306981324
 30
0.0
 11
1968.794923172818
 21
3725.294786690815
 31
0.0
  0
LINE
  5
35B2
330
1F
100
AcDbEntity
  8
1　製品
100
AcDbLine
 10
2005.315822651944
 20
3744.069607917809
 30
0.0
 11
1968.794923172818
 21
3726.951388563784
 31
0.0
  0
LINE
  5
35B3
330
1F
100
AcDbEntity
  8
1　製品
100
AcDbLine
 10
2007.082962949315
 20
3707.34826640031
 30
0.0
 11
1968.794923172818
 21
3725.294786690814
 31
0.0
  0
LINE
  5
35B4
330
1F
100
AcDbEntity
  8
1　製品
100
AcDbLine
 10
2005.315822651943
 20
3706.519965463826
 30
0.0
 11
1968.794923172818
 21
3723.638184817851
 31
0.0
  0
LINE
  5
35B5
330
1F
100
AcDbEntity
  8
1　製品
 48
15.0
100
AcDbLine
 10
1904.994923172819
 20
3802.844429144798
 30
0.0
 11
2048.794923172818
 21
3802.844429144798
 31
0.0
  0
LINE
  5
35B6
330
1F
100
AcDbEntity
  8
1　製品
100
AcDbLine
 10
2007.082962949322
 20
3705.69166452734
 30
0.0
 11
1968.794923172818
 21
3687.745144236831
 31
0.0
  0
LINE
  5
35B7
330
1F
100
AcDbEntity
  8
1　製品
100
AcDbLine
 10
2005.315822651943
 20
3706.519965463826
 30
0.0
 11
1968.794923172818
 21
3689.401746109803
 31
0.0
  0
LINE
  5
35B9
330
1F
100
AcDbEntity
  8
1　製品
 48
15.0
100
AcDbLine
 10
1900.594923172818
 20
2959.644429144798
 30
0.0
 11
2048.794923172818
 21
2959.644429144798
 31
0.0
  0
LINE
  5
35BA
330
1F
100
AcDbEntity
  8
1　製品
 48
15.0
100
AcDbLine
 10
1904.994923172819
 20
2962.844429144798
 30
0.0
 11
2048.794923172818
 21
2962.844429144798
 31
0.0
  0
LINE
  5
35BB
330
1F
100
AcDbEntity
  8
1　製品
100
AcDbLine
 10
1903.794923172818
 20
3002.844429144798
 30
0.0
 11
2893.777562418027
 21
3002.844429144798
 31
0.0
  0
LINE
  5
35BC
330
1F
100
AcDbEntity
  8
1　製品
100
AcDbLine
 10
1903.794923172818
 20
2962.844429144798
 30
0.0
 11
2893.777562418027
 21
2962.844429144798
 31
0.0
  0
LINE
  5
35BD
330
1F
100
AcDbEntity
  8
1　製品
  6
HIDDEN
 48
5.0
100
AcDbLine
 10
1906.794923172818
 20
2965.844429144798
 30
0.0
 11
2890.777562418027
 21
2965.844429144797
 31
0.0
  0
LINE
  5
35BE
330
1F
100
AcDbEntity
  8
1　製品
  6
HIDDEN
 48
5.0
100
AcDbLine
 10
1906.794923172818
 20
3799.844429144799
 30
0.0
 11
2890.777562418027
 21
3799.844429144799
 31
0.0
  0
LINE
  5
35BF
330
1F
100
AcDbEntity
  8
1　製品
100
AcDbLine
 10
1903.794923172818
 20
3762.844429144799
 30
0.0
 11
2893.777562418027
 21
3762.844429144798
 31
0.0
  0
LINE
  5
35C0
330
1F
100
AcDbEntity
  8
1　製品
100
AcDbLine
 10
1903.794923172818
 20
3802.8444291448
 30
0.0
 11
2893.777562418027
 21
3802.844429144798
 31
0.0
  0
LINE
  5
35C1
330
1F
100
AcDbEntity
  8
1　製品
100
AcDbLine
 10
1903.794923172818
 20
2962.844429144798
 30
0.0
 11
1903.794923172818
 21
3802.8444291448
 31
0.0
  0
LINE
  5
35C2
330
1F
100
AcDbEntity
  8
1　製品
  6
HIDDEN
 48
5.0
100
AcDbLine
 10
1906.794923172818
 20
2965.844429144798
 30
0.0
 11
1906.794923172818
 21
3799.844429144799
 31
0.0
  0
LINE
  5
35C3
330
1F
100
AcDbEntity
  8
1　製品
100
AcDbLine
 10
1943.794923172816
 20
3002.844429144798
 30
0.0
 11
1943.794923172818
 21
3762.844429144799
 31
0.0
  0
LINE
  5
35C4
330
1F
100
AcDbEntity
  8
1　製品
100
AcDbLine
 10
1968.794923172816
 20
3002.844429144798
 30
0.0
 11
1968.794923172818
 21
3762.844429144799
 31
0.0
  0
LINE
  5
35C5
330
1F
100
AcDbEntity
  8
1　製品
100
AcDbLine
 10
1968.794923172816
 20
3422.844429144799
 30
0.0
 11
1968.794923172818
 21
3762.844429144799
 31
0.0
  0
LINE
  5
35C6
330
1F
100
AcDbEntity
  8
1　製品
100
AcDbLine
 10
1986.099818339813
 20
3527.778754160872
 30
0.0
 11
1968.794923172818
 21
3535.889972547931
 31
0.0
  0
LINE
  5
35C7
330
1F
100
AcDbEntity
  8
1　製品
100
AcDbLine
 10
1987.227511730584
 20
3528.906779161346
 30
0.0
 11
1968.794923172818
 21
3537.546574420897
 31
0.0
  0
LINE
  5
35C8
330
1F
100
AcDbEntity
  8
3　補助線
  6
CENTER2
100
AcDbLine
 10
1933.794923172818
 20
2977.844429144798
 30
0.0
 11
1933.794923172818
 21
2947.844429144798
 31
0.0
  0
LINE
  5
35C9
330
1F
100
AcDbEntity
  8
1　製品
 48
15.0
100
AcDbLine
 10
1900.594923172818
 20
3009.644429144798
 30
0.0
 11
1903.794923172818
 21
3009.644429144798
 31
0.0
  0
LINE
  5
35CA
330
1F
100
AcDbEntity
  8
1　製品
100
AcDbLine
 10
1900.594923172818
 20
3009.644429144798
 30
0.0
 11
1900.594923172818
 21
2959.644429144798
 31
0.0
  0
LINE
  5
35CB
330
1F
100
AcDbEntity
  8
3　補助線
100
AcDbLine
 10
1918.794923172818
 20
2992.844429144798
 30
0.0
 11
1888.794923172818
 21
2992.844429144798
 31
0.0
  0
LINE
  5
35CC
330
1F
100
AcDbEntity
  8
1　製品
 48
15.0
100
AcDbLine
 10
1900.594923172818
 20
3756.044429144798
 30
0.0
 11
1903.794923172818
 21
3756.044429144798
 31
0.0
  0
LINE
  5
35CD
330
1F
100
AcDbEntity
  8
1　製品
100
AcDbLine
 10
1900.594923172818
 20
3756.044429144798
 30
0.0
 11
1900.594923172818
 21
3806.044429144798
 31
0.0
  0
LINE
  5
35CE
330
1F
100
AcDbEntity
  8
3　補助線
  6
CENTER2
100
AcDbLine
 10
1933.794923172818
 20
3784.844429144796
 30
0.0
 11
1933.794923172818
 21
3814.844429144796
 31
0.0
  0
LINE
  5
35CF
330
1F
100
AcDbEntity
  8
3　補助線
100
AcDbLine
 10
1918.794923172818
 20
3772.844429144798
 30
0.0
 11
1888.794923172818
 21
3772.844429144798
 31
0.0
  0
LINE
  5
35D0
330
1F
100
AcDbEntity
  8
1　製品
 48
15.0
100
AcDbLine
 10
1938.794923172818
 20
3806.044429144798
 30
0.0
 11
1938.794923172818
 21
3802.844429144798
 31
0.0
  0
LINE
  5
35D2
330
1F
100
AcDbEntity
  8
1　製品
 48
15.0
100
AcDbLine
 10
2904.977562418027
 20
3802.844429144797
 30
0.0
 11
3048.777562418028
 21
3802.844429144797
 31
0.0
  0
LINE
  5
35D3
330
1F
100
AcDbEntity
  8
1　製品
 48
15.0
100
AcDbLine
 10
2900.577562418028
 20
3806.044429144797
 30
0.0
 11
3048.777562418028
 21
3806.044429144797
 31
0.0
  0
LINE
  5
35D4
330
1F
100
AcDbEntity
  8
1　製品
 48
15.0
100
AcDbLine
 10
2900.577562418028
 20
2959.644429144797
 30
0.0
 11
3048.777562418028
 21
2959.644429144797
 31
0.0
  0
LINE
  5
35D5
330
1F
100
AcDbEntity
  8
1　製品
 48
15.0
100
AcDbLine
 10
2904.977562418027
 20
2962.844429144797
 30
0.0
 11
3048.777562418028
 21
2962.844429144797
 31
0.0
  0
LINE
  5
35D6
330
1F
100
AcDbEntity
  8
1　製品
100
AcDbLine
 10
2903.777562418028
 20
3002.844429144797
 30
0.0
 11
3893.760201663236
 21
3002.844429144797
 31
0.0
  0
LINE
  5
35D7
330
1F
100
AcDbEntity
  8
1　製品
100
AcDbLine
 10
2903.777562418028
 20
2962.844429144797
 30
0.0
 11
3893.760201663236
 21
2962.844429144797
 31
0.0
  0
LINE
  5
35D8
330
1F
100
AcDbEntity
  8
1　製品
  6
HIDDEN
 48
5.0
100
AcDbLine
 10
2906.777562418028
 20
2965.844429144797
 30
0.0
 11
3890.760201663235
 21
2965.844429144796
 31
0.0
  0
LINE
  5
35D9
330
1F
100
AcDbEntity
  8
1　製品
  6
HIDDEN
 48
5.0
100
AcDbLine
 10
2906.777562418028
 20
3799.844429144797
 30
0.0
 11
3890.760201663235
 21
3799.844429144798
 31
0.0
  0
LINE
  5
35DA
330
1F
100
AcDbEntity
  8
1　製品
100
AcDbLine
 10
2903.777562418028
 20
3762.844429144797
 30
0.0
 11
3893.760201663236
 21
3762.844429144797
 31
0.0
  0
LINE
  5
35DB
330
1F
100
AcDbEntity
  8
1　製品
100
AcDbLine
 10
2903.777562418028
 20
3802.8444291448
 30
0.0
 11
3893.760201663236
 21
3802.844429144797
 31
0.0
  0
LINE
  5
35DC
330
1F
100
AcDbEntity
  8
1　製品
100
AcDbLine
 10
2903.777562418028
 20
2962.844429144797
 30
0.0
 11
2903.777562418028
 21
3802.844429144799
 31
0.0
  0
LINE
  5
35DD
330
1F
100
AcDbEntity
  8
1　製品
  6
HIDDEN
 48
5.0
100
AcDbLine
 10
2906.777562418028
 20
2965.844429144797
 30
0.0
 11
2906.777562418028
 21
3799.844429144797
 31
0.0
  0
LINE
  5
35DE
330
1F
100
AcDbEntity
  8
1　製品
100
AcDbLine
 10
2943.777562418026
 20
3002.844429144797
 30
0.0
 11
2943.777562418027
 21
3762.844429144797
 31
0.0
  0
LINE
  5
35DF
330
1F
100
AcDbEntity
  8
1　製品
  6
HIDDEN
 48
5.0
100
AcDbLine
 10
2890.777562418027
 20
2965.844429144797
 30
0.0
 11
2890.777562418027
 21
3799.844429144799
 31
0.0
  0
LINE
  5
35E0
330
1F
100
AcDbEntity
  8
1　製品
100
AcDbLine
 10
2893.777562418027
 20
2962.844429144798
 30
0.0
 11
2893.777562418029
 21
3802.844429144798
 31
0.0
  0
LINE
  5
35E1
330
1F
100
AcDbEntity
  8
1　製品
100
AcDbLine
 10
2853.777562418027
 20
3002.844429144798
 30
0.0
 11
2853.777562418027
 21
3762.844429144798
 31
0.0
  0
LINE
  5
35E2
330
1F
100
AcDbEntity
  8
1　製品
100
AcDbLine
 10
2828.777562418027
 20
3002.844429144798
 30
0.0
 11
2828.777562418027
 21
3762.844429144798
 31
0.0
  0
LINE
  5
35E3
330
1F
100
AcDbEntity
  8
3　補助線
  6
CENTER2
100
AcDbLine
 10
2028.794923172818
 20
2977.844429144798
 30
0.0
 11
2028.794923172818
 21
2947.844429144798
 31
0.0
  0
LINE
  5
35E4
330
1F
100
AcDbEntity
  8
1　製品
 48
15.0
100
AcDbLine
 10
2048.794923172818
 20
2959.644429144798
 30
0.0
 11
2048.794923172818
 21
2962.844429144798
 31
0.0
  0
LINE
  5
35E6
330
1F
100
AcDbEntity
  8
1　製品
100
AcDbLine
 10
2828.777562418027
 20
3002.844429144798
 30
0.0
 11
2828.777562418027
 21
3342.844429144799
 31
0.0
  0
LINE
  5
35E7
330
1F
100
AcDbEntity
  8
1　製品
100
AcDbLine
 10
2795.684722414282
 20
3165.287267691884
 30
0.0
 11
2757.396682637785
 21
3147.340747401379
 31
0.0
  0
LINE
  5
35E8
330
1F
100
AcDbEntity
  8
1　製品
100
AcDbLine
 10
2797.451862711659
 20
3164.458966755398
 30
0.0
 11
2759.163822935163
 21
3146.512446464893
 31
0.0
  0
LINE
  5
35E9
330
1F
100
AcDbEntity
  8
1　製品
100
AcDbLine
 10
2757.396682637787
 20
3147.340747401378
 30
0.0
 11
2725.056121422536
 21
3162.499542195886
 31
0.0
  0
LINE
  5
35EA
330
1F
100
AcDbEntity
  8
1　製品
100
AcDbLine
 10
2755.629542340406
 20
3146.512446464892
 30
0.0
 11
2724.074507419169
 21
3161.303046291559
 31
0.0
  0
LINE
  5
35EB
330
1F
100
AcDbEntity
  8
1　製品
100
AcDbLine
 10
2717.34150256391
 20
3089.359681847433
 30
0.0
 11
2679.053462787409
 21
3071.413161556926
 31
0.0
  0
LINE
  5
35EC
330
1F
100
AcDbEntity
  8
1　製品
100
AcDbLine
 10
2715.57436226653
 20
3090.187982783918
 30
0.0
 11
2677.28632249003
 21
3072.241462493412
 31
0.0
  0
LINE
  5
35ED
330
1F
100
AcDbEntity
  8
1　製品
100
AcDbLine
 10
2717.341502563908
 20
3053.466641266419
 30
0.0
 11
2679.053462787409
 21
3071.413161556926
 31
0.0
  0
LINE
  5
35EE
330
1F
100
AcDbEntity
  8
1　製品
100
AcDbLine
 10
2717.341502563908
 20
3126.909324301416
 30
0.0
 11
2682.434254169093
 21
3110.54746181746
 31
0.0
  0
LINE
  5
35EF
330
1F
100
AcDbEntity
  8
1　製品
100
AcDbLine
 10
2715.57436226653
 20
3127.737625237901
 30
0.0
 11
2684.642518456416
 21
3113.239129994962
 31
0.0
  0
LINE
  5
35F0
330
1F
100
AcDbEntity
  8
1　製品
100
AcDbLine
 10
2717.341502563908
 20
3091.016283720403
 30
0.0
 11
2680.556286603276
 21
3108.25839453312
 31
0.0
  0
LINE
  5
35F1
330
1F
100
AcDbEntity
  8
1　製品
100
AcDbLine
 10
2715.574362266532
 20
3090.187982783918
 30
0.0
 11
2679.574672599912
 21
3107.061898628795
 31
0.0
  0
LINE
  5
35F2
330
1F
100
AcDbEntity
  8
1　製品
100
AcDbLine
 10
2717.34150256391
 20
3128.565926174387
 30
0.0
 11
2702.806204012906
 21
3135.378968364502
 31
0.0
  0
LINE
  5
35F3
330
1F
100
AcDbEntity
  8
1　製品
100
AcDbLine
 10
2715.574362266532
 20
3127.737625237902
 30
0.0
 11
2701.824590009541
 21
3134.182472460177
 31
0.0
  0
LINE
  5
35F4
330
1F
100
AcDbEntity
  8
1　製品
100
AcDbLine
 10
2717.341502563908
 20
3051.810039393448
 30
0.0
 11
2679.053462787409
 21
3033.863519102943
 31
0.0
  0
LINE
  5
35F5
330
1F
100
AcDbEntity
  8
1　製品
100
AcDbLine
 10
2715.57436226653
 20
3052.638340329933
 30
0.0
 11
2677.286322490032
 21
3034.691820039428
 31
0.0
  0
LINE
  5
35F6
330
1F
100
AcDbEntity
  8
1　製品
100
AcDbLine
 10
2715.574362266532
 20
3015.08869787595
 30
0.0
 11
2677.286322490034
 21
3033.035218166458
 31
0.0
  0
LINE
  5
35F7
330
1F
100
AcDbEntity
  8
1　製品
100
AcDbLine
 10
2717.341502563908
 20
3015.916998812435
 30
0.0
 11
2679.053462787408
 21
3033.863519102942
 31
0.0
  0
LINE
  5
35F8
330
1F
100
AcDbEntity
  8
1　製品
100
AcDbLine
 10
2717.341502563908
 20
3014.260396939466
 30
0.0
 11
2693.393680881953
 21
3003.035479961803
 31
0.0
  0
LINE
  5
35F9
330
1F
100
AcDbEntity
  8
1　製品
100
AcDbLine
 10
2715.574362266532
 20
3015.08869787595
 30
0.0
 11
2689.8594002872
 21
3003.035479961803
 31
0.0
  0
LINE
  5
35FA
330
1F
100
AcDbEntity
  8
1　製品
100
AcDbLine
 10
2715.57436226653
 20
3052.638340329933
 30
0.0
 11
2677.286322490032
 21
3070.584860620441
 31
0.0
  0
LINE
  5
35FB
330
1F
100
AcDbEntity
  8
1　製品
100
AcDbLine
 10
2677.286322490034
 20
3070.584860620441
 30
0.0
 11
2638.998282713534
 21
3052.638340329934
 31
0.0
  0
LINE
  5
35FC
330
1F
100
AcDbEntity
  8
1　製品
100
AcDbLine
 10
2664.713244692866
 20
3003.035479961803
 30
0.0
 11
2638.998282713532
 21
3015.08869787595
 31
0.0
  0
LINE
  5
35FD
330
1F
100
AcDbEntity
  8
1　製品
100
AcDbLine
 10
2661.178964098113
 20
3003.035479961803
 30
0.0
 11
2637.231142416156
 21
3014.260396939466
 31
0.0
  0
LINE
  5
35FE
330
1F
100
AcDbEntity
  8
1　製品
100
AcDbLine
 10
2677.286322490032
 20
3034.691820039427
 30
0.0
 11
2638.998282713532
 21
3052.638340329933
 31
0.0
  0
LINE
  5
35FF
330
1F
100
AcDbEntity
  8
1　製品
100
AcDbLine
 10
2675.519182192656
 20
3033.863519102943
 30
0.0
 11
2637.231142416158
 21
3051.81003939345
 31
0.0
  0
LINE
  5
3600
330
1F
100
AcDbEntity
  8
1　製品
100
AcDbLine
 10
2675.519182192656
 20
3033.863519102943
 30
0.0
 11
2637.231142416156
 21
3015.916998812435
 31
0.0
  0
LINE
  5
3601
330
1F
100
AcDbEntity
  8
1　製品
100
AcDbLine
 10
2677.286322490032
 20
3033.035218166458
 30
0.0
 11
2638.998282713534
 21
3015.088697875951
 31
0.0
  0
LINE
  5
3602
330
1F
100
AcDbEntity
  8
1　製品
100
AcDbLine
 10
2635.464002118781
 20
3015.088697875951
 30
0.0
 11
2609.749040139446
 21
3003.035479961803
 31
0.0
  0
LINE
  5
3603
330
1F
100
AcDbEntity
  8
1　製品
100
AcDbLine
 10
2637.231142416156
 20
3014.260396939466
 30
0.0
 11
2613.283320734199
 21
3003.035479961803
 31
0.0
  0
LINE
  5
3604
330
1F
100
AcDbEntity
  8
1　製品
100
AcDbLine
 10
2637.231142416156
 20
3015.916998812435
 30
0.0
 11
2613.806534374387
 21
3026.896673038974
 31
0.0
  0
LINE
  5
3605
330
1F
100
AcDbEntity
  8
1　製品
100
AcDbLine
 10
2635.464002118781
 20
3015.088697875952
 30
0.0
 11
2612.824920371024
 21
3025.700177134649
 31
0.0
  0
LINE
  5
3606
330
1F
100
AcDbEntity
  8
1　製品
100
AcDbLine
 10
2675.519182192655
 20
3071.413161556927
 30
0.0
 11
2637.231142416154
 21
3053.46664126642
 31
0.0
  0
LINE
  5
3607
330
1F
100
AcDbEntity
  8
1　製品
100
AcDbLine
 10
2675.519182192655
 20
3071.413161556926
 30
0.0
 11
2657.324755190282
 21
3079.941324797413
 31
0.0
  0
LINE
  5
3608
330
1F
100
AcDbEntity
  8
1　製品
100
AcDbLine
 10
2677.286322490032
 20
3072.241462493411
 30
0.0
 11
2658.306369193648
 21
3081.137820701738
 31
0.0
  0
LINE
  5
3609
330
1F
100
AcDbEntity
  8
3　補助線
  6
CENTER2
100
AcDbLine
 10
2933.777562418028
 20
2977.844429144797
 30
0.0
 11
2933.777562418028
 21
2947.844429144797
 31
0.0
  0
LINE
  5
360A
330
1F
100
AcDbEntity
  8
3　補助線
  6
CENTER2
100
AcDbLine
 10
2768.777562418027
 20
2977.844429144798
 30
0.0
 11
2768.777562418027
 21
2947.844429144798
 31
0.0
  0
LINE
  5
360B
330
1F
100
AcDbEntity
  8
3　補助線
  6
CENTER2
100
AcDbLine
 10
2863.777562418027
 20
2977.844429144798
 30
0.0
 11
2863.777562418027
 21
2947.844429144798
 31
0.0
  0
LINE
  5
360C
330
1F
100
AcDbEntity
  8
1　製品
 48
15.0
100
AcDbLine
 10
2892.577562418028
 20
2962.844429144798
 30
0.0
 11
2748.777562418027
 21
2962.844429144798
 31
0.0
  0
LINE
  5
360D
330
1F
100
AcDbEntity
  8
1　製品
 48
15.0
100
AcDbLine
 10
2896.977562418027
 20
2959.644429144798
 30
0.0
 11
2748.777562418027
 21
2959.644429144798
 31
0.0
  0
LINE
  5
360E
330
1F
100
AcDbEntity
  8
1　製品
100
AcDbLine
 10
2828.777562418029
 20
3066.493144318023
 30
0.0
 11
2799.219003009041
 21
3052.638340329933
 31
0.0
  0
LINE
  5
360F
330
1F
100
AcDbEntity
  8
1　製品
100
AcDbLine
 10
2757.396682637784
 20
3070.58486062044
 30
0.0
 11
2719.108642861285
 21
3052.638340329933
 31
0.0
  0
LINE
  5
3610
330
1F
100
AcDbEntity
  8
1　製品
100
AcDbLine
 10
2795.684722414284
 20
3052.638340329932
 30
0.0
 11
2757.396682637785
 21
3070.58486062044
 31
0.0
  0
LINE
  5
3611
330
1F
100
AcDbEntity
  8
1　製品
100
AcDbLine
 10
2795.684722414282
 20
3015.08869787595
 30
0.0
 11
2769.969760434951
 21
3003.035479961803
 31
0.0
  0
LINE
  5
3612
330
1F
100
AcDbEntity
  8
1　製品
100
AcDbLine
 10
2797.451862711661
 20
3051.810039393447
 30
0.0
 11
2759.163822935163
 21
3033.863519102942
 31
0.0
  0
LINE
  5
3613
330
1F
100
AcDbEntity
  8
1　製品
100
AcDbLine
 10
2795.684722414284
 20
3052.638340329932
 30
0.0
 11
2757.396682637785
 21
3034.691820039427
 31
0.0
  0
LINE
  5
3614
330
1F
100
AcDbEntity
  8
1　製品
100
AcDbLine
 10
2797.451862711661
 20
3015.916998812436
 30
0.0
 11
2759.163822935161
 21
3033.863519102943
 31
0.0
  0
LINE
  5
3615
330
1F
100
AcDbEntity
  8
1　製品
100
AcDbLine
 10
2795.684722414282
 20
3015.088697875949
 30
0.0
 11
2757.396682637784
 21
3033.035218166457
 31
0.0
  0
LINE
  5
3616
330
1F
100
AcDbEntity
  8
1　製品
100
AcDbLine
 10
2744.82360484062
 20
3003.035479961802
 30
0.0
 11
2719.108642861283
 21
3015.088697875951
 31
0.0
  0
LINE
  5
3617
330
1F
100
AcDbEntity
  8
1　製品
100
AcDbLine
 10
2741.289324245863
 20
3003.035479961803
 30
0.0
 11
2717.341502563908
 21
3014.260396939466
 31
0.0
  0
LINE
  5
3618
330
1F
100
AcDbEntity
  8
1　製品
 48
15.0
100
AcDbLine
 10
2748.777562418027
 20
2959.644429144798
 30
0.0
 11
2748.777562418027
 21
2962.844429144798
 31
0.0
  0
LINE
  5
3619
330
1F
100
AcDbEntity
  8
1　製品
100
AcDbLine
 10
2757.396682637785
 20
3034.691820039427
 30
0.0
 11
2719.108642861285
 21
3052.638340329933
 31
0.0
  0
LINE
  5
361A
330
1F
100
AcDbEntity
  8
1　製品
100
AcDbLine
 10
2755.629542340408
 20
3033.863519102941
 30
0.0
 11
2717.341502563908
 21
3051.810039393448
 31
0.0
  0
LINE
  5
361B
330
1F
100
AcDbEntity
  8
1　製品
100
AcDbLine
 10
2755.629542340406
 20
3033.863519102942
 30
0.0
 11
2717.34150256391
 21
3015.916998812435
 31
0.0
  0
LINE
  5
361C
330
1F
100
AcDbEntity
  8
1　製品
100
AcDbLine
 10
2757.396682637784
 20
3033.035218166456
 30
0.0
 11
2719.108642861285
 21
3015.088697875951
 31
0.0
  0
LINE
  5
361D
330
1F
100
AcDbEntity
  8
1　製品
100
AcDbLine
 10
2797.451862711659
 20
3014.260396939463
 30
0.0
 11
2773.504041029706
 21
3003.035479961803
 31
0.0
  0
LINE
  5
361E
330
1F
100
AcDbEntity
  8
1　製品
100
AcDbLine
 10
2824.933964988373
 20
3003.035479961803
 30
0.0
 11
2799.219003009039
 21
3015.08869787595
 31
0.0
  0
LINE
  5
361F
330
1F
100
AcDbEntity
  8
1　製品
100
AcDbLine
 10
2821.399684393611
 20
3003.035479961803
 30
0.0
 11
2797.451862711659
 21
3014.260396939464
 31
0.0
  0
LINE
  5
3620
330
1F
100
AcDbEntity
  8
1　製品
100
AcDbLine
 10
2828.777562418029
 20
3038.783536341844
 30
0.0
 11
2799.219003009039
 21
3052.638340329934
 31
0.0
  0
LINE
  5
3621
330
1F
100
AcDbEntity
  8
1　製品
100
AcDbLine
 10
2828.777562418029
 20
3037.126934468872
 30
0.0
 11
2797.451862711659
 21
3051.810039393448
 31
0.0
  0
LINE
  5
3622
330
1F
100
AcDbEntity
  8
1　製品
100
AcDbLine
 10
2828.777562418029
 20
3030.600103737011
 30
0.0
 11
2797.451862711661
 21
3015.916998812435
 31
0.0
  0
LINE
  5
3623
330
1F
100
AcDbEntity
  8
1　製品
100
AcDbLine
 10
2828.777562418029
 20
3028.94350186404
 30
0.0
 11
2799.219003009039
 21
3015.08869787595
 31
0.0
  0
LINE
  5
3624
330
1F
100
AcDbEntity
  8
1　製品
100
AcDbLine
 10
2795.684722414282
 20
3090.187982783917
 30
0.0
 11
2757.396682637785
 21
3072.241462493411
 31
0.0
  0
LINE
  5
3625
330
1F
100
AcDbEntity
  8
1　製品
100
AcDbLine
 10
2797.451862711659
 20
3089.359681847432
 30
0.0
 11
2759.163822935163
 21
3071.413161556926
 31
0.0
  0
LINE
  5
3626
330
1F
100
AcDbEntity
  8
1　製品
100
AcDbLine
 10
2797.451862711663
 20
3053.466641266418
 30
0.0
 11
2759.163822935163
 21
3071.413161556926
 31
0.0
  0
LINE
  5
3627
330
1F
100
AcDbEntity
  8
1　製品
100
AcDbLine
 10
2797.451862711663
 20
3128.565926174387
 30
0.0
 11
2759.163822935163
 21
3146.512446464893
 31
0.0
  0
LINE
  5
3628
330
1F
100
AcDbEntity
  8
1　製品
100
AcDbLine
 10
2795.684722414282
 20
3127.737625237901
 30
0.0
 11
2757.396682637784
 21
3145.684145528407
 31
0.0
  0
LINE
  5
3629
330
1F
100
AcDbEntity
  8
1　製品
100
AcDbLine
 10
2797.451862711661
 20
3091.016283720402
 30
0.0
 11
2759.163822935163
 21
3108.96280401091
 31
0.0
  0
LINE
  5
362A
330
1F
100
AcDbEntity
  8
1　製品
100
AcDbLine
 10
2795.684722414284
 20
3090.187982783917
 30
0.0
 11
2757.396682637784
 21
3108.134503074424
 31
0.0
  0
LINE
  5
362B
330
1F
100
AcDbEntity
  8
1　製品
100
AcDbLine
 10
2797.451862711661
 20
3126.909324301415
 30
0.0
 11
2759.163822935163
 21
3108.962804010908
 31
0.0
  0
LINE
  5
362C
330
1F
100
AcDbEntity
  8
1　製品
100
AcDbLine
 10
2795.684722414282
 20
3127.737625237901
 30
0.0
 11
2757.396682637785
 21
3109.791104947395
 31
0.0
  0
LINE
  5
362D
330
1F
100
AcDbEntity
  8
1　製品
100
AcDbLine
 10
2757.396682637785
 20
3072.241462493411
 30
0.0
 11
2719.108642861285
 21
3090.187982783918
 31
0.0
  0
LINE
  5
362E
330
1F
100
AcDbEntity
  8
1　製品
100
AcDbLine
 10
2755.629542340408
 20
3071.413161556926
 30
0.0
 11
2717.34150256391
 21
3089.359681847433
 31
0.0
  0
LINE
  5
362F
330
1F
100
AcDbEntity
  8
1　製品
100
AcDbLine
 10
2755.629542340406
 20
3071.413161556925
 30
0.0
 11
2717.341502563908
 21
3053.466641266419
 31
0.0
  0
LINE
  5
3630
330
1F
100
AcDbEntity
  8
1　製品
100
AcDbLine
 10
2755.629542340406
 20
3146.512446464893
 30
0.0
 11
2717.341502563908
 21
3128.565926174387
 31
0.0
  0
LINE
  5
3631
330
1F
100
AcDbEntity
  8
1　製品
100
AcDbLine
 10
2757.396682637784
 20
3145.684145528408
 30
0.0
 11
2719.108642861285
 21
3127.737625237902
 31
0.0
  0
LINE
  5
3632
330
1F
100
AcDbEntity
  8
1　製品
100
AcDbLine
 10
2755.629542340406
 20
3108.962804010909
 30
0.0
 11
2717.341502563908
 21
3126.909324301417
 31
0.0
  0
LINE
  5
3633
330
1F
100
AcDbEntity
  8
1　製品
100
AcDbLine
 10
2757.396682637785
 20
3109.791104947395
 30
0.0
 11
2719.108642861285
 21
3127.737625237902
 31
0.0
  0
LINE
  5
3634
330
1F
100
AcDbEntity
  8
1　製品
100
AcDbLine
 10
2755.629542340406
 20
3108.962804010909
 30
0.0
 11
2717.341502563908
 21
3091.016283720403
 31
0.0
  0
LINE
  5
3635
330
1F
100
AcDbEntity
  8
1　製品
100
AcDbLine
 10
2757.396682637785
 20
3108.134503074423
 30
0.0
 11
2719.108642861287
 21
3090.187982783918
 31
0.0
  0
LINE
  5
3636
330
1F
100
AcDbEntity
  8
1　製品
100
AcDbLine
 10
2828.777562418029
 20
3076.333178795828
 30
0.0
 11
2799.219003009041
 21
3090.187982783918
 31
0.0
  0
LINE
  5
3637
330
1F
100
AcDbEntity
  8
1　製品
100
AcDbLine
 10
2828.777562418029
 20
3074.676576922855
 30
0.0
 11
2797.451862711659
 21
3089.359681847432
 31
0.0
  0
LINE
  5
3638
330
1F
100
AcDbEntity
  8
1　製品
100
AcDbLine
 10
2828.777562418029
 20
3068.149746190993
 30
0.0
 11
2797.451862711663
 21
3053.466641266418
 31
0.0
  0
LINE
  5
3639
330
1F
100
AcDbEntity
  8
1　製品
100
AcDbLine
 10
2828.777562418029
 20
3143.249031098961
 30
0.0
 11
2797.451862711663
 21
3128.565926174388
 31
0.0
  0
LINE
  5
363A
330
1F
100
AcDbEntity
  8
1　製品
100
AcDbLine
 10
2828.777562418029
 20
3141.592429225991
 30
0.0
 11
2799.219003009042
 21
3127.737625237902
 31
0.0
  0
LINE
  5
363B
330
1F
100
AcDbEntity
  8
1　製品
100
AcDbLine
 10
2828.777562418029
 20
3113.882821249813
 30
0.0
 11
2799.219003009041
 21
3127.737625237903
 31
0.0
  0
LINE
  5
363C
330
1F
100
AcDbEntity
  8
1　製品
100
AcDbLine
 10
2828.777562418029
 20
3112.226219376839
 30
0.0
 11
2797.451862711659
 21
3126.909324301415
 31
0.0
  0
LINE
  5
363D
330
1F
100
AcDbEntity
  8
1　製品
100
AcDbLine
 10
2828.777562418029
 20
3105.699388644977
 30
0.0
 11
2797.451862711661
 21
3091.016283720402
 31
0.0
  0
LINE
  5
363E
330
1F
100
AcDbEntity
  8
1　製品
100
AcDbLine
 10
2828.777562418029
 20
3104.042786772007
 30
0.0
 11
2799.219003009039
 21
3090.187982783918
 31
0.0
  0
LINE
  5
363F
330
1F
100
AcDbEntity
  8
1　製品
 48
15.0
100
AcDbLine
 10
2900.577562418028
 20
3009.644429144797
 30
0.0
 11
2903.777562418028
 21
3009.644429144797
 31
0.0
  0
LINE
  5
3640
330
1F
100
AcDbEntity
  8
1　製品
100
AcDbLine
 10
2900.577562418028
 20
3009.644429144797
 30
0.0
 11
2900.577562418028
 21
2959.644429144797
 31
0.0
  0
LINE
  5
3641
330
1F
100
AcDbEntity
  8
1　製品
100
AcDbLine
 10
2896.977562418027
 20
3009.644429144798
 30
0.0
 11
2896.977562418027
 21
2959.644429144798
 31
0.0
  0
LINE
  5
3642
330
1F
100
AcDbEntity
  8
1　製品
 48
15.0
100
AcDbLine
 10
2896.977562418027
 20
3009.644429144798
 30
0.0
 11
2893.777562418028
 21
3009.644429144798
 31
0.0
  0
LINE
  5
3643
330
1F
100
AcDbEntity
  8
1　製品
100
AcDbLine
 10
2897.177562418027
 20
3017.844429144798
 30
0.0
 11
2900.377562418027
 21
3017.844429144797
 31
0.0
  0
LINE
  5
3644
330
1F
100
AcDbEntity
  8
1　製品
100
AcDbLine
 10
2897.177562418027
 20
2967.844429144798
 30
0.0
 11
2900.377562418027
 21
2967.844429144797
 31
0.0
  0
LINE
  5
3645
330
1F
100
AcDbEntity
  8
1　製品
100
AcDbLine
 10
2897.177562418027
 20
3017.844429144798
 30
0.0
 11
2897.177562418027
 21
2967.844429144798
 31
0.0
  0
LINE
  5
3646
330
1F
100
AcDbEntity
  8
1　製品
100
AcDbLine
 10
2900.377562418027
 20
3017.844429144797
 30
0.0
 11
2900.377562418027
 21
2967.844429144797
 31
0.0
  0
LINE
  5
3647
330
1F
100
AcDbEntity
  8
1　製品
100
AcDbLine
 10
2828.777562418029
 20
3255.897958460911
 30
0.0
 11
2797.451862711661
 21
3241.214853536338
 31
0.0
  0
LINE
  5
3648
330
1F
100
AcDbEntity
  8
1　製品
100
AcDbLine
 10
2828.777562418029
 20
3254.241356587941
 30
0.0
 11
2799.219003009039
 21
3240.386552599852
 31
0.0
  0
LINE
  5
3649
330
1F
100
AcDbEntity
  8
1　製品
100
AcDbLine
 10
2797.451862711663
 20
3203.665211082354
 30
0.0
 11
2769.555956241795
 21
3216.740689858649
 31
0.0
  0
LINE
  5
364A
330
1F
100
AcDbEntity
  8
1　製品
100
AcDbLine
 10
2795.684722414284
 20
3202.836910145868
 30
0.0
 11
2768.574342238429
 21
3215.544193954322
 31
0.0
  0
LINE
  5
364B
330
1F
100
AcDbEntity
  8
1　製品
100
AcDbLine
 10
2797.451862711661
 20
3166.11556862837
 30
0.0
 11
2759.163822935163
 21
3184.062088918876
 31
0.0
  0
LINE
  5
364C
330
1F
100
AcDbEntity
  8
1　製品
100
AcDbLine
 10
2795.684722414284
 20
3165.287267691884
 30
0.0
 11
2757.396682637785
 21
3183.233787982391
 31
0.0
  0
LINE
  5
364D
330
1F
100
AcDbEntity
  8
1　製品
100
AcDbLine
 10
2797.451862711659
 20
3202.008609209382
 30
0.0
 11
2759.163822935161
 21
3184.062088918877
 31
0.0
  0
LINE
  5
364E
330
1F
100
AcDbEntity
  8
1　製品
100
AcDbLine
 10
2795.684722414282
 20
3202.836910145867
 30
0.0
 11
2757.396682637785
 21
3184.890389855362
 31
0.0
  0
LINE
  5
364F
330
1F
100
AcDbEntity
  8
1　製品
100
AcDbLine
 10
2755.629542340406
 20
3184.062088918876
 30
0.0
 11
2734.696508969073
 21
3174.250275351678
 31
0.0
  0
LINE
  5
3650
330
1F
100
AcDbEntity
  8
1　製品
100
AcDbLine
 10
2757.396682637784
 20
3183.233787982391
 30
0.0
 11
2732.48824468175
 21
3171.558607174176
 31
0.0
  0
LINE
  5
3651
330
1F
100
AcDbEntity
  8
1　製品
100
AcDbLine
 10
2755.629542340408
 20
3184.062088918877
 30
0.0
 11
2746.324424828799
 21
3188.423620122941
 31
0.0
  0
LINE
  5
3652
330
1F
100
AcDbEntity
  8
1　製品
100
AcDbLine
 10
2797.451862711659
 20
3239.558251663366
 30
0.0
 11
2782.542235194407
 21
3232.56975253089
 31
0.0
  0
LINE
  5
3653
330
1F
100
AcDbEntity
  8
1　製品
100
AcDbLine
 10
2795.684722414282
 20
3240.386552599852
 30
0.0
 11
2784.750499481732
 21
3235.261420708393
 31
0.0
  0
LINE
  5
3654
330
1F
100
AcDbEntity
  8
1　製品
100
AcDbLine
 10
2797.451862711661
 20
3241.214853536338
 30
0.0
 11
2791.805873651425
 21
3243.86126369003
 31
0.0
  0
LINE
  5
3655
330
1F
100
AcDbEntity
  8
1　製品
100
AcDbLine
 10
2795.684722414282
 20
3240.386552599851
 30
0.0
 11
2790.824259648058
 21
3242.664767785703
 31
0.0
  0
LINE
  5
3656
330
1F
100
AcDbEntity
  8
1　製品
100
AcDbLine
 10
2828.777562418029
 20
3226.531748611763
 30
0.0
 11
2799.219003009041
 21
3240.386552599852
 31
0.0
  0
LINE
  5
3657
330
1F
100
AcDbEntity
  8
1　製品
100
AcDbLine
 10
2828.777562418029
 20
3224.87514673879
 30
0.0
 11
2797.451862711661
 21
3239.558251663366
 31
0.0
  0
LINE
  5
3658
330
1F
100
AcDbEntity
  8
1　製品
100
AcDbLine
 10
2828.777562418029
 20
3151.432463703795
 30
0.0
 11
2799.219003009039
 21
3165.287267691885
 31
0.0
  0
LINE
  5
3659
330
1F
100
AcDbEntity
  8
1　製品
100
AcDbLine
 10
2828.777562418029
 20
3149.775861830823
 30
0.0
 11
2797.451862711659
 21
3164.458966755399
 31
0.0
  0
LINE
  5
365A
330
1F
100
AcDbEntity
  8
1　製品
100
AcDbLine
 10
2828.777562418029
 20
3188.98210615778
 30
0.0
 11
2799.219003009041
 21
3202.836910145868
 31
0.0
  0
LINE
  5
365B
330
1F
100
AcDbEntity
  8
1　製品
100
AcDbLine
 10
2828.777562418029
 20
3187.325504284807
 30
0.0
 11
2797.451862711661
 21
3202.008609209382
 31
0.0
  0
LINE
  5
365C
330
1F
100
AcDbEntity
  8
1　製品
100
AcDbLine
 10
2828.777562418029
 20
3218.348316006928
 30
0.0
 11
2797.451862711663
 21
3203.665211082353
 31
0.0
  0
LINE
  5
365D
330
1F
100
AcDbEntity
  8
1　製品
100
AcDbLine
 10
2828.777562418029
 20
3216.691714133957
 30
0.0
 11
2799.219003009039
 21
3202.836910145868
 31
0.0
  0
LINE
  5
365E
330
1F
100
AcDbEntity
  8
1　製品
100
AcDbLine
 10
2828.777562418029
 20
3180.798673552945
 30
0.0
 11
2797.451862711661
 21
3166.115568628371
 31
0.0
  0
LINE
  5
365F
330
1F
100
AcDbEntity
  8
1　製品
100
AcDbLine
 10
2828.777562418029
 20
3179.142071679974
 30
0.0
 11
2799.219003009039
 21
3165.287267691884
 31
0.0
  0
LINE
  5
3660
330
1F
100
AcDbEntity
  8
1　製品
100
AcDbLine
 10
2828.777562418029
 20
3264.081391065746
 30
0.0
 11
2814.055791061055
 21
3270.981837521413
 31
0.0
  0
LINE
  5
3661
330
1F
100
AcDbEntity
  8
1　製品
100
AcDbLine
 10
2828.777562418029
 20
3262.424789192773
 30
0.0
 11
2813.074177057686
 21
3269.785341617084
 31
0.0
  0
LINE
  5
3662
330
1F
100
AcDbEntity
  8
1　製品
100
AcDbLine
 10
2166.154863066569
 20
3707.886745903555
 30
0.0
 11
2129.015643468323
 21
3725.294786690815
 31
0.0
  0
LINE
  5
3663
330
1F
100
AcDbEntity
  8
1　製品
100
AcDbLine
 10
2045.371002725818
 20
3725.294786690817
 30
0.0
 11
2007.082962949315
 21
3707.34826640031
 31
0.0
  0
LINE
  5
3664
330
1F
100
AcDbEntity
  8
1　製品
100
AcDbLine
 10
2087.193323097068
 20
3707.34826640031
 30
0.0
 11
2048.90528332057
 21
3725.294786690814
 31
0.0
  0
LINE
  5
3665
330
1F
100
AcDbEntity
  8
1　製品
100
AcDbLine
 10
2125.48136287357
 20
3725.294786690816
 30
0.0
 11
2087.19332309707
 21
3707.348266400309
 31
0.0
  0
LINE
  5
3666
330
1F
100
AcDbEntity
  8
1　製品
100
AcDbLine
 10
2127.248503170949
 20
3686.916843300347
 30
0.0
 11
2088.960463394447
 21
3668.970323009839
 31
0.0
  0
LINE
  5
3667
330
1F
100
AcDbEntity
  8
1　製品
100
AcDbLine
 10
2125.48136287357
 20
3687.745144236832
 30
0.0
 11
2087.193323097068
 21
3669.798623946325
 31
0.0
  0
LINE
  5
3668
330
1F
100
AcDbEntity
  8
1　製品
100
AcDbLine
 10
2115.032762684859
 20
3656.749612548638
 30
0.0
 11
2088.960463394447
 21
3668.970323009839
 31
0.0
  0
LINE
  5
3669
330
1F
100
AcDbEntity
  8
1　製品
100
AcDbLine
 10
2127.248503170946
 20
3724.466485754331
 30
0.0
 11
2088.960463394445
 21
3706.519965463825
 31
0.0
  0
LINE
  5
366A
330
1F
100
AcDbEntity
  8
1　製品
100
AcDbLine
 10
2127.248503170946
 20
3688.573445173317
 30
0.0
 11
2088.960463394445
 21
3706.519965463824
 31
0.0
  0
LINE
  5
366B
330
1F
100
AcDbEntity
  8
1　製品
100
AcDbLine
 10
2125.48136287357
 20
3687.745144236832
 30
0.0
 11
2087.19332309707
 21
3705.69166452734
 31
0.0
  0
LINE
  5
366C
330
1F
100
AcDbEntity
  8
1　製品
100
AcDbLine
 10
2087.193323097074
 20
3630.592379619372
 30
0.0
 11
2048.905283320571
 21
3612.645859328864
 31
0.0
  0
LINE
  5
366D
330
1F
100
AcDbEntity
  8
1　製品
100
AcDbLine
 10
2085.426182799696
 20
3631.420680555857
 30
0.0
 11
2047.138143023194
 21
3613.474160265348
 31
0.0
  0
LINE
  5
366E
330
1F
100
AcDbEntity
  8
1　製品
100
AcDbLine
 10
2047.138143023194
 20
3613.474160265349
 30
0.0
 11
2008.850103246694
 21
3631.420680555856
 31
0.0
  0
LINE
  5
366F
330
1F
100
AcDbEntity
  8
1　製品
100
AcDbLine
 10
2045.37100272582
 20
3612.645859328866
 30
0.0
 11
2007.082962949322
 21
3630.592379619373
 31
0.0
  0
LINE
  5
3670
330
1F
100
AcDbEntity
  8
1　製品
100
AcDbLine
 10
2063.910662303149
 20
3605.612479193721
 30
0.0
 11
2048.90528332057
 21
3612.645859328864
 31
0.0
  0
LINE
  5
3671
330
1F
100
AcDbEntity
  8
1　製品
100
AcDbLine
 10
2062.782968912379
 20
3604.484454193247
 30
0.0
 11
2047.138143023196
 21
3611.817558392381
 31
0.0
  0
LINE
  5
3672
330
1F
100
AcDbEntity
  8
1　製品
100
AcDbLine
 10
2047.138143023196
 20
3611.81755839238
 30
0.0
 11
2008.850103246692
 21
3593.871038101872
 31
0.0
  0
LINE
  5
3673
330
1F
100
AcDbEntity
  8
1　製品
100
AcDbLine
 10
2045.371002725818
 20
3612.645859328865
 30
0.0
 11
2007.082962949316
 21
3594.699339038358
 31
0.0
  0
LINE
  5
3674
330
1F
100
AcDbEntity
  8
1　製品
100
AcDbLine
 10
2038.349612112293
 20
3580.043912516262
 30
0.0
 11
2008.850103246692
 21
3593.871038101872
 31
0.0
  0
LINE
  5
3675
330
1F
100
AcDbEntity
  8
1　製品
100
AcDbLine
 10
2037.221918721523
 20
3578.915887515788
 30
0.0
 11
2007.08296294932
 21
3593.04273716539
 31
0.0
  0
LINE
  5
3676
330
1F
100
AcDbEntity
  8
1　製品
100
AcDbLine
 10
2022.850642423849
 20
3564.540385198254
 30
0.0
 11
2007.082962949315
 21
3557.149696584374
 31
0.0
  0
LINE
  5
3677
330
1F
100
AcDbEntity
  8
1　製品
100
AcDbLine
 10
2019.734210999535
 20
3561.423037355604
 30
0.0
 11
2008.850103246692
 21
3556.321395647889
 31
0.0
  0
LINE
  5
3678
330
1F
100
AcDbEntity
  8
1　製品
100
AcDbLine
 10
2012.788561921438
 20
3554.475345838803
 30
0.0
 11
2008.850103246692
 21
3556.321395647889
 31
0.0
  0
LINE
  5
3679
330
1F
100
AcDbEntity
  8
1　製品
100
AcDbLine
 10
2011.660868530669
 20
3553.34732083833
 30
0.0
 11
2007.082962949318
 21
3555.493094711407
 31
0.0
  0
LINE
  5
367A
330
1F
100
AcDbEntity
  8
1　製品
100
AcDbLine
 10
2087.19332309707
 20
3669.798623946324
 30
0.0
 11
2048.90528332057
 21
3687.745144236831
 31
0.0
  0
LINE
  5
367B
330
1F
100
AcDbEntity
  8
1　製品
100
AcDbLine
 10
2085.426182799694
 20
3668.970323009841
 30
0.0
 11
2047.138143023196
 21
3686.916843300349
 31
0.0
  0
LINE
  5
367C
330
1F
100
AcDbEntity
  8
1　製品
100
AcDbLine
 10
2087.193323097074
 20
3668.142022073355
 30
0.0
 11
2048.905283320571
 21
3650.195501782848
 31
0.0
  0
LINE
  5
367D
330
1F
100
AcDbEntity
  8
1　製品
100
AcDbLine
 10
2085.426182799694
 20
3668.970323009841
 30
0.0
 11
2047.138143023194
 21
3651.023802719334
 31
0.0
  0
LINE
  5
367E
330
1F
100
AcDbEntity
  8
1　製品
100
AcDbLine
 10
2087.19332309707
 20
3632.248981492341
 30
0.0
 11
2048.905283320571
 21
3650.195501782848
 31
0.0
  0
LINE
  5
367F
330
1F
100
AcDbEntity
  8
1　製品
100
AcDbLine
 10
2085.426182799696
 20
3631.420680555857
 30
0.0
 11
2047.138143023198
 21
3649.367200846365
 31
0.0
  0
LINE
  5
3680
330
1F
100
AcDbEntity
  8
1　製品
100
AcDbLine
 10
2085.426182799692
 20
3706.519965463825
 30
0.0
 11
2047.138143023198
 21
3724.46648575433
 31
0.0
  0
LINE
  5
3681
330
1F
100
AcDbEntity
  8
1　製品
100
AcDbLine
 10
2087.193323097072
 20
3705.69166452734
 30
0.0
 11
2048.905283320568
 21
3687.745144236833
 31
0.0
  0
LINE
  5
3682
330
1F
100
AcDbEntity
  8
1　製品
100
AcDbLine
 10
2085.426182799694
 20
3706.519965463825
 30
0.0
 11
2047.138143023192
 21
3688.573445173317
 31
0.0
  0
LINE
  5
3683
330
1F
100
AcDbEntity
  8
1　製品
100
AcDbLine
 10
2045.37100272582
 20
3687.745144236834
 30
0.0
 11
2007.082962949316
 21
3669.798623946325
 31
0.0
  0
LINE
  5
3684
330
1F
100
AcDbEntity
  8
1　製品
100
AcDbLine
 10
2047.138143023196
 20
3686.916843300349
 30
0.0
 11
2008.850103246694
 21
3668.970323009841
 31
0.0
  0
LINE
  5
3685
330
1F
100
AcDbEntity
  8
1　製品
100
AcDbLine
 10
2047.138143023194
 20
3651.023802719334
 30
0.0
 11
2008.850103246694
 21
3668.970323009841
 31
0.0
  0
LINE
  5
3686
330
1F
100
AcDbEntity
  8
1　製品
100
AcDbLine
 10
2045.37100272582
 20
3650.19550178285
 30
0.0
 11
2007.08296294932
 21
3668.142022073357
 31
0.0
  0
LINE
  5
3687
330
1F
100
AcDbEntity
  8
1　製品
100
AcDbLine
 10
2047.138143023198
 20
3649.367200846365
 30
0.0
 11
2008.850103246694
 21
3631.420680555856
 31
0.0
  0
LINE
  5
3688
330
1F
100
AcDbEntity
  8
1　製品
100
AcDbLine
 10
2045.371002725818
 20
3650.19550178285
 30
0.0
 11
2007.082962949316
 21
3632.248981492341
 31
0.0
  0
LINE
  5
3689
330
1F
100
AcDbEntity
  8
1　製品
100
AcDbLine
 10
2047.138143023198
 20
3724.466485754331
 30
0.0
 11
2008.850103246694
 21
3706.519965463823
 31
0.0
  0
LINE
  5
368A
330
1F
100
AcDbEntity
  8
1　製品
100
AcDbLine
 10
2047.138143023192
 20
3688.573445173316
 30
0.0
 11
2008.850103246694
 21
3706.519965463823
 31
0.0
  0
LINE
  5
368B
330
1F
100
AcDbEntity
  8
1　製品
100
AcDbLine
 10
2045.371002725818
 20
3687.745144236834
 30
0.0
 11
2007.082962949322
 21
3705.69166452734
 31
0.0
  0
LINE
  5
368C
330
1F
100
AcDbEntity
  8
1　製品
100
AcDbLine
 10
2090.373323283977
 20
3632.082921788968
 30
0.0
 11
2088.960463394449
 21
3631.420680555856
 31
0.0
  0
LINE
  5
368D
330
1F
100
AcDbEntity
  8
1　製品
100
AcDbLine
 10
2088.344019103233
 20
3630.053020870705
 30
0.0
 11
2087.193323097072
 21
3630.592379619373
 31
0.0
  0
LINE
  5
368E
330
1F
100
AcDbEntity
  8
1　製品
100
AcDbLine
 10
2089.471712494005
 20
3631.18104587118
 30
0.0
 11
2088.960463394447
 21
3631.420680555856
 31
0.0
  0
LINE
  5
368F
330
1F
100
AcDbEntity
  8
1　製品
100
AcDbLine
 10
2093.489754708293
 20
3635.200269631619
 30
0.0
 11
2087.19332309707
 21
3632.248981492341
 31
0.0
  0
LINE
  5
3690
330
1F
100
AcDbEntity
  8
1　製品
100
AcDbLine
 10
2113.905069294089
 20
3655.621587548164
 30
0.0
 11
2087.193323097074
 21
3668.142022073355
 31
0.0
  0
LINE
  5
3691
330
1F
100
AcDbEntity
  8
1　製品
100
AcDbLine
 10
2140.593812875715
 20
3682.318179226097
 30
0.0
 11
2129.015643468323
 21
3687.745144236831
 31
0.0
  0
LINE
  5
3692
330
1F
100
AcDbEntity
  8
1　製品
100
AcDbLine
 10
2139.466119484943
 20
3681.190154225621
 30
0.0
 11
2127.248503170948
 21
3686.916843300348
 31
0.0
  0
LINE
  5
3693
330
1F
100
AcDbEntity
  8
1　製品
100
AcDbLine
 10
2165.027169675797
 20
3706.75872090308
 30
0.0
 11
2127.248503170948
 21
3724.466485754331
 31
0.0
  0
LINE
  5
3694
330
1F
100
AcDbEntity
  8
1　製品
100
AcDbLine
 10
2164.128866992743
 20
3705.860154064992
 30
0.0
 11
2127.248503170946
 21
3688.573445173317
 31
0.0
  0
LINE
  5
3695
330
1F
100
AcDbEntity
  8
1　製品
100
AcDbLine
 10
2161.012435568424
 20
3702.742806222337
 30
0.0
 11
2129.015643468325
 21
3687.745144236831
 31
0.0
  0
LINE
  5
3696
330
1F
100
AcDbEntity
  8
1　製品
100
AcDbLine
 10
2125.481362873566
 20
3762.844429144799
 30
0.0
 11
2087.193323097068
 21
3744.897908854293
 31
0.0
  0
LINE
  5
3697
330
1F
100
AcDbEntity
  8
1　製品
100
AcDbLine
 10
2127.248503170949
 20
3762.016128208314
 30
0.0
 11
2088.960463394447
 21
3744.069607917806
 31
0.0
  0
LINE
  5
3698
330
1F
100
AcDbEntity
  8
1　製品
100
AcDbLine
 10
2127.248503170944
 20
3726.123087627301
 30
0.0
 11
2088.960463394447
 21
3744.069607917806
 31
0.0
  0
LINE
  5
3699
330
1F
100
AcDbEntity
  8
1　製品
100
AcDbLine
 10
2125.48136287357
 20
3725.294786690816
 30
0.0
 11
2087.193323097074
 21
3743.241306981323
 31
0.0
  0
LINE
  5
369A
330
1F
100
AcDbEntity
  8
1　製品
100
AcDbLine
 10
2087.193323097068
 20
3744.897908854293
 30
0.0
 11
2048.905283320571
 21
3762.844429144799
 31
0.0
  0
LINE
  5
369B
330
1F
100
AcDbEntity
  8
1　製品
100
AcDbLine
 10
2085.426182799694
 20
3744.069607917809
 30
0.0
 11
2047.138143023198
 21
3762.016128208315
 31
0.0
  0
LINE
  5
369C
330
1F
100
AcDbEntity
  8
1　製品
100
AcDbLine
 10
2085.426182799694
 20
3744.069607917809
 30
0.0
 11
2047.138143023192
 21
3726.1230876273
 31
0.0
  0
LINE
  5
369D
330
1F
100
AcDbEntity
  8
1　製品
100
AcDbLine
 10
2087.193323097074
 20
3743.241306981323
 30
0.0
 11
2048.905283320571
 21
3725.294786690815
 31
0.0
  0
LINE
  5
369E
330
1F
100
AcDbEntity
  8
1　製品
100
AcDbLine
 10
2045.371002725817
 20
3762.844429144798
 30
0.0
 11
2007.082962949316
 21
3744.897908854292
 31
0.0
  0
LINE
  5
369F
330
1F
100
AcDbEntity
  8
1　製品
100
AcDbLine
 10
2047.138143023198
 20
3762.016128208315
 30
0.0
 11
2008.850103246694
 21
3744.069607917807
 31
0.0
  0
LINE
  5
36A0
330
1F
100
AcDbEntity
  8
1　製品
100
AcDbLine
 10
2047.138143023192
 20
3726.123087627301
 30
0.0
 11
2008.850103246694
 21
3744.069607917807
 31
0.0
  0
LINE
  5
36A1
330
1F
100
AcDbEntity
  8
3　補助線
  6
CENTER2
100
AcDbLine
 10
2028.794923172818
 20
3784.844429144796
 30
0.0
 11
2028.794923172818
 21
3814.844429144796
 31
0.0
  0
LINE
  5
36A2
330
1F
100
AcDbEntity
  8
1　製品
 48
15.0
100
AcDbLine
 10
2048.794923172818
 20
3806.044429144798
 30
0.0
 11
2048.794923172818
 21
3802.844429144798
 31
0.0
  0
LINE
  5
36A3
330
1F
100
AcDbEntity
  8
1　製品
100
AcDbLine
 10
2045.371002725817
 20
3725.294786690817
 30
0.0
 11
2007.082962949322
 21
3743.241306981324
 31
0.0
  0
LINE
  5
36A4
330
1F
100
AcDbEntity
  8
1　製品
100
AcDbLine
 10
2207.358863318699
 20
3762.016128208314
 30
0.0
 11
2169.070823542199
 21
3744.069607917807
 31
0.0
  0
LINE
  5
36A5
330
1F
100
AcDbEntity
  8
1　製品
100
AcDbLine
 10
2191.715913257425
 20
3733.455312581013
 30
0.0
 11
2169.070823542199
 21
3744.069607917806
 31
0.0
  0
LINE
  5
36A6
330
1F
100
AcDbEntity
  8
1　製品
100
AcDbLine
 10
2205.591723021322
 20
3762.8444291448
 30
0.0
 11
2167.303683244822
 21
3744.897908854292
 31
0.0
  0
LINE
  5
36A7
330
1F
100
AcDbEntity
  8
1　製品
100
AcDbLine
 10
2190.588219866651
 20
3732.327287580538
 30
0.0
 11
2167.303683244823
 21
3743.241306981322
 31
0.0
  0
LINE
  5
36A8
330
1F
100
AcDbEntity
  8
1　製品
100
AcDbLine
 10
2165.536542947444
 20
3744.069607917808
 30
0.0
 11
2127.248503170949
 21
3762.016128208314
 31
0.0
  0
LINE
  5
36A9
330
1F
100
AcDbEntity
  8
1　製品
100
AcDbLine
 10
2167.30368324482
 20
3744.897908854293
 30
0.0
 11
2129.015643468323
 21
3762.844429144798
 31
0.0
  0
LINE
  5
36AA
330
1F
100
AcDbEntity
  8
1　製品
100
AcDbLine
 10
2165.536542947446
 20
3744.069607917808
 30
0.0
 11
2127.248503170946
 21
3726.123087627301
 31
0.0
  0
LINE
  5
36AB
330
1F
100
AcDbEntity
  8
1　製品
100
AcDbLine
 10
2167.303683244823
 20
3743.241306981323
 30
0.0
 11
2129.015643468321
 21
3725.294786690815
 31
0.0
  0
LINE
  5
36AC
330
1F
100
AcDbEntity
  8
1　製品
100
AcDbLine
 10
2216.149270057507
 20
3757.895854257996
 30
0.0
 11
2207.358863318699
 21
3762.016128208314
 31
0.0
  0
LINE
  5
36AD
330
1F
100
AcDbEntity
  8
1　製品
100
AcDbLine
 10
2217.276963448281
 20
3759.023879258472
 30
0.0
 11
2209.126003616077
 21
3762.844429144798
 31
0.0
  0
LINE
  5
36AE
330
1F
100
AcDbEntity
  8
1　製品
 48
15.0
100
AcDbLine
 10
2896.977562418027
 20
3806.044429144798
 30
0.0
 11
2748.777562418027
 21
3806.044429144798
 31
0.0
  0
LINE
  5
36AF
330
1F
100
AcDbEntity
  8
1　製品
 48
15.0
100
AcDbLine
 10
2892.577562418028
 20
3802.844429144799
 30
0.0
 11
2748.777562418027
 21
3802.844429144799
 31
0.0
  0
LINE
  5
36B0
330
1F
100
AcDbEntity
  8
3　補助線
  6
CENTER2
100
AcDbLine
 10
2768.777562418027
 20
3787.844429144798
 30
0.0
 11
2768.777562418027
 21
3817.844429144798
 31
0.0
  0
LINE
  5
36B1
330
1F
100
AcDbEntity
  8
1　製品
 48
15.0
100
AcDbLine
 10
2748.777562418027
 20
3806.044429144798
 30
0.0
 11
2748.777562418027
 21
3802.844429144799
 31
0.0
  0
LINE
  5
36B2
330
1F
100
AcDbEntity
  8
3　補助線
  6
CENTER2
100
AcDbLine
 10
2863.777562418027
 20
3787.844429144798
 30
0.0
 11
2863.777562418027
 21
3817.844429144798
 31
0.0
  0
LINE
  5
36B3
330
1F
100
AcDbEntity
  8
1　製品
 48
15.0
100
AcDbLine
 10
2938.777562418028
 20
3806.044429144797
 30
0.0
 11
2938.777562418028
 21
3802.844429144797
 31
0.0
  0
LINE
  5
36B4
330
1F
100
AcDbEntity
  8
3　補助線
  6
CENTER2
100
AcDbLine
 10
2933.777562418028
 20
3784.844429144795
 30
0.0
 11
2933.777562418028
 21
3814.844429144795
 31
0.0
  0
LINE
  5
36B5
330
1F
100
AcDbEntity
  8
1　製品
 48
15.0
100
AcDbLine
 10
2900.577562418028
 20
3756.044429144797
 30
0.0
 11
2903.777562418028
 21
3756.044429144797
 31
0.0
  0
LINE
  5
36B6
330
1F
100
AcDbEntity
  8
1　製品
100
AcDbLine
 10
2900.577562418028
 20
3756.044429144797
 30
0.0
 11
2900.577562418028
 21
3806.044429144797
 31
0.0
  0
LINE
  5
36B7
330
1F
100
AcDbEntity
  8
1　製品
100
AcDbLine
 10
2896.977562418027
 20
3756.044429144798
 30
0.0
 11
2896.977562418027
 21
3806.044429144798
 31
0.0
  0
LINE
  5
36B8
330
1F
100
AcDbEntity
  8
1　製品
 48
15.0
100
AcDbLine
 10
2896.977562418027
 20
3756.044429144798
 30
0.0
 11
2893.777562418028
 21
3756.044429144798
 31
0.0
  0
LINE
  5
36B9
330
1F
100
AcDbEntity
  8
1　製品
100
AcDbLine
 10
2897.177562418027
 20
3797.844429144799
 30
0.0
 11
2900.377562418027
 21
3797.844429144797
 31
0.0
  0
LINE
  5
36BA
330
1F
100
AcDbEntity
  8
1　製品
100
AcDbLine
 10
2897.177562418027
 20
3747.844429144799
 30
0.0
 11
2900.377562418027
 21
3747.844429144797
 31
0.0
  0
LINE
  5
36BB
330
1F
100
AcDbEntity
  8
1　製品
100
AcDbLine
 10
2897.177562418027
 20
3747.844429144799
 30
0.0
 11
2897.177562418027
 21
3797.844429144799
 31
0.0
  0
LINE
  5
36BC
330
1F
100
AcDbEntity
  8
1　製品
100
AcDbLine
 10
2900.377562418027
 20
3747.844429144797
 30
0.0
 11
2900.377562418027
 21
3797.844429144797
 31
0.0
  0
LINE
  5
36BD
330
1F
100
AcDbEntity
  8
1　製品
  6
HIDDEN
 48
5.0
100
AcDbLine
 10
3890.760201663235
 20
2965.844429144796
 30
0.0
 11
3890.760201663235
 21
3799.844429144798
 31
0.0
  0
LINE
  5
36BE
330
1F
100
AcDbEntity
  8
1　製品
100
AcDbLine
 10
3893.760201663236
 20
2962.844429144797
 30
0.0
 11
3893.760201663237
 21
3802.844429144797
 31
0.0
  0
LINE
  5
36BF
330
1F
100
AcDbEntity
  8
1　製品
100
AcDbLine
 10
3853.760201663236
 20
3002.844429144797
 30
0.0
 11
3853.760201663236
 21
3762.844429144796
 31
0.0
  0
LINE
  5
36C0
330
1F
100
AcDbEntity
  8
1　製品
100
AcDbLine
 10
3828.760201663236
 20
3002.844429144797
 30
0.0
 11
3828.760201663236
 21
3762.844429144796
 31
0.0
  0
LINE
  5
36C1
330
1F
100
AcDbEntity
  8
1　製品
100
AcDbLine
 10
2968.777562418026
 20
3422.844429144797
 30
0.0
 11
2968.777562418027
 21
3762.844429144797
 31
0.0
  0
LINE
  5
36C2
330
1F
100
AcDbEntity
  8
1　製品
100
AcDbLine
 10
2968.777562418026
 20
3002.844429144797
 30
0.0
 11
2968.777562418027
 21
3762.844429144797
 31
0.0
  0
LINE
  5
36C3
330
1F
100
AcDbEntity
  8
1　製品
100
AcDbLine
 10
2986.082457585023
 20
3527.778754160871
 30
0.0
 11
2968.777562418027
 21
3535.88997254793
 31
0.0
  0
LINE
  5
36C4
330
1F
100
AcDbEntity
  8
1　製品
100
AcDbLine
 10
2987.210150975793
 20
3528.906779161345
 30
0.0
 11
2968.777562418027
 21
3537.546574420896
 31
0.0
  0
LINE
  5
36C5
330
1F
100
AcDbEntity
  8
3　補助線
  6
CENTER2
100
AcDbLine
 10
3028.777562418028
 20
2977.844429144797
 30
0.0
 11
3028.777562418028
 21
2947.844429144797
 31
0.0
  0
LINE
  5
36C6
330
1F
100
AcDbEntity
  8
1　製品
 48
15.0
100
AcDbLine
 10
3048.777562418028
 20
2959.644429144797
 30
0.0
 11
3048.777562418028
 21
2962.844429144797
 31
0.0
  0
LINE
  5
36C9
330
1F
100
AcDbEntity
  8
1　製品
100
AcDbLine
 10
3828.760201663236
 20
3002.844429144797
 30
0.0
 11
3828.760201663236
 21
3342.844429144797
 31
0.0
  0
LINE
  5
36CA
330
1F
100
AcDbEntity
  8
1　製品
100
AcDbLine
 10
3795.667361659491
 20
3165.287267691883
 30
0.0
 11
3757.379321882994
 21
3147.340747401378
 31
0.0
  0
LINE
  5
36CB
330
1F
100
AcDbEntity
  8
1　製品
100
AcDbLine
 10
3797.434501956869
 20
3164.458966755397
 30
0.0
 11
3759.146462180373
 21
3146.512446464892
 31
0.0
  0
LINE
  5
36CC
330
1F
100
AcDbEntity
  8
1　製品
100
AcDbLine
 10
3757.379321882996
 20
3147.340747401377
 30
0.0
 11
3725.038760667746
 21
3162.499542195884
 31
0.0
  0
LINE
  5
36CD
330
1F
100
AcDbEntity
  8
1　製品
100
AcDbLine
 10
3755.612181585616
 20
3146.512446464892
 30
0.0
 11
3724.057146664379
 21
3161.303046291557
 31
0.0
  0
LINE
  5
36CE
330
1F
100
AcDbEntity
  8
1　製品
100
AcDbLine
 10
3675.501821437863
 20
3071.413161556925
 30
0.0
 11
3637.213781661364
 21
3053.466641266419
 31
0.0
  0
LINE
  5
36CF
330
1F
100
AcDbEntity
  8
1　製品
100
AcDbLine
 10
3675.501821437864
 20
3071.413161556925
 30
0.0
 11
3657.307394435491
 21
3079.941324797412
 31
0.0
  0
LINE
  5
36D0
330
1F
100
AcDbEntity
  8
1　製品
100
AcDbLine
 10
3677.268961735241
 20
3072.24146249341
 30
0.0
 11
3658.289008438856
 21
3081.137820701737
 31
0.0
  0
LINE
  5
36D1
330
1F
100
AcDbEntity
  8
1　製品
100
AcDbLine
 10
3677.268961735241
 20
3034.691820039426
 30
0.0
 11
3638.980921958741
 21
3052.638340329932
 31
0.0
  0
LINE
  5
36D2
330
1F
100
AcDbEntity
  8
1　製品
100
AcDbLine
 10
3675.501821437865
 20
3033.863519102942
 30
0.0
 11
3637.213781661367
 21
3051.810039393449
 31
0.0
  0
LINE
  5
36D3
330
1F
100
AcDbEntity
  8
1　製品
100
AcDbLine
 10
3675.501821437865
 20
3033.863519102941
 30
0.0
 11
3637.213781661366
 21
3015.916998812434
 31
0.0
  0
LINE
  5
36D4
330
1F
100
AcDbEntity
  8
1　製品
100
AcDbLine
 10
3677.268961735242
 20
3033.035218166456
 30
0.0
 11
3638.980921958742
 21
3015.08869787595
 31
0.0
  0
LINE
  5
36D5
330
1F
100
AcDbEntity
  8
1　製品
100
AcDbLine
 10
3677.268961735243
 20
3070.584860620439
 30
0.0
 11
3638.980921958742
 21
3052.638340329933
 31
0.0
  0
LINE
  5
36D6
330
1F
100
AcDbEntity
  8
1　製品
100
AcDbLine
 10
3664.695883938076
 20
3003.035479961801
 30
0.0
 11
3638.980921958741
 21
3015.088697875949
 31
0.0
  0
LINE
  5
36D7
330
1F
100
AcDbEntity
  8
1　製品
100
AcDbLine
 10
3661.161603343322
 20
3003.035479961801
 30
0.0
 11
3637.213781661366
 21
3014.260396939465
 31
0.0
  0
LINE
  5
36D8
330
1F
100
AcDbEntity
  8
1　製品
100
AcDbLine
 10
3635.446641363989
 20
3015.088697875949
 30
0.0
 11
3609.731679384655
 21
3003.035479961801
 31
0.0
  0
LINE
  5
36D9
330
1F
100
AcDbEntity
  8
1　製品
100
AcDbLine
 10
3635.446641363989
 20
3015.08869787595
 30
0.0
 11
3612.807559616233
 21
3025.700177134649
 31
0.0
  0
LINE
  5
36DA
330
1F
100
AcDbEntity
  8
1　製品
100
AcDbLine
 10
3637.213781661365
 20
3014.260396939464
 30
0.0
 11
3613.265959979408
 21
3003.035479961801
 31
0.0
  0
LINE
  5
36DB
330
1F
100
AcDbEntity
  8
1　製品
100
AcDbLine
 10
3637.213781661365
 20
3015.916998812434
 30
0.0
 11
3613.789173619597
 21
3026.896673038973
 31
0.0
  0
LINE
  5
36DC
330
1F
100
AcDbEntity
  8
3　補助線
  6
CENTER2
100
AcDbLine
 10
3768.760201663236
 20
2977.844429144797
 30
0.0
 11
3768.760201663236
 21
2947.844429144797
 31
0.0
  0
LINE
  5
36DD
330
1F
100
AcDbEntity
  8
3　補助線
  6
CENTER2
100
AcDbLine
 10
3863.760201663236
 20
2977.844429144797
 30
0.0
 11
3863.760201663236
 21
2947.844429144797
 31
0.0
  0
LINE
  5
36DE
330
1F
100
AcDbEntity
  8
1　製品
100
AcDbLine
 10
3797.434501956872
 20
3128.565926174385
 30
0.0
 11
3759.146462180373
 21
3146.512446464892
 31
0.0
  0
LINE
  5
36DF
330
1F
100
AcDbEntity
  8
1　製品
100
AcDbLine
 10
3795.667361659492
 20
3127.7376252379
 30
0.0
 11
3757.379321882993
 21
3145.684145528407
 31
0.0
  0
LINE
  5
36E0
330
1F
100
AcDbEntity
  8
1　製品
100
AcDbLine
 10
3797.434501956872
 20
3053.466641266417
 30
0.0
 11
3759.146462180372
 21
3071.413161556924
 31
0.0
  0
LINE
  5
36E1
330
1F
100
AcDbEntity
  8
1　製品
100
AcDbLine
 10
3797.434501956871
 20
3091.016283720402
 30
0.0
 11
3759.146462180372
 21
3108.962804010909
 31
0.0
  0
LINE
  5
36E2
330
1F
100
AcDbEntity
  8
1　製品
100
AcDbLine
 10
3795.667361659493
 20
3090.187982783915
 30
0.0
 11
3757.379321882993
 21
3108.134503074423
 31
0.0
  0
LINE
  5
36E3
330
1F
100
AcDbEntity
  8
1　製品
100
AcDbLine
 10
3797.43450195687
 20
3126.909324301414
 30
0.0
 11
3759.146462180373
 21
3108.962804010907
 31
0.0
  0
LINE
  5
36E4
330
1F
100
AcDbEntity
  8
1　製品
100
AcDbLine
 10
3795.667361659492
 20
3127.7376252379
 30
0.0
 11
3757.379321882994
 21
3109.791104947394
 31
0.0
  0
LINE
  5
36E5
330
1F
100
AcDbEntity
  8
1　製品
100
AcDbLine
 10
3795.667361659492
 20
3090.187982783916
 30
0.0
 11
3757.379321882994
 21
3072.24146249341
 31
0.0
  0
LINE
  5
36E6
330
1F
100
AcDbEntity
  8
1　製品
100
AcDbLine
 10
3797.434501956869
 20
3089.359681847431
 30
0.0
 11
3759.146462180372
 21
3071.413161556924
 31
0.0
  0
LINE
  5
36E7
330
1F
100
AcDbEntity
  8
1　製品
100
AcDbLine
 10
3797.43450195687
 20
3051.810039393446
 30
0.0
 11
3759.146462180372
 21
3033.863519102941
 31
0.0
  0
LINE
  5
36E8
330
1F
100
AcDbEntity
  8
1　製品
100
AcDbLine
 10
3795.667361659493
 20
3052.638340329931
 30
0.0
 11
3757.379321882995
 21
3034.691820039426
 31
0.0
  0
LINE
  5
36E9
330
1F
100
AcDbEntity
  8
1　製品
100
AcDbLine
 10
3797.434501956871
 20
3015.916998812435
 30
0.0
 11
3759.146462180371
 21
3033.863519102942
 31
0.0
  0
LINE
  5
36EA
330
1F
100
AcDbEntity
  8
1　製品
100
AcDbLine
 10
3795.667361659491
 20
3015.088697875948
 30
0.0
 11
3757.379321882992
 21
3033.035218166455
 31
0.0
  0
LINE
  5
36EB
330
1F
100
AcDbEntity
  8
1　製品
100
AcDbLine
 10
3795.667361659491
 20
3015.088697875949
 30
0.0
 11
3769.952399680161
 21
3003.035479961801
 31
0.0
  0
LINE
  5
36EC
330
1F
100
AcDbEntity
  8
1　製品
100
AcDbLine
 10
3797.434501956869
 20
3014.260396939462
 30
0.0
 11
3773.486680274915
 21
3003.035479961801
 31
0.0
  0
LINE
  5
36ED
330
1F
100
AcDbEntity
  8
1　製品
100
AcDbLine
 10
3795.667361659493
 20
3052.638340329931
 30
0.0
 11
3757.379321882994
 21
3070.584860620439
 31
0.0
  0
LINE
  5
36EE
330
1F
100
AcDbEntity
  8
1　製品
 48
15.0
100
AcDbLine
 10
3892.560201663237
 20
2962.844429144797
 30
0.0
 11
3748.760201663236
 21
2962.844429144797
 31
0.0
  0
LINE
  5
36EF
330
1F
100
AcDbEntity
  8
1　製品
 48
15.0
100
AcDbLine
 10
3896.960201663236
 20
2959.644429144797
 30
0.0
 11
3748.760201663236
 21
2959.644429144797
 31
0.0
  0
LINE
  5
36F0
330
1F
100
AcDbEntity
  8
1　製品
100
AcDbLine
 10
3715.55700151174
 20
3052.638340329932
 30
0.0
 11
3677.268961735241
 21
3070.584860620439
 31
0.0
  0
LINE
  5
36F1
330
1F
100
AcDbEntity
  8
1　製品
100
AcDbLine
 10
3757.379321882993
 20
3070.584860620439
 30
0.0
 11
3719.091282106495
 21
3052.638340329932
 31
0.0
  0
LINE
  5
36F2
330
1F
100
AcDbEntity
  8
1　製品
100
AcDbLine
 10
3741.271963491072
 20
3003.035479961801
 30
0.0
 11
3717.324141809117
 21
3014.260396939464
 31
0.0
  0
LINE
  5
36F3
330
1F
100
AcDbEntity
  8
1　製品
100
AcDbLine
 10
3757.379321882995
 20
3034.691820039426
 30
0.0
 11
3719.091282106495
 21
3052.638340329932
 31
0.0
  0
LINE
  5
36F4
330
1F
100
AcDbEntity
  8
1　製品
100
AcDbLine
 10
3755.612181585617
 20
3033.86351910294
 30
0.0
 11
3717.324141809117
 21
3051.810039393447
 31
0.0
  0
LINE
  5
36F5
330
1F
100
AcDbEntity
  8
1　製品
100
AcDbLine
 10
3744.806244085829
 20
3003.035479961801
 30
0.0
 11
3719.091282106493
 21
3015.088697875949
 31
0.0
  0
LINE
  5
36F6
330
1F
100
AcDbEntity
  8
1　製品
100
AcDbLine
 10
3755.612181585616
 20
3033.86351910294
 30
0.0
 11
3717.324141809118
 21
3015.916998812434
 31
0.0
  0
LINE
  5
36F7
330
1F
100
AcDbEntity
  8
1　製品
100
AcDbLine
 10
3757.379321882993
 20
3033.035218166455
 30
0.0
 11
3719.091282106494
 21
3015.088697875949
 31
0.0
  0
LINE
  5
36F8
330
1F
100
AcDbEntity
  8
1　製品
100
AcDbLine
 10
3717.324141809117
 20
3014.260396939464
 30
0.0
 11
3693.376320127161
 21
3003.035479961802
 31
0.0
  0
LINE
  5
36F9
330
1F
100
AcDbEntity
  8
1　製品
100
AcDbLine
 10
3717.324141809117
 20
3051.810039393447
 30
0.0
 11
3679.036102032618
 21
3033.863519102941
 31
0.0
  0
LINE
  5
36FA
330
1F
100
AcDbEntity
  8
1　製品
100
AcDbLine
 10
3715.55700151174
 20
3052.638340329932
 30
0.0
 11
3677.268961735242
 21
3034.691820039426
 31
0.0
  0
LINE
  5
36FB
330
1F
100
AcDbEntity
  8
1　製品
100
AcDbLine
 10
3715.557001511741
 20
3015.088697875949
 30
0.0
 11
3689.842039532409
 21
3003.035479961801
 31
0.0
  0
LINE
  5
36FC
330
1F
100
AcDbEntity
  8
1　製品
100
AcDbLine
 10
3715.557001511741
 20
3015.088697875949
 30
0.0
 11
3677.268961735243
 21
3033.035218166456
 31
0.0
  0
LINE
  5
36FD
330
1F
100
AcDbEntity
  8
1　製品
100
AcDbLine
 10
3717.324141809117
 20
3015.916998812434
 30
0.0
 11
3679.036102032617
 21
3033.863519102941
 31
0.0
  0
LINE
  5
36FE
330
1F
100
AcDbEntity
  8
1　製品
 48
15.0
100
AcDbLine
 10
3748.760201663236
 20
2959.644429144797
 30
0.0
 11
3748.760201663236
 21
2962.844429144797
 31
0.0
  0
LINE
  5
36FF
330
1F
100
AcDbEntity
  8
1　製品
100
AcDbLine
 10
3755.612181585615
 20
3146.512446464892
 30
0.0
 11
3717.324141809117
 21
3128.565926174386
 31
0.0
  0
LINE
  5
3700
330
1F
100
AcDbEntity
  8
1　製品
100
AcDbLine
 10
3757.379321882993
 20
3145.684145528407
 30
0.0
 11
3719.091282106495
 21
3127.7376252379
 31
0.0
  0
LINE
  5
3701
330
1F
100
AcDbEntity
  8
1　製品
100
AcDbLine
 10
3755.612181585616
 20
3071.413161556924
 30
0.0
 11
3717.324141809117
 21
3053.466641266418
 31
0.0
  0
LINE
  5
3702
330
1F
100
AcDbEntity
  8
1　製品
100
AcDbLine
 10
3757.379321882995
 20
3072.24146249341
 30
0.0
 11
3719.091282106495
 21
3090.187982783917
 31
0.0
  0
LINE
  5
3703
330
1F
100
AcDbEntity
  8
1　製品
100
AcDbLine
 10
3755.612181585617
 20
3071.413161556924
 30
0.0
 11
3717.324141809118
 21
3089.359681847432
 31
0.0
  0
LINE
  5
3704
330
1F
100
AcDbEntity
  8
1　製品
100
AcDbLine
 10
3755.612181585615
 20
3108.962804010908
 30
0.0
 11
3717.324141809117
 21
3126.909324301415
 31
0.0
  0
LINE
  5
3705
330
1F
100
AcDbEntity
  8
1　製品
100
AcDbLine
 10
3757.379321882994
 20
3109.791104947394
 30
0.0
 11
3719.091282106495
 21
3127.7376252379
 31
0.0
  0
LINE
  5
3706
330
1F
100
AcDbEntity
  8
1　製品
100
AcDbLine
 10
3755.612181585615
 20
3108.962804010908
 30
0.0
 11
3717.324141809117
 21
3091.016283720402
 31
0.0
  0
LINE
  5
3707
330
1F
100
AcDbEntity
  8
1　製品
100
AcDbLine
 10
3757.379321882994
 20
3108.134503074422
 30
0.0
 11
3719.091282106496
 21
3090.187982783917
 31
0.0
  0
LINE
  5
3708
330
1F
100
AcDbEntity
  8
1　製品
100
AcDbLine
 10
3717.324141809118
 20
3128.565926174385
 30
0.0
 11
3702.788843258116
 21
3135.378968364501
 31
0.0
  0
LINE
  5
3709
330
1F
100
AcDbEntity
  8
1　製品
100
AcDbLine
 10
3715.557001511741
 20
3127.7376252379
 30
0.0
 11
3701.80722925475
 21
3134.182472460176
 31
0.0
  0
LINE
  5
370A
330
1F
100
AcDbEntity
  8
1　製品
100
AcDbLine
 10
3717.324141809117
 20
3126.909324301415
 30
0.0
 11
3682.416893414302
 21
3110.547461817459
 31
0.0
  0
LINE
  5
370B
330
1F
100
AcDbEntity
  8
1　製品
100
AcDbLine
 10
3715.55700151174
 20
3127.7376252379
 30
0.0
 11
3684.625157701626
 21
3113.239129994961
 31
0.0
  0
LINE
  5
370C
330
1F
100
AcDbEntity
  8
1　製品
100
AcDbLine
 10
3717.324141809117
 20
3091.016283720402
 30
0.0
 11
3680.538925848486
 21
3108.258394533119
 31
0.0
  0
LINE
  5
370D
330
1F
100
AcDbEntity
  8
1　製品
100
AcDbLine
 10
3715.557001511741
 20
3090.187982783917
 30
0.0
 11
3679.557311845121
 21
3107.061898628795
 31
0.0
  0
LINE
  5
370E
330
1F
100
AcDbEntity
  8
1　製品
100
AcDbLine
 10
3717.324141809117
 20
3053.466641266418
 30
0.0
 11
3679.036102032618
 21
3071.413161556924
 31
0.0
  0
LINE
  5
370F
330
1F
100
AcDbEntity
  8
1　製品
100
AcDbLine
 10
3717.324141809118
 20
3089.359681847431
 30
0.0
 11
3679.036102032619
 21
3071.413161556924
 31
0.0
  0
LINE
  5
3710
330
1F
100
AcDbEntity
  8
1　製品
100
AcDbLine
 10
3715.557001511739
 20
3090.187982783917
 30
0.0
 11
3677.26896173524
 21
3072.24146249341
 31
0.0
  0
LINE
  5
3711
330
1F
100
AcDbEntity
  8
1　製品
100
AcDbLine
 10
3828.760201663237
 20
3066.493144318022
 30
0.0
 11
3799.201642254249
 21
3052.638340329932
 31
0.0
  0
LINE
  5
3712
330
1F
100
AcDbEntity
  8
1　製品
100
AcDbLine
 10
3828.760201663237
 20
3028.943501864038
 30
0.0
 11
3799.201642254248
 21
3015.088697875949
 31
0.0
  0
LINE
  5
3713
330
1F
100
AcDbEntity
  8
1　製品
100
AcDbLine
 10
3824.916604233582
 20
3003.035479961801
 30
0.0
 11
3799.201642254248
 21
3015.088697875949
 31
0.0
  0
LINE
  5
3714
330
1F
100
AcDbEntity
  8
1　製品
100
AcDbLine
 10
3828.760201663237
 20
3038.783536341844
 30
0.0
 11
3799.201642254247
 21
3052.638340329933
 31
0.0
  0
LINE
  5
3715
330
1F
100
AcDbEntity
  8
1　製品
100
AcDbLine
 10
3828.760201663237
 20
3030.600103737009
 30
0.0
 11
3797.434501956871
 21
3015.916998812434
 31
0.0
  0
LINE
  5
3716
330
1F
100
AcDbEntity
  8
1　製品
100
AcDbLine
 10
3821.382323638821
 20
3003.035479961801
 30
0.0
 11
3797.434501956868
 21
3014.260396939463
 31
0.0
  0
LINE
  5
3717
330
1F
100
AcDbEntity
  8
1　製品
100
AcDbLine
 10
3828.760201663237
 20
3037.12693446887
 30
0.0
 11
3797.434501956868
 21
3051.810039393447
 31
0.0
  0
LINE
  5
3718
330
1F
100
AcDbEntity
  8
1　製品
 48
15.0
100
AcDbLine
 10
3896.960201663236
 20
3009.644429144797
 30
0.0
 11
3893.760201663236
 21
3009.644429144797
 31
0.0
  0
LINE
  5
3719
330
1F
100
AcDbEntity
  8
1　製品
100
AcDbLine
 10
3896.960201663236
 20
3009.644429144797
 30
0.0
 11
3896.960201663236
 21
2959.644429144797
 31
0.0
  0
LINE
  5
371A
330
1F
100
AcDbEntity
  8
1　製品
100
AcDbLine
 10
3828.760201663237
 20
3141.59242922599
 30
0.0
 11
3799.201642254251
 21
3127.7376252379
 31
0.0
  0
LINE
  5
371B
330
1F
100
AcDbEntity
  8
1　製品
100
AcDbLine
 10
3828.760201663237
 20
3113.882821249812
 30
0.0
 11
3799.201642254249
 21
3127.737625237901
 31
0.0
  0
LINE
  5
371C
330
1F
100
AcDbEntity
  8
1　製品
100
AcDbLine
 10
3828.760201663237
 20
3104.042786772006
 30
0.0
 11
3799.201642254247
 21
3090.187982783917
 31
0.0
  0
LINE
  5
371D
330
1F
100
AcDbEntity
  8
1　製品
100
AcDbLine
 10
3828.760201663237
 20
3076.333178795827
 30
0.0
 11
3799.201642254249
 21
3090.187982783916
 31
0.0
  0
LINE
  5
371E
330
1F
100
AcDbEntity
  8
1　製品
100
AcDbLine
 10
3828.760201663237
 20
3143.24903109896
 30
0.0
 11
3797.434501956872
 21
3128.565926174387
 31
0.0
  0
LINE
  5
371F
330
1F
100
AcDbEntity
  8
1　製品
100
AcDbLine
 10
3828.760201663237
 20
3112.226219376838
 30
0.0
 11
3797.434501956869
 21
3126.909324301414
 31
0.0
  0
LINE
  5
3720
330
1F
100
AcDbEntity
  8
1　製品
100
AcDbLine
 10
3828.760201663237
 20
3105.699388644976
 30
0.0
 11
3797.434501956871
 21
3091.016283720402
 31
0.0
  0
LINE
  5
3721
330
1F
100
AcDbEntity
  8
1　製品
100
AcDbLine
 10
3828.760201663237
 20
3068.149746190992
 30
0.0
 11
3797.434501956872
 21
3053.466641266417
 31
0.0
  0
LINE
  5
3722
330
1F
100
AcDbEntity
  8
1　製品
100
AcDbLine
 10
3828.760201663237
 20
3074.676576922854
 30
0.0
 11
3797.434501956869
 21
3089.359681847431
 31
0.0
  0
LINE
  5
3723
330
1F
100
AcDbEntity
  8
1　製品
100
AcDbLine
 10
3797.434501956872
 20
3203.665211082353
 30
0.0
 11
3769.538595487004
 21
3216.740689858647
 31
0.0
  0
LINE
  5
3724
330
1F
100
AcDbEntity
  8
1　製品
100
AcDbLine
 10
3797.43450195687
 20
3166.115568628369
 30
0.0
 11
3759.146462180372
 21
3184.062088918875
 31
0.0
  0
LINE
  5
3725
330
1F
100
AcDbEntity
  8
1　製品
100
AcDbLine
 10
3795.667361659493
 20
3165.287267691883
 30
0.0
 11
3757.379321882994
 21
3183.23378798239
 31
0.0
  0
LINE
  5
3726
330
1F
100
AcDbEntity
  8
1　製品
100
AcDbLine
 10
3797.434501956868
 20
3202.008609209382
 30
0.0
 11
3759.146462180371
 21
3184.062088918876
 31
0.0
  0
LINE
  5
3727
330
1F
100
AcDbEntity
  8
1　製品
100
AcDbLine
 10
3795.667361659492
 20
3202.836910145866
 30
0.0
 11
3757.379321882994
 21
3184.89038985536
 31
0.0
  0
LINE
  5
3728
330
1F
100
AcDbEntity
  8
1　製品
100
AcDbLine
 10
3795.667361659493
 20
3202.836910145867
 30
0.0
 11
3768.556981483638
 21
3215.544193954321
 31
0.0
  0
LINE
  5
3729
330
1F
100
AcDbEntity
  8
1　製品
100
AcDbLine
 10
3797.434501956869
 20
3239.558251663364
 30
0.0
 11
3782.524874439616
 21
3232.569752530889
 31
0.0
  0
LINE
  5
372A
330
1F
100
AcDbEntity
  8
1　製品
100
AcDbLine
 10
3795.667361659491
 20
3240.38655259985
 30
0.0
 11
3784.733138726941
 21
3235.261420708393
 31
0.0
  0
LINE
  5
372B
330
1F
100
AcDbEntity
  8
1　製品
100
AcDbLine
 10
3755.612181585617
 20
3184.062088918876
 30
0.0
 11
3746.307064074009
 21
3188.423620122939
 31
0.0
  0
LINE
  5
372C
330
1F
100
AcDbEntity
  8
1　製品
100
AcDbLine
 10
3755.612181585616
 20
3184.062088918875
 30
0.0
 11
3734.679148214283
 21
3174.250275351677
 31
0.0
  0
LINE
  5
372D
330
1F
100
AcDbEntity
  8
1　製品
100
AcDbLine
 10
3757.379321882992
 20
3183.23378798239
 30
0.0
 11
3732.47088392696
 21
3171.558607174175
 31
0.0
  0
LINE
  5
372E
330
1F
100
AcDbEntity
  8
1　製品
100
AcDbLine
 10
3828.760201663237
 20
3255.897958460911
 30
0.0
 11
3797.434501956871
 21
3241.214853536336
 31
0.0
  0
LINE
  5
372F
330
1F
100
AcDbEntity
  8
1　製品
100
AcDbLine
 10
3828.760201663237
 20
3254.241356587939
 30
0.0
 11
3799.201642254248
 21
3240.386552599851
 31
0.0
  0
LINE
  5
3730
330
1F
100
AcDbEntity
  8
1　製品
100
AcDbLine
 10
3828.760201663237
 20
3226.531748611761
 30
0.0
 11
3799.201642254249
 21
3240.386552599851
 31
0.0
  0
LINE
  5
3731
330
1F
100
AcDbEntity
  8
1　製品
100
AcDbLine
 10
3828.760201663237
 20
3151.432463703794
 30
0.0
 11
3799.201642254247
 21
3165.287267691884
 31
0.0
  0
LINE
  5
3732
330
1F
100
AcDbEntity
  8
1　製品
100
AcDbLine
 10
3828.760201663237
 20
3179.142071679973
 30
0.0
 11
3799.201642254248
 21
3165.287267691883
 31
0.0
  0
LINE
  5
3733
330
1F
100
AcDbEntity
  8
1　製品
100
AcDbLine
 10
3828.760201663237
 20
3188.982106157778
 30
0.0
 11
3799.201642254249
 21
3202.836910145867
 31
0.0
  0
LINE
  5
3734
330
1F
100
AcDbEntity
  8
1　製品
100
AcDbLine
 10
3828.760201663237
 20
3216.691714133956
 30
0.0
 11
3799.201642254248
 21
3202.836910145867
 31
0.0
  0
LINE
  5
3735
330
1F
100
AcDbEntity
  8
1　製品
100
AcDbLine
 10
3797.43450195687
 20
3241.214853536336
 30
0.0
 11
3791.788512896634
 21
3243.861263690028
 31
0.0
  0
LINE
  5
3736
330
1F
100
AcDbEntity
  8
1　製品
100
AcDbLine
 10
3795.667361659491
 20
3240.38655259985
 30
0.0
 11
3790.806898893266
 21
3242.664767785701
 31
0.0
  0
LINE
  5
3737
330
1F
100
AcDbEntity
  8
1　製品
100
AcDbLine
 10
3828.760201663237
 20
3224.875146738789
 30
0.0
 11
3797.43450195687
 21
3239.558251663364
 31
0.0
  0
LINE
  5
3738
330
1F
100
AcDbEntity
  8
1　製品
100
AcDbLine
 10
3828.760201663237
 20
3180.798673552943
 30
0.0
 11
3797.43450195687
 21
3166.11556862837
 31
0.0
  0
LINE
  5
3739
330
1F
100
AcDbEntity
  8
1　製品
100
AcDbLine
 10
3828.760201663237
 20
3149.775861830822
 30
0.0
 11
3797.434501956869
 21
3164.458966755398
 31
0.0
  0
LINE
  5
373A
330
1F
100
AcDbEntity
  8
1　製品
100
AcDbLine
 10
3828.760201663237
 20
3187.325504284805
 30
0.0
 11
3797.43450195687
 21
3202.008609209381
 31
0.0
  0
LINE
  5
373B
330
1F
100
AcDbEntity
  8
1　製品
100
AcDbLine
 10
3828.760201663237
 20
3218.348316006927
 30
0.0
 11
3797.434501956872
 21
3203.665211082352
 31
0.0
  0
LINE
  5
373C
330
1F
100
AcDbEntity
  8
1　製品
100
AcDbLine
 10
3828.760201663237
 20
3264.081391065745
 30
0.0
 11
3814.038430306264
 21
3270.981837521412
 31
0.0
  0
LINE
  5
373D
330
1F
100
AcDbEntity
  8
1　製品
100
AcDbLine
 10
3828.760201663237
 20
3262.424789192772
 30
0.0
 11
3813.056816302896
 21
3269.785341617083
 31
0.0
  0
LINE
  5
373E
330
1F
100
AcDbEntity
  8
1　製品
100
AcDbLine
 10
3191.698552502634
 20
3733.455312581013
 30
0.0
 11
3169.053462787409
 21
3744.069607917805
 31
0.0
  0
LINE
  5
373F
330
1F
100
AcDbEntity
  8
1　製品
100
AcDbLine
 10
3190.570859111861
 20
3732.327287580537
 30
0.0
 11
3167.286322490033
 21
3743.241306981321
 31
0.0
  0
LINE
  5
3740
330
1F
100
AcDbEntity
  8
1　製品
100
AcDbLine
 10
3205.57436226653
 20
3762.844429144799
 30
0.0
 11
3167.28632249003
 21
3744.897908854291
 31
0.0
  0
LINE
  5
3741
330
1F
100
AcDbEntity
  8
1　製品
100
AcDbLine
 10
3207.341502563908
 20
3762.016128208312
 30
0.0
 11
3169.053462787408
 21
3744.069607917806
 31
0.0
  0
LINE
  5
3742
330
1F
100
AcDbEntity
  8
1　製品
100
AcDbLine
 10
3166.137502311779
 20
3707.886745903554
 30
0.0
 11
3128.998282713532
 21
3725.294786690814
 31
0.0
  0
LINE
  5
3743
330
1F
100
AcDbEntity
  8
1　製品
100
AcDbLine
 10
3087.175962342277
 20
3707.348266400308
 30
0.0
 11
3048.887922565779
 21
3725.294786690813
 31
0.0
  0
LINE
  5
3744
330
1F
100
AcDbEntity
  8
1　製品
100
AcDbLine
 10
3045.353641971027
 20
3725.294786690816
 30
0.0
 11
3007.065602194523
 21
3707.348266400308
 31
0.0
  0
LINE
  5
3745
330
1F
100
AcDbEntity
  8
1　製品
100
AcDbLine
 10
3007.065602194523
 20
3707.348266400308
 30
0.0
 11
2968.777562418027
 21
3725.294786690813
 31
0.0
  0
LINE
  5
3746
330
1F
100
AcDbEntity
  8
1　製品
100
AcDbLine
 10
3125.464002118779
 20
3725.294786690815
 30
0.0
 11
3087.175962342279
 21
3707.348266400307
 31
0.0
  0
LINE
  5
3747
330
1F
100
AcDbEntity
  8
1　製品
100
AcDbLine
 10
3087.175962342279
 20
3669.798623946323
 30
0.0
 11
3048.887922565778
 21
3687.74514423683
 31
0.0
  0
LINE
  5
3748
330
1F
100
AcDbEntity
  8
1　製品
100
AcDbLine
 10
3085.408822044904
 20
3668.97032300984
 30
0.0
 11
3047.120782268405
 21
3686.916843300347
 31
0.0
  0
LINE
  5
3749
330
1F
100
AcDbEntity
  8
1　製品
100
AcDbLine
 10
3087.175962342283
 20
3668.142022073354
 30
0.0
 11
3048.88792256578
 21
3650.195501782847
 31
0.0
  0
LINE
  5
374A
330
1F
100
AcDbEntity
  8
1　製品
100
AcDbLine
 10
3085.408822044904
 20
3668.97032300984
 30
0.0
 11
3047.120782268403
 21
3651.023802719332
 31
0.0
  0
LINE
  5
374B
330
1F
100
AcDbEntity
  8
1　製品
100
AcDbLine
 10
3087.175962342279
 20
3632.24898149234
 30
0.0
 11
3048.88792256578
 21
3650.195501782847
 31
0.0
  0
LINE
  5
374C
330
1F
100
AcDbEntity
  8
1　製品
100
AcDbLine
 10
3085.408822044905
 20
3631.420680555856
 30
0.0
 11
3047.120782268406
 21
3649.367200846363
 31
0.0
  0
LINE
  5
374D
330
1F
100
AcDbEntity
  8
1　製品
100
AcDbLine
 10
3085.408822044902
 20
3706.519965463824
 30
0.0
 11
3047.120782268406
 21
3724.466485754329
 31
0.0
  0
LINE
  5
374E
330
1F
100
AcDbEntity
  8
1　製品
100
AcDbLine
 10
3087.17596234228
 20
3705.691664527339
 30
0.0
 11
3048.887922565777
 21
3687.745144236831
 31
0.0
  0
LINE
  5
374F
330
1F
100
AcDbEntity
  8
1　製品
100
AcDbLine
 10
3085.408822044904
 20
3706.519965463824
 30
0.0
 11
3047.120782268401
 21
3688.573445173316
 31
0.0
  0
LINE
  5
3750
330
1F
100
AcDbEntity
  8
1　製品
100
AcDbLine
 10
3087.175962342282
 20
3630.592379619371
 30
0.0
 11
3048.88792256578
 21
3612.645859328863
 31
0.0
  0
LINE
  5
3751
330
1F
100
AcDbEntity
  8
1　製品
100
AcDbLine
 10
3085.408822044905
 20
3631.420680555856
 30
0.0
 11
3047.120782268403
 21
3613.474160265348
 31
0.0
  0
LINE
  5
3752
330
1F
100
AcDbEntity
  8
1　製品
100
AcDbLine
 10
3047.120782268403
 20
3613.474160265348
 30
0.0
 11
3008.832742491903
 21
3631.420680555855
 31
0.0
  0
LINE
  5
3753
330
1F
100
AcDbEntity
  8
1　製品
100
AcDbLine
 10
3045.353641971029
 20
3612.645859328865
 30
0.0
 11
3007.065602194531
 21
3630.592379619372
 31
0.0
  0
LINE
  5
3754
330
1F
100
AcDbEntity
  8
1　製品
100
AcDbLine
 10
3007.065602194531
 20
3630.592379619372
 30
0.0
 11
2968.777562418027
 21
3612.645859328863
 31
0.0
  0
LINE
  5
3755
330
1F
100
AcDbEntity
  8
1　製品
100
AcDbLine
 10
3005.298461897153
 20
3631.420680555857
 30
0.0
 11
2968.777562418027
 21
3614.302461201833
 31
0.0
  0
LINE
  5
3756
330
1F
100
AcDbEntity
  8
1　製品
100
AcDbLine
 10
3022.833281669058
 20
3564.540385198252
 30
0.0
 11
3007.065602194524
 21
3557.149696584373
 31
0.0
  0
LINE
  5
3757
330
1F
100
AcDbEntity
  8
1　製品
100
AcDbLine
 10
3019.716850244744
 20
3561.423037355603
 30
0.0
 11
3008.832742491901
 21
3556.321395647888
 31
0.0
  0
LINE
  5
3758
330
1F
100
AcDbEntity
  8
1　製品
100
AcDbLine
 10
3012.771201166647
 20
3554.475345838802
 30
0.0
 11
3008.832742491901
 21
3556.321395647888
 31
0.0
  0
LINE
  5
3759
330
1F
100
AcDbEntity
  8
1　製品
100
AcDbLine
 10
3011.643507775878
 20
3553.347320838329
 30
0.0
 11
3007.065602194528
 21
3555.493094711406
 31
0.0
  0
LINE
  5
375A
330
1F
100
AcDbEntity
  8
1　製品
100
AcDbLine
 10
3037.204557966732
 20
3578.915887515787
 30
0.0
 11
3007.065602194529
 21
3593.042737165389
 31
0.0
  0
LINE
  5
375B
330
1F
100
AcDbEntity
  8
1　製品
100
AcDbLine
 10
3047.120782268405
 20
3611.817558392379
 30
0.0
 11
3008.832742491902
 21
3593.871038101871
 31
0.0
  0
LINE
  5
375C
330
1F
100
AcDbEntity
  8
1　製品
100
AcDbLine
 10
3045.353641971028
 20
3612.645859328864
 30
0.0
 11
3007.065602194525
 21
3594.699339038356
 31
0.0
  0
LINE
  5
375D
330
1F
100
AcDbEntity
  8
1　製品
100
AcDbLine
 10
3038.332251357503
 20
3580.043912516261
 30
0.0
 11
3008.832742491902
 21
3593.871038101871
 31
0.0
  0
LINE
  5
375E
330
1F
100
AcDbEntity
  8
1　製品
100
AcDbLine
 10
3005.298461897153
 20
3593.871038101873
 30
0.0
 11
2968.777562418027
 21
3610.989257455898
 31
0.0
  0
LINE
  5
375F
330
1F
100
AcDbEntity
  8
1　製品
100
AcDbLine
 10
3007.065602194525
 20
3594.699339038356
 30
0.0
 11
2968.777562418027
 21
3612.645859328863
 31
0.0
  0
LINE
  5
3760
330
1F
100
AcDbEntity
  8
1　製品
100
AcDbLine
 10
3005.298461897153
 20
3593.871038101873
 30
0.0
 11
2968.777562418027
 21
3576.75281874785
 31
0.0
  0
LINE
  5
3761
330
1F
100
AcDbEntity
  8
1　製品
100
AcDbLine
 10
3007.065602194528
 20
3555.493094711406
 30
0.0
 11
2968.777562418027
 21
3537.546574420898
 31
0.0
  0
LINE
  5
3762
330
1F
100
AcDbEntity
  8
1　製品
100
AcDbLine
 10
3005.298461897151
 20
3556.32139564789
 30
0.0
 11
2968.777562418027
 21
3539.203176293867
 31
0.0
  0
LINE
  5
3763
330
1F
100
AcDbEntity
  8
1　製品
100
AcDbLine
 10
3005.298461897151
 20
3556.32139564789
 30
0.0
 11
2968.777562418027
 21
3573.439615001914
 31
0.0
  0
LINE
  5
3764
330
1F
100
AcDbEntity
  8
1　製品
100
AcDbLine
 10
3007.065602194524
 20
3557.149696584373
 30
0.0
 11
2968.777562418027
 21
3575.096216874879
 31
0.0
  0
LINE
  5
3765
330
1F
100
AcDbEntity
  8
1　製品
100
AcDbLine
 10
3007.065602194529
 20
3593.042737165389
 30
0.0
 11
2968.777562418027
 21
3575.096216874881
 31
0.0
  0
LINE
  5
3766
330
1F
100
AcDbEntity
  8
1　製品
100
AcDbLine
 10
3063.893301548359
 20
3605.61247919372
 30
0.0
 11
3048.887922565778
 21
3612.645859328863
 31
0.0
  0
LINE
  5
3767
330
1F
100
AcDbEntity
  8
1　製品
100
AcDbLine
 10
3062.765608157588
 20
3604.484454193246
 30
0.0
 11
3047.120782268405
 21
3611.81755839238
 31
0.0
  0
LINE
  5
3768
330
1F
100
AcDbEntity
  8
1　製品
100
AcDbLine
 10
3045.353641971029
 20
3687.745144236833
 30
0.0
 11
3007.065602194525
 21
3669.798623946324
 31
0.0
  0
LINE
  5
3769
330
1F
100
AcDbEntity
  8
1　製品
100
AcDbLine
 10
3047.120782268405
 20
3686.916843300347
 30
0.0
 11
3008.832742491903
 21
3668.97032300984
 31
0.0
  0
LINE
  5
376A
330
1F
100
AcDbEntity
  8
1　製品
100
AcDbLine
 10
3047.120782268403
 20
3651.023802719332
 30
0.0
 11
3008.832742491903
 21
3668.97032300984
 31
0.0
  0
LINE
  5
376B
330
1F
100
AcDbEntity
  8
1　製品
100
AcDbLine
 10
3045.353641971029
 20
3650.195501782849
 30
0.0
 11
3007.06560219453
 21
3668.142022073356
 31
0.0
  0
LINE
  5
376C
330
1F
100
AcDbEntity
  8
1　製品
100
AcDbLine
 10
3047.120782268406
 20
3724.46648575433
 30
0.0
 11
3008.832742491903
 21
3706.519965463822
 31
0.0
  0
LINE
  5
376D
330
1F
100
AcDbEntity
  8
1　製品
100
AcDbLine
 10
3047.120782268401
 20
3688.573445173315
 30
0.0
 11
3008.832742491903
 21
3706.519965463822
 31
0.0
  0
LINE
  5
376E
330
1F
100
AcDbEntity
  8
1　製品
100
AcDbLine
 10
3045.353641971028
 20
3687.745144236833
 30
0.0
 11
3007.065602194531
 21
3705.691664527339
 31
0.0
  0
LINE
  5
376F
330
1F
100
AcDbEntity
  8
1　製品
100
AcDbLine
 10
3047.120782268406
 20
3649.367200846363
 30
0.0
 11
3008.832742491903
 21
3631.420680555855
 31
0.0
  0
LINE
  5
3770
330
1F
100
AcDbEntity
  8
1　製品
100
AcDbLine
 10
3045.353641971028
 20
3650.195501782849
 30
0.0
 11
3007.065602194525
 21
3632.24898149234
 31
0.0
  0
LINE
  5
3771
330
1F
100
AcDbEntity
  8
1　製品
100
AcDbLine
 10
3007.065602194525
 20
3669.798623946324
 30
0.0
 11
2968.777562418027
 21
3687.74514423683
 31
0.0
  0
LINE
  5
3772
330
1F
100
AcDbEntity
  8
1　製品
100
AcDbLine
 10
3005.298461897152
 20
3668.970323009841
 30
0.0
 11
2968.777562418027
 21
3686.088542363865
 31
0.0
  0
LINE
  5
3773
330
1F
100
AcDbEntity
  8
1　製品
100
AcDbLine
 10
3007.06560219453
 20
3668.142022073356
 30
0.0
 11
2968.777562418027
 21
3650.195501782848
 31
0.0
  0
LINE
  5
3774
330
1F
100
AcDbEntity
  8
1　製品
100
AcDbLine
 10
3005.298461897152
 20
3668.970323009841
 30
0.0
 11
2968.777562418027
 21
3651.852103655818
 31
0.0
  0
LINE
  5
3775
330
1F
100
AcDbEntity
  8
1　製品
100
AcDbLine
 10
3007.065602194525
 20
3632.24898149234
 30
0.0
 11
2968.777562418027
 21
3650.195501782846
 31
0.0
  0
LINE
  5
3776
330
1F
100
AcDbEntity
  8
1　製品
100
AcDbLine
 10
3005.298461897153
 20
3631.420680555857
 30
0.0
 11
2968.777562418027
 21
3648.538899909881
 31
0.0
  0
LINE
  5
3777
330
1F
100
AcDbEntity
  8
1　製品
100
AcDbLine
 10
3005.298461897151
 20
3706.519965463825
 30
0.0
 11
2968.777562418027
 21
3723.63818481785
 31
0.0
  0
LINE
  5
3778
330
1F
100
AcDbEntity
  8
1　製品
100
AcDbLine
 10
3007.065602194531
 20
3705.691664527339
 30
0.0
 11
2968.777562418027
 21
3687.74514423683
 31
0.0
  0
LINE
  5
3779
330
1F
100
AcDbEntity
  8
1　製品
100
AcDbLine
 10
3005.298461897151
 20
3706.519965463825
 30
0.0
 11
2968.777562418027
 21
3689.401746109801
 31
0.0
  0
LINE
  5
377A
330
1F
100
AcDbEntity
  8
1　製品
100
AcDbLine
 10
3140.576452120924
 20
3682.318179226096
 30
0.0
 11
3128.998282713533
 21
3687.74514423683
 31
0.0
  0
LINE
  5
377B
330
1F
100
AcDbEntity
  8
1　製品
100
AcDbLine
 10
3139.448758730152
 20
3681.19015422562
 30
0.0
 11
3127.231142416157
 21
3686.916843300346
 31
0.0
  0
LINE
  5
377C
330
1F
100
AcDbEntity
  8
1　製品
100
AcDbLine
 10
3165.009808921006
 20
3706.758720903078
 30
0.0
 11
3127.231142416157
 21
3724.46648575433
 31
0.0
  0
LINE
  5
377D
330
1F
100
AcDbEntity
  8
1　製品
100
AcDbLine
 10
3164.111506237952
 20
3705.86015406499
 30
0.0
 11
3127.231142416154
 21
3688.573445173316
 31
0.0
  0
LINE
  5
377E
330
1F
100
AcDbEntity
  8
1　製品
100
AcDbLine
 10
3160.995074813633
 20
3702.742806222336
 30
0.0
 11
3128.998282713534
 21
3687.74514423683
 31
0.0
  0
LINE
  5
377F
330
1F
100
AcDbEntity
  8
1　製品
100
AcDbLine
 10
3090.355962529185
 20
3632.082921788967
 30
0.0
 11
3088.943102639658
 21
3631.420680555855
 31
0.0
  0
LINE
  5
3780
330
1F
100
AcDbEntity
  8
1　製品
100
AcDbLine
 10
3088.326658348443
 20
3630.053020870704
 30
0.0
 11
3087.175962342281
 21
3630.592379619372
 31
0.0
  0
LINE
  5
3781
330
1F
100
AcDbEntity
  8
1　製品
100
AcDbLine
 10
3089.454351739214
 20
3631.181045871179
 30
0.0
 11
3088.943102639656
 21
3631.420680555855
 31
0.0
  0
LINE
  5
3782
330
1F
100
AcDbEntity
  8
1　製品
100
AcDbLine
 10
3127.231142416158
 20
3686.916843300346
 30
0.0
 11
3088.943102639656
 21
3668.970323009838
 31
0.0
  0
LINE
  5
3783
330
1F
100
AcDbEntity
  8
1　製品
100
AcDbLine
 10
3125.464002118779
 20
3687.745144236831
 30
0.0
 11
3087.175962342278
 21
3669.798623946324
 31
0.0
  0
LINE
  5
3784
330
1F
100
AcDbEntity
  8
1　製品
100
AcDbLine
 10
3113.887708539298
 20
3655.621587548163
 30
0.0
 11
3087.175962342282
 21
3668.142022073354
 31
0.0
  0
LINE
  5
3785
330
1F
100
AcDbEntity
  8
1　製品
100
AcDbLine
 10
3115.015401930069
 20
3656.749612548637
 30
0.0
 11
3088.943102639656
 21
3668.970323009838
 31
0.0
  0
LINE
  5
3786
330
1F
100
AcDbEntity
  8
1　製品
100
AcDbLine
 10
3093.472393953502
 20
3635.200269631618
 30
0.0
 11
3087.175962342279
 21
3632.24898149234
 31
0.0
  0
LINE
  5
3787
330
1F
100
AcDbEntity
  8
1　製品
100
AcDbLine
 10
3127.231142416155
 20
3724.46648575433
 30
0.0
 11
3088.943102639654
 21
3706.519965463823
 31
0.0
  0
LINE
  5
3788
330
1F
100
AcDbEntity
  8
1　製品
100
AcDbLine
 10
3127.231142416154
 20
3688.573445173316
 30
0.0
 11
3088.943102639655
 21
3706.519965463822
 31
0.0
  0
LINE
  5
3789
330
1F
100
AcDbEntity
  8
1　製品
100
AcDbLine
 10
3125.464002118779
 20
3687.745144236831
 30
0.0
 11
3087.175962342279
 21
3705.691664527339
 31
0.0
  0
LINE
  5
378A
330
1F
100
AcDbEntity
  8
1　製品
100
AcDbLine
 10
3087.175962342277
 20
3744.897908854291
 30
0.0
 11
3048.88792256578
 21
3762.844429144797
 31
0.0
  0
LINE
  5
378B
330
1F
100
AcDbEntity
  8
1　製品
100
AcDbLine
 10
3085.408822044903
 20
3744.069607917808
 30
0.0
 11
3047.120782268406
 21
3762.016128208314
 31
0.0
  0
LINE
  5
378C
330
1F
100
AcDbEntity
  8
1　製品
100
AcDbLine
 10
3085.408822044903
 20
3744.069607917808
 30
0.0
 11
3047.120782268401
 21
3726.123087627299
 31
0.0
  0
LINE
  5
378D
330
1F
100
AcDbEntity
  8
1　製品
100
AcDbLine
 10
3087.175962342282
 20
3743.241306981322
 30
0.0
 11
3048.88792256578
 21
3725.294786690814
 31
0.0
  0
LINE
  5
378E
330
1F
100
AcDbEntity
  8
1　製品
100
AcDbLine
 10
3045.353641971026
 20
3762.844429144797
 30
0.0
 11
3007.065602194526
 21
3744.897908854291
 31
0.0
  0
LINE
  5
378F
330
1F
100
AcDbEntity
  8
1　製品
100
AcDbLine
 10
3047.120782268406
 20
3762.016128208314
 30
0.0
 11
3008.832742491903
 21
3744.069607917806
 31
0.0
  0
LINE
  5
3790
330
1F
100
AcDbEntity
  8
1　製品
100
AcDbLine
 10
3047.120782268401
 20
3726.1230876273
 30
0.0
 11
3008.832742491903
 21
3744.069607917806
 31
0.0
  0
LINE
  5
3791
330
1F
100
AcDbEntity
  8
1　製品
100
AcDbLine
 10
3045.353641971026
 20
3725.294786690816
 30
0.0
 11
3007.065602194531
 21
3743.241306981322
 31
0.0
  0
LINE
  5
3792
330
1F
100
AcDbEntity
  8
1　製品
100
AcDbLine
 10
3007.065602194526
 20
3744.897908854291
 30
0.0
 11
2968.777562418027
 21
3762.844429144797
 31
0.0
  0
LINE
  5
3793
330
1F
100
AcDbEntity
  8
1　製品
100
AcDbLine
 10
3005.298461897153
 20
3744.069607917808
 30
0.0
 11
2968.777562418027
 21
3761.187827271833
 31
0.0
  0
LINE
  5
3794
330
1F
100
AcDbEntity
  8
1　製品
100
AcDbLine
 10
3005.298461897153
 20
3744.069607917808
 30
0.0
 11
2968.777562418027
 21
3726.951388563783
 31
0.0
  0
LINE
  5
3795
330
1F
100
AcDbEntity
  8
1　製品
100
AcDbLine
 10
3007.065602194531
 20
3743.241306981322
 30
0.0
 11
2968.777562418027
 21
3725.294786690814
 31
0.0
  0
LINE
  5
3796
330
1F
100
AcDbEntity
  8
1　製品
 48
15.0
100
AcDbLine
 10
3048.777562418028
 20
3806.044429144797
 30
0.0
 11
3048.777562418028
 21
3802.844429144797
 31
0.0
  0
LINE
  5
3797
330
1F
100
AcDbEntity
  8
3　補助線
  6
CENTER2
100
AcDbLine
 10
3028.777562418028
 20
3784.844429144795
 30
0.0
 11
3028.777562418028
 21
3814.844429144795
 31
0.0
  0
LINE
  5
3798
330
1F
100
AcDbEntity
  8
1　製品
100
AcDbLine
 10
3165.519182192654
 20
3744.069607917806
 30
0.0
 11
3127.231142416158
 21
3762.016128208313
 31
0.0
  0
LINE
  5
3799
330
1F
100
AcDbEntity
  8
1　製品
100
AcDbLine
 10
3167.286322490029
 20
3744.897908854291
 30
0.0
 11
3128.998282713533
 21
3762.844429144797
 31
0.0
  0
LINE
  5
379A
330
1F
100
AcDbEntity
  8
1　製品
100
AcDbLine
 10
3165.519182192655
 20
3744.069607917806
 30
0.0
 11
3127.231142416154
 21
3726.1230876273
 31
0.0
  0
LINE
  5
379B
330
1F
100
AcDbEntity
  8
1　製品
100
AcDbLine
 10
3167.286322490032
 20
3743.241306981322
 30
0.0
 11
3128.998282713531
 21
3725.294786690814
 31
0.0
  0
LINE
  5
379C
330
1F
100
AcDbEntity
  8
1　製品
100
AcDbLine
 10
3125.464002118776
 20
3762.844429144797
 30
0.0
 11
3087.175962342278
 21
3744.897908854291
 31
0.0
  0
LINE
  5
379D
330
1F
100
AcDbEntity
  8
1　製品
100
AcDbLine
 10
3127.231142416158
 20
3762.016128208313
 30
0.0
 11
3088.943102639657
 21
3744.069607917805
 31
0.0
  0
LINE
  5
379E
330
1F
100
AcDbEntity
  8
1　製品
100
AcDbLine
 10
3127.231142416153
 20
3726.1230876273
 30
0.0
 11
3088.943102639657
 21
3744.069607917805
 31
0.0
  0
LINE
  5
379F
330
1F
100
AcDbEntity
  8
1　製品
100
AcDbLine
 10
3125.464002118779
 20
3725.294786690815
 30
0.0
 11
3087.175962342282
 21
3743.241306981322
 31
0.0
  0
LINE
  5
37A0
330
1F
100
AcDbEntity
  8
1　製品
100
AcDbLine
 10
3217.25960269349
 20
3759.023879258471
 30
0.0
 11
3209.108642861286
 21
3762.844429144797
 31
0.0
  0
LINE
  5
37A1
330
1F
100
AcDbEntity
  8
1　製品
100
AcDbLine
 10
3216.131909302716
 20
3757.895854257995
 30
0.0
 11
3207.341502563908
 21
3762.016128208312
 31
0.0
  0
LINE
  5
37A4
330
1F
100
AcDbEntity
  8
1　製品
 48
15.0
100
AcDbLine
 10
3896.960201663236
 20
3806.044429144798
 30
0.0
 11
3748.760201663236
 21
3806.044429144797
 31
0.0
  0
LINE
  5
37A5
330
1F
100
AcDbEntity
  8
1　製品
 48
15.0
100
AcDbLine
 10
3892.560201663237
 20
3802.844429144797
 30
0.0
 11
3748.760201663236
 21
3802.844429144797
 31
0.0
  0
LINE
  5
37A6
330
1F
100
AcDbEntity
  8
1　製品
 48
15.0
100
AcDbLine
 10
3748.760201663236
 20
3806.044429144797
 30
0.0
 11
3748.760201663236
 21
3802.844429144797
 31
0.0
  0
LINE
  5
37A7
330
1F
100
AcDbEntity
  8
3　補助線
  6
CENTER2
100
AcDbLine
 10
3768.760201663236
 20
3787.844429144797
 30
0.0
 11
3768.760201663236
 21
3817.844429144797
 31
0.0
  0
LINE
  5
37A8
330
1F
100
AcDbEntity
  8
1　製品
 48
15.0
100
AcDbLine
 10
3896.960201663236
 20
3756.044429144797
 30
0.0
 11
3893.760201663236
 21
3756.044429144797
 31
0.0
  0
LINE
  5
37A9
330
1F
100
AcDbEntity
  8
3　補助線
  6
CENTER2
100
AcDbLine
 10
3863.760201663236
 20
3787.844429144797
 30
0.0
 11
3863.760201663236
 21
3817.844429144797
 31
0.0
  0
LINE
  5
37AA
330
1F
100
AcDbEntity
  8
1　製品
100
AcDbLine
 10
3896.960201663236
 20
3756.044429144797
 30
0.0
 11
3896.960201663236
 21
3806.044429144798
 31
0.0
  0
LINE
  5
37FA
330
1F
100
AcDbEntity
  8
1　製品
100
AcDbLine
 10
2383.786242795422
 20
3762.844429144798
 30
0.0
 11
2383.786242795422
 21
3002.844429144798
 31
0.0
  0
LINE
  5
37FB
330
1F
100
AcDbEntity
  8
1　製品
  6
HIDDEN
 48
10.0
370
     9
100
AcDbLine
 10
2410.786242795422
 20
3762.844429144798
 30
0.0
 11
2410.786242795422
 21
3002.844429144798
 31
0.0
  0
LINE
  5
37FC
330
1F
100
AcDbEntity
  8
1　製品
100
AcDbLine
 10
2413.786242795422
 20
3762.844429144798
 30
0.0
 11
2413.786242795422
 21
3002.844429144798
 31
0.0
  0
LINE
  5
37FD
330
1F
100
AcDbEntity
  8
1　製品
  6
HIDDEN
 48
10.0
370
     9
100
AcDbLine
 10
2383.786242795422
 20
2259.796524983802
 30
0.0
 11
2383.786242795422
 21
2256.796524983802
 31
0.0
  0
LINE
  5
37FE
330
1F
100
AcDbEntity
  8
1　製品
  6
HIDDEN
 48
10.0
370
     9
100
AcDbLine
 10
2410.786242795422
 20
2259.796524983802
 30
0.0
 11
2410.786242795422
 21
2229.796524983802
 31
0.0
  0
LINE
  5
37FF
330
1F
100
AcDbEntity
  8
1　製品
  6
HIDDEN
 48
10.0
370
     9
100
AcDbLine
 10
2413.786242795422
 20
2259.796524983802
 30
0.0
 11
2413.786242795422
 21
2229.796524983802
 31
0.0
  0
LINE
  5
3800
330
1F
100
AcDbEntity
  8
1　製品
  6
HIDDEN
 48
10.0
370
     9
100
AcDbLine
 10
2410.786242795422
 20
2229.796524983802
 30
0.0
 11
2413.786242795423
 21
2229.796524983802
 31
0.0
  0
LINE
  5
3801
330
1F
100
AcDbEntity
  8
1　製品
100
AcDbLine
 10
3413.768882040632
 20
3762.844429144797
 30
0.0
 11
3413.768882040632
 21
3002.844429144797
 31
0.0
  0
LINE
  5
3802
330
1F
100
AcDbEntity
  8
1　製品
  6
HIDDEN
 48
10.0
370
     9
100
AcDbLine
 10
3410.768882040632
 20
3762.844429144797
 30
0.0
 11
3410.768882040632
 21
3002.844429144797
 31
0.0
  0
LINE
  5
3803
330
1F
100
AcDbEntity
  8
1　製品
100
AcDbLine
 10
3383.768882040632
 20
3762.844429144797
 30
0.0
 11
3383.768882040632
 21
3002.844429144797
 31
0.0
  0
LINE
  5
3804
330
1F
100
AcDbEntity
  8
1　製品
  6
HIDDEN
 48
10.0
370
     9
100
AcDbLine
 10
3413.768882040632
 20
2259.796524983801
 30
0.0
 11
3413.768882040632
 21
2229.796524983801
 31
0.0
  0
LINE
  5
3805
330
1F
100
AcDbEntity
  8
1　製品
  6
HIDDEN
 48
10.0
370
     9
100
AcDbLine
 10
3410.768882040632
 20
2259.796524983801
 30
0.0
 11
3410.768882040632
 21
2229.796524983801
 31
0.0
  0
LINE
  5
3806
330
1F
100
AcDbEntity
  8
1　製品
  6
HIDDEN
 48
10.0
370
     9
100
AcDbLine
 10
3410.768882040632
 20
2229.796524983801
 30
0.0
 11
3413.768882040633
 21
2229.796524983801
 31
0.0
  0
LINE
  5
3807
330
1F
100
AcDbEntity
  8
1　製品
  6
HIDDEN
 48
10.0
370
     9
100
AcDbLine
 10
3383.768882040632
 20
2259.796524983801
 30
0.0
 11
3383.768882040632
 21
2256.796524983801
 31
0.0
  0
ENDSEC
  0
SECTION
  2
OBJECTS
  0
DICTIONARY
  5
C
330
0
100
AcDbDictionary
281
     1
  3
ACAD_GROUP
350
D
  3
ACAD_IMAGE_VARS
350
3C3E
  3
ACAD_LAYOUT
350
1A
  3
ACAD_MLINESTYLE
350
17
  3
ACAD_PLOTSETTINGS
350
19
  3
ACAD_PLOTSTYLENAME
350
E
  3
ACAD_SCALELIST
350
2A8C
  3
AcDbVariableDictionary
350
6EF
  3
APPDATA
350
3C3D
  3
DWGPROPS
350
3C3F
  0
DICTIONARY
  5
39C7
330
2
100
AcDbDictionary
280
     1
281
     1
  3
ACAD_LAYERSTATES
360
39C8
  0
DICTIONARY
  5
39AE
330
10
100
AcDbDictionary
280
     1
281
     1
  3
ADSK_XREC_LAYER_RECONCILED
360
39AF
  0
DICTIONARY
  5
39B0
330
44
100
AcDbDictionary
280
     1
281
     1
  3
ADSK_XREC_LAYER_RECONCILED
360
39B1
  0
DICTIONARY
  5
39B2
330
45
100
AcDbDictionary
280
     1
281
     1
  3
ADSK_XREC_LAYER_RECONCILED
360
39B3
  0
DICTIONARY
  5
39B4
330
46
100
AcDbDictionary
280
     1
281
     1
  3
ADSK_XREC_LAYER_RECONCILED
360
39B5
  0
DICTIONARY
  5
39B6
330
47
100
AcDbDictionary
280
     1
281
     1
  3
ADSK_XREC_LAYER_RECONCILED
360
39B7
  0
DICTIONARY
  5
39B8
330
48
100
AcDbDictionary
280
     1
281
     1
  3
ADSK_XREC_LAYER_RECONCILED
360
39B9
  0
DICTIONARY
  5
39BA
330
49
100
AcDbDictionary
280
     1
281
     1
  3
ADSK_XREC_LAYER_RECONCILED
360
39BB
  0
DICTIONARY
  5
39BC
330
59
100
AcDbDictionary
280
     1
281
     1
  3
ADSK_XREC_LAYER_RECONCILED
360
39BD
  0
DICTIONARY
  5
39BE
330
553
100
AcDbDictionary
280
     1
281
     1
  3
ADSK_XREC_LAYER_RECONCILED
360
39BF
  0
DICTIONARY
  5
39C0
330
F13
100
AcDbDictionary
280
     1
281
     1
  3
ADSK_XREC_LAYER_RECONCILED
360
39C1
  0
DICTIONARY
  5
39C2
330
F14
100
AcDbDictionary
280
     1
281
     1
  3
ADSK_XREC_LAYER_RECONCILED
360
39C3
  0
DICTIONARY
  5
D
102
{ACAD_REACTORS
330
C
102
}
330
C
100
AcDbDictionary
281
     1
  3
*A1
350
3D8
  3
*A2
350
C26
  0
RASTERVARIABLES
  5
3C3E
102
{ACAD_REACTORS
330
C
102
}
330
C
100
AcDbRasterVariables
 90
        0
 70
     1
 71
     1
 72
     1
  0
DICTIONARY
  5
1A
102
{ACAD_REACTORS
330
C
102
}
330
C
100
AcDbDictionary
281
     1
  3
Layout1
350
1E
  3
Layout2
350
26
  3
Model
350
22
  0
DICTIONARY
  5
17
102
{ACAD_REACTORS
330
C
102
}
330
C
100
AcDbDictionary
281
     1
  3
Standard
350
18
  0
DICTIONARY
  5
19
102
{ACAD_REACTORS
330
C
102
}
330
C
100
AcDbDictionary
281
     1
  0
ACDBDICTIONARYWDFLT
  5
E
102
{ACAD_REACTORS
330
C
102
}
330
C
100
AcDbDictionary
281
     1
  3
Normal
350
F
100
AcDbDictionaryWithDefault
340
F
  0
DICTIONARY
  5
2A8C
102
{ACAD_REACTORS
330
C
102
}
330
C
100
AcDbDictionary
281
     1
  3
A0
350
2A8D
  3
A1
350
2A8E
  3
A2
350
2A8F
  3
A3
350
2A90
  3
A4
350
2A91
  3
A5
350
2A92
  3
A6
350
2A93
  3
A7
350
2A94
  3
A8
350
2A95
  3
A9
350
2A96
  3
B0
350
2A97
  3
B1
350
2A98
  3
B2
350
2A99
  3
B3
350
2A9A
  3
B4
350
2A9B
  3
B5
350
2A9C
  3
B6
350
2A9D
  0
DICTIONARY
  5
6EF
102
{ACAD_REACTORS
330
C
102
}
330
C
100
AcDbDictionary
281
     1
  3
CANNOSCALE
350
3C40
  3
DIMASSOC
350
6F0
  3
INDEXCTL
350
3AC8
  3
SORTENTS
350
3AC7
  0
DICTIONARY
  5
3C3D
102
{ACAD_REACTORS
330
C
102
}
330
C
100
AcDbDictionary
281
     1
  0
XRECORD
  5
3C3F
102
{ACAD_REACTORS
330
C
102
}
330
C
100
AcDbXrecord
280
     1
  1
DWGPROPS COOKIE
  2

  3

  4

  6

  7

  8
a1204180
  9

300
=
301
=
302
=
303
=
304
=
305
=
306
=
307
=
308
=
309
=
 40
0.0
 41
2454740.218452685
 42
2456636.596641597
  1

 90
        0
  0
DICTIONARY
  5
39C8
102
{ACAD_REACTORS
330
39C7
102
}
330
39C7
100
AcDbDictionary
281
     1
  0
XRECORD
  5
39AF
102
{ACAD_REACTORS
330
39AE
102
}
330
39AE
100
AcDbXrecord
280
     1
290
     1
  0
XRECORD
  5
39B1
102
{ACAD_REACTORS
330
39B0
102
}
330
39B0
100
AcDbXrecord
280
     1
290
     1
  0
XRECORD
  5
39B3
102
{ACAD_REACTORS
330
39B2
102
}
330
39B2
100
AcDbXrecord
280
     1
290
     1
  0
XRECORD
  5
39B5
102
{ACAD_REACTORS
330
39B4
102
}
330
39B4
100
AcDbXrecord
280
     1
290
     1
  0
XRECORD
  5
39B7
102
{ACAD_REACTORS
330
39B6
102
}
330
39B6
100
AcDbXrecord
280
     1
290
     1
  0
XRECORD
  5
39B9
102
{ACAD_REACTORS
330
39B8
102
}
330
39B8
100
AcDbXrecord
280
     1
290
     1
  0
XRECORD
  5
39BB
102
{ACAD_REACTORS
330
39BA
102
}
330
39BA
100
AcDbXrecord
280
     1
290
     1
  0
XRECORD
  5
39BD
102
{ACAD_REACTORS
330
39BC
102
}
330
39BC
100
AcDbXrecord
280
     1
290
     1
  0
XRECORD
  5
39BF
102
{ACAD_REACTORS
330
39BE
102
}
330
39BE
100
AcDbXrecord
280
     1
290
     1
  0
XRECORD
  5
39C1
102
{ACAD_REACTORS
330
39C0
102
}
330
39C0
100
AcDbXrecord
280
     1
290
     1
  0
XRECORD
  5
39C3
102
{ACAD_REACTORS
330
39C2
102
}
330
39C2
100
AcDbXrecord
280
     1
290
     1
  0
GROUP
  5
3D8
102
{ACAD_REACTORS
330
D
102
}
330
D
100
AcDbGroup
300

 70
     1
 71
     1
  0
GROUP
  5
C26
102
{ACAD_REACTORS
330
D
102
}
330
D
100
AcDbGroup
300

 70
     1
 71
     1
  0
LAYOUT
  5
1E
102
{ACAD_REACTORS
330
1A
102
}
330
1A
100
AcDbPlotSettings
  1

  2

  4

  6

 40
0.0
 41
0.0
 42
0.0
 43
0.0
 44
0.0
 45
0.0
 46
0.0
 47
0.0
 48
0.0
 49
0.0
140
0.0
141
0.0
142
1.0
143
1.0
 70
   688
 72
     0
 73
     0
 74
     5
  7
monochrome2.ctb
 75
    16
147
1.0
148
0.0
149
0.0
100
AcDbLayout
  1
Layout1
 70
     1
 71
     1
 10
0.0
 20
0.0
 11
420.0
 21
297.0
 12
0.0
 22
0.0
 32
0.0
 14
1.000000000000000E+20
 24
1.000000000000000E+20
 34
1.000000000000000E+20
 15
-1.000000000000000E+20
 25
-1.000000000000000E+20
 35
-1.000000000000000E+20
146
0.0
 13
0.0
 23
0.0
 33
0.0
 16
1.0
 26
0.0
 36
0.0
 17
0.0
 27
1.0
 37
0.0
 76
     0
330
1B
  0
LAYOUT
  5
26
102
{ACAD_REACTORS
330
1A
102
}
330
1A
100
AcDbPlotSettings
  1

  2

  4

  6

 40
0.0
 41
0.0
 42
0.0
 43
0.0
 44
0.0
 45
0.0
 46
0.0
 47
0.0
 48
0.0
 49
0.0
140
0.0
141
0.0
142
1.0
143
1.0
 70
   688
 72
     0
 73
     0
 74
     5
  7
monochrome2.ctb
 75
    16
147
1.0
148
0.0
149
0.0
100
AcDbLayout
  1
Layout2
 70
     1
 71
     2
 10
0.0
 20
0.0
 11
12.0
 21
9.0
 12
0.0
 22
0.0
 32
0.0
 14
0.0
 24
0.0
 34
0.0
 15
0.0
 25
0.0
 35
0.0
146
0.0
 13
0.0
 23
0.0
 33
0.0
 16
1.0
 26
0.0
 36
0.0
 17
0.0
 27
1.0
 37
0.0
 76
     0
330
23
  0
LAYOUT
  5
22
102
{ACAD_REACTORS
330
1A
102
}
102
{ACAD_XDICTIONARY
360
39CD
102
}
330
1A
100
AcDbPlotSettings
  1

  2
tokyo02ApeosPort-III C3300 - 東京02ApeosPort-ⅢC3300
  4
A4
  6

 40
4.85775
 41
4.94239
 42
4.942413
 43
4.857758
 44
209.973328
 45
297.010651
 46
0.0
 47
2.07
 48
-5880.0
 49
0.0
140
420.0
141
4455.0
142
1.0
143
22.25573043219854
 70
 11956
 72
     1
 73
     1
 74
     4
  7
monochrome.ctb
 75
     0
147
0.0449322480359147
148
5880.0
149
0.0
100
AcDbLayout
  1
Model
 70
     1
 71
     0
 10
0.0
 20
0.0
 11
12.0
 21
9.0
 12
0.0
 22
0.0
 32
0.0
 14
0.0
 24
0.0
 34
0.0
 15
0.0
 25
0.0
 35
0.0
146
0.0
 13
0.0
 23
0.0
 33
0.0
 16
1.0
 26
0.0
 36
0.0
 17
0.0
 27
1.0
 37
0.0
 76
     0
330
1F
331
3C3C
  0
MLINESTYLE
  5
18
102
{ACAD_REACTORS
330
17
102
}
330
17
100
AcDbMlineStyle
  2
STANDARD
 70
     0
  3

 62
   256
 51
90.0
 52
90.0
 71
     2
 49
0.5
 62
   256
  6
BYLAYER
 49
-0.5
 62
   256
  6
BYLAYER
  0
ACDBPLACEHOLDER
  5
F
102
{ACAD_REACTORS
330
E
102
}
330
E
  0
SCALE
  5
2A8D
102
{ACAD_REACTORS
330
2A8C
102
}
330
2A8C
100
AcDbScale
 70
     0
300
1:1
140
1.0
141
1.0
290
     1
  0
SCALE
  5
2A8E
102
{ACAD_REACTORS
330
2A8C
102
}
330
2A8C
100
AcDbScale
 70
     0
300
1:2
140
1.0
141
2.0
290
     0
  0
SCALE
  5
2A8F
102
{ACAD_REACTORS
330
2A8C
102
}
330
2A8C
100
AcDbScale
 70
     0
300
1:4
140
1.0
141
4.0
290
     0
  0
SCALE
  5
2A90
102
{ACAD_REACTORS
330
2A8C
102
}
330
2A8C
100
AcDbScale
 70
     0
300
1:5
140
1.0
141
5.0
290
     0
  0
SCALE
  5
2A91
102
{ACAD_REACTORS
330
2A8C
102
}
330
2A8C
100
AcDbScale
 70
     0
300
1:8
140
1.0
141
8.0
290
     0
  0
SCALE
  5
2A92
102
{ACAD_REACTORS
330
2A8C
102
}
330
2A8C
100
AcDbScale
 70
     0
300
1:10
140
1.0
141
10.0
290
     0
  0
SCALE
  5
2A93
102
{ACAD_REACTORS
330
2A8C
102
}
330
2A8C
100
AcDbScale
 70
     0
300
1:16
140
1.0
141
16.0
290
     0
  0
SCALE
  5
2A94
102
{ACAD_REACTORS
330
2A8C
102
}
330
2A8C
100
AcDbScale
 70
     0
300
1:20
140
1.0
141
20.0
290
     0
  0
SCALE
  5
2A95
102
{ACAD_REACTORS
330
2A8C
102
}
330
2A8C
100
AcDbScale
 70
     0
300
1:30
140
1.0
141
30.0
290
     0
  0
SCALE
  5
2A96
102
{ACAD_REACTORS
330
2A8C
102
}
330
2A8C
100
AcDbScale
 70
     0
300
1:40
140
1.0
141
40.0
290
     0
  0
SCALE
  5
2A97
102
{ACAD_REACTORS
330
2A8C
102
}
330
2A8C
100
AcDbScale
 70
     0
300
1:50
140
1.0
141
50.0
290
     0
  0
SCALE
  5
2A98
102
{ACAD_REACTORS
330
2A8C
102
}
330
2A8C
100
AcDbScale
 70
     0
300
1:100
140
1.0
141
100.0
290
     0
  0
SCALE
  5
2A99
102
{ACAD_REACTORS
330
2A8C
102
}
330
2A8C
100
AcDbScale
 70
     0
300
2:1
140
2.0
141
1.0
290
     0
  0
SCALE
  5
2A9A
102
{ACAD_REACTORS
330
2A8C
102
}
330
2A8C
100
AcDbScale
 70
     0
300
4:1
140
4.0
141
1.0
290
     0
  0
SCALE
  5
2A9B
102
{ACAD_REACTORS
330
2A8C
102
}
330
2A8C
100
AcDbScale
 70
     0
300
8:1
140
8.0
141
1.0
290
     0
  0
SCALE
  5
2A9C
102
{ACAD_REACTORS
330
2A8C
102
}
330
2A8C
100
AcDbScale
 70
     0
300
10:1
140
10.0
141
1.0
290
     0
  0
SCALE
  5
2A9D
102
{ACAD_REACTORS
330
2A8C
102
}
330
2A8C
100
AcDbScale
 70
     0
300
100:1
140
100.0
141
1.0
290
     0
  0
DICTIONARYVAR
  5
3C40
102
{ACAD_REACTORS
330
6EF
102
}
330
6EF
100
DictionaryVariables
280
     0
  1
1:1
  0
DICTIONARYVAR
  5
6F0
102
{ACAD_REACTORS
330
6EF
102
}
330
6EF
100
DictionaryVariables
280
     0
  1
1
  0
DICTIONARYVAR
  5
3AC8
102
{ACAD_REACTORS
330
6EF
102
}
330
6EF
100
DictionaryVariables
280
     0
  1
0
  0
DICTIONARYVAR
  5
3AC7
102
{ACAD_REACTORS
330
6EF
102
}
330
6EF
100
DictionaryVariables
280
     0
  1
127
  0
DICTIONARY
  5
39CD
330
22
100
AcDbDictionary
280
     1
281
     1
  3
ADSK_XREC_LAYOUTTHUMBNAIL
360
39CE
  0
XRECORD
  5
39CE
102
{ACAD_REACTORS
330
39CD
102
}
330
39CD
100
AcDbXrecord
280
     1
310
280000000001000091000000010008000000000000910000000000000000000000010000000000000000000000000000FFFFFF000000000000000000000000000000000000000000000000000000000000000000330000006600000099000000CC000000FF00000000330000333300006633000099330000CC330000FF3300
310
0000660000336600006666000099660000CC660000FF66000000990000339900006699000099990000CC990000FF99000000CC000033CC000066CC000099CC0000CCCC0000FFCC000000FF000033FF000066FF000099FF0000CCFF0000FFFF000000003300330033006600330099003300CC003300FF003300003333003333
310
33006633330099333300CC333300FF33330000663300336633006666330099663300CC663300FF66330000993300339933006699330099993300CC993300FF99330000CC330033CC330066CC330099CC3300CCCC3300FFCC330000FF330033FF330066FF330099FF3300CCFF3300FFFF330000006600330066006600660099
310
006600CC006600FF00660000336600333366006633660099336600CC336600FF33660000666600336666006666660099666600CC666600FF66660000996600339966006699660099996600CC996600FF99660000CC660033CC660066CC660099CC6600CCCC6600FFCC660000FF660033FF660066FF660099FF6600CCFF6600
310
FFFF660000009900330099006600990099009900CC009900FF00990000339900333399006633990099339900CC339900FF33990000669900336699006666990099669900CC669900FF66990000999900339999006699990099999900CC999900FF99990000CC990033CC990066CC990099CC9900CCCC9900FFCC990000FF99
310
0033FF990066FF990099FF9900CCFF9900FFFF99000000CC003300CC006600CC009900CC00CC00CC00FF00CC000033CC003333CC006633CC009933CC00CC33CC00FF33CC000066CC003366CC006666CC009966CC00CC66CC00FF66CC000099CC003399CC006699CC009999CC00CC99CC00FF99CC0000CCCC0033CCCC0066CC
310
CC0099CCCC00CCCCCC00FFCCCC0000FFCC0033FFCC0066FFCC0099FFCC00CCFFCC00FFFFCC000000FF003300FF006600FF009900FF00CC00FF00FF00FF000033FF003333FF006633FF009933FF00CC33FF00FF33FF000066FF003366FF006666FF009966FF00CC66FF00FF66FF000099FF003399FF006699FF009999FF00CC
310
99FF00FF99FF0000CCFF0033CCFF0066CCFF0099CCFF00CCCCFF00FFCCFF0000FFFF0033FFFF0066FFFF0099FFFF00CCFFFF00FFFFFF00000000000D0D0D001A1A1A00282828003535350043434300505050005D5D5D006B6B6B00787878008686860093939300A1A1A100AEAEAE00BBBBBB00C9C9C900D6D6D600E4E4E400
310
F1F1F100FFFFFF0000000000000000000000000000000000000000000000000000000000000000000000000000000000E2E2E2E2E2E2E2E2E2E2E2E2E2E2E2E2E2E2E2E2E2E2E2E2E2E2E2E2E2E2E2E2E2E2E2E2E2E2E2E2E2E2E2E2E2E2E2E2E2E2E2E2E2E2E2E2E2E2E2E2E2E2E2E2E2E2E2E2E2E2E2E2E2E2E2E2E2E2E2
310
E2E2E2E2E2E2E2E2E2E2E2E2E2E2E2E2E2E2E2E2E2E2E2E2E2E2E2E2E2E2E2E2E2E2E2E2E2E2E2E2E2E2E2E2E2E2E2E2E2E2E2E2E2E2E2E2E2E2E2E2E2E2E2E2E2E2E2E2E2E2E2E2E2E2E2E2E2E2E2E2E2E2E2E2E2E2E2E2E2E2E2E2E2E2E2E2E2E2E2E2E2E2E2E2E2E2E2E2E2E2E2E2E2E2E2E2E2E2E2E2E2E2E2E2E2E2E2
310
E2E2E2E2E2E2E2E2E2E2E2E2E2E2E2E2E2E2E2E2E2E2E2E2E2E2E2E2E2E2E2E2E2E2E2E2E2E2E2E2E2E2E2E2E2E2E2E2E2E2E2E2E2E2E2E2E2E2E2E2E2E2E2E2E2E2E2E2E2E2E2E2E2E2E2E2E2E2E2E2E2E2E2E2E2E2E2E2E2E2E2E2E2E2E2E2E2E2E2E2E2E2E2E2E2E2E2E2E2E2E2E2E2E2E2E2E2E2E2E2E2E2E2E2E2E2E2
310
E2E2E2E2E2E2E2E2E2E2E2E2E2E2E2E2E2E2E2E2E2E2E2E2E2E2E2E2E2E2E2E2E2E2E2E2E2E2E2E2E2E2E2E2E2E2E2E2E2E2E2E2E2E2E2E2E2E2E2E2E2E2E2E2E2E2E2E2E2E2E2E2E2E2E2E2E2E2E2E2E2E2E2E2E2E2E2E2E2E2E2E2E2E2E2E2E2E2E2E2E2E2E2E2E2E2E2E2E2E2E2E2E2E2E2E2E2E2E2E2E2E2E2E2E2E2E2
310
E2E2E2E2E2E2E2E2E2E2E2E2E2E2E2E2E2E2E2E2E2E2E2E2E2E2E2E2E2E2E2E2E2E2E2E2E2E2E2E2E2E2E2E2E2E2E2E2E2E2E2E2E2E2E2E2E2E2E2E2E2E2E2E2E2E2E2E2E2E2E2E2E2E2E2E2E2E2E2E2E2E2E2E2E2E2E2E2E2E2E2E2E2E2E2E2E2E2E2E2E2E2E2E2E2E2E2E2E2E2E2E2E2E2E2E2E2E2E2E2E2E2E2E2E2E2E2
310
E2E2E2E2E2E2E2E2E2E2E2E2E2E2E2E2E2E2E2E2E2E2E2E2E2E2E2E2E2E2E2E2E2E2E2E2E2E2E2E2E2E2E2E2E2E2E2E2E2E2E2E2E2E2E2E2E2E2E2E2E2E2E2E2E2E2E2E2E2E2E2E2E2E2E2E2E2E2E2E2E2E2E2E2E2E2E2E2E2E2E2E2E2E2E2E2E2E2E2E2E2E2E2E2E2E2E2E2E2E2E2E2E2E2E2E2E2E2E2E2E2E2E2E2E2E2E2
310
E2E2E2E2E2E2E2E2E2E2E2E2E2E2E2E2E2E2E2E2E2E2E2E2E2E2E2E2E2E2E2E2E2E2E2E2E2E2E2E2E2E2E2E2E2E2E2E2E2E2E2E2E2E2E2E2E2E2E2E2E2E2E2E2E2E2E2E2E2E2E2E2E2E2E2E2E2E2E2E2E2E2E2E2E2E2E2E2E2E2E2E2E2E2E2E2E2E2E2E2E2E2E2E2E2E2E2E2E2E2E2E2E2E2E2E2E2E2E2E2E2E2E2E2E2E2E2
310
E2E2E2E2E2E2E2E2E2E2E2E2E2E2E2E2E2E2E2E2E2E2E2E2E2E2E2E2E2E2E2E2E2E2E2E2E2E2E2E2E2E2E2E2E2E2E2E2E2E2E2E2E2E2E2E2E2E2E2E2E2E2E2E2E2E2E2E2E2E2E2E2E2E2E2E2E2E2E2E2E2E2E2E2E2E2E2E2E2E2E2E2E2E2E2E2E2E2E2E2E2E2E2E2E2E2E2E2E2E2E2E2E2E2E2E2E2E2E2E2E2E2E2E2E2E2E2
310
E2E2E2E2E2E2E2E2E2E2E2E2E2E2E2E2E2E2E2E2E2E2E2E2E2E2E2E2E2E2E2E2E2E2E2E2E2E2E2E2E2E2E2E2E2E2E2E2E2E2E2E2E2E2E2E2E2E2E2E2E2E2E2E2E2E2E2E2E2E2E2E2E2E2E2E2E2E2E2E2E2E2E2E2E2E2E2E2E2E2E2E2E2E2E2E2E2E2E2E2E2E2E2E2E2E2E2E2E2E2E2E2E2E2E2E2E2E2E2E2E2E2E2E2E2E2E2
310
E2E2E2E2E2E2E2E2E2E2E2E2E2E2E2E2E2E2E2E2E2E2E2E2E2E2E2E2E2E2E2E2E2E2E2E2E2E2E2E2E2E2E2E2E2E2E2E2E2E2E2E2E2E2E2E2E2E2E2E2E2E2E2E2E2E2E2E2E2E2E2E2E2E2E2E2E2E2E2E2E2E2E2E2E2E2E2E2E2E2E2E2E2E2E2E2E2E2E2E2E2E2E2E2E2E2E2E2E2E2E2E2E2E2E2E2E2E2E2E2E2E2E2E2E2E2E2
310
E2E2E2E2E2E2E2E2E2E2E2E2E2E2E2E2E2E2E2E2E2E2E2E2E2E2E2E2E2E2E2E2E2E2E2E2E2E2E2E2E2E2E2E2E2E2E2E2E2E2E2E2E2E2E2E2E2E2E2E2E2E2E2E2E2E2E2E2E2E2E2E2E2E2E2E2E2E2E2E2E2E2E2E2E2E2E2E2E2E2E2E2E2E2E2E2E2E2E2E2E2E2E2E2E2E2E2E2E2E2E2E2E2E2E2E2E2E2E2E2E2E2E2E2E2E2E2
310
E2E2E2E2E2E2E2E2E2E2E2E2E2E2E2E2E2E2E2E2E2E2E2E2E2E2E2E2E2E2E2E2E2E2E2E2E2E2E2E2E2E2E2E2E2E2E2E2E2E2E2E2E2E2E2E2E2E2E2E2E2E2E2E2E2E2E2E2E2E2E2E2E2E2E2E2E2E2E2E2E2E2E2E2E2E2E2E2E2E2E2E2E2E2E2E2E2E2E2E2E2E2E2E2E2E2E2E2E2E2E2E2E2E2E2E2E2E2E2E2E2E2E2E2E2E2E2
310
E2E2E2E2E2E2E2E2E2E2E2E2E2E2E2E2E2E2E2E2E2E2E2E2E2E2E2E2E2E2E2E2E2E2E2E2E2E2E2E2E2E2E2E2E2E2E2E2E2E2E2E2E2E2E2E2E2E2E2E2E2E2E2E2E2E2E2E2E2E2E2E2E2E2E2E2E2E2E2E2E2E2E2E2E2E2E2E2E2E2E2E2E2E2E2E2E2E2E2E2E2E2E2E2E2E2E2E2E2E2E2E2E2E2E2E2E2E2E2E2E2E2E2E2E2E2E2
310
E2E2E2E2E2E2E2E2E2E2E2E2E2E2E2E2E2E2E2E2E2E2E2E2E2E2E2E2E2E2E2E2E2E2E2E2E2E2E2E2E2E2E2E2E2E2E2E2E2E2E2E2E2E2E2E2E2E2E2E2E2E2E2E2E2E2E2E2E2E2E2E2E2E2E2E2E2E2E2E2E2E2E2E2E2E2E2E2E2E2E2E2E2E2E2E2E2E2E2E2E2E2E2E2E2E2E2E2E2E2E2E2E2E2E2E2E2E2E2E2E2E2E2E2E2E2E2
310
E2E2E2E2E2E2E2E2E2E2E2E2E2E2E2E2E2E2E2E2E2E2E2E2E2E2E2E2E2E2E2E2E2E2E2E2E2E2E2E2E2E2E2E2E2E2E2E2E2E2E2E2E2E2E2E2E2E2E2E2E2E2E2E2E2E2E2E2E2E2E2E2E2E2E2E2E2E2E2E2E2E2E2E2E2E2E2E2E2E2E2E2E2E2E2E2E2E2E2E2E2E2E2E2E2E2E2E2E2E2E2E2E2E2E2E2E2E2E2E2E2E2E2E2E2E2E2
310
E2E2E2E2E2E2E2E2E2E2E2E2E2E2E2E2E2E2E2E2E2E2E2E2E2E2E2E2E2E2E2E2E2E2E2E2E2E2E2E2E2E2E2E2E2E2E2E2E2E2E2E2E2E2E2E2E2E2E2E2E2E2E2E2E2E2E2E2E2E2E2E2E2E2E2E2E2E2E2E2E2E2E2E2E2E2E2E2E2E2E2E2E2E2E2E2E2E2E2E2E2E2E2E2E2E2E2E2E2E2E2E2E2E2E2E2E2E2E2E2E2E2E2E2E2E2E2
310
E2E2E2E2E2E2E2E2E2E2E2E2E2E2E2E2E2E2E2E2E2E2E2E2E2E2E2E2E2E2E2E2E2E2E2E2E2E2E2E2E2E2E2E2E2E2E2E2E2E2E2E2E2E2E2E2E2E2E2E2E2E2E2E2E2E2E2E2E2E2E2E2E2E2E2E2E2E2E2E2E2E2E2E2E2E2E2E2E2E2E2E2E2E2E2E2E2E2E2E2E2E2E2E2E2E2E2E2E2E2E2E2E2E2E2E2E2E2E2E2E2E2E2E2E2E2E2
310
E2E2E2E2E2E2E2E2E2E2E2E2E2E2E2E2E2E2E2E2E2E2E2E2E2E2E2E2E2E2E2E2E2E2E2E2E2E2E2E2E2E2E2E2E2E2E2E2E2E2E2E2E2E2E2E2E2E2E2E2E2E2E2E2E2E2E2E2E2E2E2E2E2E2E2E2E2E2E2E2E2E2E2E2E2E2E2E2E2E2E2E2E2E2E2E2E2E2E2E2E2E2E2E2E2E2E2E2E2E2E2E2E2E2E2E2E2E2E2E2E2E2E2E2E2E2E2
310
E2E2E2E2E2E2E2E2E2E2E2E2E2E2E2E2E2E2E2E2E2E2E2E2E2E2E2E2E2E2E2E2E2E2E2E2E2E2E2E2E2E2E2E2E2E2E2E2E2E2E2E2E2E2E2E2E2E2E2E2E2E2E2E2E2E2E2E2E2E2E2E2E2E2E2E2E2E2E2E2E2E2E2E2E2E2E2E2E2E2E2E2E2E2E2E2E2E2E2E2E2E2E2E2E2E2E2E2E2E2E2E2E2E2E2E2E2E2E2E2E2E2E2E2E2E2E2
310
E2E2E2E2E2E2E2E2E2E2E2E2E2E2E2E2E2E2E2E2E2E2E2E2E2E2E2E2E2E2E2E2E2E2E2E2E2E2E2E2E2E2E2E2E2E2E2E2E2E2E2E2E2E2E2E2E2E2E2E2E2E2E2E2E2E2E2E2E2E2E2E2E2E2E2E2E2E2E2E2E2E2E2E2E2E2E2E2E2E2E2E2E2E2E2E2E2E2E2E2E2E2E2E2E2E2E2E2E2E2E2E2E2E2E2E2E2E2E2E2E2E2E2E2E2E2E2
310
E2E2E2E2E2E2E2E2E2E2E2E2E2E2E2E2E2E2E2E2E2E2E2E2E2E2E2E2E2E2E2E2E2E2E2E2E2E2E2E2E2E2E2E2E2E2E2E2E2E2E2E2E2E2E2E2E2E2E2E2E2E2E2E2E2E2E2E2E2E2E2E2E2E2E2E2E2E2E2E2E2E2E2E2E2E2E2E2E2E2E2E2E2E2E2E2E2E2E2E2E2E2E2E2E2E2E2E2E2E2E2E2E2E2E2E2E2E2E2E2E2E2E2E2E2E2E2
310
E2E2E2E2E2E2E2E2E2E2E2E2E2E2E2E2E2E2E2E2E2E2E2E2E2E2E2E2E2E2E2E2E2E2E2E2E2E2E2E2E2E2E2E2E2E2E2E2E2E2E2E2E2E2E2E2E2E2E2E2E2E2E2E2E2E2E2E2E2E2E2E2E2E2E2E2E2E2E2E2E2E2E2E2E2E2E2E2E2E2E2E2E2E2E2E2E2E2E2E2E2E2E2E2E2E2E2E2E2E2E2E2E2E2E2E2E2E2E2E2E2E2E2E2E2E2E2
310
E2E2E2E2E2E2E2E2E2E2E2E2E2E2E2E2E2E2E2E2E2E2E2E2E2E2E2E2E2E2E2E2E2E2E2E2E2E2E2E2E2E2E2E2E2E2E2E2E2E2E2E2E2E2E2E2E2E2E2E2E2E2E2E2E2E2E2E2E2E2E2E2E2E2E2E2E2E2E2E2E2E2E2E2E2E2E2E2E2E2E2E2E2E2E2E2E2E2E2E2E2E2E2E2E2E2E2E2E2E2E2E2E2E2E2E2E2E2E2E2E2E2E2E2E2E2E2
310
E2E2E2E2E2E2E2E2E2E2E2E2E2E2E2E2E2E2E2E2E2E2E2E2E2E2E2E2E2E2E2E2E2E2E2E2E2E2E2E2E2E2E2E2E2E2E2E2E2E2E2E2E2E2E2E2E2E2E2E2E2E2E2E2E2E2E2E2E2E2E2E2E2E2E2E2E2E2E2E2E2E2E2E2E2E2E2E2E2E2E2E2E2E2E2E2E2E2E2E2E2E2E2E2E2E2E2E2E2E2E2E2E2E2E2E2E2E2E2E2E2E2E2E2E2E2E2
310
E2E2E2E2E2E2E2E2E2E2E2E2E2E2E2E2E2E2E2E2E2E2E2E2E2E2E2E2E2E2E2E2E2E2E2E2E2E2E2E2E2E2E2E2E2E2E2E2E2E2E2E2E2E2E2E2E2E2E2E2E2E2E2E2E2E2E2E2E2E2E2E2E2E2E2E2E2E2E2E2E2E2E2E2E2E2E2E2E2E2E2E2E2E2E2E2E2E2E2E2E2E2E2E2E2E2E2E2E2E2E2E2E2E2E2E2E2E2E2E2E2E2E2E2E2E2E2
310
E2E2E2E2E2E2E2E2E2E2E2E2E2E2E2E2E2E2E2E2E2E2E2E2E2E2E2E2E2E2E2E2E2E2E2E2E2E2E2E2E2E2E2E2E2E2E2E2E2E2E2E2E2E2E2E2E2E2E2E2E2E2E2E2E2E2E2E2E2E2E2E2E2E2E2E2E2E2E2E2E2E2E2E2E2E2E2E2E2E2E2E2E2E2E2E2E2E2E2E2E2E2E2E2E2E2E2E2E2E2E2E2E2E2E2E2E2E2E2E2E2E2E2E2E2E2E2
310
E2E2E2E2E2E2E2E2E2E2E2E2E2E2E2E2E2E2E2E2E2E2E2E2E2E2E2E2E2E2E2E2E2E2E2E2E2E2E2E2E2E2E2E2E2E2E2E2E2E2E2E2E2E2E2E2E2E2E2E2E2E2E2E2E2E2E2E2E2E2E2E2E2E2E2E2E2E2E2E2E2E2E2E2E2E2E2E2E2E2E2E2E2E2E2E2E2E2E2E2E2E2E2E2E2E2E2E2E2E2E2E2E2E2E2E2E2E2E2E2E2E2E2E2E2E2E2
310
E2E2E2E2E2E2E2E2E2E2E2E2E2E2E2E2E2E2E2E2E2E2E2E2E2E2E2E2E2E2E2E2E2E2E2E2E2E2E2E2E2E2E2E2E2E2E2E2E2E2E2E2E2E2E2E2E2E2E2E2E2E2E2E2E2E2E2E2E2E2E2E2E2E2E2E2E2E2E2E2E2E2E2E2E2E2E2E2E2E2E2E2E2E2E2E2E2E2E2E2E2E2E2E2E2E2E2E2E2E2E2E2E2E2E2E2E2E2E2E2E2E2E2E2E2E2E2
310
E2E2E2E2E2E2E2E2E2E2E2E2E2E2E2E2E2E2E2E2E2E2E2E2E2E2E2E2E2E2E2E2E2E2E2E2E2E2E2E2E2E2E2E2E2E2E2E2E2E2E2E2E2E2E2E2E2E2E2E2E2E2E2E2E2E2E2E2E2E2E2E2E2E2E2E2E2E2E2E2E2E2E2E2E2E2E2E2E2E2E2E2E2E2E2E2E2E2E2E2E2E2E2E2E2E2E2E2E2E2E2E2E2E2E2E2E2E2E2E2E2E2E2E2E2E2E2
310
E2E2E2E2E2E2E2E2E2E2E2E2E2E2E2E2E2E2E2E2E2E2E2E2E2E2E2E2E2E2E2E2E2E2E2E2E2E2E2E2E2E2E2E2E2E2E2E2E2E2E2E2E2E2E2E2E2E2E2E2E2E2E2E2E2E2E2E2E2E2E2E2E2E2E2E2E2E2E2E2E2E2E2E2E2E2E2E2E2E2E2E2E2E2E2E2E2E2E2E2E2E2E2E2E2E2E2E2E2E2E2E2E2E2E2E2E2E2E2E2E2E2E2E2E2E2E2
310
E2E2E2E2E2E2E2E2E2E2E2E2E2E2E2E2E2E2E2E2E2E2E2E2E2E2E2E2E2E2E2E2E2E2E2E2E2E2E2E2E2E2E2E2E2E2E2E2E2E2E2E2E2E2E2E2E2E2E2E2E2E2E2E2E2E2E2E2E2E2E2E2E2E2E2E2E2E2E2E2E2E2E2E2E2E2E2E2E2E2E2E2E2E2E2E2E2E2E2E2E2E2E2E2E2E2E2E2E2E2E2E2E2E2E2E2E2E2E2E2E2E2E2E2E2E2E2
310
E2E2E2E2E2E2E2E2E2E2E2E2E2E2E2E2E2E2E2E2E2E2E2E2E2E2E2E2E2E2E2E2E2E2E2E2E2E2E2E2E2E2E2E2E2E2E2E2E2E2E2E2E2E2E2E2E2E2E2E2E2E2E2E2E2E2E2E2E2E2E2E2E2E2E2E2E2E2E2E2E2E2E2E2E2E2E2E2E2E2E2E2E2E2E2E2E2E2E2E2E2E2E2E2E2E2E2E2E2E2E2E2E2E2E2E2E2E2E2E2E2E2E2E2E2E2E2
310
E2E2E2E2E2E2E2E2E2E2E2E2E2E2E2E2E2E2E2E2E2E2E2E2E2E2E2E2E2E2E2E2E2E2E2E2E2E2E2E2E2E2E2E2E2E2E2E2E2E2E2E2E2E2E2E2E2E2E2E2E2E2E2E2E2E2E2E2E2E2E2E2E2E2E2E2E2E2E2E2E2E2E2E2E2E2E2E2E2E2E2E2E2E2E2E2E2E2E2E2E2E2E2E2E2E2E2E2E2E2E2E2E2E2E2E2E2E2E2E2E2E2E2E2E2E2E2
310
E2E2E2E2E2E2E2E2E2E2E2E2E2E2E2E2E2E2E2E2E2E2E2E2E2E2E2E2E2E2E2E2E2E2E2E2E2E2E2E2E2E2E2E2E2E2E2E2E2E2E2E2E2E2E2E2E2E2E2E2E2E2E2E2E2E2E2E2E2E2E2E2E2E2E2E2E2E2E2E2E2E2E2E2E2E2E2E2E2E2E2E2E2E2E2E2E2E2E2E2E2E2E2E2E2E2E2E2E2E2E2E2E2E2E2E2E2E2E2E2E2E2E2E2E2E2E2
310
E2E2E2E2E2E2E2E2E2E2E2E2E2E2E2E2E2E2E2E2E2E2E2E2E2E2E2E2E2E2E2E2E2E2E2E2E2E2E2E2E2E2E2E2E2E2E2E2E2E2E2E2E2E2E2E2E2E2E2E2E2E2E2E2E2E2E2E2E2E2E2E2E2E2E2E2E2E2E2E2E2E2E2E2E2E2E2E2E2E2E2E2E2E2E2E2E2E2E2E2E2E2E2E2E2E2E2E2E2E2E2E2E2E2E2E2E2E2E2E2E2E2E2E2E2E2E2
310
E2E2E2E2E2E2E2E2E2E2E2E2E2E2E2E2E2E2E2E2E2E2E2E2E2E2E2E2E2E2E2E2E2E2E2E2E2E2E2E2E2E2E2E2E2E2E2E2E2E2E2E2E2E2E2E2E2E2E2E2E2E2E2E2E2E2E2E2E2E2E2E2E2E2E2E2E2E2E2E2E2E2E2E2E2E2E2E2E2E2E2E2E2E2E2E2E2E2E2E2E2E2E2E2E2E2E2E2E2E2E2E2E2E2E2E2E2E2E2E2E2E2E2E2E2E2E2
310
E2E2E2E2E2E2E2E2E2E2E2E2E2E2E2E2E2E2E2E2E2E2E2E2E2E2E2E2E2E2E2E2E2E2E2E2E2E2E2E2E2E2E2E2E2E2E2E2E2E2E2E2E2E2E2E2E2E2E2E2E2E2E2E2E2E2E2E2E2E2E2E2E2E2E2E2E2E2E2E2E2E2E2E2E2E2E2E2E2E2E2E2E2E2E2E2E2E2E2E2E2E2E2E2E2E2E2E2E2E2E2E2E2E2E2E2E2E2E2E2E2E2E2E2E2E2E2
310
E2E2E2E2E2E2E2E2E2E2E2E2E2E2E2E2E2E2E2E2E2E2E2E2E2E2E2E2E2E2E2E2E2E2E2E2E2E2E2E2E2E2E2E2E2E2E2E2E2E2E2E2E2E2E2E2E2E2E2E2E2E2E2E2E2E2E2E2E2E2E2E2E2E2E2E2E2E2E2E2E2E2E2E2E2E2E2E2E2E2E2E2E2E2E2E2E2E2E2E2E2E2E2E2E2E2E2E2E2E2E2E2E2E2E2E2E2E2E2E2E2E2E2E2E2E2E2
310
E2E2E2E2E2E2E2E2E2E2E2E2E2E2E2E2E2E2E2E2E2E2E2E2E2E2E2E2E2E2E2E2E2E2E2E2E2E2E2E2E2E2E2E2E2E2E2E2E2E2E2E2E2E2E2E2E2E2E2E2E2E2E2E2E2E2E2E2E2E2E2E2E2E2E2E2E2E2E2E2E2E2E2E2E2E2E2E2E2E2E2E2E2E2E2E2E2E2E2E2E2E2E2E2E2E2E2E2E2E2E2E2E2E2E2E2E2E2E2E2E2E2E2E2E2E2E2
310
E2E2E2E2E2E2E2E2E2E2E2E2E2E2E2E2E2E2E2E2E2E2E2E2E2E2E2E2E2E2E2E2E2E2E2E2E2E2E2E2E2E2E2E2E2E2E2E2E2E2E2E2E2E2E2E2E2E2E2E2E2E2E2E2E2E2E2E2E2E2E2E2E2E2E2E2E2E2E2E2E2E2E2E2E2E2E2E2E2E2E2E2E2E2E2E2E2E2E2E2E2E2E2E2E2E2E2E2E2E2E2E2E2E2E2E2E2E2E2E2E2E2E2E2E2E2E2
310
E2E2E2E2E2E2E2E2E2E2E2E2E2E2E2E2E2E2E2E2E2E2E2E2E2E2E2E2E2E2E2E2E2E2E2E2E2E2E2E2E2E2E2E2E2E2E2E2E2E2E2E2E2E2E2E2E2E2E2E2E2E2E2E2E2E2E2E2E2E2E2E2E2E2E2E2E2E2E2E2E2E2E2E2E2E2E2E2E2E2E2E2E2E2E2E2E2E2E2E2E2E2E2E2E2E2E2E2E2E2E2E2E2E2E2E2E2E2E2E2E2E2E2E2E2E2E2
310
E2E2E2E2E2E2E2E2E2E2E2E2E2E2E2E2E2E2E2E2E2E2E2E2E2E2E2E2E2E2E2E2E2E2E2E2E2E2E2E2E2E2E2E2E2E2E2E2E2E2E2E2E2E2E2E2E2E2E2E2E2E2E2E2E2E2E2E2E2E2E2E2E2E2E2E2E2E2E2E2E2E2E2E2E2E2E2E2E2E2E2E2E2E2E2E2E2E2E2E2E2E2E2E2E2E2E2E2E2E2E2E2E2E2E2E2E2E2E2E2E2E2E2E2E2E2E2
310
E2E2E2E2E2E2E2E2E2E2E2E2E2E2E2E2E2E2E2E2E2E2E2E2E2E2E2E2E2E2E2E2E2E2E2E2E2E2E2E2E2E2E2E2E2E2E2E2E2E2E2E2E2E2E2E2E2E2E2E2E2E2E2E2E2E2E2E2E2E2E2E2E2E2E2E2E2E2E2E2E2E2E2E2E2E2E2E2E2E2E2E2E2E2E2E2E2E2E2E2E2E2E2E2E2E2E2E2E2E2E2E2E2E2E2E2E2E2E2E2E2E2E2E2E2E2E2
310
E2E2E2E2E2E2E2E2E2E2E2E2E2E2E2E2E2E2E2E2E2E2E2E2E2E2E2E2E2E2E2E2E2E2E2E2E2E2E2E2E2E2E2E2E2E2E2E2E2E2E2E2E2E2E2E2E2E2E2E2E2E2E2E2E22D2D2D2D2D2D2D2D2D2D2D2D2D2D2D2D2D2D2D2D2D2D2D2D2D2D2D2D2D2D2D2D2D2D2D2D2D2D2D2D2D2D2D2D2D2D2D2D2D2D2D2D2D2D2D2D2D2D2D2D2D2D
310
2D2D2D2D2D2D2D2D2D2D2D2D2D2D2D2D2D2D2D2D2D2D2D2D2D2DE2E2E2E2E2E2E2E2E2E2E2E2E2E2E2E2E2E2E2E2E2E2E2E2E2E2E2E2E2E2E2E2E2E2E2E2E2E2E2E2E2E2E2E2E2E2E2E2E2E2E2E2E2E2E2E2E2E2E2E2E2E2E2E2E2E2E2E2E2E2E2E2E2E2E2E2E2E2E2E2E2E2E2E2E2E2E2E2E2E2E2E2E2E2E2E2E2E2E2E2E2
310
E2E2E2E2E2E2E2E2E2E2E2E2E2E2E2E2E2E2E2E2E2E2E2E2E2E2E2E2E2E2E2E2E2E2E2E2E2E2E2E2E2E2E2E2E2E2E2E2E2E2E2E2E2E2E2E2E2E2E2E2E2E2E2E2E2E2E22D2D2D2D2D2D2D2D2D2D2D2D2D2D2D2D2D2D2D2D2D2D2D2D2D2D2D2D2D2D2D2D2D2D2D2D2D2D2D2D2D2D2D2D2D2D2D2D2D2D2D2D2D2D2D2D2D2D2D2D
310
2D2D2D2D2D2D2D2D2D2D2D2D2D2D2D2D2D2D2D2D2D2D2D2D2D2D2D2DE2E2E2E2E2E2E2E2E2E2E2E2E2E2E2E2E2E2E2E2E2E2E2E2E2E2E2E2E2E2E2E2E2E2E2E2E2E2E2E2E2E2E2E2E2E2E2E2E2E2E2E2E2E2E2E2E2E2E2E2E2E2E2E2E2E2E2E2E2E2E2E2E2E2E2E2E2E2E2E2E2E2E2E2E2E2E2E2E2E2E2E2E2E2E2E2E2E2E2
310
E2E2E2E2E2E2E2E2E2E2E2E2E2E2E2E2E2E2E2E2E2E2E2E2E2E2E2E2E2E2E2E2E2E2E2E2E2E2E2E2E2E2E2E2E2E2E2E2E2E2E2E2E2E2E2E2E2E2E2E2E2E2E2E2E2E2E2E2E22D2DBEBEBEBEBEBEBEBEBEBEBEBEBEBEBEBEBEBEBEBEBEBEBEBEBEBEBEBEBEBEBEBEBEBEBEBEBEBEBEBEBEBEBEBEBEBEBEBEBEBEBEF5F5BEBEBE
310
BEF5F5F5F5F5F5BEBEBEBEBEF5F5F5BEF5F5F5F5F5F5F5F5F5F5BEBE2D2DE2E2E2E2E2E2E2E2E2E2E2E2E2E2E2E2E2E2E2E2E2E2E2E2E2E2E2E2E2E2E2E2E2E2E2E2E2E2E2E2E2E2E2E2E2E2E2E2E2E2E2E2E2E2E2E2E2E2E2E2E2E2E2E2E2E2E2E2E2E2E2E2E2E2E2E2E2E2E2E2E2E2E2E2E2E2E2E2E2E2E2E2E2E2E2E2E2
310
E2E2E2E2E2E2E2E2E2E2E2E2E2E2E2E2E2E2E2E2E2E2E2E2E2E2E2E2E2E2E2E2E2E2E2E2E2E2E2E2E2E2E2E2E2E2E2E2E2E2E2E2E2E2E2E2E2E2E2E2E2E2E2E2E2E2E2E2E2E2E22D2DBEE2E2E2E2E2E2E2E2E2E2E2E2E2E2E2E2E2E2E2E2E2E2E2E2E2E2E2E2E2E2E2E2E2E2E2E2E2E2E2E2E2E2E2E2E2E2E2E2E2BEE2E2E2
310
BEE2E2E2E2E2E2E2E2E2E2E2E2BEE2E2E2BEE2E2E2E2E2E2E2E2E2E2E2BE2D2DE2E2E2E2E2E2E2E2E2E2E2E2E2E2E2E2E2E2E2E2E2E2E2E2E2E2E2E2E2E2E2E2E2E2E2E2E2E2E2E2E2E2E2E2E2E2E2E2E2E2E2E2E2E2E2E2E2E2E2E2E2E2E2E2E2E2E2E2E2E2E2E2E2E2E2E2E2E2E2E2E2E2E2E2E2E2E2E2E2E2E2E2E2E2E2
310
E2E2E2E2E2E2E2E2E2E2E2E2E2E2E2E2E2E2E2E2E2E2E2E2E2E2E2E2E2E2E2E2E2E2E2E2E2E2E2E2E2E2E2E2E2E2E2E2E2E2E2E2E2E2E2E2E2E2E2E2E2E2E2E2E2E2E2E2E2E2E2E2E22D2DBEE2E2E2E2E2E2E2E2E2E2E2E2E2E2E2E2E2E2E2E2E2E2E2E2E2E2E2E2E2E2E2E2E2E2E2E2E2E2E2E2E2E2E2E2E2E2E2E2E2BEBE
310
BEBEBEBEBEBEBEBEBEBEBEBEBEBEBEBEBEBEBEBEBEBEBEBEBEBEBEBEBEBEBEBE2D2DE2E2E2E2E2E2E2E2E2E2E2E2E2E2E2E2E2E2E2E2E2E2E2E2E2E2E2E2E2E2E2E2E2E2E2E2E2E2E2E2E2E2E2E2E2E2E2E2E2E2E2E2E2E2E2E2E2E2E2E2E2E2E2E2E2E2E2E2E2E2E2E2E2E2E2E2E2E2E2E2E2E2E2E2E2E2E2E2E2E2E2E2E2
310
E2E2E2E2E2E2E2E2E2E2E2E2E2E2E2E2E2E2E2E2E2E2E2E2E2E2E2E2E2E2E2E2E2E2E2E2E2E2E2E2E2E2E2E2E2E2E2E2E2E2E2E2E2E2E2E2E2E2E2E2E2E2E2E2E2E2E2E2E2E2E2E2E2E2E22D2DBEE2E2E2E2E2E2E2E2E2E2E2E2E2E2E2E2E2E2E2E2E2E2E2E2E2E2E2E2E2E2E2E2E2E2E2E2E2E2E2E2E2E2E2E2E2E2E2E2E2
310
E2E2E2E2E2E2E2E2E2E2E2E2E2E2E2E2E2BEE2E2F5E2E2E2E2E2E2E2E2E2E2E2E2BE2D2DE2E2E2E2E2E2E2E2E2E2E2E2E2E2E2E2E2E2E2E2E2E2E2E2E2E2E2E2E2E2E2E2E2E2E2E2E2E2E2E2E2E2E2E2E2E2E2E2E2E2E2E2E2E2E2E2E2E2E2E2E2E2E2E2E2E2E2E2E2E2E2E2E2E2E2E2E2E2E2E2E2E2E2E2E2E2E2E2E2E2E2
310
E2E2E2E2E2E2E2E2E2E2E2E2E2E2E2E2E2E2E2E2E2E2E2E2E2E2E2E2E2E2E2E2E2E2E2E2E2E2E2E2E2E2E2E2E2E2E2E2E2E2E2E2E2E2E2E2E2E2E2E2E2E2E2E2E2E2E2E2E2E2E2E2E2E2E2E2E22D2DBEE2E2E2E2E2E2E2E2E2E2E2E2E2E2E2E2E2E2E2E2E2E2E2E2E2E2E2E2E2E2E2E2E2E2E2E2E2E2E2E2E2E2E2E2E2E2E2
310
E2E2E2E2E2E2E2E2E2E2E2E2E2E2E2E2E2E2E2BEE2F5F5F5F5F5F5F5F5F5F5F5F5E2E2BE2D2DE2E2E2E2E2E2E2E2E2E2E2E2E2E2E2E2E2E2E2E2E2E2E2E2E2E2E2E2E2E2E2E2E2E2E2E2E2E2E2E2E2E2E2E2E2E2E2E2E2E2E2E2E2E2E2E2E2E2E2E2E2E2E2E2E2E2E2E2E2E2E2E2E2E2E2E2E2E2E2E2E2E2E2E2E2E2E2E2E2
310
E2E2E2E2E2E2E2E2E2E2E2E2E2E2E2E2E2E2E2E2E2E2E2E2E2E2E2E2E2E2E2E2E2E2E2E2E2E2E2E2E2E2E2E2E2E2E2E2E2E2E2E2E2E2E2E2E2E2E2E2E2E2E2E2E2E2E2E2E2E2E2E2E2E2E2E2E2E2E22D2DBEE2E2E2E2E2E2E2E2E2E2E2E2E2E2E2E2E2E2E2E2E2E2E2E2E2E2E2E2E2E2E2E2E2E2E2E2E2E2E2E2E2E2E2E2E2
310
E2E2E2E2E2E2E2E2E2E2E2E2E2E2E2E2E2E2E2E2E2BEE2F5F5F5F5F5F5F5F5F5F5F5F5E2E2BE2D2DE2E2E2E2E2E2E2E2E2E2E2E2E2E2E2E2E2E2E2E2E2E2E2E2E2E2E2E2E2E2E2E2E2E2E2E2E2E2E2E2E2E2E2E2E2E2E2E2E2E2E2E2E2E2E2E2E2E2E2E2E2E2E2E2E2E2E2E2E2E2E2E2E2E2E2E2E2E2E2E2E2E2E2E2E2E2E2
310
E2E2E2E2E2E2E2E2E2E2E2E2E2E2E2E2E2E2E2E2E2E2E2E2E2E2E2E2E2E2E2E2E2E2E2E2E2E2E2E2E2E2E2E2E2E2E2E2E2E2E2E2E2E2E2E2E2E2E2E2E2E2E2E2E2E2E2E2E2E2E2E2E2E2E2E2E2E2E2E2E22D2DBEE2E2E2E2E2E2E2E2E2E2E2E2E2E2E2E2E2E2E2E2E2E2E2E2E2E2E2E2E2E2E2E2E2E2E2E2E2E2E2E2E2E2E2
310
F5F5F5F5E2E2E2E2E2E2E2E2E2E2E2E2E2E2E2E2E2E2E2BEE2F5F5F5F5F5F5F5F5F5F5F5F5F5E2BE2D2DE2E2E2E2E2E2E2E2E2E2E2E2E2E2E2E2E2E2E2E2E2E2E2E2E2E2E2E2E2E2E2E2E2E2E2E2E2E2E2E2E2E2E2E2E2E2E2E2E2E2E2E2E2E2E2E2E2E2E2E2E2E2E2E2E2E2E2E2E2E2E2E2E2E2E2E2E2E2E2E2E2E2E2E2E2
310
E2E2E2E2E2E2E2E2E2E2E2E2E2E2E2E2E2E2E2E2E2E2E2E2E2E2E2E2E2E2E2E2E2E2E2E2E2E2E2E2E2E2E2E2E2E2E2E2E2E2E2E2E2E2E2E2E2E2E2E2E2E2E2E2E2E2E2E2E2E2E2E2E2E2E2E2E2E2E2E2E2E2E22D2DBEE2E2E2E2E2E2E2E2E2E2E2E2E2E2E2E2E2E2E2E2E2E2E2E2E2E2E2E2E2E2E2E2E2E2E2E2E2E2E2E2E2
310
E2E2E2E2E2E2E2E2E2E2E2E2E2E2E2E2E2E2E2E2E2E2E2E2E2BEE2E2E2E2E2E2E2E2E2E2E2E2E2E2E2BE2D2DE2E2E2E2E2E2E2E2E2E2E2E2E2E2E2E2E2E2E2E2E2E2E2E2E2E2E2E2E2E2E2E2E2E2E2E2E2E2E2E2E2E2E2E2E2E2E2E2E2E2E2E2E2E2E2E2E2E2E2E2E2E2E2E2E2E2E2E2E2E2E2E2E2E2E2E2E2E2E2E2E2E2E2
310
E2E2E2E2E2E2E2E2E2E2E2E2E2E2E2E2E2E2E2E2E2E2E2E2E2E2E2E2E2E2E2E2E2E2E2E2E2E2E2E2E2E2E2E2E2E2E2E2E2E2E2E2E2E2E2E2E2E2E2E2E2E2E2E2E2E2E2E2E2E2E2E2E2E2E2E2E2E2E2E2E2E2E2E2E22D2DBEE2E2E2E2E2E2E2E2E2E2E2E2E2E2E2E2E2E2E2E2E2E2E2E2E2E2E2E2E2E2E2E2E2E2E2E2F5F5F5
310
F5F5F5F5F5F5F5F5F5F5F5F5F5F5F5E2E2E2E2E2E2E2E2E2E2E2E2BEBEBEBEBEBEBEF5BEBEF5BEBEF5BEBEBE2D2DE2E2E2E2E2E2E2E2E2E2E2E2E2E2E2E2E2E2E2E2E2E2E2E2E2E2E2E2E2E2E2E2E2E2E2E2E2E2E2E2E2E2E2E2E2E2E2E2E2E2E2E2E2E2E2E2E2E2E2E2E2E2E2E2E2E2E2E2E2E2E2E2E2E2E2E2E2E2E2E2E2
310
E2E2E2E2E2E2E2E2E2E2E2E2E2E2E2E2E2E2E2E2E2E2E2E2E2E2E2E2E2E2E2E2E2E2E2E2E2E2E2E2E2E2E2E2E2E2E2E2E2E2E2E2E2E2E2E2E2E2E2E2E2E2E2E2E2E2E2E2E2E2E2E2E2E2E2E2E2E2E2E2E2E2E2E2E2E2E22D2DBEE2E2E2E2E2E2E2E2E2E2E2E2E2E2E2E2E2E2E2E2E2E2E2E2E2E2E2E2E2E2E2E2E2E2E2E2F5
310
E2E2E2E2E2E2E2E2E2E2DCE2E2DCDCDCF5E2E2E2E2E2E2E2E2E2E2E2E2BEE2E2E2E2E2E2F5E2E2F5E2E2F5E2E2BE2D2DE2E2E2E2E2E2E2E2E2E2E2E2E2E2E2E2E2E2E2E2E2E2E2E2E2E2E2E2E2E2E2E2E2E2E2E2E2E2E2E2E2E2E2E2E2E2E2E2E2E2E2E2E2E2E2E2E2E2E2E2E2E2E2E2E2E2E2E2E2E2E2E2E2E2E2E2E2E2E2
310
E2E2E2E2E2E2E2E2E2E2E2E2E2E2E2E2E2E2E2E2E2E2E2E2E2E2E2E2E2E2E2E2E2E2E2E2E2E2E2E2E2E2E2E2E2E2E2E2E2E2E2E2E2E2E2E2E2E2E2E2E2E2E2E2E2E2E2E2E2E2E2E2E2E2E2E2E2E2E2E2E2E2E2E2E2E2E2E2E22D2DBEE2E2E2E2E2E2E2E2E2E2E2E2E2E2E2E2E2E2E2E2E2E2E2E2E2E2E2E2E2E2E2E2E2E2E2
310
E2F5E2E2E2E2E2E2E2DCDCDCDCDCDCDCDCE2F5E2E2E2E2E2E2E2E2E2E2E2E2F5F5F5F5F5F5F5F5F5F5F5F5F5F5F5F5F52D2DE2E2E2E2E2E2E2E2E2E2E2E2E2E2E2E2E2E2E2E2E2E2E2E2E2E2E2E2E2E2E2E2E2E2E2E2E2E2E2E2E2E2E2E2E2E2E2E2E2E2E2E2E2E2E2E2E2E2E2E2E2E2E2E2E2E2E2E2E2E2E2E2E2E2E2E2E2
310
E2E2E2E2E2E2E2E2E2E2E2E2E2E2E2E2E2E2E2E2E2E2E2E2E2E2E2E2E2E2E2E2E2E2E2E2E2E2E2E2E2E2E2E2E2E2E2E2E2E2E2E2E2E2E2E2E2E2E2E2E2E2E2E2E2E2E2E2E2E2E2E2E2E2E2E2E2E2E2E2E2E2E2E2E2E2E2E2E2E2E22D2DBEE2E2E2E2E2E2E2E2E2E2E2E2E2E2E2E2E2E2E2E2E2E2E2E2E2E2E2E2E2E2E2E2E2
310
E2E2E2F5E2E2E2E2E2DCDCDCDCDCDCDCDCDCDCE2F5E2E2E2E2E2E2E2E2E2E2E2E2BEE2E2E2E2E2E2F5E2E2F5E2E2F5E2E2BE2D2DE2E2E2E2E2E2E2E2E2E2E2E2E2E2E2E2E2E2E2E2E2E2E2E2E2E2E2E2E2E2E2E2E2E2E2E2E2E2E2E2E2E2E2E2E2E2E2E2E2E2E2E2E2E2E2E2E2E2E2E2E2E2E2E2E2E2E2E2E2E2E2E2E2E2E2
310
E2E2E2E2E2E2E2E2E2E2E2E2E2E2E2E2E2E2E2E2E2E2E2E2E2E2E2E2E2E2E2E2E2E2E2E2E2E2E2E2E2E2E2E2E2E2E2E2E2E2E2E2E2E2E2E2E2E2E2E2E2E2E2E2E2E2E2E2E2E2E2E2E2E2E2E2E2E2E2E2E2E2E2E2E2E2E2E2E2E2E2E2E22D2DBEE2E2E2E2E2E2E2E2E2E2E2E2E2E2E2E2E2E2E2E2E2E2E2E2E2E2E2E2E2E2E2
310
E2E2E2E2E2F5E2E2E2DCDCDCDCDCDCDCE2E2DCDCDCE2F5E2E2E2E2E2E2E2E2E2E2E2E2F5F5F5F5F5F5F5F5F5F5F5F5F5F5F5F5F52D2DE2E2E2E2E2E2E2E2E2E2E2E2E2E2E2E2E2E2E2E2E2E2E2E2E2E2E2E2E2E2E2E2E2E2E2E2E2E2E2E2E2E2E2E2E2E2E2E2E2E2E2E2E2E2E2E2E2E2E2E2E2E2E2E2E2E2E2E2E2E2E2E2E2
310
E2E2E2E2E2E2E2E2E2E2E2E2E2E2E2E2E2E2E2E2E2E2E2E2E2E2E2E2E2E2E2E2E2E2E2E2E2E2E2E2E2E2E2E2E2E2E2E2E2E2E2E2E2E2E2E2E2E2E2E2E2E2E2E2E2E2E2E2E2E2E2E2E2E2E2E2E2E2E2E2E2E2E2E2E2E2E2E2E2E2E2E2E2E2E22D2DBEE2E2E2E2E2E2E2E2E2E2E2E2E2E2E2E2E2E2E2E2E2E2E2E2E2E2E2E2E2
310
E2E2E2E2E2E2E2F5E2DCDCDCDCDCDCDCDCDCDCDCE2E2DCE2F5E2E2E2E2E2E2E2E2E2E2E2E2F5F5F5F5F5F5F5F5F5F5F5F5F5F5F5F5F52D2DE2E2E2E2E2E2E2E2E2E2E2E2E2E2E2E2E2E2E2E2E2E2E2E2E2E2E2E2E2E2E2E2E2E2E2E2E2E2E2E2E2E2E2E2E2E2E2E2E2E2E2E2E2E2E2E2E2E2E2E2E2E2E2E2E2E2E2E2E2E2E2
310
E2E2E2E2E2E2E2E2E2E2E2E2E2E2E2E2E2E2E2E2E2E2E2E2E2E2E2E2E2E2E2E2E2E2E2E2E2E2E2E2E2E2E2E2E2E2E2E2E2E2E2E2E2E2E2E2E2E2E2E2E2E2E2E2E2E2E2E2E2E2E2E2E2E2E2E2E2E2E2E2E2E2E2E2E2E2E2E2E2E2E2E2E2E2E2E2E22D2DBEE2E2E2E2E2E2E2E2E2E2E2E2E2E2E2E2E2E2E2E2E2E2E2E2E2E2E2
310
E2E2E2E2E2E2E2E2E2F5E2DCDCDCDCDCDCDCDCDCDCDCDCE2E2E2F5E2E2E2E2E2E2E2E2E2E2E2E2F5F5F5F5F5F5F5F5F5F5F5F5F5F5F5F5F52D2DE2E2E2E2E2E2E2E2E2E2E2E2E2E2E2E2E2E2E2E2E2E2E2E2E2E2E2E2E2E2E2E2E2E2E2E2E2E2E2E2E2E2E2E2E2E2E2E2E2E2E2E2E2E2E2E2E2E2E2E2E2E2E2E2E2E2E2E2E2
310
E2E2E2E2E2E2E2E2E2E2E2E2E2E2E2E2E2E2E2E2E2E2E2E2E2E2E2E2E2E2E2E2E2E2E2E2E2E2E2E2E2E2E2E2E2E2E2E2E2E2E2E2E2E2E2E2E2E2E2E2E2E2E2E2E2E2E2E2E2E2E2E2E2E2E2E2E2E2E2E2E2E2E2E2E2E2E2E2E2E2E2E2E2E2E2E2E2E2E22D2DBEE2E2E2E2E2E2E2E2E2E2E2E2E2E2E2E2E2E2E2E2E2E2E2E2E2
310
E2E2E2E2E2E2E2E2E2E2E2F5F5F5F5F5F5F5F5F5F5F5F5F5F5F5F5F5F5E2E2E2E2E2E2E2E2E2E2E2E2F5F5F5F5F5F5F5F5F5F5F5F5F5F5F5F5F52D2DE2E2E2E2E2E2E2E2E2E2E2E2E2E2E2E2E2E2E2E2E2E2E2E2E2E2E2E2E2E2E2E2E2E2E2E2E2E2E2E2E2E2E2E2E2E2E2E2E2E2E2E2E2E2E2E2E2E2E2E2E2E2E2E2E2E2E2
310
E2E2E2E2E2E2E2E2E2E2E2E2E2E2E2E2E2E2E2E2E2E2E2E2E2E2E2E2E2E2E2E2E2E2E2E2E2E2E2E2E2E2E2E2E2E2E2E2E2E2E2E2E2E2E2E2E2E2E2E2E2E2E2E2E2E2E2E2E2E2E2E2E2E2E2E2E2E2E2E2E2E2E2E2E2E2E2E2E2E2E2E2E2E2E2E2E2E2E2E2E22D2DBEE2E2E2E2E2E2E2E2E2E2E2E2E2E2E2E2E2E2E2E2E2E2E2
310
E2E2E2E2E2E2E2E2E2E2E2E2E2E2E2E2E2E2E2E2E2E2E2E2E2E2E2E2E2E2E2E2E2E2E2E2E2E2E2E2E2E2E2F5F5F5F5F5F5F5F5F5F5F5F5F5F5F5F5F52D2DE2E2E2E2E2E2E2E2E2E2E2E2E2E2E2E2E2E2E2E2E2E2E2E2E2E2E2E2E2E2E2E2E2E2E2E2E2E2E2E2E2E2E2E2E2E2E2E2E2E2E2E2E2E2E2E2E2E2E2E2E2E2E2E2E2
310
E2E2E2E2E2E2E2E2E2E2E2E2E2E2E2E2E2E2E2E2E2E2E2E2E2E2E2E2E2E2E2E2E2E2E2E2E2E2E2E2E2E2E2E2E2E2E2E2E2E2E2E2E2E2E2E2E2E2E2E2E2E2E2E2E2E2E2E2E2E2E2E2E2E2E2E2E2E2E2E2E2E2E2E2E2E2E2E2E2E2E2E2E2E2E2E2E2E2E2E2E2E2E22D2DBEE2E2E2E2E2E2E2E2E2E2E2E2E2E2E2E2E2E2E2E2E2
310
2D2DE2E2E2E2E2E2E2E2E2E2E2E2E2E2E2E2E2E2E2E2E2E2E2E2E2E2E2E2E2E2E2E2E2E2E2E2E2E2E2E2E2E2E2BEE2F5E2E2E2F5E2E2E2E2E2E2E2E2E2BE2D2DE2E2E2E2E2E2E2E2E2E2E2E2E2E2E2E2E2E2E2E2E2E2E2E2E2E2E2E2E2E2E2E2E2E2E2E2E2E2E2E2E2E2E2E2E2E2E2E2E2E2E2E2E2E2E2E2E2E2E2E2E2E2E2
310
E2E2E2E2E2E2E2E2E2E2E2E2E2E2E2E2E2E2E2E2E2E2E2E2E2E2E2E2E2E2E2E2E2E2E2E2E2E2E2E2E2E2E2E2E2E2E2E2E2E2E2E2E2E2E2E2E2E2E2E2E2E2E2E2E2E2E2E2E2E2E2E2E2E2E2E2E2E2E2E2E2E2E2E2E2E2E2E2E2E2E2E2E2E2E2E2E2E2E2E2E2E2E2E2E22D2DBEE2E2E2E2E2E2E2E2E2E2E2E2E2E2E2E2E2E2E2
310
E22DE2E2E2E2E2E2E2E2E2E2E2E2E2E2E2E2E2E2E2E2E2E2E2E2E2E2E2E2E2E2E2E2E2E2E2E2E2E2E2E2E2E2E2E2E2F5F5F5F5F5F5F5F5F5F5F5F5F5F5F5F5F52D2DE2E2E2E2E2E2E2E2E2E2E2E2E2E2E2E2E2E2E2E2E2E2E2E2E2E2E2E2E2E2E2E2E2E2E2E2E2E2E2E2E2E2E2E2E2E2E2E2E2E2E2E2E2E2E2E2E2E2E2E2E2
310
E2E2E2E2E2E2E2E2E2E2E2E2E2E2E2E2E2E2E2E2E2E2E2E2E2E2E2E2E2E2E2E2E2E2E2E2E2E2E2E2E2E2E2E2E2E2E2E2E2E2E2E2E2E2E2E2E2E2E2E2E2E2E2E2E2E2E2E2E2E2E2E2E2E2E2E2E2E2E2E2E2E2E2E2E2E2E2E2E2E2E2E2E2E2E2E2E2E2E2E2E2E2E2E2E2E2E22D2DBEE2E2E22D2D2D2D2DE2E2E2E2E2E2E2E2E2
310
E22D2D2D2DE2E2E2E2E2E2E2E2E22D2D2D2D2DE2E2E22D2D2D2D2D2D2D2D2D2D2D2D2D2D2D2D2D2DE2E2E2E2E2E2E2E2E2BEF5F5F5BEBEF5BEBEBEBEBEBEBEBEBEBE2D2DE2E2E2E2E2E2E2E2E2E2E2E2E2E2E2E2E2E2E2E2E2E2E2E2E2E2E2E2E2E2E2E2E2E2E2E2E2E2E2E2E2E2E2E2E2E2E2E2E2E2E2E2E2E2E2E2E2E2E2
310
E2E2E2E2E2E2E2E2E2E2E2E2E2E2E2E2E2E2E2E2E2E2E2E2E2E2E2E2E2E2E2E2E2E2E2E2E2E2E2E2E2E2E2E2E2E2E2E2E2E2E2E2E2E2E2E2E2E2E2E2E2E2E2E2E2E2E2E2E2E2E2E2E2E2E2E2E2E2E2E2E2E2E2E2E2E2E2E2E2E2E2E2E2E2E2E2E2E2E2E2E2E2E2E2E2E2E2E2E22D2DBEE2E2E2E2E22D2DE2E2E2E2E2E2E2E2
310
E2E2E2E22DE2E2E2E2E2E2E2E2E2E2E2E2E22DE2E2E2E2E2E2E2E22DE2E22DE2E22DE22DE2E22DE2E2E2E2E2E2E2E2E2E2E2E2F5F5F5F5F5F5F5F5F5F5F5F5F5F5F5F5F52D2DE2E2E2E2E2E2E2E2E2E2E2E2E2E2E2E2E2E2E2E2E2E2E2E2E2E2E2E2E2E2E2E2E2E2E2E2E2E2E2E2E2E2E2E2E2E2E2E2E2E2E2E2E2E2E2E2E2
310
E2E2E2E2E2E2E2E2E2E2E2E2E2E2E2E2E2E2E2E2E2E2E2E2E2E2E2E2E2E2E2E2E2E2E2E2E2E2E2E2E2E2E2E2E2E2E2E2E2E2E2E2E2E2E2E2E2E2E2E2E2E2E2E2E2E2E2E2E2E2E2E2E2E2E2E2E2E2E2E2E2E2E2E2E2E2E2E2E2E2E2E2E2E2E2E2E2E2E2E2E2E2E2E2E2E2E2E2E2E2E22D2DBEE2E2E2E2E22D28E2E2E2E2E2E2
310
E2E2E2E2E2E228E2E2E2E2E2E2E2E2E2E2E2E2E228E2E2E2E2E2E2E2E228E2E228E2E228E228E2E228E2E2E2E2E2E2E2E2E2E2E2E2F5F5F5F5F5F5F5F5F5F5F5F5F5F5F5F5F52D2DE2E2E2E2E2E2E2E2E2E2E2E2E2E2E2E2E2E2E2E2E2E2E2E2E2E2E2E2E2E2E2E2E2E2E2E2E2E2E2E2E2E2E2E2E2E2E2E2E2E2E2E2E2E2E2
310
E2E2E2E2E2E2E2E2E2E2E2E2E2E2E2E2E2E2E2E2E2E2E2E2E2E2E2E2E2E2E2E2E2E2E2E2E2E2E2E2E2E2E2E2E2E2E2E2E2E2E2E2E2E2E2E2E2E2E2E2E2E2E2E2E2E2E2E2E2E2E2E2E2E2E2E2E2E2E2E2E2E2E2E2E2E2E2E2E2E2E2E2E2E2E2E2E2E2E2E2E2E2E2E2E2E2E2E2E2E2E2E2E22D2DBEE2E2E2E2E2DC28E2E2E2E2
310
E2E2E2E2E2E2E2E2DCDCE2E2E2E2E2E2E2E2E2E2E2DCDCF5F5F5E2E2E2E2E228DCDC28DCDC28DC28DCDC28E2E2E2E2E2E2E2E2E2E2E2E2F5F5E2F5E2E2E2E2E2E2E2E2E2E2E2E2BE2D2DE2E2E2E2E2E2E2E2E2E2E2E2E2E2E2E2E2E2E2E2E2E2E2E2E2E2E2E2E2E2E2E2E2E2E2E2E2E2E2E2E2E2E2E2E2E2E2E2E2E2E2E2E2
310
E2E2E2E2E2E2E2E2E2E2E2E2E2E2E2E2E2E2E2E2E2E2E2E2E2E2E2E2E2E2E2E2E2E2E2E2E2E2E2E2E2E2E2E2E2E2E2E2E2E2E2E2E2E2E2E2E2E2E2E2E2E2E2E2E2E2E2E2E2E2E2E2E2E2E2E2E2E2E2E2E2E2E2E2E2E2E2E2E2E2E2E2E2E2E2E2E2E2E2E2E2E2E2E2E2E2E2E2E2E2E2E2E2E2E22D2DBEE2E2E2E2E2DCDCE2E2
310
E2E2E2E2E2E2E2E2E2E2DCDCE2E2E2E2E2E2E2E2E2E2E2DCDCE2F5E2E2E2E2E2E2DCE2E2E2E2E2E2E2E2E2E2DCE2E2E2E2E2E2E2E2E2E2E2E2F5F5F5F5F5F5F5F5F5F5F5F5F5F5F5F5F52D2DE2E2E2E2E2E2E2E2E2E2E2E2E2E2E2E2E2E2E2E2E2E2E2E2E2E2E2E2E2E2E2E2E2E2E2E2E2E2E2E2E2E2E2E2E2E2E2E2E2E2E2
310
E2E2E2E2E2E2E2E2E2E2E2E2E2E2E2E2E2E2E2E2E2E2E2E2E2E2E2E2E2E2E2E2E2E2E2E2E2E2E2E2E2E2E2E2E2E2E2E2E2E2E2E2E2E2E2E2E2E2E2E2E2E2E2E2E2E2E2E2E2E2E2E2E2E2E2E2E2E2E2E2E2E2E2E2E2E2E2E2E2E2E2E2E2E2E2E2E2E2E2E2E2E2E2E2E2E2E2E2E2E2E2E2E2E2E2E2E22D2DBEE2E2E2E2E2DCDC
310
E2E2E2E2E2E2E2E2E2E2E2F5DCDCE2E2E2E2E2E2E2E2E2E2E2DCDCE2F5E2E2E2E2E2E2DCE2E2E2E2E2E2E2E2E2E2DCE2E2E2E2E2E2E2E2E2E2E2E2F5F5F5F5F5F5F5F5F5F5F5F5F5F5F5F5F52D2DE2E2E2E2E2E2E2E2E2E2E2E2E2E2E2E2E2E2E2E2E2E2E2E2E2E2E2E2E2E2E2E2E2E2E2E2E2E2E2E2E2E2E2E2E2E2E2E2E2
310
E2E2E2E2E2E2E2E2E2E2E2E2E2E2E2E2E2E2E2E2E2E2E2E2E2E2E2E2E2E2E2E2E2E2E2E2E2E2E2E2E2E2E2E2E2E2E2E2E2E2E2E2E2E2E2E2E2E2E2E2E2E2E2E2E2E2E2E2E2E2E2E2E2E2E2E2E2E2E2E2E2E2E2E2E2E2E2E2E2E2E2E2E2E2E2E2E2E2E2E2E2E2E2E2E2E2E2E2E2E2E2E2E2E2E2E2E2E2E22D2DBEE2E2E2E2E2
310
DCDCE2E2E2E2E2E2E2E2E2E2F5F5DCDCF5E2E2E2E2E2E2E2E2E2E2DCDCE2F5E2E2E2E2E2E2DCE2E2E2E2E2E2E2E2E2E2DCE2E2E2E2E2E2E2E2E2E2E2E2BEF5F5F5F5F5F5F5F5F5F5F5F5F5F5F5F52D2DE2E2E2E2E2E2E2E2E2E2E2E2E2E2E2E2E2E2E2E2E2E2E2E2E2E2E2E2E2E2E2E2E2E2E2E2E2E2E2E2E2E2E2E2E2E2E2
310
E2E2E2E2E2E2E2E2E2E2E2E2E2E2E2E2E2E2E2E2E2E2E2E2E2E2E2E2E2E2E2E2E2E2E2E2E2E2E2E2E2E2E2E2E2E2E2E2E2E2E2E2E2E2E2E2E2E2E2E2E2E2E2E2E2E2E2E2E2E2E2E2E2E2E2E2E2E2E2E2E2E2E2E2E2E2E2E2E2E2E2E2E2E2E2E2E2E2E2E2E2E2E2E2E2E2E2E2E2E2E2E2E2E2E2E2E2E2E2E2E22D2DBEE2E2E2
310
E2E2DC28E2E2E2E2E2E2E2E2E2F5F5E2DCDCF5F5E2E2E2E2E2E2E2E2E228DCE2F5E2E2E2E2E2E228DCE2E2E2E2E2E2E2E2E2DCDCE2E2E2E2E2E2E2E2E2E2E2BEF5BEF5BEBEBEBEBEBEBEBEBEBEBEBEBE2D2DE2E2E2E2E2E2E2E2E2E2E2E2E2E2E2E2E2E2E2E2E2E2E2E2E2E2E2E2E2E2E2E2E2E2E2E2E2E2E2E2E2E2E2E2E2
310
E2E2E2E2E2E2E2E2E2E2E2E2E2E2E2E2E2E2E2E2E2E2E2E2E2E2E2E2E2E2E2E2E2E2E2E2E2E2E2E2E2E2E2E2E2E2E2E2E2E2E2E2E2E2E2E2E2E2E2E2E2E2E2E2E2E2E2E2E2E2E2E2E2E2E2E2E2E2E2E2E2E2E2E2E2E2E2E2E2E2E2E2E2E2E2E2E2E2E2E2E2E2E2E2E2E2E2E2E2E2E2E2E2E2E2E2E2E2E2E2E2E2E22D2DBEE2
310
E2E2E2E22828DCE2E2E2E2E2E2E2E2F5E2DC2828DCF5E2E2E2E2E2E2E2E2E22828E2F5E2E2E2E2E2E228DCE2E2E2E2E2E2E2E2E22828E2E2E2E2E2E2E2E2E2E2E2BEF5F5F5F5F5F5F5F5F5F5F5F5F5E2E2BE2D2DE2E2E2E2E2E2E2E2E2E2E2E2E2E2E2E2E2E2E2E2E2E2E2E2E2E2E2E2E2E2E2E2E2E2E2E2E2E2E2E2E2E2E2
310
E2E2E2E2E2E2E2E2E2E2E2E2E2E2E2E2E2E2E2E2E2E2E2E2E2E2E2E2E2E2E2E2E2E2E2E2E2E2E2E2E2E2E2E2E2E2E2E2E2E2E2E2E2E2E2E2E2E2E2E2E2E2E2E2E2E2E2E2E2E2E2E2E2E2E2E2E2E2E2E2E2E2E2E2E2E2E2E2E2E2E2E2E2E2E2E2E2E2E2E2E2E2E2E2E2E2E2E2E2E2E2E2E2E2E2E2E2E2E2E2E2E2E2E2E22D2D
310
BEE2E2E2E2E2DC28DCDCDCDCDCDCDCDCDCDCDC2828DC28DCDCDCDCDCDCDCDCDCDC2828F5F5F5E2E2E2E2E22828DCDCDCDCDCDCDCDCDC28DCE2E2E2E2E2E2E2E2E2E2E2F5F5F5F5F5F5F5F5F5F5F5F5F5F5F5F5F52D2DE2E2E2E2E2E2E2E2E2E2E2E2E2E2E2E2E2E2E2E2E2E2E2E2E2E2E2E2E2E2E2E2E2E2E2E2E2E2E2E2E2
310
E2E2E2E2E2E2E2E2E2E2E2E2E2E2E2E2E2E2E2E2E2E2E2E2E2E2E2E2E2E2E2E2E2E2E2E2E2E2E2E2E2E2E2E2E2E2E2E2E2E2E2E2E2E2E2E2E2E2E2E2E2E2E2E2E2E2E2E2E2E2E2E2E2E2E2E2E2E2E2E2E2E2E2E2E2E2E2E2E2E2E2E2E2E2E2E2E2E2E2E2E2E2E2E2E2E2E2E2E2E2E2E2E2E2E2E2E2E2E2E2E2E2E2E2E2E2E2
310
2D2DBEE2E2E2E2E2E2E2E2E2E2E2E2E2E2E2E2F5F5E2E2E2F5F5E2E2E2E2E2E2E2E2E2E2E2E2E2E2E2E2E2E2E2E2E2E2E2E2E2E2E2E2E2E2E2E2E2E2E2E2E2E2E2E2E2E2E2BEF5F5F5E2E2E2E2E2E2E2E2E2E2E2E2BE2D2DE2E2E2E2E2E2E2E2E2E2E2E2E2E2E2E2E2E2E2E2E2E2E2E2E2E2E2E2E2E2E2E2E2E2E2E2E2E2E2
310
E2E2E2E2E2E2E2E2E2E2E2E2E2E2E2E2E2E2E2E2E2E2E2E2E2E2E2E2E2E2E2E2E2E2E2E2E2E2E2E2E2E2E2E2E2E2E2E2E2E2E2E2E2E2E2E2E2E2E2E2E2E2E2E2E2E2E2E2E2E2E2E2E2E2E2E2E2E2E2E2E2E2E2E2E2E2E2E2E2E2E2E2E2E2E2E2E2E2E2E2E2E2E2E2E2E2E2E2E2E2E2E2E2E2E2E2E2E2E2E2E2E2E2E2E2E2E2
310
E2E22D2DBEE2E2E2E2E2E2E2E2E2E2E2E2E2E2E2E2E2F5F5F5F5F5F5E2E2E2E2E2E2E2E2E2E2E2E2E2E2E2E2E2E2E2E2E2E2E2E2E2E2E2E2E2E2E2E2E2E2E2E2E2E2E2E2E2E2E2BEBEBEBEBEBEBEBEBEBEBEBEBEBEBEBEBE2D2DE2E2E2E2E2E2E2E2E2E2E2E2E2E2E2E2E2E2E2E2E2E2E2E2E2E2E2E2E2E2E2E2E2E2E2E2E2
310
E2E2E2E2E2E2E2E2E2E2E2E2E2E2E2E2E2E2E2E2E2E2E2E2E2E2E2E2E2E2E2E2E2E2E2E2E2E2E2E2E2E2E2E2E2E2E2E2E2E2E2E2E2E2E2E2E2E2E2E2E2E2E2E2E2E2E2E2E2E2E2E2E2E2E2E2E2E2E2E2E2E2E2E2E2E2E2E2E2E2E2E2E2E2E2E2E2E2E2E2E2E2E2E2E2E2E2E2E2E2E2E2E2E2E2E2E2E2E2E2E2E2E2E2E2E2E2
310
E2E2E2E22D2DBEE2E2E2E2E2E2E2E2E2E2E2E2E2E2E2E2E2E2E2E2E2E2E2F5F5F5E2E2E2E2E2E2E2E2E2E2E2E2E2E2E2E2E2E2E2E2E2E2E2E2E2E2E2E2E2E2E2E2E2E2E2E2E2E2E2E2BEE2E2E2E2E2E2E2E2E2E2E2E2E2E2E2BE2D2DE2E2E2E2E2E2E2E2E2E2E2E2E2E2E2E2E2E2E2E2E2E2E2E2E2E2E2E2E2E2E2E2E2E2E2
310
E2E2E2E2E2E2E2E2E2E2E2E2E2E2E2E2E2E2E2E2E2E2E2E2E2E2E2E2E2E2E2E2E2E2E2E2E2E2E2E2E2E2E2E2E2E2E2E2E2E2E2E2E2E2E2E2E2E2E2E2E2E2E2E2E2E2E2E2E2E2E2E2E2E2E2E2E2E2E2E2E2E2E2E2E2E2E2E2E2E2E2E2E2E2E2E2E2E2E2E2E2E2E2E2E2E2E2E2E2E2E2E2E2E2E2E2E2E2E2E2E2E2E2E2E2E2E2
310
E2E2E2E2E2E22D2DBEE2E2E2E2E2E2E2E2E2E2E2E2E2E2E2E2E2E2E2E2E2E2E2E2E2E2E2E2E2E2E2E2E2E2E2E2E2E2E2E2E2E2E2E2E2E2E2E2E2E2E2E2E2E2E2E2E2E2E2E2E2E2E2E2E2E2BEE2E2E2E2E2E2E2E2E2E2E2E2E2E2E2BE2D2DE2E2E2E2E2E2E2E2E2E2E2E2E2E2E2E2E2E2E2E2E2E2E2E2E2E2E2E2E2E2E2E2E2
310
E2E2E2E2E2E2E2E2E2E2E2E2E2E2E2E2E2E2E2E2E2E2E2E2E2E2E2E2E2E2E2E2E2E2E2E2E2E2E2E2E2E2E2E2E2E2E2E2E2E2E2E2E2E2E2E2E2E2E2E2E2E2E2E2E2E2E2E2E2E2E2E2E2E2E2E2E2E2E2E2E2E2E2E2E2E2E2E2E2E2E2E2E2E2E2E2E2E2E2E2E2E2E2E2E2E2E2E2E2E2E2E2E2E2E2E2E2E2E2E2E2E2E2E2E2E2E2
310
E2E2E2E2E2E2E2E22D2DBEE2E2E2E2E2E2E2E2E2E2E2E2E2E2E2E2E2E2E2E2F5F5E2E2E2E2E2E2E2E2E2E2E2E2E2E2E2E2E2E2E2E2E2E2E2E2E2E2E2E2E2E2E2E2E2E2E2E2E2E2E2E2E2E2E2E2BEE2E2E2E2E2E2E2E2E2E2E2E2E2E2E2BE2D2DE2E2E2E2E2E2E2E2E2E2E2E2E2E2E2E2E2E2E2E2E2E2E2E2E2E2E2E2E2E2E2
310
E2E2E2E2E2E2E2E2E2E2E2E2E2E2E2E2E2E2E2E2E2E2E2E2E2E2E2E2E2E2E2E2E2E2E2E2E2E2E2E2E2E2E2E2E2E2E2E2E2E2E2E2E2E2E2E2E2E2E2E2E2E2E2E2E2E2E2E2E2E2E2E2E2E2E2E2E2E2E2E2E2E2E2E2E2E2E2E2E2E2E2E2E2E2E2E2E2E2E2E2E2E2E2E2E2E2E2E2E2E2E2E2E2E2E2E2E2E2E2E2E2E2E2E2E2E2E2
310
E2E2E2E2E2E2E2E2E2E22D2DBEE2E2E2E2E2E2E2E2E2E2E2E2E2E2E2E2E2E2E2E2F5E2E2E2E2E2E2E2E2E2E2E2E2E2E2E2E2E2E2E2E2E2E2E22D2D2D2D2DE2E2E2E2E2E2E2E2E2E2E2E2E2E2E2E2E2BEE2E2E2E2E2E2E2E2E2E2E2E2E2E2E2BE2D2DE2E2E2E2E2E2E2E2E2E2E2E2E2E2E2E2E2E2E2E2E2E2E2E2E2E2E2E2E2
310
E2E2E2E2E2E2E2E2E2E2E2E2E2E2E2E2E2E2E2E2E2E2E2E2E2E2E2E2E2E2E2E2E2E2E2E2E2E2E2E2E2E2E2E2E2E2E2E2E2E2E2E2E2E2E2E2E2E2E2E2E2E2E2E2E2E2E2E2E2E2E2E2E2E2E2E2E2E2E2E2E2E2E2E2E2E2E2E2E2E2E2E2E2E2E2E2E2E2E2E2E2E2E2E2E2E2E2E2E2E2E2E2E2E2E2E2E2E2E2E2E2E2E2E2E2E2E2
310
E2E2E2E2E2E2E2E2E2E2E2E22D2DBEE2E2E2E2E2F5F5F5F5F5F5F5F5F5F5F5F5F5F5F5F5F5F5F5F5F5F5F5F5F5F5F5F5F5E2E2E2E2E2E2E2E2E2E22D2D2D2DE2E2E2E2E2E2E2E2E2E2E2E2E2E2E2E2E2E2BEE2E2E2E2E2E2E2E2E2E2E2E2E2E2E2BE2D2DE2E2E2E2E2E2E2E2E2E2E2E2E2E2E2E2E2E2E2E2E2E2E2E2E2E2E2
310
E2E2E2E2E2E2E2E2E2E2E2E2E2E2E2E2E2E2E2E2E2E2E2E2E2E2E2E2E2E2E2E2E2E2E2E2E2E2E2E2E2E2E2E2E2E2E2E2E2E2E2E2E2E2E2E2E2E2E2E2E2E2E2E2E2E2E2E2E2E2E2E2E2E2E2E2E2E2E2E2E2E2E2E2E2E2E2E2E2E2E2E2E2E2E2E2E2E2E2E2E2E2E2E2E2E2E2E2E2E2E2E2E2E2E2E2E2E2E2E2E2E2E2E2E2E2E2
310
E2E2E2E2E2E2E2E2E2E2E2E2E2E22D2DBEE2E2E2E2E2F5E2E2E2E2E2E2E2E2E2E2E2E2E2F5E2E2E2E2E2E2E2E2E2E2E2E2E2F5E2E2E2E2E2E2E2E22D2D2DE2E2E22D2DE2E2E2E2E2E2E2E2E2E2E2E2E2E2E2E2BEBEBEBEBEBEE2E2E2E2E2E2E2E2E2E2BE2D2DE2E2E2E2E2E2E2E2E2E2E2E2E2E2E2E2E2E2E2E2E2E2E2E2E2
310
E2E2E2E2E2E2E2E2E2E2E2E2E2E2E2E2E2E2E2E2E2E2E2E2E2E2E2E2E2E2E2E2E2E2E2E2E2E2E2E2E2E2E2E2E2E2E2E2E2E2E2E2E2E2E2E2E2E2E2E2E2E2E2E2E2E2E2E2E2E2E2E2E2E2E2E2E2E2E2E2E2E2E2E2E2E2E2E2E2E2E2E2E2E2E2E2E2E2E2E2E2E2E2E2E2E2E2E2E2E2E2E2E2E2E2E2E2E2E2E2E2E2E2E2E2E2E2
310
E2E2E2E2E2E2E2E2E2E2E2E2E2E2E2E22D2DBEE2E2E2E2E2F5E2E2E2E2E2E2E2E2E2E2E2E2E2F5E2E2E2E2E2E2E2E2E2E2E2E2E2F5E2E2E2E2E2E2E22D2DE2E2E2E2E2E2E22D2DE2E2E2E2E2E2E2E2E2E2E2E2E2E2BEBEBEBEBEBEE2E2E2E2E2E2E2E2E2E2BE2D2DE2E2E2E2E2E2E2E2E2E2E2E2E2E2E2E2E2E2E2E2E2E2E2
310
E2E2E2E2E2E2E2E2E2E2E2E2E2E2E2E2E2E2E2E2E2E2E2E2E2E2E2E2E2E2E2E2E2E2E2E2E2E2E2E2E2E2E2E2E2E2E2E2E2E2E2E2E2E2E2E2E2E2E2E2E2E2E2E2E2E2E2E2E2E2E2E2E2E2E2E2E2E2E2E2E2E2E2E2E2E2E2E2E2E2E2E2E2E2E2E2E2E2E2E2E2E2E2E2E2E2E2E2E2E2E2E2E2E2E2E2E2E2E2E2E2E2E2E2E2E2E2
310
E2E2E2E2E2E2E2E2E2E2E2E2E2E2E2E2E2E22D2DBEE2E2E2E2E2F528DCDCDCDCDCDCDCDCDCDCDCDCF528DCDCDCDCDCDCDCDCDCDCDCDCF5F5F5E2E2E2E22D2D2D2D2D2D2D2D2D2DE22D2DE2E2E2E2E2E2E2E2E2E2E2E2E2F5F5F5F5F5F5F5F5F5F5F5F5F5F5F5F5F52D2DE2E2E2E2E2E2E2E2E2E2E2E2E2E2E2E2E2E2E2E2E2
310
E2E2E2E2E2E2E2E2E2E2E2E2E2E2E2E2E2E2E2E2E2E2E2E2E2E2E2E2E2E2E2E2E2E2E2E2E2E2E2E2E2E2E2E2E2E2E2E2E2E2E2E2E2E2E2E2E2E2E2E2E2E2E2E2E2E2E2E2E2E2E2E2E2E2E2E2E2E2E2E2E2E2E2E2E2E2E2E2E2E2E2E2E2E2E2E2E2E2E2E2E2E2E2E2E2E2E2E2E2E2E2E2E2E2E2E2E2E2E2E2E2E2E2E2E2E2E2
310
E2E2E2E2E2E2E2E2E2E2E2E2E2E2E2E2E2E2E2E22D2DBEE2E2E2E2E2DCDCDCDCDCDCDCDCDCDCDCDCDCDCDCDCDCDCDCDCDCDCDCDCDCDCDCDCDCE2F5E2E2E22D2DE22DE22DE2E22DE22DE2E22DE2E2E2E2E2E2E2E2E2E2E2E2E2BEF5F5F5E2E2E2E2E2E2E2E2E2E2E2E2BE2D2DE2E2E2E2E2E2E2E2E2E2E2E2E2E2E2E2E2E2E2
310
E2E2E2E2E2E2E2E2E2E2E2E2E2E2E2E2E2E2E2E2E2E2E2E2E2E2E2E2E2E2E2E2E2E2E2E2E2E2E2E2E2E2E2E2E2E2E2E2E2E2E2E2E2E2E2E2E2E2E2E2E2E2E2E2E2E2E2E2E2E2E2E2E2E2E2E2E2E2E2E2E2E2E2E2E2E2E2E2E2E2E2E2E2E2E2E2E2E2E2E2E2E2E2E2E2E2E2E2E2E2E2E2E2E2E2E2E2E2E2E2E2E2E2E2E2E2E2
310
E2E2E2E2E2E2E2E2E2E2E2E2E2E2E2E2E2E2E2E2E2E22D2DBEE2E2E2E2E2DCDCE2E2E2E2E2DCE2E2E2DCDCDCDCDCE2E2E2E2E2DCE2E2E2DCDCDCDCE2F5E2E2E22DE2E22DE22D2D2D2D2D2DE2E22DE2E2E2E2E2E2E2E2E2E2E2E2E2BEF5F5F5F5E2E2E2E2E2E2E2E2E2E2E2BE2D2DE2E2E2E2E2E2E2E2E2E2E2E2E2E2E2E2E2
310
E2E2E2E2E2E2E2E2E2E2E2E2E2E2E2E2E2E2E2E2E2E2E2E2E2E2E2E2E2E2E2E2E2E2E2E2E2E2E2E2E2E2E2E2E2E2E2E2E2E2E2E2E2E2E2E2E2E2E2E2E2E2E2E2E2E2E2E2E2E2E2E2E2E2E2E2E2E2E2E2E2E2E2E2E2E2E2E2E2E2E2E2E2E2E2E2E2E2E2E2E2E2E2E2E2E2E2E2E2E2E2E2E2E2E2E2E2E2E2E2E2E2E2E2E2E2E2
310
E2E2E2E2E2E2E2E2E2E2E2E2E2E2E2E2E2E2E2E2E2E2E2E22D2DBEE2E2E2E2E2DCDCE2E2E2E2E2DCE2E2E2E2DCDCDCDCE2E2E2E2E2DCE2E2E2DCDCDCDCE2F5E2E2E22D2D2D2D2D2D2D2D2D2D2DE22D2D2DE2E2E2E2E2E2E2E2E2E2E2E2BEF5F5F5F5F5F5E2E2E2E2E2E2E2F5E2BE2D2DE2E2E2E2E2E2E2E2E2E2E2E2E2E2E2
310
E2E2E2E2E2E2E2E2E2E2E2E2E2E2E2E2E2E2E2E2E2E2E2E2E2E2E2E2E2E2E2E2E2E2E2E2E2E2E2E2E2E2E2E2E2E2E2E2E2E2E2E2E2E2E2E2E2E2E2E2E2E2E2E2E2E2E2E2E2E2E2E2E2E2E2E2E2E2E2E2E2E2E2E2E2E2E2E2E2E2E2E2E2E2E2E2E2E2E2E2E2E2E2E2E2E2E2E2E2E2E2E2E2E2E2E2E2E2E2E2E2E2E2E2E2E2E2
310
E2E2E2E2E2E2E2E2E2E2E2E2E2E2E2E2E2E2E2E2E2E2E2E2E2E22D2DBEE2E2E2E2E2DCDCE2E2E2E2E2DCE2E2E2E2E2DCDC2DE2E2E2E2E2DCE2E2E2E2DCDCDCE2F5E2E2E22D2D2D2D2D2D2D2DE22D2D2D2DE22DE2E2E2E2E2E2E2E2E2E2E2E2BEF5F5F5F5F5F5F5E2E2E2E2E2E2E2E2BE2D2DE2E2E2E2E2E2E2E2E2E2E2E2E2
310
E2E2E2E2E2E2E2E2E2E2E2E2E2E2E2E2E2E2E2E2E2E2E2E2E2E2E2E2E2E2E2E2E2E2E2E2E2E2E2E2E2E2E2E2E2E2E2E2E2E2E2E2E2E2E2E2E2E2E2E2E2E2E2E2E2E2E2E2E2E2E2E2E2E2E2E2E2E2E2E2E2E2E2E2E2E2E2E2E2E2E2E2E2E2E2E2E2E2E2E2E2E2E2E2E2E2E2E2E2E2E2E2E2E2E2E2E2E2E2E2E2E2E2E2E2E2E2
310
E2E2E2E2E2E2E2E2E2E2E2E2E2E2E2E2E2E2E2E2E2E2E2E2E2E2E2E22D2DBEE2E2E2E2E2DCDC2D2D2D2D2DDCE2E2E2E2E2DCDCDC2D2D2D2D2DDCE2E2E2E2E2DCDCF5F5E2E2E22D2D2DE22D2D2D2D2D2DE2E22D2D2DE2E2E20FF5F5F5F50F0F0F0FBEF5F5F5F5E2E2E2E2E2E2E2E2E2F5E2BE2D2DE2E2E2E2E2E2E2E2E2E2E2
310
E2E2E2E2E2E2E2E2E2E2E2E2E2E2E2E2E2E2E2E2E2E2E2E2E2E2E2E2E2E2E2E2E2E2E2E2E2E2E2E2E2E2E2E2E2E2E2E2E2E2E2E2E2E2E2E2E2E2E2E2E2E2E2E2E2E2E2E2E2E2E2E2E2E2E2E2E2E2E2E2E2E2E2E2E2E2E2E2E2E2E2E2E2E2E2E2E2E2E2E2E2E2E2E2E2E2E2E2E2E2E2E2E2E2E2E2E2E2E2E2E2E2E2E2E2E2E2
310
E2E2E2E2E2E2E2E2E2E2E2E2E2E2E2E2E2E2E2E2E2E2E2E2E2E2E2E2E2E22D2DBEE2E2E2E2E2DCDCE2E2E2E2E2DCE2E2E2E2E2DCDCDCE2E2E2E2E2DCE2E2E2E2E2DCDCE2F5E2E2E22D2D2D2D2D2D2D2D2DE2E2E22D2D2DE2E2E2F5F5F5F5F5F5F5F5F5F5BEBEBEBEBEE2E2E2E2E2E2E2E2E2E2BE2D2DE2E2E2E2E2E2E2E2E2
310
E2E2E2E2E2E2E2E2E2E2E2E2E2E2E2E2E2E2E2E2E2E2E2E2E2E2E2E2E2E2E2E2E2E2E2E2E2E2E2E2E2E2E2E2E2E2E2E2E2E2E2E2E2E2E2E2E2E2E2E2E2E2E2E2E2E2E2E2E2E2E2E2E2E2E2E2E2E2E2E2E2E2E2E2E2E2E2E2E2E2E2E2E2E2E2E2E2E2E2E2E2E2E2E2E2E2E2E2E2E2E2E2E2E2E2E2E2E2E2E2E2E2E2E2E2E2E2
310
E2E2E2E2E2E2E2E2E2E2E2E2E2E2E2E2E2E2E2E2E2E2E2E2E2E2E2E2E2E2E2E22D2DBEE2E2E2E2E2DC2D2D2DE2E2E2DCE2E2E2E2E2DCDCDCE2E2E2E2E2DCE2E2E2E2E2DCDCE2F5E2E2E22D2DE2E2E22DE22D2DE22D2D2D2D2D2D2D2D0FE2E2E2E2E2E2E2E2BEBEBEBEBEBEE2E2E2E2E2E2E2E2E2E2BE2D2DE2E2E2E2E2E2E2
310
E2E2E2E2E2E2E2E2E2E2E2E2E2E2E2E2E2E2E2E2E2E2E2E2E2E2E2E2E2E2E2E2E2E2E2E2E2E2E2E2E2E2E2E2E2E2E2E2E2E2E2E2E2E2E2E2E2E2E2E2E2E2E2E2E2E2E2E2E2E2E2E2E2E2E2E2E2E2E2E2E2E2E2E2E2E2E2E2E2E2E2E2E2E2E2E2E2E2E2E2E2E2E2E2E2E2E2E2E2E2E2E2E2E2E2E2E2E2E2E2E2E2E2E2E2E2E2
310
E2E2E2E2E2E2E2E2E2E2E2E2E2E2E2E2E2E2E2E2E2E2E2E2E2E2E2E2E2E2E2E2E2E22D2DBEE2E2E2E22D2DDCDC2D2DE2E2DCE2E2E2E2E2DCDCDCDCE2E2E2E2DCE2E2E2E2E2DCDCE2F5E2E2E2E22DE2E2E2E2E22DE2E22D2D2D2D2D2D2DE2F5F5F5F5F5F5F5F5F5F5F5F5F5F5F5F5F5F5F5F5F5F5F5F5F5F52D2DE2E2E2E2E2
310
E2E2E2E2E2E2E2E2E2E2E2E2E2E2E2E2E2E2E2E2E2E2E2E2E2E2E2E2E2E2E2E2E2E2E2E2E2E2E2E2E2E2E2E2E2E2E2E2E2E2E2E2E2E2E2E2E2E2E2E2E2E2E2E2E2E2E2E2E2E2E2E2E2E2E2E2E2E2E2E2E2E2E2E2E2E2E2E2E2E2E2E2E2E2E2E2E2E2E2E2E2E2E2E2E2E2E2E2E2E2E2E2E2E2E2E2E2E2E2E2E2E2E2E2E2E2E2
310
E2E2E2E2E2E2E2E2E2E2E2E2E2E2E2E2E2E2E2E2E2E2E2E2E2E2E2E2E2E2E2E2E2E2E2E22D2DBEE2E2E2E22DDCDCDCDC2D2DE2DCE2E2E2E2E2DCDCDCDCDCE2E2E2DCE2E2E2E2E2DCDCE2F5E2E2E2E22D2DE2E2E2E22DE2E2E2E2E2E2E2E2E2E2F5F5F5F5F5F5F5F5F5F5F5F5F5F5E2E2E2E2E2E2E2F5F5F5E2BE2D2DE2E2E2
310
E2E2E2E2E2E2E2E2E2E2E2E2E2E2E2E2E2E2E2E2E2E2E2E2E2E2E2E2E2E2E2E2E2E2E2E2E2E2E2E2E2E2E2E2E2E2E2E2E2E2E2E2E2E2E2E2E2E2E2E2E2E2E2E2E2E2E2E2E2E2E2E2E2E2E2E2E2E2E2E2E2E2E2E2E2E2E2E2E2E2E2E2E2E2E2E2E2E2E2E2E2E2E2E2E2E2E2E2E2E2E2E2E2E2E2E2E2E2E2E2E2E2E2E2E2E2E2
310
E2E2E2E2E2E2E2E2E2E2E2E2E2E2E2E2E2E2E2E2E2E2E2E2E2E2E2E2E2E2E2E2E2E2E2E2E2E22D2DBEE2E2E2E22DDCDCDCDCDC2DE2DCE2E2E2E2E2DCDCDCDCDCDCE2E2DCE2E2E2E2E2DCDCE2F5E2E2E2E2E22D2D2DE2E2E2E22D2DE2E2E2E2E2E2E2F5F5F5F5F5F5F5F5F5F5E2E2E2E2E2E2E2E2E2E2E2E2E2E2E2BE2D2DE2
310
E2E2E2E2E2E2E2E2E2E2E2E2E2E2E2E2E2E2E2E2E2E2E2E2E2E2E2E2E2E2E2E2E2E2E2E2E2E2E2E2E2E2E2E2E2E2E2E2E2E2E2E2E2E2E2E2E2E2E2E2E2E2E2E2E2E2E2E2E2E2E2E2E2E2E2E2E2E2E2E2E2E2E2E2E2E2E2E2E2E2E2E2E2E2E2E2E2E2E2E2E2E2E2E2E2E2E2E2E2E2E2E2E2E2E2E2E2E2E2E2E2E2E2E2E2E2E2
310
E2E2E2E2E2E2E2E2E2E2E2E2E2E2E2E2E2E2E2E2E2E2E2E2E2E2E2E2E2E2E2E2E2E2E2E2E2E2E2E22D2DBEE2E2E2E22D28DCF5DC2D2DDCDCDCDCDCDCDCDCDCF528DCDCDCDCDCDCDCDCDC2828DCF5F5E2E2E2E2E2E2E22D2D2D2D2D2DE2E2E2E2E2E2E2E20FF5F5F5F5F5F5F5F5BEE2E2E2E2E2E2E2E2E2E2E2E2E2E2E2BE2D
310
2DE2E2E2E2E2E2E2E2E2E2E2E2E2E2E2E2E2E2E2E2E2E2E2E2E2E2E2E2E2E2E2E2E2E2E2E2E2E2E2E2E2E2E2E2E2E2E2E2E2E2E2E2E2E2E2E2E2E2E2E2E2E2E2E2E2E2E2E2E2E2E2E2E2E2E2E2E2E2E2E2E2E2E2E2E2E2E2E2E2E2E2E2E2E2E2E2E2E2E2E2E2E2E2E2E2E2E2E2E2E2E2E2E2E2E2E2E2E2E2E2E2E2E2E2E2E2
310
E2E2E2E2E2E2E2E2E2E2E2E2E2E2E2E2E2E2E2E2E2E2E2E2E2E2E2E2E2E2E2E2E2E2E2E2E2E2E2E2E2E22D2DBEE2E2E2E22D2DDCF52D2DE2E2E2E2E2E2E2DCDCDCF528F5E2E2E2E2E2E2E2E22828DCE2E2E2E2E2E2E2E2E2E2E2E2E2E2E2E2E2E2E2E2E2E2E20FF5F5F5F5F5F5F5F5BEE2E2E2E2E2E2E2E2E2E2E2E2E2E2E2
310
BE2D2DE2E2E2E2E2E2E2E2E2E2E2E2E2E2E2E2E2E2E2E2E2E2E2E2E2E2E2E2E2E2E2E2E2E2E2E2E2E2E2E2E2E2E2E2E2E2E2E2E2E2E2E2E2E2E2E2E2E2E2E2E2E2E2E2E2E2E2E2E2E2E2E2E2E2E2E2E2E2E2E2E2E2E2E2E2E2E2E2E2E2E2E2E2E2E2E2E2E2E2E2E2E2E2E2E2E2E2E2E2E2E2E2E2E2E2E2E2E2E2E2E2E2E2E2
310
E2E2E2E2E2E2E2E2E2E2E2E2E2E2E2E2E2E2E2E2E2E2E2E2E2E2E2E2E2E2E2E2E2E2E2E2E2E2E2E2E2E2E2E22D2DBEE2E2E2E2E22DF52D2DE2E2E2E2E2E2E2E2E2E2E2F5E2E22D2D2DE2E2E2E2E2E2E2E2E2E2E2E2E2E2E2E2E2E2E2E2E2E2E2E2E2E2E2E2E2E2E20FE2E2E2E2E2E2E2E2BEE2E2E2E2E2E2E2E2E2E2E2E2E2
310
E2E2BE2D2DE2E2E2E2E2E2E2E2E2E2E2E2E2E2E2E2E2E2E2E2E2E2E2E2E2E2E2E2E2E2E2E2E2E2E2E2E2E2E2E2E2E2E2E2E2E2E2E2E2E2E2E2E2E2E2E2E2E2E2E2E2E2E2E2E2E2E2E2E2E2E2E2E2E2E2E2E2E2E2E2E2E2E2E2E2E2E2E2E2E2E2E2E2E2E2E2E2E2E2E2E2E2E2E2E2E2E2E2E2E2E2E2E2E2E2E2E2E2E2E2E2E2
310
E2E2E2E2E2E2E2E2E2E2E2E2E2E2E2E2E2E2E2E2E2E2E2E2E2E2E2E2E2E2E2E2E2E2E2E2E2E2E2E2E2E2E2E2E2E22D2DBEE2E2E2E2E2E2F5E2E22D2D2D2DE2E2E2E2E2E2F5E2E2E2E2F5F5F5F5F5F5F5F5E2E2E2E2E2E2E2E2E2E2E2E2E2E2E2E2E2E2E2E2E2E2E2E2E20FF5F5F5F5F5F5F5F5BEBEBEBEBEBEE2E2E2E2E2E2
310
E2E2E2E2BE2D2DE2E2E2E2E2E2E2E2E2E2E2E2E2E2E2E2E2E2E2E2E2E2E2E2E2E2E2E2E2E2E2E2E2E2E2E2E2E2E2E2E2E2E2E2E2E2E2E2E2E2E2E2E2E2E2E2E2E2E2E2E2E2E2E2E2E2E2E2E2E2E2E2E2E2E2E2E2E2E2E2E2E2E2E2E2E2E2E2E2E2E2E2E2E2E2E2E2E2E2E2E2E2E2E2E2E2E2E2E2E2E2E2E2E2E2E2E2E2E2E2
310
E2E2E2E2E2E2E2E2E2E2E2E2E2E2E2E2E2E2E2E2E2E2E2E2E2E2E2E2E2E2E2E2E2E2E2E2E2E2E2E2E2E2E2E2E2E2E2E22D2DBEE2E2E2E2F5F5E2E2E2E2E2E2E2E2E2E2E2E2F5F5F5E2E2E2E2E2E2E2E2E2E2E2E2E2E2E2E2E2E2E2E2E2E2E2E2E2E2E2E2E2E2E2E2E2E2E2E20FF5F5F5F5F5F5F5F5BEBEBEBEBEBEBEBEBEBE
310
BEBEBEBEBEBEBE2D2DE2E2E2E2E2E2E2E2E2E2E2E2E2E2E2E2E2E2E2E2E2E2E2E2E2E2E2E2E2E2E2E2E2E2E2E2E2E2E2E2E2E2E2E2E2E2E2E2E2E2E2E2E2E2E2E2E2E2E2E2E2E2E2E2E2E2E2E2E2E2E2E2E2E2E2E2E2E2E2E2E2E2E2E2E2E2E2E2E2E2E2E2E2E2E2E2E2E2E2E2E2E2E2E2E2E2E2E2E2E2E2E2E2E2E2E2E2E2
310
E2E2E2E2E2E2E2E2E2E2E2E2E2E2E2E2E2E2E2E2E2E2E2E2E2E2E2E2E2E2E2E2E2E2E2E2E2E2E2E2E2E2E2E2E2E2E2E2E2E22D2DBEE2E2E2E2F5F5F5E2E2E2E2E2E2E2E2E2E2E2F5E2F5E2E2E2E2E2E2E2E2E2E2E2E2E2E2E2E2E2E2E2E2E2E2E2E2E2E2E2E2E2E2E2E2E2E2E2E20FF5F5F5F5F5F5F5F5F5F5F5F5F5F5F5F5
310
F5F5F5F5F5F5F5E2BE2D2DE2E2E2E2E2E2E2E2E2E2E2E2E2E2E2E2E2E2E2E2E2E2E2E2E2E2E2E2E2E2E2E2E2E2E2E2E2E2E2E2E2E2E2E2E2E2E2E2E2E2E2E2E2E2E2E2E2E2E2E2E2E2E2E2E2E2E2E2E2E2E2E2E2E2E2E2E2E2E2E2E2E2E2E2E2E2E2E2E2E2E2E2E2E2E2E2E2E2E2E2E2E2E2E2E2E2E2E2E2E2E2E2E2E2E2E2
310
E2E2E2E2E2E2E2E2E2E2E2E2E2E2E2E2E2E2E2E2E2E2E2E2E2E2E2E2E2E2E2E2E2E2E2E2E2E2E2E2E2E2E2E2E2E2E2E2E2E2E2E22D2DBEE2E2E2E2F5F5E2E2E2E2E2E2E2E2E2E2E2E2F5F5E2E2E2E2E2E2E2E2E2E2E2E2E2E2E2E2E2E2E2E2E2E2E2E2E2E2E2E2E2E2E2E2E2E2E2E2E22D2D2DF5F5F5F52D2DF5F5F5F5F5F5
310
F5F5F5F5F5F5F5F5F5E2BE2D2DE2E2E2E2E2E2E2E2E2E2E2E2E2E2E2E2E2E2E2E2E2E2E2E2E2E2E2E2E2E2E2E2E2E2E2E2E2E2E2E2E2E2E2E2E2E2E2E2E2E2E2E2E2E2E2E2E2E2E2E2E2E2E2E2E2E2E2E2E2E2E2E2E2E2E2E2E2E2E2E2E2E2E2E2E2E2E2E2E2E2E2E2E2E2E2E2E2E2E2E2E2E2E2E2E2E2E2E2E2E2E2E2E2E2
310
E2E2E2E2E2E2E2E2E2E2E2E2E2E2E2E2E2E2E2E2E2E2E2E2E2E2E2E2E2E2E2E2E2E2E2E2E2E2E2E2E2E2E2E2E2E2E2E2E2E2E2E2E2E22D2DBEE2E2E2E2E2E2E2E2E2E2E2E2E2E2E2E2E2E2E2E2E2E2E2E2E2E2E2E2E2E2E2E2E2E2E2E2E2E2E2E2E2E2E2E2E2E2E2E2E2E2E2E2E2E2E2E2E20FE2E22D2D2D2DE2E2BEE2E2E2
310
E2E2E2E2E2E2E2E2E2E2E2E2BE2D2DE2E2E2E2E2E2E2E2E2E2E2E2E2E2E2E2E2E2E2E2E2E2E2E2E2E2E2E2E2E2E2E2E2E2E2E2E2E2E2E2E2E2E2E2E2E2E2E2E2E2E2E2E2E2E2E2E2E2E2E2E2E2E2E2E2E2E2E2E2E2E2E2E2E2E2E2E2E2E2E2E2E2E2E2E2E2E2E2E2E2E2E2E2E2E2E2E2E2E2E2E2E2E2E2E2E2E2E2E2E2E2E2
310
E2E2E2E2E2E2E2E2E2E2E2E2E2E2E2E2E2E2E2E2E2E2E2E2E2E2E2E2E2E2E2E2E2E2E2E2E2E2E2E2E2E2E2E2E2E2E2E2E2E2E2E2E2E2E2E22D2DBEBEBEBEBEBEBEBEBEBEBEBEBEBEBEBEBEBEBEBEBEBEBEBEBEBEBEBEBEBEBEBEBEBEBEBEBEBEBEBEBEBEBEBEBEBEBEBEBEBEBEBEBEBEBEBEBEBEBEBEBEBEBEBEBEBEBEBEBE
310
BEBEBEBEBEBEBEBEBEBEBEBEBEBEBE2D2DE2E2E2E2E2E2E2E2E2E2E2E2E2E2E2E2E2E2E2E2E2E2E2E2E2E2E2E2E2E2E2E2E2E2E2E2E2E2E2E2E2E2E2E2E2E2E2E2E2E2E2E2E2E2E2E2E2E2E2E2E2E2E2E2E2E2E2E2E2E2E2E2E2E2E2E2E2E2E2E2E2E2E2E2E2E2E2E2E2E2E2E2E2E2E2E2E2E2E2E2E2E2E2E2E2E2E2E2E2E2
310
E2E2E2E2E2E2E2E2E2E2E2E2E2E2E2E2E2E2E2E2E2E2E2E2E2E2E2E2E2E2E2E2E2E2E2E2E2E2E2E2E2E2E2E2E2E2E2E2E2E2E2E2E2E2E2E2E2E22D2D2D2D2D2D2D2D2D2D2D2D2D2D2D2D2D2D2D2D2D2D2D2D2D2D2D2D2D2D2D2D2D2D2D2D2D2D2D2D2D2D2D2D2D2D2D2D2D2D2D2D2D2D2D2D2D2D2D2D2D2D2D2D2D2D2D2D2D
310
2D2D2D2D2D2D2D2D2D2D2D2D2D2D2D2D2D2D2DE2E2E2E2E2E2E2E2E2E2E2E2E2E2E2E2E2E2E2E2E2E2E2E2E2E2E2E2E2E2E2E2E2E2E2E2E2E2E2E2E2E2E2E2E2E2E2E2E2E2E2E2E2E2E2E2E2E2E2E2E2E2E2E2E2E2E2E2E2E2E2E2E2E2E2E2E2E2E2E2E2E2E2E2E2E2E2E2E2E2E2E2E2E2E2E2E2E2E2E2E2E2E2E2E2E2E2E2
310
E2E2E2E2E2E2E2E2E2E2E2E2E2E2E2E2E2E2E2E2E2E2E2E2E2E2E2E2E2E2E2E2E2E2E2E2E2E2E2E2E2E2E2E2E2E2E2E2E2E2E2E2E2E2E2E2E2E2E2E22D2D2D2D2D2D2D2D2D2D2D2D2D2D2D2D2D2D2D2D2D2D2D2D2D2D2D2D2D2D2D2D2D2D2D2D2D2D2D2D2D2D2D2D2D2D2D2D2D2D2D2D2D2D2D2D2D2D2D2D2D2D2D2D2D2D2D
310
2D2D2D2D2D2D2D2D2D2D2D2D2D2D2D2D2D2D2D2D2DE2E2E2E2E2E2E2E2E2E2E2E2E2E2E2E2E2E2E2E2E2E2E2E2E2E2E2E2E2E2E2E2E2E2E2E2E2E2E2E2E2E2E2E2E2E2E2E2E2E2E2E2E2E2E2E2E2E2E2E2E2E2E2E2E2E2E2E2E2E2E2E2E2E2E2E2E2E2E2E2E2E2E2E2E2E2E2E2E2E2E2E2E2E2E2E2E2E2E2E2E2E2E2E2E2E2
310
E2E2E2E2E2E2E2E2E2E2E2E2E2E2E2E2E2E2E2E2E2E2E2E2E2E2E2E2E2E2E2E2E2E2E2E2E2E2E2E2E2E2E2E2E2E2E2E2E2E2E2E2E2E2E2E2E2E2E2E2E2E2E2E2E2E2E2E2E2E2E2E2E2E2E2E2E2E2E2E2E2E2E2E2E2E2E2E2E2E2E2E2E2E2E2E2E2E2E2E2E2E2E2E2E2E2E2E2E2E2E2E2E2E2E2E2E2E2E2E2E2E2E2E2E2E2E2
310
E2E2E2E2E2E2E2E2E2E2E2E2E2E2E2E2E2E2E2E2E2E2E2E2E2E2E2E2E2E2E2E2E2E2E2E2E2E2E2E2E2E2E2E2E2E2E2E2E2E2E2E2E2E2E2E2E2E2E2E2E2E2E2E2E2E2E2E2E2E2E2E2E2E2E2E2E2E2E2E2E2E2E2E2E2E2E2E2E2E2E2E2E2E2E2E2E2E2E2E2E2E2E2E2E2E2E2E2E2E2E2E2E2E2E2E2E2E2E2E2E2E2E2E2E2E2E2
310
E2E2E2E2E2E2E2E2E2E2E2E2E2E2E2E2E2E2E2E2E2E2E2E2E2E2E2E2E2E2E2E2E2E2E2E2E2E2E2E2E2E2E2E2E2E2E2E2E2E2E2E2E2E2E2E2E2E2E2E2E2E2E2E2E2E2E2E2E2E2E2E2E2E2E2E2E2E2E2E2E2E2E2E2E2E2E2E2E2E2E2E2E2E2E2E2E2E2E2E2E2E2E2E2E2E2E2E2E2E2E2E2E2E2E2E2E2E2E2E2E2E2E2E2E2E2E2
310
E2E2E2E2E2E2E2E2E2E2E2E2E2E2E2E2E2E2E2E2E2E2E2E2E2E2E2E2E2E2E2E2E2E2E2E2E2E2E2E2E2E2E2E2E2E2E2E2E2E2E2E2E2E2E2E2E2E2E2E2E2E2E2E2E2E2E2E2E2E2E2E2E2E2E2E2E2E2E2E2E2E2E2E2E2E2E2E2E2E2E2E2E2E2E2E2E2E2E2E2E2E2E2E2E2E2E2E2E2E2E2E2E2E2E2E2E2E2E2E2E2E2E2E2E2E2E2
310
E2E2E2E2E2E2E2E2E2E2E2E2E2E2E2E2E2E2E2E2E2E2E2E2E2E2E2E2E2E2E2E2E2E2E2E2E2E2E2E2E2E2E2E2E2E2E2E2E2E2E2E2E2E2E2E2E2E2E2E2E2E2E2E2E2E2E2E2E2E2E2E2E2E2E2E2E2E2E2E2E2E2E2E2E2E2E2E2E2E2E2E2E2E2E2E2E2E2E2E2E2E2E2E2E2E2E2E2E2E2E2E2E2E2E2E2E2E2E2E2E2E2E2E2E2E2E2
310
E2E2E2E2E2E2E2E2E2E2E2E2E2E2E2E2E2E2E2E2E2E2E2E2E2E2E2E2E2E2E2E2E2E2E2E2E2E2E2E2E2E2E2E2E2E2E2E2E2E2E2E2E2E2E2E2E2E2E2E2E2E2E2E2E2E2E2E2E2E2E2E2E2E2E2E2E2E2E2E2E2E2E2E2E2E2E2E2E2E2E2E2E2E2E2E2E2E2E2E2E2E2E2E2E2E2E2E2E2E2E2E2E2E2E2E2E2E2E2E2E2E2E2E2E2E2E2
310
E2E2E2E2E2E2E2E2E2E2E2E2E2E2E2E2E2E2E2E2E2E2E2E2E2E2E2E2E2E2E2E2E2E2E2E2E2E2E2E2E2E2E2E2E2E2E2E2E2E2E2E2E2E2E2E2E2E2E2E2E2E2E2E2E2E2E2E2E2E2E2E2E2E2E2E2E2E2E2E2E2E2E2E2E2E2E2E2E2E2E2E2E2E2E2E2E2E2E2E2E2E2E2E2E2E2E2E2E2E2E2E2E2E2E2E2E2E2E2E2E2E2E2E2E2E2E2
310
E2E2E2E2E2E2E2E2E2E2E2E2E2E2E2E2E2E2E2E2E2E2E2E2E2E2E2E2E2E2E2E2E2E2E2E2E2E2E2E2E2E2E2E2E2E2E2E2E2E2E2E2E2E2E2E2E2E2E2E2E2E2E2E2E2E2E2E2E2E2E2E2E2E2E2E2E2E2E2E2E2E2E2E2E2E2E2E2E2E2E2E2E2E2E2E2E2E2E2E2E2E2E2E2E2E2E2E2E2E2E2E2E2E2E2E2E2E2E2E2E2E2E2E2E2E2E2
310
E2E2E2E2E2E2E2E2E2E2E2E2E2E2E2E2E2E2E2E2E2E2E2E2E2E2E2E2E2E2E2E2E2E2E2E2E2E2E2E2E2E2E2E2E2E2E2E2E2E2E2E2E2E2E2E2E2E2E2E2E2E2E2E2E2E2E2E2E2E2E2E2E2E2E2E2E2E2E2E2E2E2E2E2E2E2E2E2E2E2E2E2E2E2E2E2E2E2E2E2E2E2E2E2E2E2E2E2E2E2E2E2E2E2E2E2E2E2E2E2E2E2E2E2E2E2E2
310
E2E2E2E2E2E2E2E2E2E2E2E2E2E2E2E2E2E2E2E2E2E2E2E2E2E2E2E2E2E2E2E2E2E2E2E2E2E2E2E2E2E2E2E2E2E2E2E2E2E2E2E2E2E2E2E2E2E2E2E2E2E2E2E2E2E2E2E2E2E2E2E2E2E2E2E2E2E2E2E2E2E2E2E2E2E2E2E2E2E2E2E2E2E2E2E2E2E2E2E2E2E2E2E2E2E2E2E2E2E2E2E2E2E2E2E2E2E2E2E2E2E2E2E2E2E2E2
310
E2E2E2E2E2E2E2E2E2E2E2E2E2E2E2E2E2E2E2E2E2E2E2E2E2E2E2E2E2E2E2E2E2E2E2E2E2E2E2E2E2E2E2E2E2E2E2E2E2E2E2E2E2E2E2E2E2E2E2E2E2E2E2E2E2E2E2E2E2E2E2E2E2E2E2E2E2E2E2E2E2E2E2E2E2E2E2E2E2E2E2E2E2E2E2E2E2E2E2E2E2E2E2E2E2E2E2E2E2E2E2E2E2E2E2E2E2E2E2E2E2E2E2E2E2E2E2
310
E2E2E2E2E2E2E2E2E2E2E2E2E2E2E2E2E2E2E2E2E2E2E2E2E2E2E2E2E2E2E2E2E2E2E2E2E2E2E2E2E2E2E2E2E2E2E2E2E2E2E2E2E2E2E2E2E2E2E2E2E2E2E2E2E2E2E2E2E2E2E2E2E2E2E2E2E2E2E2E2E2E2E2E2E2E2E2E2E2E2E2E2E2E2E2E2E2E2E2E2E2E2E2E2E2E2E2E2E2E2E2E2E2E2E2E2E2E2E2E2E2E2E2E2E2E2E2
310
E2E2E2E2E2E2E2E2E2E2E2E2E2E2E2E2E2E2E2E2E2E2E2E2E2E2E2E2E2E2E2E2E2E2E2E2E2E2E2E2E2E2E2E2E2E2E2E2E2E2E2E2E2E2E2E2E2E2E2E2E2E2E2E2E2E2E2E2E2E2E2E2E2E2E2E2E2E2E2E2E2E2E2E2E2E2E2E2E2E2E2E2E2E2E2E2E2E2E2E2E2E2E2E2E2E2E2E2E2E2E2E2E2E2E2E2E2E2E2E2E2E2E2E2E2E2E2
310
E2E2E2E2E2E2E2E2E2E2E2E2E2E2E2E2E2E2E2E2E2E2E2E2E2E2E2E2E2E2E2E2E2E2E2E2E2E2E2E2E2E2E2E2E2E2E2E2E2E2E2E2E2E2E2E2E2E2E2E2E2E2E2E2E2E2E2E2E2E2E2E2E2E2E2E2E2E2E2E2E2E2E2E2E2E2E2E2E2E2E2E2E2E2E2E2E2E2E2E2E2E2E2E2E2E2E2E2E2E2E2E2E2E2E2E2E2E2E2E2E2E2E2E2E2E2E2
310
E2E2E2E2E2E2E2E2E2E2E2E2E2E2E2E2E2E2E2E2E2E2E2E2E2E2E2E2E2E2E2E2E2E2E2E2E2E2E2E2E2E2E2E2E2E2E2E2E2E2E2E2E2E2E2E2E2E2E2E2E2E2E2E2E2E2E2E2E2E2E2E2E2E2E2E2E2E2E2E2E2E2E2E2E2E2E2E2E2E2E2E2E2E2E2E2E2E2E2E2E2E2E2E2E2E2E2E2E2E2E2E2E2E2E2E2E2E2E2E2E2E2E2E2E2E2E2
310
E2E2E2E2E2E2E2E2E2E2E2E2E2E2E2E2E2E2E2E2E2E2E2E2E2E2E2E2E2E2E2E2E2E2E2E2E2E2E2E2E2E2E2E2E2E2E2E2E2E2E2E2E2E2E2E2E2E2E2E2E2E2E2E2E2E2E2E2E2E2E2E2E2E2E2E2E2E2E2E2E2E2E2E2E2E2E2E2E2E2E2E2E2E2E2E2E2E2E2E2E2E2E2E2E2E2E2E2E2E2E2E2E2E2E2E2E2E2E2E2E2E2E2E2E2E2E2
310
E2E2E2E2E2E2E2E2E2E2E2E2E2E2E2E2E2E2E2E2E2E2E2E2E2E2E2E2E2E2E2E2E2E2E2E2E2E2E2E2E2E2E2E2E2E2E2E2E2E2E2E2E2E2E2E2E2E2E2E2E2E2E2E2E2E2E2E2E2E2E2E2E2E2E2E2E2E2E2E2E2E2E2E2E2E2E2E2E2E2E2E2E2E2E2E2E2E2E2E2E2E2E2E2E2E2E2E2E2E2E2E2E2E2E2E2E2E2E2E2E2E2E2E2E2E2E2
310
E2E2E2E2E2E2E2E2E2E2E2E2E2E2E2E2E2E2E2E2E2E2E2E2E2E2E2E2E2E2E2E2E2E2E2E2E2E2E2E2E2E2E2E2E2E2E2E2E2E2E2E2E2E2E2E2E2E2E2E2E2E2E2E2E2E2E2E2E2E2E2E2E2E2E2E2E2E2E2E2E2E2E2E2E2E2E2E2E2E2E2E2E2E2E2E2E2E2E2E2E2E2E2E2E2E2E2E2E2E2E2E2E2E2E2E2E2E2E2E2E2E2E2E2E2E2E2
310
E2E2E2E2E2E2E2E2E2E2E2E2E2E2E2E2E2E2E2E2E2E2E2E2E2E2E2E2E2E2E2E2E2E2E2E2E2E2E2E2E2E2E2E2E2E2E2E2E2E2E2E2E2E2E2E2E2E2E2E2E2E2E2E2E2E2E2E2E2E2E2E2E2E2E2E2E2E2E2E2E2E2E2E2E2E2E2E2E2E2E2E2E2E2E2E2E2E2E2E2E2E2E2E2E2E2E2E2E2E2E2E2E2E2E2E2E2E2E2E2E2E2E2E2E2E2E2
310
E2E2E2E2E2E2E2E2E2E2E2E2E2E2E2E2E2E2E2E2E2E2E2E2E2E2E2E2E2E2E2E2E2E2E2E2E2E2E2E2E2E2E2E2E2E2E2E2E2E2E2E2E2E2E2E2E2E2E2E2E2E2E2E2E2E2E2E2E2E2E2E2E2E2E2E2E2E2E2E2E2E2E2E2E2E2E2E2E2E2E2E2E2E2E2E2E2E2E2E2E2E2E2E2E2E2E2E2E2E2E2E2E2E2E2E2E2E2E2E2E2E2E2E2E2E2E2
310
E2E2E2E2E2E2E2E2E2E2E2E2E2E2E2E2E2E2E2E2E2E2E2E2E2E2E2E2E2E2E2E2E2E2E2E2E2E2E2E2E2E2E2E2E2E2E2E2E2E2E2E2E2E2E2E2E2E2E2E2E2E2E2E2E2E2E2E2E2E2E2E2E2E2E2E2E2E2E2E2E2E2E2E2E2E2E2E2E2E2E2E2E2E2E2E2E2E2E2E2E2E2E2E2E2E2E2E2E2E2E2E2E2E2E2E2E2E2E2E2E2E2E2E2E2E2E2
310
E2E2E2E2E2E2E2E2E2E2E2E2E2E2E2E2E2E2E2E2E2E2E2E2E2E2E2E2E2E2E2E2E2E2E2E2E2E2E2E2E2E2E2E2E2E2E2E2E2E2E2E2E2E2E2E2E2E2E2E2E2E2E2E2E2E2E2E2E2E2E2E2E2E2E2E2E2E2E2E2E2E2E2E2E2E2E2E2E2E2E2E2E2E2E2E2E2E2E2E2E2E2E2E2E2E2E2E2E2E2E2E2E2E2E2E2E2E2E2E2E2E2E2E2E2E2E2
310
E2E2E2E2E2E2E2E2E2E2E2E2E2E2E2E2E2E2E2E2E2E2E2E2E2E2E2E2E2E2E2E2E2E2E2E2E2E2E2E2E2E2E2E2E2E2E2E2E2E2E2E2E2E2E2E2E2E2E2E2E2E2E2E2E2E2E2E2E2E2E2E2E2E2E2E2E2E2E2E2E2E2E2E2E2E2E2E2E2E2E2E2E2E2E2E2E2E2E2E2E2E2E2E2E2E2E2E2E2E2E2E2E2E2E2E2E2E2E2E2E2E2E2E2E2E2E2
310
E2E2E2E2E2E2E2E2E2E2E2E2E2E2E2E2E2E2E2E2E2E2E2E2E2E2E2E2E2E2E2E2E2E2E2E2E2E2E2E2E2E2E2E2E2E2E2E2E2E2E2E2E2E2E2E2E2E2E2E2E2E2E2E2E2E2E2E2E2E2E2E2E2E2E2E2E2E2E2E2E2E2E2E2E2E2E2E2E2E2E2E2E2E2E2E2E2E2E2E2E2E2E2E2E2E2E2E2E2E2E2E2E2E2E2E2E2E2E2E2E2E2E2E2E2E2E2
310
E2E2E2E2E2E2E2E2E2E2E2E2E2E2E2E2E2E2E2E2E2E2E2E2E2E2E2E2E2E2E2E2E2E2E2E2E2E2E2E2E2E2E2E2E2E2E2E2E2E2E2E2E2E2E2E2E2E2E2E2E2E2E2E2E2E2E2E2E2E2E2E2E2E2E2E2E2E2E2E2E2E2E2E2E2E2E2E2E2E2E2E2E2E2E2E2E2E2E2E2E2E2E2E2E2E2E2E2E2E2E2E2E2E2E2E2E2E2E2E2E2E2E2E2E2E2E2
310
E2E2E2E2E2E2E2E2E2E2E2E2E2E2E2E2E2E2E2E2E2E2E2E2E2E2E2E2E2E2E2E2E2E2E2E2E2E2E2E2E2E2E2E2E2E2E2E2E2E2E2E2E2E2E2E2E2E2E2E2E2E2E2E2E2E2E2E2E2E2E2E2E2E2E2E2E2E2E2E2E2E2E2E2E2E2E2E2E2E2E2E2E2E2E2E2E2E2E2E2E2E2E2E2E2E2E2E2E2E2E2E2E2E2E2E2E2E2E2E2E2E2E2E2E2E2E2
310
E2E2E2E2E2E2E2E2E2E2E2E2E2E2E2E2E2E2E2E2E2E2E2E2E2E2E2E2E2E2E2E2E2E2E2E2E2E2E2E2E2E2E2E2E2E2E2E2E2E2E2E2E2E2E2E2E2E2E2E2E2E2E2E2E2E2E2E2E2E2E2E2E2E2E2E2E2E2E2E2E2E2E2E2E2E2E2E2E2E2E2E2E2E2E2E2E2E2E2E2E2E2E2E2E2E2E2E2E2E2E2E2E2E2E2E2E2E2E2E2E2E2E2E2E2E2E2
310
E2E2E2E2E2E2E2E2E2E2E2E2E2E2E2E2E2E2E2E2E2E2E2E2E2E2E2E2E2E2E2E2E2E2E2E2E2E2E2E2E2E2E2E2E2E2E2E2E2E2E2E2E2E2E2E2E2E2E2E2E2E2E2E2E2E2E2E2E2E2E2E2E2E2E2E2E2E2E2E2E2E2E2E2E2E2E2E2E2E2E2E2E2E2E2E2E2E2E2E2E2E2E2E2E2E2E2E2E2E2E2E2E2E2E2E2E2E2E2E2E2E2E2E2E2E2E2
310
E2E2E2E2E2E2E2E2E2E2E2E2E2E2E2E2E2E2E2E2E2E2E2E2E2E2E2E2E2E2E2E2E2E2E2E2E2E2E2E2E2E2E2E2E2E2E2E2E2E2E2E2E2E2E2E2E2E2E2E2E2E2E2E2E2E2E2E2E2E2E2E2E2E2E2E2E2E2E2E2E2E2E2E2E2E2E2E2E2E2E2E2E2E2E2E2E2E2E2E2E2E2E2E2E2E2E2E2E2E2E2E2E2E2E2E2E2E2E2E2E2E2E2E2E2E2E2
310
E2E2E2E2E2E2E2E2E2E2E2E2E2E2E2E2E2E2E2E2E2E2E2E2E2E2E2E2E2E2E2E2E2E2E2E2E2E2E2E2E2E2E2E2E2E2E2E2E2E2E2E2E2E2E2E2E2E2E2E2E2E2E2E2E2E2E2E2E2E2E2E2E2E2E2E2E2E2E2E2E2E2E2E2E2E2E2E2E2E2E2E2E2E2E2E2E2E2E2E2E2E2E2E2E2E2E2E2E2E2E2E2E2E2E2E2E2E2E2E2E2E2E2E2E2E2E2
310
E2E2E2E2E2E2E2E2E2E2E2E2E2E2E2E2E2E2E2E2E2E2E2E2E2E2E2E2E2E2E2E2E2E2E2E2E2E2E2E2E2E2E2E2E2E2E2E2E2E2E2E2E2E2E2E2E2E2E2E2E2E2E2E2E2E2E2E2E2E2E2E2E2E2E2E2E2E2E2E2E2E2E2E2E2E2E2E2E2E2E2E2E2E2E2E2E2E2E2E2E2E2E2E2E2E2E2E2E2E2E2E2E2E2E2E2E2E2E2E2E2E2E2E2E2E2E2
310
E2E2E2E2E2E2E2E2E2E2E2E2E2E2E2E2E2E2E2E2E2E2E2E2E2E2E2E2E2E2E2E2E2E2E2E2E2E2E2E2E2E2E2E2E2E2E2E2E2E2E2E2E2E2E2E2E2E2E2E2E2E2E2E2E2E2E2E2E2E2E2E2E2E2E2E2E2E2E2E2E2E2E2E2E2E2E2E2E2E2E2E2E2E2E2E2E2E2E2E2E2E2E2E2E2E2E2E2E2E2E2E2E2E2E2E2E2E2E2E2E2E2E2E2E2E2E2
310
E2E2E2E2E2E2E2E2E2E2E2E2E2E2E2E2E2E2E2E2E2E2E2E2E2E2E2E2E2E2E2E2E2E2E2E2E2E2E2E2E2E2E2E2E2E2E2E2E2E2E2E2E2E2E2E2E2E2E2E2E2E2E2E2E2E2E2E2E2E2E2E2E2E2E2E2E2E2E2E2E2E2E2E2E2E2E2E2E2E2E2E2E2E2E2E2E2E2E2E2E2E2E2E2E2E2E2E2E2E2E2E2E2E2E2E2E2E2E2E2E2E2E2E2E2E2E2
310
E2E2E2E2E2E2E2E2E2E2E2E2E2E2E2E2E2E2E2E2E2E2E2E2E2E2E2E2E2E2E2E2E2E2E2E2E2E2E2E2E2E2E2E2E2E2E2E2E2E2E2E2E2E2E2E2E2E2E2E2E2E2E2E2E2E2E2E2E2E2E2E2E2E2E2E2E2E2E2E2E2E2E2E2E2E2E2E2E2E2E2E2E2E2E2E2E2E2E2E2E2E2E2E2E2E2E2E2E2E2E2E2E2E2E2E2E2E2E2E2E2E2E2E2E2E2E2
310
E2E2E2E2E2E2E2E2E2E2E2E2E2E2E2E2E2E2E2E2E2E2E2E2E2E2E2E2E2E2E2E2E2E2E2E2E2E2E2E2E2E2E2E2E2E2E2E2E2E2E2E2E2E2E2E2E2E2E2E2E2E2E2E2E2E2E2E2E2E2E2E2E2E2E2E2E2E2E2E2E2E2E2E2E2E2E2E2E2E2E2E2E2E2E2E2E2E2E2E2E2E2E2E2E2E2E2E2E2E2E2E2E2E2E2E2E2E2E2E2E2E2E2E2E2E2E2
310
E2E2E2E2E2E2E2E2E2E2E2E2E2E2E2E2E2E2E2E2E2E2E2E2E2E2E2E2E2E2E2E2E2E2E2E2E2E2E2E2E2E2E2E2E2E2E2E2E2E2E2E2E2E2E2E2E2E2E2E2E2E2E2E2E2E2E2E2E2E2E2E2E2E2E2E2E2E2E2E2E2E2E2E2E2E2E2E2E2E2E2E2E2E2E2E2E2E2E2E2E2E2E2E2E2E2E2E2E2E2E2E2E2E2E2E2E2E2E2E2E2E2E2E2E2E2E2
310
E2E2E2E2E2E2E2E2E2E2E2E2E2E2E2E2E2E2E2E2E2E2E2E2E2E2E2E2E2E2E2E2E2E2E2E2E2E2E2E2E2E2E2E2E2E2E2E2E2E2E2E2E2E2E2E2E2E2E2E2E2E2E2E2E2E2E2E2E2E2E2E2E2E2E2E2E2E2E2E2E2E2E2E2E2E2E2E2E2E2E2E2E2E2E2E2E2E2E2E2E2E2E2E2E2E2E2E2E2E2E2E2E2E2E2E2E2E2E2E2E2E2E2E2E2E2E2
310
E2E2E2E2E2E2E2E2E2E2E2E2E2E2E2E2E2E2E2E2E2E2E2E2E2E2E2E2E2E2E2E2E2E2E2E2E2E2E2E2E2E2E2E2E2E2E2E2E2E2E2E2E2E2E2E2E2E2E2E2E2E2E2E2E2E2E2E2E2E2E2E2E2E2E2E2E2E2E2E2E2E2E2E2E2E2E2E2E2E2E2E2E2E2E2E2E2E2E2E2E2E2E2E2E2E2E2E2E2E2E2E2E2E2E2E2E2E2E2E2E2E2E2E2E2E2E2
310
E2E2E2E2E2E2E2E2E2E2E2E2E2E2E2E2E2E2E2E2E2E2E2E2E2E2E2E2E2E2E2E2E2E2E2E2E2E2E2E2E2E2E2E2E2E2E2E2E2E2E2E2E2E2E2E2E2E2E2E2E2E2E2E2E2E2E2E2E2E2E2E2E2E2E2E2E2E2E2E2E2E2E2E2E2E2E2E2E2E2E2E2E2E2E2E2E2E2E2E2E2E2E2E2E2E2E2E2E2E2E2E2E2E2E2E2E2E2E2E2E2E2E2E2E2E2E2
310
E2E2E2E2E2E2E2E2E2E2E2E2E2E2E2E2E2E2E2E2E2E2E2E2E2E2E2E2E2E2E2E2E2E2E2E2E2E2E2E2E2E2E2E2E2E2E2E2E2E2E2E2E2E2E2E2E2E2E2E2E2E2E2E2E2E2E2E2E2E2E2E2E2E2E2E2E2E2E2E2E2E2E2E2E2E2E2E2E2E2E2E2E2E2E2E2E2E2E2E2E2E2E2E2E2E2E2E2E2E2E2E2E2E2E2E2E2E2E2E2E2E2E2E2E2E2E2
310
E2E2E2E2E2E2E2E2E2E2E2E2E2E2E2E2E2E2E2E2E2E2E2E2E2E2E2E2E2E2E2E2E2E2E2E2E2E2E2E2E2E2E2E2E2E2E2E2E2E2E2E2E2E2E2E2E2E2E2E2E2E2E2E2E2E2E2E2E2E2E2E2E2E2E2E2E2E2E2E2E2E2E2E2E2E2E2E2E2E2E2E2E2E2E2E2E2E2E2E2E2E2E2E2E2E2E2E2E2E2E2E2E2E2E2E2E2E2E2E2E2E2E2E2E2E2E2
310
E2E2E2E2E2E2E2E2E2E2E2E2E2E2E2E2E2E2E2E2E2E2E2E2E2E2E2E2E2E2E2E2E2E2E2E2E2E2E2E2E2E2E2E2E2E2E2E2E2E2E2E2E2E2E2E2E2E2E2E2E2E2E2E2E2E2E2E2E2E2E2E2E2E2E2E2E2E2E2E2E2E2E2E2E2E2E2E2E2E2E2E2E2E2E2E2E2E2E2E2E2E2E2E2E2E2E2E2E2E2E2E2E2E2E2E2E2E2E2E2E2E2E2E2E2E2E2
310
E2E2E2E2E2E2E2E2E2E2E2E2E2E2E2E2E2E2E2E2E2E2E2E2E2E2E2E2E2E2E2E2E2E2E2E2E2E2E2E2E2E2E2E2E2E2E2E2E2E2E2E2E2E2E2E2E2E2E2E2E2E2E2E2E2E2E2E2E2E2E2E2E2E2E2E2E2E2E2E2E2E2E2E2E2E2E2E2E2E2E2E2E2E2E2E2E2E2E2E2E2E2E2E2E2E2E2E2E2E2E2E2E2E2E2E2E2E2E2E2E2E2E2E2E2E2E2
310
E2E2E2E2E2E2E2E2E2E2E2E2E2E2E2E2E2E2E2E2E2E2E2E2E2E2E2E2E2E2E2E2E2E2E2E2E2E2E2E2E2E2E2E2E2E2E2E2E2E2E2E2E2E2E2E2E2E2E2E2E2E2E2E2E2E2E2E2E2E2E2E2E2E2E2E2E2E2E2E2E2E2E2E2E2E2E2E2E2E2E2E2E2E2E2E2E2E2E2E2E2E2E2E2E2E2E2E2E2E2E2E2E2E2E2E2E2E2E2E2E2E2E2E2E2E2E2
310
E2E2E2E2E2E2E2E2E2E2E2E2E2E2E2E2E2E2E2E2E2E2E2E2E2E2E2E2E2E2E2E2E2E2E2E2E2E2E2E2E2E2E2E2E2E2E2E2E2E2E2E2E2E2E2E2E2E2E2E2E2E2E2E2E2E2E2E2E2E2E2E2E2E2E2E2E2E2E2E2E2E2E2E2E2E2E2E2E2E2E2E2E2E2E2E2E2E2E2E2E2E2E2E2E2E2E2E2E2E2E2E2E2E2E2E2E2E2E2E2E2E2E2E2E2E2E2
310
E2E2E2E2E2E2E2E2E2E2E2E2E2E2E2E2E2E2E2E2E2E2E2E2E2E2E2E2E2E2E2E2E2E2E2E2E2E2E2E2E2E2E2E2E2E2E2E2E2E2E2E2E2E2E2E2E2E2E2E2E2E2E2E2E2E2E2E2E2E2E2E2E2E2E2E2E2E2E2E2E2E2E2E2E2E2E2E2E2E2E2E2E2E2E2E2E2E2E2E2E2E2E2E2E2E2E2E2E2E2E2E2E2E2E2E2E2E2E2E2E2E2E2E2E2E2E2
310
E2E2E2E2E2E2E2E2E2E2E2E2E2E2E2E2E2E2E2E2E2E2E2E2E2E2E2E2E2E2E2E2E2E2E2E2E2E2E2E2E2E2E2E2E2E2E2E2E2E2E2E2E2E2E2E2E2E2E2E2E2E2E2E2E2E2E2E2E2E2E2E2E2E2E2E2E2E2E2E2E2E2E2E2E2E2E2E2E2E2E2E2E2E2E2E2E2E2E2E2E2E2E2E2E2E2E2E2E2E2E2E2E2E2E2E2E2E2E2E2E2E2E2E2E2E2E2
310
E2E2E2E2E2E2E2E2E2E2E2E2E2E2E2E2E2E2E2E2E2E2E2E2E2E2E2E2E2E2E2E2E2E2E2E2E2E2E2E2E2E2E2E2E2E2E2E2E2E2E2E2E2E2E2E2E2E2E2E2E2E2E2E2E2E2E2E2E2E2E2E2E2E2E2E2E2E2E2E2E2E2E2E2E2E2E2E2E2E2E2E2E2E2E2E2E2E2E2E2E2E2E2E2E2E2E2E2E2E2E2E2E2E2E2E2E2E2E2E2E2E2E2E2E2E2E2
310
E2E2E2E2E2E2E2E2E2E2E2E2E2E2E2E2E2E2E2E2E2E2E2E2E2E2E2E2E2E2E2E2E2E2E2E2E2E2E2E2E2E2E2E2E2E2E2E2E2E2E2E2E2E2E2E2E2E2E2E2E2E2E2E2E2E2E2E2E2E2E2E2E2E2E2E2E2E2E2E2E2E2E2E2E2E2E2E2E2E2E2E2E2E2E2E2E2E2E2E2E2E2E2E2E2E2E2E2E2E2E2E2E2E2E2E2E2E2E2E2E2E2E2E2E2E2E2
310
E2E2E2E2E2E2E2E2E2E2E2E2E2E2E2E2E2E2E2E2E2E2E2E2E2E2E2E2E2E2E2E2E2E2E2E2E2E2E2E2E2E2E2E2E2E2E2E2E2E2E2E2E2E2E2E2E2E2E2E2E2E2E2E2E2E2E2E2E2E2E2E2E2E2E2E2E2E2E2E2E2E2E2E2E2E2E2E2E2E2E2E2E2E2E2E2E2E2E2E2E2E2E2E2E2E2E2E2E2E2E2E2E2E2E2E2E2E2E2E2E2E2E2E2E2E2E2
310
E2E2E2E2E2E2E2E2E2E2E2E2E2E2E2E2E2E2E2E2E2E2E2E2E2E2E2E2E2E2E2E2E2E2E2E2E2E2E2E2E2E2E2E2E2E2E2E2E2E2E2E2E2E2E2E2E2E2E2E2E2E2E2E2E2E2E2E2E2E2E2E2E2E2E2E2E2E2E2E2E2E2E2E2E2E2E2E2E2E2E2E2E2E2E2E2E2E2E2E2E2E2E2E2E2E2E2E2E2E2E2E2E2E2E2E2E2E2E2E2E2E2E2E2E2E2E2
310
E2E2E2E2E2E2E2E2E2E2E2E2E2E2E2E2E2E2E2E2E2E2E2E2E2E2E2E2E2E2E2E2E2E2E2E2E2E2E2E2E2E2E2E2E2E2E2E2E2E2E2E2E2E2E2E2E2E2E2E2E2E2E2E2E2E2E2E2E2E2E2E2E2E2E2E2E2E2E2E2E2E2E2E2E2E2E2E2E2E2E2E2E2E2E2E2E2E2E2E2E2E2E2E2E2E2E2E2E2E2E2E2E2E2E2E2E2E2E2E2E2E2E2E2E2E2E2
310
E2E2E2E2E2E2E2E2E2E2E2E2E2E2E2E2E2E2E2E2E2E2E2E2E2E2E2E2E2E2E2E2E2E2E2E2E2E2E2E2E2E2E2E2E2E2E2E2E2E2E2E2E2E2E2E2E2E2E2E2E2E2E2E2E2E2E2E2E2E2E2E2E2E2E2E2E2E2E2E2E2E2E2E2E2E2E2E2E2E2E2E2E2E2E2E2E2E2E2E2E2E2E2E2E2E2E2E2E2E2E2E2E2E2E2E2E2E2E2E2E2E2E2E2E2E2E2
310
E2E2E2E2E2E2E2E2E2E2E2E2E2E2E2E2E2E2E2E2E2E2E2E2E2E2E2E2E2E2E2E2E2E2E2E2E2E2E2E2E2E2E2E2E2E2E2E2E2E2E2E2E2E2E2E2E2E2E2E2E2E2E2E2E2E2E2E2E2E2E2E2E2E2E2E2E2E2E2E2E2E2E2E2E2E2E2E2E2E2E2E2E2E2E2E2E2E2E2E2E2E2E2E2E2E2E2E2E2E2E2E2E2E2E2E2E2E2E2E2E2E2E2E2E2E2E2
310
E2E2E2E2E2E2E2E2E2E2E2E2E2E2E2E2E2E2E2E2E2E2E2E2E2E2E2E2E2E2E2E2E2E2E2E2E2E2E2E2E2E2E2E2E2E2E2E2E2E2E2E2E2E2E2E2E2E2E2E2E2E2E2E2E2E2E2E2E2E2E2E2E2E2E2E2E2E2E2E2E2E2E2E2E2E2E2E2E2E2E2E2E2E2E2E2E2E2E2E2E2E2E2E2E2E2E2E2E2E2E2E2E2E2E2E2E2E2E2E2E2E2E2E2E2E2E2
310
E2E2E2E2E2E2E2E2E2E2E2E2E2E2E2E2E2E2E2E2E2E2E2E2E2E2E2E2E2E2E2E2E2E2E2E2E2E2E2E2E2E2E2E2E2E2E2E2E2E2E2E2E2E2E2E2E2E2E2E2E2E2E2E2E2E2E2E2E2E2E2E2E2E2E2E2E2E2E2E2E2E2E2E2E2E2E2E2E2E2E2E2E2E2E2E2E2E2E2E2E2E2E2E2E2E2E2E2E2E2E2E2E2E2E2E2E2E2E2E2E2E2E2E2E2E2E2
310
E2E2E2E2E2E2E2E2E2E2E2E2E2E2E2E2E2E2E2E2E2E2E2E2E2E2E2E2E2E2E2E2E2E2E2E2E2E2E2E2E2E2E2E2E2E2E2E2E2E2E2E2E2E2E2E2E2E2E2E2E2E2E2E2E2E2E2E2E2E2E2E2E2E2E2E2E2E2E2E2E2E2E2E2E2E2E2E2E2E2E2E2E2E2E2E2E2E2E2E2E2E2E2E2E2E2E2E2E2E2E2E2E2E2E2E2E2E2E2E2E2E2E2E2E2E2E2
310
E2E2E2E2E2E2E2E2E2E2E2E2E2E2E2E2E2E2E2E2E2E2E2E2E2E2E2E2E2E2E2E2E2E2E2E2E2E2E2E2E2E2E2E2E2E2E2E2E2E2E2E2E2E2E2E2E2E2E2E2E2E2E2E2E2E2E2E2E2E2E2E2E2E2E2E2E2E2E2E2E2E2E2E2E2E2E2E2E2E2E2E2E2E2E2E2E2E2E2E2E2E2E2E2E2E2E2E2E2E2E2E2E2E2E2E2E2E2E2E2E2E2E2E2E2E2E2
310
E2E2E2E2E2E2E2E2E2E2E2E2E2E2E2E2E2E2E2E2E2E2E2E2E2E2E2E2E2E2E2E2E2E2E2E2E2E2E2E2E2E2E2E2E2E2E2E2E2E2E2E2E2E2E2E2E2E2E2E2E2E2E2E2E2E2E2E2E2E2E2E2E2E2E2E2E2E2E2E2E2E2E2E2E2E2E2E2E2E2E2E2E2E2E2E2E2E2E2E2E2E2E2E2E2E2E2E2E2E2E2E2E2E2E2E2E2E2E2E2E2E2E2E2E2E2E2
310
E2E2E2E2E2E2E2E2E2E2E2E2E2E2E2E2E2E2E2E2E2E2E2E2E2E2E2E2E2E2E2E2E2E2E2E2E2E2E2E2E2E2E2E2E2E2E2E2E2E2E2E2E2E2E2E2E2E2E2E2E2E2E2E2E2E2E2E2E2E2E2E2E2E2E2E2E2E2E2E2E2E2E2E2E2E2E2E2E2E2E2E2E2E2E2E2E2E2E2E2E2E2E2E2E2E2E2E2E2E2E2E2E2E2E2E2E2E2E2E2E2E2E2E2E2E2E2
310
E2E2E2E2E2E2E2E2E2E2E2E2E2E2E2E2E2E2E2E2E2E2E2E2E2E2E2E2E2E2E2E2E2E2E2E2E2E2E2E2E2E2E2E2E2E2E2E2E2E2E2E2E2E2E2E2E2E2E2E2E2E2E2E2E2E2E2E2E2E2E2E2E2E2E2E2E2E2E2E2E2E2E2E2E2E2E2E2E2E2E2E2E2E2E2E2E2E2E2E2E2E2E2E2E2E2E2E2E2E2E2E2E2E2E2E2E2E2E2E2E2E2E2E2E2E2E2
310
E2E2E2E2E2E2E2E2E2E2E2E2E2E2E2E2E2E2E2E2E2E2E2E2E2E2E2E2E2E2E2E2E2E2E2E2E2E2E2E2E2E2E2E2E2E2E2E2E2E2E2E2E2E2E2E2E2E2E2E2E2E2E2E2E2E2E2E2E2E2E2E2E2E2E2E2E2E2E2E2E2E2E2E2E2E2E2E2E2E2E2E2E2E2E2E2E2E2E2E2E2E2E2E2E2E2E2E2E2E2E2E2E2E2E2E2E2E2E2E2E2E2E2E2E2E2E2
310
E2E2E2E2E2E2E2E2E2E2E2E2E2E2E2E2E2E2E2E2E2E2E2E2E2E2E2E2E2E2E2E2E2E2E2E2E2E2E2E2E2E2E2E2E2E2E2E2E2E2E2E2E2E2E2E2E2E2E2E2E2E2E2E2E2E2E2E2E2E2E2E2E2E2E2E2E2E2E2E2E2E2E2E2E2E2E2E2E2E2E2E2E2E2E2E2E2E2E2E2E2E2E2E2E2E2E2E2E2E2E2E2E2E2E2E2E2E2E2E2E2E2E2E2E2E2E2
310
E2E2E2E2E2E2E2E2E2E2E2E2E2E2E2E2E2E2E2E2E2E2E2E2E2E2E2E2E2E2E2E2E2E2E2E2E2E2E2E2E2E2E2E2E2E2E2E2E2E2E2E2E2E2E2E2E2E2E2E2E2E2E2E2E2E2E2E2E2E2E2E2E2E2E2E2E2E2E2E2E2E2E2E2E2E2E2E2E2E2E2E2E2E2E2E2E2E2E2E2E2E2E2E2E2E2E2E2E2E2E2E2E2E2E2E2E2E2E2E2E2E2E2E2E2E2E2
310
E2E2E2E2E2E2E2E2E2E2E2E2E2E2E2E2E2E2E2E2E2E2E2E2E2E2E2E2E2E2E2E2E2E2E2E2E2E2E2E2E2E2E2E2E2E2E2E2E2E2E2E2E2E2E2E2E2E2E2E2E2E2E2E2E2E2E2E2E2E2E2E2E2E2E2E2E2E2E2E2E2E2E2E2E2E2E2E2E2E2E2E2E2E2E2E2E2E2E2E2E2E2E2E2E2E2E2E2E2E2E2E2E2E2E2E2E2E2E2E2E2E2E2E2E2E2E2
310
E2E2E2E2E2E2E2E2E2E2E2E2E2E2E2E2E2E2E2E2E2E2E2E2E2E2E2E2E2E2E2E2E2E2E2E2E2E2E2E2E2E2E2E2E2E2E2E2E2E2E2E2E2E2E2E2E2E2E2E2E2E2E2E2E2E2E2E2E2E2E2E2E2E2E2E2E2E2E2E2E2E2E2E2E2E2E2E2E2E2E2E2E2E2E2E2E2E2E2E2E2E2E2E2E2E2E2E2E2E2E2E2E2E2E2E2E2E2E2E2E2E2E2E2E2E2E2
310
E2E2E2E2E2E2E2E2E2E2E2E2E2E2E2E2E2E2E2E2E2E2E2E2E2E2E2E2E2E2E2E2E2E2E2E2E2E2E2E2E2E2E2E2E2E2E2E2E2E2E2E2E2E2E2E2E2E2E2E2E2E2E2E2E2E2E2E2E2E2E2E2E2E2E2E2E2E2E2E2E2E2E2E2E2E2E2E2E2E2E2E2E2E2E2E2E2E2E2E2E2E2E2E2E2E2E2E2E2E2E2E2E2E2E2E2E2E2E2E2E2E2E2E2E2E2E2
310
E2E2E2E2E2E2E2E2E2E2E2E2E2E2E2E2E2E2E2E2E2E2E2E2E2E2E2E2E2E2E2E2E2E2E2E2E2E2E2E2E2E2E2E2E2E2E2E2E2E2E2E2E2E2E2E2E2E2E2E2E2E2E2E2E2E2E2E2E2E2E2E2E2E2E2E2E2E2E2E2E2E2E2E2E2E2E2E2E2E2E2E2E2E2E2E2E2E2E2E2E2E2E2E2E2E2E2E2E2E2E2E2E2E2E2E2E2E2E2E2E2E2E2E2E2E2E2
310
E2E2E2E2E2E2E2E2E2E2E2E2E2E2E2E2E2E2E2E2E2E2E2E2E2E2E2E2E2E2E2E2E2E2E2E2E2E2E2E2E2E2E2E2E2E2E2E2E2E2E2E2E2E2E2E2E2E2E2E2E2E2E2E2E2E2E2E2E2E2E2E2E2E2E2E2E2E2E2E2E2E2E2E2E2E2E2E2E2E2E2E2E2E2E2E2E2E2E2E2E2E2E2E2E2E2E2E2E2E2E2E2E2E2E2E2E2E2E2E2E2E2E2E2E2E2E2
310
E2E2E2E2E2E2E2E2E2E2E2E2E2E2E2E2E2E2E2E2E2E2E2E2E2E2E2E2E2E2E2E2E2E2E2E2E2E2E2E2E2E2E2E2E2E2E2E2E2E2E2E2E2E2E2E2E2E2E2E2E2E2E2E2E2E2E2E2E2E2E2E2E2E2E2E2E2E2E2E2E2E2E2E2E2E2E2E2E2E2E2E2E2E2E2E2E2E2E2E2E2E2E2E2E2E2E2E2E2E2E2E2E2E2E2E2E2E2E2E2E2E2E2E2E2E2E2
310
E2E2E2E2E2E2E2E2E2E2E2E2E2E2E2E2E2E2E2E2E2E2E2E2E2E2E2E2E2E2E2E2E2E2E2E2E2E2E2E2E2E2E2E2E2E2E2E2E2E2E2E2E2E2E2E2E2E2E2E2E2E2E2E2E2E2E2E2E2E2E2E2E2E2E2E2E2E2E2E2E2E2E2E2E2E2E2E2E2E2E2E2E2E2E2E2E2E2E2E2E2E2E2E2E2E2E2E2E2E2E2E2E2E2E2E2E2E2E2E2E2E2E2E2E2E2E2
310
E2E2E2E2E2E2E2E2E2E2E2E2E2E2E2E2E2E2E2E2E2E2E2E2E2E2E2E2E2E2E2E2E2E2E2E2E2E2E2E2E2E2E2E2E2E2E2E2E2E2E2E2E2E2E2E2E2E2E2E2E2E2E2E2E2E2E2E2E2E2E2E2E2E2E2E2E2E2E2E2E2E2E2E2E2E2E2E2E2E2E2E2E2E2E2E2E2E2E2E2E2E2E2E2E2E2E2E2E2E2E2E2E2E2E2E2E2E2E2E2E2E2E2E2E2E2E2
310
E2E2E2E2E2E2E2E2E2E2E2E2E2E2E2E2E2E2E2E2E2E2E2E2E2E2E2E2E2E2E2E2E2E2E2E2E2E2E2E2E2E2E2E2E2E2E2E2E2E2E2E2E2E2E2E2E2E2E2E2E2E2E2E2E2E2E2E2E2E2E2E2E2E2E2E2E2E2E2E2E2E2E2E2E2E2E2E2E2E2E2E2E2E2E2E2E2E2E2E2E2E2E2E2E2E2E2E2E2E2E2E2E2E2E2E2E2E2E2E2E2E2E2E2E2E2E2
310
E2E2E2E2E2E2E2E2E2E2E2E2E2E2E2E2E2E2E2E2E2E2E2E2E2E2E2E2E2E2E2E2E2E2E2E2E2E2E2E2E2E2E2E2E2E2E2E2E2E2E2E2E2E2E2E2E2E2E2E2E2E2E2E2E2E2E2E2E2E2E2E2E2E2E2E2E2E2E2E2E2E2E2E2E2E2E2E2E2E2E2E2E2E2E2E2E2E2E2E2E2E2E2E2E2E2E2E2E2E2E2E2E2E2E2E2E2E2E2E2E2E2E2E2E2E2E2
310
E2E2E2E2E2E2E2E2E2E2E2E2E2E2E2E2E2E2E2E2E2E2E2E2E2E2E2E2E2E2E2E2E2E2E2E2E2E2E2E2E2E2E2E2E2E2E2E2E2E2E2E2E2E2E2E2E2E2E2E2E2E2E2E2E2E2E2E2E2E2E2E2E2E2E2E2E2E2E2E2E2E2E2E2E2E2E2E2E2E2E2E2E2E2E2E2E2E2E2E2E2E2E2E2E2E2E2E2E2E2E2E2E2E2E2E2E2E2E2E2E2E2E2E2E2E2E2
310
E2E2E2E2E2E2E2E2E2E2E2E2E2E2E2E2E2E2E2E2E2E2E2E2E2E2E2E2E2E2E2E2E2E2E2E2E2E2E2E2E2E2E2E2E2E2E2E2E2E2E2E2E2E2E2E2E2E2E2E2E2E2E2E2E2E2E2E2E2E2E2E2E2E2E2E2E2E2E2E2E2E2E2E2E2E2E2E2E2E2E2E2E2E2E2E2E2E2E2E2E2E2E2E2E2E2E2E2E2E2E2E2E2E2E2E2E2E2E2E2E2E2E2E2E2E2E2
310
E2E2E2E2E2E2E2E2E2E2E2E2E2E2E2E2E2E2E2E2E2E2E2E2E2E2E2E2E2E2E2E2E2E2E2E2E2E2E2E2E2E2E2E2E2E2E2E2E2E2E2E2E2E2E2E2E2E2E2E2E2E2E2E2E2E2E2E2E2E2E2E2E2E2E2E2E2E2E2E2E2E2E2E2E2E2E2E2E2E2E2E2E2E2E2E2E2E2E2E2E2E2E2E2E2E2E2E2E2E2E2E2E2E2E2E2E2E2E2E2E2E2E2E2E2E2E2
310
E2E2E2E2E2E2E2E2E2E2E2E2E2E2E2E2E2E2E2E2E2E2E2E2E2E2E2E2E2E2E2E2E2E2E2E2E2E2E2E2E2E2E2E2E2E2E2E2E2E2E2E2E2E2E2E2E2E2E2E2E2E2E2E2E2E2E2E2E2E2E2E2E2E2E2E2E2E2E2E2E2E2E2E2E2E2E2E2E2E2E2E2E2E2E2E2E2E2E2E2E2E2E2E2E2E2E2E2E2E2E2E2E2E2E2E2E2E2E2E2E2E2E2E2E2E2E2
310
E2E2E2E2E2E2E2E2E2E2E2E2E2E2E2E2E2E2E2E2E2E2E2E2E2E2E2E2E2E2E2E2E2E2E2E2E2E2E2E2E2E2E2E2E2E2E2E2E2E2E2E2E2E2E2E2E2E2E2E2E2E2E2E2E2E2E2E2E2E2E2E2E2E2E2E2E2E2E2E2E2E2E2E2E2E2E2E2E2E2E2E2E2E2E2E2E2E2E2E2E2E2E2E2E2E2E2E2E2E2E2E2E2E2E2E2E2E2E2E2E2E2E2E2E2E2E2
310
E2E2E2E2E2E2E2E2E2E2E2E2E2E2E2E2E2E2E2E2E2E2E2E2E2E2E2E2E2E2E2E2E2E2E2E2E2E2E2E2E2E2E2E2E2E2E2E2E2E2E2E2E2E2E2E2E2E2E2E2E2E2E2E2E2E2E2E2E2E2E2E2E2E2E2E2E2E2E2E2E2E2E2E2E2E2E2E2E2E2E2E2E2E2E2E2E2E2E2E2E2E2E2E2E2E2E2E2E2E2E2E2E2E2E2E2E2E2E2E2E2E2E2E2E2E2E2
310
E2E2E2E2E2E2E2E2E2E2E2E2E2E2E2E2E2E2E2E2E2E2E2E2E2E2E2E2E2E2E2E2E2E2E2E2E2E2E2E2E2E2E2E2E2E2E2E2E2E2E2E2E2E2E2E2E2E2E2E2E2E2E2E2E2E2E2E2E2E2E2E2E2E2E2E2E2E2E2E2E2E2E2E2E2E2E2E2E2E2E2E2E2E2E2E2E2E2E2E2E2E2E2E2E2E2E2E2E2E2E2E2E2E2E2E2E2E2E2E2E2E2E2E2E2E2E2
310
E2E2E2E2E2E2E2E2E2E2E2E2E2E2E2E2E2E2E2E2E2E2E2E2E2E2E2E2E2E2E2E2E2E2E2E2E2E2E2E2E2E2E2E2E2E2E2E2E2E2E2E2E2E2E2E2E2E2E2E2E2E2E2E2E2E2E2E2E2E2E2E2E2E2E2E2E2E2E2E2E2E2E2E2E2E2E2E2E2E2E2E2E2E2E2E2E2E2E2E2E2E2E2E2E2E2E2E2E2E2E2E2E2E2E2E2E2E2E2E2E2E2E2E2E2E2E2
310
E2E2E2E2E2E2E2E2E2E2E2E2E2E2E2E2E2E2E2E2E2E2E2E2E2E2E2E2E2E2E2E2E2E2E2E2E2E2E2E2E2E2E2E2E2E2E2E2E2E2E2E2E2E2E2E2E2E2E2E2E2E2E2E2E2E2E2E2E2E2E2E2E2E2E2E2E2E2E2E2E2E2E2E2E2E2E2E2E2E2E2E2E2E2E2E2E2E2E2E2E2E2E2E2E2E2E2E2E2E2E2E2E2E2E2E2E2E2E2E2E2E2E2E2E2E2E2
310
E2E2E2E2E2E2E2E2E2E2E2E2E2E2E2E2E2E2E2E2E2E2E2E2E2E2E2E2E2E2E2E2E2E2E2E2E2E2E2E2E2E2E2E2E2E2E2E2E2E2E2E2E2E2E2E2E2E2E2E2E2E2E2E2E2E2E2E2E2E2E2E2E2E2E2E2E2E2E2E2E2E2E2E2E2E2E2E2E2E2E2E2E2E2E2E2E2E2E2E2E2E2E2E2E2E2E2E2E2E2E2E2E2E2E2E2E2E2E2E2E2E2E2E2E2E2E2
310
E2E2E2E2E2E2E2E2E2E2E2E2E2E2E2E2E2E2E2E2E2E2E2E2E2E2E2E2E2E2E2E2E2E2E2E2E2E2E2E2E2E2E2E2E2E2E2E2E2E2E2E2E2E2E2E2E2E2E2E2E2E2E2E2E2E2E2E2E2E2E2E2E2E2E2E2E2E2E2E2E2E2E2E2E2E2E2E2E2E2E2E2E2E2E2E2E2E2E2E2E2E2E2E2E2E2E2E2E2E2E2E2E2E2E2E2E2E2E2E2E2E2E2E2E2E2E2
310
E2E2E2E2E2E2E2E2E2E2E2E2E2E2E2E2E2E2E2E2E2E2E2E2E2E2E2E2E2E2E2E2E2E2E2E2E2E2E2E2E2E2E2E2E2E2E2E2E2E2E2E2E2E2E2E2E2E2E2E2E2E2E2E2E2E2E2E2E2E2E2E2E2E2E2E2E2E2E2E2E2E2E2E2E2E2E2E2E2E2E2E2E2E2E2E2E2E2E2E2E2E2E2E2E2E2E2E2E2E2E2E2E2E2E2E2E2E2E2E2E2E2E2E2E2E2E2
310
E2E2E2E2E2E2E2E2E2E2E2E2E2E2E2E2E2E2E2E2E2E2E2E2E2E2E2E2E2E2E2E2E2E2E2E2E2E2E2E2E2E2E2E2E2E2E2E2E2E2E2E2E2E2E2E2E2E2E2E2E2E2E2E2E2E2E2E2E2E2E2E2E2E2E2E2E2E2E2E2E2E2E2E2E2E2E2E2E2E2E2E2E2E2E2E2E2E2E2E2E2E2E2E2E2E2E2E2E2E2E2E2E2E2E2E2E2E2E2E2E2E2E2E2E2E2E2
310
E2E2E2E2E2E2E2E2E2E2E2E2E2E2E2E2E2E2E2E2E2E2E2E2E2E2E2E2E2E2E2E2E2E2E2E2E2E2E2E2E2E2E2E2E2E2E2E2E2E2E2E2E2E2E2E2E2E2E2E2E2E2E2E2E2E2E2E2E2E2E2E2E2E2E2E2E2E2E2E2E2E2E2E2E2E2E2E2E2E2E2E2E2E2E2E2E2E2E2E2E2E2E2E2E2E2E2E2E2E2E2E2E2E2E2E2E2E2E2E2E2E2E2E2E2E2E2
310
E2E2E2E2E2E2E2E2E2E2E2E2E2E2E2E2E2E2E2E2E2E2E2E2E2E2E2E2E2E2E2E2E2E2E2E2E2E2E2E2E2E2E2E2E2E2E2E2E2E2E2E2E2E2E2E2E2E2E2E2E2E2E2E2E2E2E2E2E2E2E2E2E2E2E2E2E2E2E2E2E2E2E2E2E2E2E2E2E2E2E2E2E2E2E2E2E2E2E2E2E2E2E2E2E2E2E2E2E2E2E2E2E2E2E2E2E2E2E2E2E2E2E2E2E2E2E2
310
E2E2E2E2E2E2E2E2E2E2E2E2E2E2E2E2E2E2E2E2E2E2E2E2E2E2E2E2E2E2E2E2E2E2E2E2E2E2E2E2E2E2E2E2E2E2E2E2E2E2E2E2E2E2E2E2E2E2E2E2E2E2E2E2E2E2E2E2E2E2E2E2E2E2E2E2E2E2E2E2E2E2E2E2E2E2E2E2E2E2E2E2E2E2E2E2E2E2E2E2E2E2E2E2E2E2E2E2E2E2E2E2E2E2E2E2E2E2E2E2E2E2E2E2E2E2E2
310
E2E2E2E2E2E2E2E2E2E2E2E2E2E2E2E2E2E2E2E2E2E2E2E2E2E2E2E2E2E2E2E2E2E2E2E2E2E2E2E2E2E2E2E2E2E2E2E2E2E2E2E2E2E2E2E2E2E2E2E2E2E2E2E2E2E2E2E2E2E2E2E2E2E2E2E2E2E2E2E2E2E2E2E2E2E2E2E2E2E2E2E2E2E2E2E2E2E2E2E2E2E2E2E2E2E2E2E2E2E2E2E2E2E2E2E2E2E2E2E2E2E2E2E2E2E2E2
310
E2E2E2E2E2E2E2E2E2E2E2E2E2E2E2E2E2E2E2E2E2E2E2E2E2E2E2E2E2E2E2E2E2E2E2E2E2E2E2E2E2E2E2E2E2E2E2E2E2E2E2E2E2E2E2E2E2E2E2E2E2E2E2E2E2E2E2E2E2E2E2E2E2E2E2E2E2E2E2E2E2E2E2E2E2E2E2E2E2E2E2E2E2E2E2E2E2E2E2E2E2E2E2E2E2E2E2E2E2E2E2E2E2E2E2E2E2E2E2E2E2E2E2E2E2E2E2
310
E2E2E2E2E2E2E2E2E2E2E2E2E2E2E2E2E2E2E2E2E2E2E2E2E2E2E2E2E2E2E2E2E2E2E2E2E2E2E2E2E2E2E2E2E2E2E2E2E2E2E2E2E2E2E2E2E2E2E2E2E2E2E2E2E2E2E2E2E2E2E2E2E2E2E2E2E2E2E2E2E2E2E2E2E2E2E2E2E2E2E2E2E2E2E2E2E2E2E2E2E2E2E2E2E2E2E2E2E2E2E2E2E2E2E2E2E2E2E2E2E2E2E2E2E2E2E2
310
E2E2E2E2E2E2E2E2E2E2E2E2E2E2E2E2E2E2E2E2E2E2E2E2E2E2E2E2E2E2E2E2E2E2E2E2E2E2E2E2E2E2E2E2E2E2E2E2E2E2E2E2E2E2E2E2E2E2E2E2E2E2E2E2E2E2E2E2E2E2E2E2E2E2E2E2E2E2E2E2E2E2E2E2E2E2E2E2E2E2E2E2E2E2E2E2E2E2E2E2E2E2E2E2E2E2E2E2E2E2E2E2E2E2E2E2E2E2E2E2E2E2E2E2E2E2E2
310
E2E2E2E2E2E2E2E2E2E2E2E2E2E2E2E2E2E2E2E2E2E2E2E2E2E2E2E2E2E2E2E2E2E2E2E2E2E2E2E2E2E2E2E2E2E2E2E2E2E2E2E2E2E2E2E2E2E2E2E2E2E2E2E2E2E2E2E2E2E2E2E2E2E2E2E2E2E2E2E2E2E2E2E2E2E2E2E2E2E2E2E2E2E2E2E2E2E2E2E2E2E2E2E2E2E2E2E2E2E2E2E2E2E2E2E2E2E2E2E2E2E2E2E2E2E2E2
310
E2E2E2E2E2E2E2E2E2E2E2E2E2E2E2E2E2E2E2E2E2E2E2E2E2E2E2E2E2E2E2E2E2E2E2E2E2E2E2E2E2E2E2E2E2E2E2E2E2E2E2E2E2E2E2E2E2E2E2E2E2E2E2E2E2E2E2E2E2E2E2E2E2E2E2E2E2E2E2E2E2E2E2E2E2E2E2E2E2E2E2E2E2E2E2E2E2E2E2E2E2E2E2E2E2E2E2E2E2E2E2E2E2E2E2E2E2E2E2E2E2E2E2E2E2E2E2
310
E2E2E2E2E2E2E2E2E2E2E2E2E2E2E2E2E2E2E2E2E2E2E2E2E2E2E2E2E2E2E2E2E2E2E2E2E2E2E2E2E2E2E2E2E2E2E2E2E2E2E2E2E2E2E2E2E2E2E2E2E2E2E2E2E2E2E2E2E2E2E2E2E2E2E2E2E2E2E2E2E2E2E2E2E2E2E2E2E2E2E2E2E2E2E2E2E2E2E2E2E2E2E2E2E2E2E2E2E2E2E2E2E2E2E2E2E2E2E2E2E2E2E2E2E2E2E2
310
E2E2E2E2E2E2E2E2E2E2E2E2E2E2E2E2E2E2E2E2E2E2E2E2E2E2E2E2E2E2E2E2E2E2E2E2E2E2E2E2E2E2E2E2E2E2E2E2E2E2E2E2E2E2E2E2E2E2E2E2E2E2E2E2E2E2E2E2E2E2E2E2E2E2E2E2E2E2E2E2E2E2E2E2E2E2E2E2E2E2E2E2E2E2E2E2E2E2E2E2E2E2E2E2E2E2E2E2E2E2E2E2E2E2E2E2E2E2E2E2E2E2E2E2E2E2E2
310
E2E2E2E2E2E2E2E2E2E2E2E2E2E2E2E2E2E2E2E2E2E2E2E2E2E2E2E2E2E2E2E2E2E2E2E2E2E2E2E2E2E2E2E2E2E2E2E2E2E2E2E2E2E2E2E2E2E2E2E2E2E2E2E2E2E2E2E2E2E2E2E2E2E2E2E2E2E2E2E2E2E2E2E2E2E2E2E2E2E2E2E2E2E2E2E2E2E2E2E2E2E2E2E2E2E2E2E2E2E2E2E2E2E2E2E2E2E2E2E2E2E2E2E2E2E2E2
310
E2E2E2E2E2E2E2E2E2E2E2E2E2E2E2E2E2E2E2E2E2E2E2E2E2E2E2E2E2E2E2E2E2E2E2E2E2E2E2E2E2E2E2E2E2E2E2E2E2E2E2E2E2E2E2E2E2E2E2E2E2E2E2E2E2E2E2E2E2E2E2E2E2E2E2E2E2E2E2E2E2E2E2E2E2E2E2E2E2E2E2E2E2E2E2E2E2E2E2E2E2E2E2E2E2E2E2E2E2E2E2E2E2E2E2E2E2E2E2E2E2E2E2E2E2E2E2
310
E2E2E2E2E2E2E2E2E2E2E2E2E2E2E2E2E2E2E2E2E2E2E2E2E2E2E2E2E2E2E2E2E2E2E2E2E2E2E2E2E2E2E2E2E2E2E2E2E2E2E2E2E2E2E2E2E2E2E2E2E2E2E2E2E2E2E2E2E2E2E2E2E2E2E2E2E2E2E2E2E2E2E2E2E2E2E2E2E2E2E2E2E2E2E2E2E2E2E2E2E2E2E2E2E2E2E2E2E2E2E2E2E2E2E2E2E2E2E2E2E2E2E2E2E2E2E2
310
E2E2E2E2E2E2E2E2E2E2E2E2E2E2E2E2E2E2E2E2E2E2E2E2E2E2E2E2E2E2E2E2E2E2E2E2E2E2E2E2E2E2E2E2E2E2E2E2E2E2E2E2E2E2E2E2E2E2E2E2E2E2E2E2E2E2E2E2E2E2E2E2E2E2E2E2E2E2E2E2E2E2E2E2E2E2E2E2E2E2E2E2E2E2E2E2E2E2E2E2E2E2E2E2E2E2E2E2E2E2E2E2E2E2E2E2E2E2E2E2E2E2E2E2E2E2E2
310
E2E2E2E2E2E2E2E2E2E2E2E2E2E2E2E2E2E2E2E2E2E2E2E2E2E2E2E2E2E2E2E2E2E2E2E2E2E2E2E2E2E2E2E2E2E2E2E2E2E2E2E2E2E2E2E2E2E2E2E2E2E2E2E2E2E2E2E2E2E2E2E2E2E2E2E2E2E2E2E2E2E2E2E2E2E2E2E2E2E2E2E2E2E2E2E2E2E2E2E2E2E2E2E2E2E2E2E2E2E2E2E2E2E2E2E2E2E2E2E2E2E2E2E2E2E2E2
310
E2E2E2E2E2E2E2E2E2E2E2E2E2E2E2E2E2E2E2E2E2E2E2E2E2E2E2E2E2E2E2E2E2E2E2E2E2E2E2E2E2E2E2E2E2E2E2E2E2E2E2E2E2E2E2E2E2E2E2E2E2E2E2E2E2E2E2E2E2E2E2E2E2E2E2E2E2E2E2E2E2E2E2E2E2E2E2E2E2E2E2E2E2E2E2E2E2E2E2E2E2E2E2E2E2E2E2E2E2E2E2E2E2E2E2E2E2E2E2E2E2E2E2E2E2E2E2
310
E2E2E2E2E2E2E2E2E2E2E2E2E2E2E2E2E2E2E2E2E2E2E2E2E2E2E2E2E2E2E2E2E2E2E2E2E2E2E2E2E2E2E2E2E2E2E2E2E2E2E2E2E2E2E2E2E2E2E2E2E2E2E2E2E2E2E2E2E2E2E2E2E2E2E2E2E2E2E2E2E2E2E2E2E2E2E2E2E2E2E2E2E2E2E2E2E2E2E2E2E2E2E2E2E2E2E2E2E2E2E2E2E2E2E2E2E2E2E2E2E2E2E2E2E2E2E2
310
E2E2E2E2E2E2E2E2E2E2E2E2E2E2E2E2E2E2E2E2E2E2E2E2E2E2E2E2E2E2E2E2E2E2E2E2E2E2E2E2E2E2E2E2E2E2E2E2E2E2E2E2E2E2E2E2E2E2E2E2E2E2E2E2E2E2E2E2E2E2E2E2E2E2E2E2E2E2E2E2E2E2E2E2E2E2E2E2E2E2E2E2E2E2E2E2E2E2E2E2E2E2E2E2E2E2E2E2E2E2E2E2E2E2E2E2E2E2E2E2E2E2E2E2E2E2E2
310
E2E2E2E2E2E2E2E2E2E2E2E2E2E2E2E2E2E2E2E2E2E2E2E2E2E2E2E2E2E2E2E2E2E2E2E2E2E2E2E2E2E2E2E2E2E2E2E2E2E2E2E2E2E2E2E2E2E2E2E2E2E2E2E2E2E2E2E2E2E2E2E2E2E2E2E2E2E2E2E2E2E2E2E2E2E2E2E2E2E2E2E2E2E2E2E2E2E2E2E2E2E2E2E2E2E2E2E2E2E2E2E2E2E2E2E2E2E2E2E2E2E2E2E2E2E2E2
310
E2E2E2E2E2E2E2E2E2E2E2E2E2E2E2E2E2E2E2E2E2E2E2E2E2E2E2E2E2E2E2E2E2E2E2E2E2E2E2E2E2E2E2E2E2E2E2E2E2E2E2E2E2E2E2E2E2E2E2E2E2E2E2E2E2E2E2E2E2E2E2E2E2E2E2E2E2E2E2E2E2E2E2E2E2E2E2E2E2E2E2E2E2E2E2E2E2E2E2E2E2E2E2E2E2E2E2E2E2E2E2E2E2E2E2E2E2E2E2E2E2E2E2E2E2E2E2
310
E2E2E2E2E2E2E2E2E2E2E2E2E2E2E2E2E2E2E2E2E2E2E2E2E2E2E2E2E2E2E2E2E2E2E2E2E2E2E2E2E2E2E2E2E2E2E2E2E2E2E2E2E2E2E2E2E2E2E2E2E2E2E2E2E2E2E2E2E2E2E2E2E2E2E2E2E2E2E2E2E2E2E2E2E2E2E2E2E2E2E2E2E2E2E2E2E2E2E2E2E2E2E2E2E2E2E2E2E2E2E2E2E2E2E2E2E2E2E2E2E2E2E2E2E2E2E2
310
E2E2E2E2E2E2E2E2E2E2E2E2E2E2E2E2E2E2E2E2E2E2E2E2E2E2E2E2E2E2E2E2E2E2E2E2E2E2E2E2E2E2E2E2E2E2E2E2E2E2E2E2E2E2E2E2E2E2E2E2E2E2E2E2E2E2E2E2E2E2E2E2E2E2E2E2E2E2E2E2E2E2E2E2E2E2E2E2E2E2E2E2E2E2E2E2E2E2E2E2E2E2E2E2E2E2E2E2E2E2E2E2E2E2E2E2E2E2E2E2E2E2E2E2E2E2E2
310
E2E2E2E2E2E2E2E2E2E2E2E2E2E2E2E2E2E2E2E2E2E2E2E2E2E2E2E2E2E2E2E2E2E2E2E2E2E2E2E2E2E2E2E2E2E2E2E2E2E2E2E2E2E2E2E2E2E2E2E2E2E2E2E2E2E2E2E2E2E2E2E2E2E2E2E2E2E2E2E2E2E2E2E2E2E2E2E2E2E2E2E2E2E2E2E2E2E2E2E2E2E2E2E2E2E2E2E2E2E2E2E2E2E2E2E2E2E2E2E2E2E2E2E2E2E2E2
310
E2E2E2E2E2E2E2E2E2E2E2E2E2E2E2E2E2E2E2E2E2E2E2E2E2E2E2E2E2E2E2E2E2E2E2E2E2E2E2E2E2E2E2E2E2E2E2E2E2E2E2E2E2E2E2E2E2E2E2E2E2E2E2E2E2E2E2E2E2E2E2E2E2E2E2E2E2E2E2E2E2E2E2E2E2E2E2E2E2E2E2E2E2E2E2E2E2E2E2E2E2E2E2E2E2E2E2E2E2E2E2E2E2E2E2E2E2E2E2E2E2E2E2E2E2E2E2
310
E2E2E2E2E2E2E2E2E2E2E2E2E2E2E2E2E2E2E2E2E2E2E2E2E2E2E2E2E2E2E2E2E2E2E2E2E2E2E2E2E2E2E2E2E2E2E2E2E2E2E2E2E2E2E2E2E2E2E2E2E2E2E2E2E2E2E2E2E2E2E2E2E2E2E2E2E2E2E2E2E2E2E2E2E2E2E2E2E2E2E2E2E2E2E2E2E2E2E2E2E2E2E2E2E2E2E2E2E2E2E2E2E2E2E2E2E2E2E2E2E2E2E2E2E2E2E2
310
E2E2E2E2E2E2E2E2E2E2E2E2E2E2E2E2E2E2E2E2E2E2E2E2E2E2E2E2E2E2E2E2E2E2E2E2E2E2E2E2E2E2E2E2E2E2E2E2E2E2E2E2E2E2E2E2E2E2E2E2E2E2E2E2E2E2E2E2E2E2E2E2E2E2E2E2E2E2E2E2E2E2E2E2E2E2E2E2E2E2E2E2E2E2E2E2E2E2E2E2E2E2E2E2E2E2E2E2E2E2E2E2E2E2E2E2E2E2E2E2E2E2E2E2E2E2E2
310
E2E2E2E2E2E2E2E2E2E2E2E2E2E2E2E2E2E2E2E2E2E2E2E2E2E2E2E2E2E2E2E2E2E2E2E2E2E2E2E2E2E2E2E2E2E2E2E2E2E2E2E2E2E2E2E2E2E2E2E2E2E2E2E2E2E2E2E2E2E2E2E2E2E2E2E2E2E2E2E2E2E2E2E2E2E2E2E2E2E2E2E2E2E2E2E2E2E2E2E2E2E2E2E2E2E2E2E2E2E2E2E2E2E2E2E2E2E2E2E2E2E2E2E2E2E2E2
310
E2E2E2E2E2E2E2E2E2E2E2E2E2E2E2E2E2E2E2E2E2E2E2E2E2E2E2E2E2E2E2E2E2E2E2E2E2E2E2E2E2E2E2E2E2E2E2E2E2E2E2E2E2E2E2E2E2E2E2E2E2E2E2E2E2E2E2E2E2E2E2E2E2E2E2E2E2E2E2E2E2E2E2E2E2E2E2E2E2E2E2E2E2E2E2E2E2E2E2E2E2E2E2E2E2E2E2E2E2E2E2E2E2E2E2E2E2E2E2E2E2E2E2E2E2E2E2
310
E2E2E2E2E2E2E2E2E2E2E2E2E2E2E2E2E2E2E2E2E2E2E2E2E2E2E2E2E2E2E2E2E2E2E2E2E2E2E2E2E2E2E2E2E2E2E2E2E2E2E2E2E2E2E2E2E2E2E2E2E2E2E2E2E2E2E2E2E2E2E2E2E2E2E2E2E2E2E2E2E2E2E2E2E2E2E2E2E2E2E2E2E2E2E2E2E2E2E2E2E2E2E2E2E2E2E2E2E2E2E2E2E2E2E2E2E2E2E2E2E2E2E2E2E2E2E2
310
E2E2E2E2E2E2E2E2E2E2E2E2E2E2E2E2E2E2E2E2E2E2E2E2E2E2E2E2E2E2E2E2E2E2E2E2E2E2E2E2E2E2E2E2E2E2E2E2E2E2E2E2E2E2E2E2E2E2E2E2E2E2E2E2E2E2E2E2E2E2E2E2E2E2E2E2E2E2E2E2E2E2E2E2E2E2E2E2E2E2E2E2E2E2E2E2E2E2E2E2E2E2E2E2E2E2E2E2E2E2E2E2E2E2E2E2E2E2E2E2E2E2E2E2E2E2E2
310
E2E2E2E2E2E2E2E2E2E2E2E2E2E2E2E2E2E2E2E2E2E2E2E2E2E2E2E2E2E2E2E2E2E2E2E2E2E2E2E2E2E2E2E2E2E2E2E2E2E2E2E2E2E2E2E2E2E2E2E2E2E2E2E2E2E2E2E2E2E2E2E2E2E2E2E2E2E2E2E2E2E2E2E2E2E2E2E2E2E2E2E2E2E2E2E2E2E2E2E2E2E2E2E2E2E2E2E2E2E2E2E2E2E2E2E2E2E2E2E2E2E2E2E2E2E2E2
310
E2E2E2E2E2E2E2E2E2E2E2E2E2E2E2E2E2E2E2E2E2E2E2E2E2E2E2E2E2E2E2E2E2E2E2E2E2E2E2E2E2E2E2E2E2E2E2E2E2E2E2E2E2E2E2E2E2E2E2E2E2E2E2E2E2E2E2E2E2E2E2E2E2E2E2E2E2E2E2E2E2E2E2E2E2E2E2E2E2E2E2E2E2E2E2E2E2E2E2E2E2E2E2E2E2E2E2E2E2E2E2E2E2E2E2E2E2E2E2E2E2E2E2E2E2E2E2
310
E2E2E2E2E2E2E2E2E2E2E2E2E2E2E2E2E2E2E2E2E2E2E2E2E2E2E2E2E2E2E2E2E2E2E2E2E2E2E2E2E2E2E2E2E2E2E2E2E2E2E2E2E2E2E2E2E2E2E2E2E2E2E2E2E2E2E2E2E2E2E2E2E2E2E2E2E2E2E2E2E2E2E2E2E2E2E2E2E2E2E2E2E2E2E2E2E2E2E2E2E2E2E2E2E2E2E2E2E2E2E2E2E2E2E2E2E2E2E2E2E2E2E2E2E2E2E2
310
E2E2E2E2E2E2E2E2E2E2E2E2E2E2E2E2E2E2E2E2E2E2E2E2E2E2E2E2E2E2E2E2E2E2E2E2E2E2E2E2E2E2E2E2E2E2E2E2E2E2E2E2E2E2E2E2E2E2E2E2E2E2E2E2E2E2E2E2E2E2E2E2E2E2E2E2E2E2E2E2E2E2E2E2E2E2E2E2E2E2E2E2E2E2E2E2E2E2E2E2E2E2E2E2E2E2E2E2E2E2E2E2E2E2E2E2E2E2E2E2E2E2E2E2E2E2E2
310
E2E2E2E2E2E2E2E2E2E2E2E2E2E2E2E2E2E2E2E2E2E2E2E2E2E2E2E2E2E2E2E2E2E2E2E2E2E2E2E2E2E2E2E2E2E2E2E2E2E2E2E2E2E2E2E2E2E2E2E2E2E2E2E2E2E2E2E2E2E2E2E2E2E2E2E2E2E2E2E2E2E2E2E2E2E2E2E2E2E2E2E2E2E2E2E2E2E2E2E2E2E2E2E2E2E2E2E2E2E2E2E2E2E2E2E2E2E2E2E2E2E2E2E2E2E2E2
310
E2E2E2E2E2E2E2E2E2E2E2E2E2E2E2E2E2E2E2E2E2E2E2E2E2E2E2E2E2E2E2E2E2E2E2E2E2E2E2E2E2E2E2E2E2E2E2E2E2E2E2E2E2E2E2E2E2E2E2E2E2E2E2E2E2E2E2E2E2E2E2E2E2E2E2E2E2E2E2E2E2E2E2E2E2E2E2E2E2E2E2E2E2E2E2E2E2E2E2E2E2E2E2E2E2E2E2E2E2E2E2E2E2E2E2E2E2E2E2E2E2E2E2E2E2E2E2
310
E2E2E2E2E2E2E2E2E2E2E2E2E2E2E2E2E2E2E2E2E2E2E2E2E2E2E2E2E2E2E2E2E2E2E2E2E2E2E2E2E2E2E2E2E2E2E2E2E2E2E2E2E2E2E2E2E2E2E2E2E2E2E2E2E2E2E2E2E2E2E2E2E2E2E2E2E2E2E2E2E2E2E2E2
  0
ENDSEC
  0
EOF
