  0
SECTION
  2
HEADER
  9
$ACADVER
  1
AC1015
  9
$ACADMAINTVER
 70
     6
  9
$DWGCODEPAGE
  3
ANSI_932
  9
$INSBASE
 10
0.0
 20
0.0
 30
0.0
  9
$EXTMIN
 10
8185.137246202092
 20
-1776.240739384664
 30
0.0
  9
$EXTMAX
 10
17110.13724620209
 20
4543.709260615342
 30
0.0
  9
$LIMMIN
 10
8335.137246202092
 20
-61.29073938466354
  9
$LIMMAX
 10
14635.13724620209
 20
4393.709260615342
  9
$ORTHOMODE
 70
     0
  9
$REGENMODE
 70
     1
  9
$FILLMODE
 70
     1
  9
$QTEXTMODE
 70
     0
  9
$MIRRTEXT
 70
     1
  9
$LTSCALE
 40
4.5
  9
$ATTMODE
 70
     1
  9
$TEXTSIZE
 40
3.0
  9
$TRACEWID
 40
1.0
  9
$TEXTSTYLE
  7
Standard
  9
$CLAYER
  8
02製品
  9
$CELTYPE
  6
ByLayer
  9
$CECOLOR
 62
   256
  9
$CELTSCALE
 40
1.0
  9
$DISPSILH
 70
     0
  9
$DIMSCALE
 40
1.0
  9
$DIMASZ
 40
45.0
  9
$DIMEXO
 40
22.5
  9
$DIMDLI
 40
150.0
  9
$DIMRND
 40
0.0
  9
$DIMDLE
 40
0.0
  9
$DIMEXE
 40
15.0
  9
$DIMTP
 40
0.0
  9
$DIMTM
 40
0.0
  9
$DIMTXT
 40
45.0
  9
$DIMCEN
 40
22.5
  9
$DIMTSZ
 40
0.0
  9
$DIMTOL
 70
     0
  9
$DIMLIM
 70
     0
  9
$DIMTIH
 70
     0
  9
$DIMTOH
 70
     0
  9
$DIMSE1
 70
     0
  9
$DIMSE2
 70
     0
  9
$DIMTAD
 70
     1
  9
$DIMZIN
 70
     8
  9
$DIMBLK
  1
Open
  9
$DIMASO
 70
     1
  9
$DIMSHO
 70
     1
  9
$DIMPOST
  1

  9
$DIMAPOST
  1

  9
$DIMALT
 70
     0
  9
$DIMALTD
 70
     3
  9
$DIMALTF
 40
0.03937007874016
  9
$DIMLFAC
 40
1.0
  9
$DIMTOFL
 70
     1
  9
$DIMTVP
 40
0.0
  9
$DIMTIX
 70
     0
  9
$DIMSOXD
 70
     0
  9
$DIMSAH
 70
     0
  9
$DIMBLK1
  1

  9
$DIMBLK2
  1

  9
$DIMSTYLE
  2
NEMY-15
  9
$DIMCLRD
 70
     0
  9
$DIMCLRE
 70
     0
  9
$DIMCLRT
 70
     0
  9
$DIMTFAC
 40
1.0
  9
$DIMGAP
 40
15.0
  9
$DIMJUST
 70
     0
  9
$DIMSD1
 70
     0
  9
$DIMSD2
 70
     0
  9
$DIMTOLJ
 70
     0
  9
$DIMTZIN
 70
     8
  9
$DIMALTZ
 70
     0
  9
$DIMALTTZ
 70
     0
  9
$DIMUPT
 70
     0
  9
$DIMDEC
 70
     2
  9
$DIMTDEC
 70
     2
  9
$DIMALTU
 70
     2
  9
$DIMALTTD
 70
     3
  9
$DIMTXSTY
  7
Standard
  9
$DIMAUNIT
 70
     0
  9
$DIMADEC
 70
     0
  9
$DIMALTRND
 40
0.0
  9
$DIMAZIN
 70
     0
  9
$DIMDSEP
 70
    46
  9
$DIMATFIT
 70
     3
  9
$DIMFRAC
 70
     0
  9
$DIMLDRBLK
  1
Open
  9
$DIMLUNIT
 70
     2
  9
$DIMLWD
 70
    -2
  9
$DIMLWE
 70
    -2
  9
$DIMTMOVE
 70
     0
  9
$LUNITS
 70
     2
  9
$LUPREC
 70
     4
  9
$SKETCHINC
 40
1.0
  9
$FILLETRAD
 40
0.0
  9
$AUNITS
 70
     0
  9
$AUPREC
 70
     0
  9
$MENU
  1
.
  9
$ELEVATION
 40
0.0
  9
$PELEVATION
 40
0.0
  9
$THICKNESS
 40
0.0
  9
$LIMCHECK
 70
     0
  9
$CHAMFERA
 40
10.0
  9
$CHAMFERB
 40
10.0
  9
$CHAMFERC
 40
20.0
  9
$CHAMFERD
 40
0.0
  9
$SKPOLY
 70
     0
  9
$TDCREATE
 40
2454740.593452685
  9
$TDUCREATE
 40
2454740.218452685
  9
$TDUPDATE
 40
2457632.55851265
  9
$TDUUPDATE
 40
2457632.18351265
  9
$TDINDWG
 40
0.8860866551
  9
$TDUSRTIMER
 40
2457632.181871273
  9
$USRTIMER
 70
     1
  9
$ANGBASE
 50
0.0
  9
$ANGDIR
 70
     0
  9
$PDMODE
 70
     0
  9
$PDSIZE
 40
0.0
  9
$PLINEWID
 40
0.0
  9
$SPLFRAME
 70
     0
  9
$SPLINETYPE
 70
     6
  9
$SPLINESEGS
 70
     8
  9
$HANDSEED
  5
5090
  9
$SURFTAB1
 70
     6
  9
$SURFTAB2
 70
     6
  9
$SURFTYPE
 70
     6
  9
$SURFU
 70
     6
  9
$SURFV
 70
     6
  9
$UCSBASE
  2

  9
$UCSNAME
  2

  9
$UCSORG
 10
0.0
 20
0.0
 30
0.0
  9
$UCSXDIR
 10
1.0
 20
0.0
 30
0.0
  9
$UCSYDIR
 10
0.0
 20
1.0
 30
0.0
  9
$UCSORTHOREF
  2

  9
$UCSORTHOVIEW
 70
     0
  9
$UCSORGTOP
 10
0.0
 20
0.0
 30
0.0
  9
$UCSORGBOTTOM
 10
0.0
 20
0.0
 30
0.0
  9
$UCSORGLEFT
 10
0.0
 20
0.0
 30
0.0
  9
$UCSORGRIGHT
 10
0.0
 20
0.0
 30
0.0
  9
$UCSORGFRONT
 10
0.0
 20
0.0
 30
0.0
  9
$UCSORGBACK
 10
0.0
 20
0.0
 30
0.0
  9
$PUCSBASE
  2

  9
$PUCSNAME
  2

  9
$PUCSORG
 10
0.0
 20
0.0
 30
0.0
  9
$PUCSXDIR
 10
1.0
 20
0.0
 30
0.0
  9
$PUCSYDIR
 10
0.0
 20
1.0
 30
0.0
  9
$PUCSORTHOREF
  2

  9
$PUCSORTHOVIEW
 70
     0
  9
$PUCSORGTOP
 10
0.0
 20
0.0
 30
0.0
  9
$PUCSORGBOTTOM
 10
0.0
 20
0.0
 30
0.0
  9
$PUCSORGLEFT
 10
0.0
 20
0.0
 30
0.0
  9
$PUCSORGRIGHT
 10
0.0
 20
0.0
 30
0.0
  9
$PUCSORGFRONT
 10
0.0
 20
0.0
 30
0.0
  9
$PUCSORGBACK
 10
0.0
 20
0.0
 30
0.0
  9
$USERI1
 70
     0
  9
$USERI2
 70
     0
  9
$USERI3
 70
     0
  9
$USERI4
 70
     0
  9
$USERI5
 70
     0
  9
$USERR1
 40
0.0
  9
$USERR2
 40
0.0
  9
$USERR3
 40
0.0
  9
$USERR4
 40
0.0
  9
$USERR5
 40
0.0
  9
$WORLDVIEW
 70
     1
  9
$SHADEDGE
 70
     3
  9
$SHADEDIF
 70
    70
  9
$TILEMODE
 70
     1
  9
$MAXACTVP
 70
    64
  9
$PINSBASE
 10
0.0
 20
0.0
 30
0.0
  9
$PLIMCHECK
 70
     0
  9
$PEXTMIN
 10
1.000000000000000E+20
 20
1.000000000000000E+20
 30
1.000000000000000E+20
  9
$PEXTMAX
 10
-1.000000000000000E+20
 20
-1.000000000000000E+20
 30
-1.000000000000000E+20
  9
$PLIMMIN
 10
0.0
 20
0.0
  9
$PLIMMAX
 10
0.0
 20
0.0
  9
$UNITMODE
 70
     0
  9
$VISRETAIN
 70
     1
  9
$PLINEGEN
 70
     0
  9
$PSLTSCALE
 70
     1
  9
$TREEDEPTH
 70
  3020
  9
$CMLSTYLE
  2
Standard
  9
$CMLJUST
 70
     0
  9
$CMLSCALE
 40
20.0
  9
$PROXYGRAPHICS
 70
     1
  9
$MEASUREMENT
 70
     1
  9
$CELWEIGHT
370
    -1
  9
$ENDCAPS
280
     0
  9
$JOINSTYLE
280
     0
  9
$LWDISPLAY
290
     0
  9
$INSUNITS
 70
     4
  9
$HYPERLINKBASE
  1

  9
$STYLESHEET
  1
monochrome.ctb
  9
$XEDIT
290
     1
  9
$CEPSNTYPE
380
     0
  9
$PSTYLEMODE
290
     1
  9
$FINGERPRINTGUID
  2
{FDEAD578-A652-11D2-9A35-0060089B3A3F}
  9
$VERSIONGUID
  2
{37E4F102-1AEE-49A3-BA1C-45F3BE497B05}
  9
$EXTNAMES
290
     1
  9
$PSVPSCALE
 40
0.0
  9
$OLESTARTUP
290
     0
  0
ENDSEC
  0
SECTION
  2
CLASSES
  0
CLASS
  1
ACDBDICTIONARYWDFLT
  2
AcDbDictionaryWithDefault
  3
ObjectDBX Classes
 90
        0
280
     0
281
     0
  0
CLASS
  1
ACDBPLACEHOLDER
  2
AcDbPlaceHolder
  3
ObjectDBX Classes
 90
        0
280
     0
281
     0
  0
CLASS
  1
LAYOUT
  2
AcDbLayout
  3
ObjectDBX Classes
 90
        0
280
     0
281
     0
  0
CLASS
  1
DICTIONARYVAR
  2
AcDbDictionaryVar
  3
ObjectDBX Classes
 90
        0
280
     0
281
     0
  0
CLASS
  1
MATERIAL
  2
AcDbMaterial
  3
ObjectDBX Classes
 90
     1153
280
     0
281
     0
  0
CLASS
  1
VISUALSTYLE
  2
AcDbVisualStyle
  3
ObjectDBX Classes
 90
     4095
280
     0
281
     0
  0
CLASS
  1
TABLESTYLE
  2
AcDbTableStyle
  3
ObjectDBX Classes
 90
     4095
280
     0
281
     0
  0
CLASS
  1
SCALE
  2
AcDbScale
  3
ObjectDBX Classes
 90
     1153
280
     0
281
     0
  0
CLASS
  1
MLEADERSTYLE
  2
AcDbMLeaderStyle
  3
ACDB_MLEADERSTYLE_CLASS
 90
     4095
280
     0
281
     0
  0
CLASS
  1
CELLSTYLEMAP
  2
AcDbCellStyleMap
  3
ObjectDBX Classes
 90
     1152
280
     0
281
     0
  0
CLASS
  1
SUN
  2
AcDbSun
  3
SCENEOE
 90
     1153
280
     0
281
     0
  0
CLASS
  1
RASTERVARIABLES
  2
AcDbRasterVariables
  3
ISM
 90
        0
280
     0
281
     0
  0
CLASS
  1
SORTENTSTABLE
  2
AcDbSortentsTable
  3
ObjectDBX Classes
 90
        0
280
     0
281
     0
  0
ENDSEC
  0
SECTION
  2
TABLES
  0
TABLE
  2
VPORT
  5
8
330
0
100
AcDbSymbolTable
 70
     8
  0
VPORT
  5
4811
330
8
100
AcDbSymbolTableRecord
100
AcDbViewportTableRecord
  2
*Active
 70
     0
 10
0.0
 20
0.0
 11
1.0
 21
1.0
 12
12286.91769617509
 22
1484.33472022737
 13
0.0
 23
0.0
 14
10.0
 24
10.0
 15
10.0
 25
10.0
 16
0.0
 26
0.0
 36
1.0
 17
0.0
 27
0.0
 37
0.0
 40
5113.748440767276
 41
1.300662251655629
 42
50.0
 43
0.0
 44
0.0
 50
0.0
 51
0.0
 71
    16
 72
   100
 73
     1
 74
     2
 75
     0
 76
     0
 77
     0
 78
     0
281
     0
 65
     1
110
0.0
120
0.0
130
0.0
111
1.0
121
0.0
131
0.0
112
0.0
122
1.0
132
0.0
 79
     0
146
0.0
  0
ENDTAB
  0
TABLE
  2
LTYPE
  5
5
330
0
100
AcDbSymbolTable
 70
     8
  0
LTYPE
  5
14
330
5
100
AcDbSymbolTableRecord
100
AcDbLinetypeTableRecord
  2
ByBlock
 70
     0
  3

 72
    65
 73
     0
 40
0.0
  0
LTYPE
  5
15
330
5
100
AcDbSymbolTableRecord
100
AcDbLinetypeTableRecord
  2
ByLayer
 70
     0
  3

 72
    65
 73
     0
 40
0.0
  0
LTYPE
  5
16
330
5
100
AcDbSymbolTableRecord
100
AcDbLinetypeTableRecord
  2
Continuous
 70
     0
  3
Solid line
 72
    65
 73
     0
 40
0.0
  0
LTYPE
  5
BA
330
5
100
AcDbSymbolTableRecord
100
AcDbLinetypeTableRecord
  2
HIDDEN
 70
     0
  3
Hidden __ __ __ __ __ __ __ __ __ __ __ __ __ _
 72
    65
 73
     2
 40
9.524999999999999
 49
6.35
 74
     0
 49
-3.175
 74
     0
  0
LTYPE
  5
BB
330
5
100
AcDbSymbolTableRecord
100
AcDbLinetypeTableRecord
  2
PHANTOM
 70
     0
  3
Phantom ______  __  __  ______  __  __  ______
 72
    65
 73
     6
 40
63.5
 49
31.75
 74
     0
 49
-6.35
 74
     0
 49
6.35
 74
     0
 49
-6.35
 74
     0
 49
6.35
 74
     0
 49
-6.35
 74
     0
  0
LTYPE
  5
BC
330
5
100
AcDbSymbolTableRecord
100
AcDbLinetypeTableRecord
  2
CENTER
 70
     0
  3
Center ____ _ ____ _ ____ _ ____ _ ____ _ ____
 72
    65
 73
     4
 40
50.8
 49
31.75
 74
     0
 49
-6.35
 74
     0
 49
6.35
 74
     0
 49
-6.35
 74
     0
  0
LTYPE
  5
47C
330
5
100
AcDbSymbolTableRecord
100
AcDbLinetypeTableRecord
  2
DOT
 70
     0
  3
Dot . . . . . . . . . . . . . . . . . . . . . .
 72
    65
 73
     2
 40
6.35
 49
0.0
 74
     0
 49
-6.35
 74
     0
  0
LTYPE
  5
F11
330
5
100
AcDbSymbolTableRecord
100
AcDbLinetypeTableRecord
  2
HIDDEN2
 70
     0
  3
Hidden (.5x) _ _ _ _ _ _ _ _ _ _ _ _ _ _ _ _ _
 72
    65
 73
     2
 40
0.1875
 49
0.125
 74
     0
 49
-0.0625
 74
     0
  0
LTYPE
  5
F12
330
5
100
AcDbSymbolTableRecord
100
AcDbLinetypeTableRecord
  2
CENTER2
 70
     0
  3
Center (.5x) ___ _ ___ _ ___ _ ___ _ ___ _ ___
 72
    65
 73
     4
 40
28.575
 49
19.05
 74
     0
 49
-3.175
 74
     0
 49
3.175
 74
     0
 49
-3.175
 74
     0
  0
LTYPE
  5
2B45
330
5
100
AcDbSymbolTableRecord
100
AcDbLinetypeTableRecord
  2
DASHED
 70
     0
  3
__ __ __ __ __ __ __ __ __ __ __ __ __ __ __
 72
    65
 73
     2
 40
0.75
 49
0.5
 74
     0
 49
-0.25
 74
     0
  0
ENDTAB
  0
TABLE
  2
LAYER
  5
2
102
{ACAD_XDICTIONARY
360
39C7
102
}
330
0
100
AcDbSymbolTable
 70
    16
  0
LAYER
  5
10
102
{ACAD_XDICTIONARY
360
39AE
102
}
330
2
100
AcDbSymbolTableRecord
100
AcDbLayerTableRecord
  2
0
 70
     0
 62
     7
  6
Continuous
370
    -3
390
F
  0
LAYER
  5
44
102
{ACAD_XDICTIONARY
360
39B0
102
}
330
2
100
AcDbSymbolTableRecord
100
AcDbLayerTableRecord
  2
1　製品
 70
     0
 62
     2
  6
Continuous
370
    15
390
F
  0
LAYER
  5
45
102
{ACAD_XDICTIONARY
360
39B2
102
}
330
2
100
AcDbSymbolTableRecord
100
AcDbLayerTableRecord
  2
2　寸法
 70
     0
 62
     7
  6
Continuous
370
     9
390
F
  0
LAYER
  5
46
102
{ACAD_XDICTIONARY
360
39B4
102
}
330
2
100
AcDbSymbolTableRecord
100
AcDbLayerTableRecord
  2
4　注記
 70
     0
 62
     7
  6
Continuous
370
     9
390
F
  0
LAYER
  5
47
102
{ACAD_XDICTIONARY
360
39B6
102
}
330
2
100
AcDbSymbolTableRecord
100
AcDbLayerTableRecord
  2
3　補助線
 70
     0
 62
     3
  6
Continuous
290
     0
370
     9
390
F
  0
LAYER
  5
48
102
{ACAD_XDICTIONARY
360
39B8
102
}
330
2
100
AcDbSymbolTableRecord
100
AcDbLayerTableRecord
  2
5　図枠
 70
     0
 62
     1
  6
Continuous
370
    30
390
F
  0
LAYER
  5
49
102
{ACAD_XDICTIONARY
360
39BA
102
}
330
2
100
AcDbSymbolTableRecord
100
AcDbLayerTableRecord
  2
6　その他（細）
 70
     0
 62
     6
  6
Continuous
370
     9
390
F
  0
LAYER
  5
59
102
{ACAD_XDICTIONARY
360
39BC
102
}
330
2
100
AcDbSymbolTableRecord
100
AcDbLayerTableRecord
  2
8　用紙
 70
     0
 62
     4
  6
Continuous
290
     0
370
     5
390
F
  0
LAYER
  5
5F
330
2
100
AcDbSymbolTableRecord
100
AcDbLayerTableRecord
  2
Defpoints
 70
     0
 62
     7
  6
Continuous
290
     0
370
    -3
390
F
  0
LAYER
  5
553
102
{ACAD_XDICTIONARY
360
39BE
102
}
330
2
100
AcDbSymbolTableRecord
100
AcDbLayerTableRecord
  2
7　その他（太）
 70
     0
 62
     5
  6
Continuous
370
    15
390
F
  0
LAYER
  5
F13
102
{ACAD_XDICTIONARY
360
39C0
102
}
330
2
100
AcDbSymbolTableRecord
100
AcDbLayerTableRecord
  2
SS400
 70
     0
 62
     7
  6
Continuous
370
    -3
390
F
  0
LAYER
  5
F14
102
{ACAD_XDICTIONARY
360
39C2
102
}
330
2
100
AcDbSymbolTableRecord
100
AcDbLayerTableRecord
  2
注記
 70
     0
 62
     7
  6
Continuous
290
     0
370
    -3
390
F
  0
LAYER
  5
481D
330
2
100
AcDbSymbolTableRecord
100
AcDbLayerTableRecord
  2
01注記寸法
 70
     0
 62
     7
  6
Continuous
370
     9
390
F
  0
LAYER
  5
481F
330
2
100
AcDbSymbolTableRecord
100
AcDbLayerTableRecord
  2
02製品
 70
     0
 62
     2
  6
Continuous
370
    15
390
F
  0
LAYER
  5
4820
330
2
100
AcDbSymbolTableRecord
100
AcDbLayerTableRecord
  2
06非表示
 70
     0
 62
     4
  6
Continuous
290
     0
370
     0
390
F
  0
LAYER
  5
4821
330
2
100
AcDbSymbolTableRecord
100
AcDbLayerTableRecord
  2
07図枠
 70
     0
 62
     1
  6
Continuous
370
    30
390
F
  0
ENDTAB
  0
TABLE
  2
STYLE
  5
3
330
0
100
AcDbSymbolTable
 70
     4
  0
STYLE
  5
11
330
3
100
AcDbSymbolTableRecord
100
AcDbTextStyleTableRecord
  2
Standard
 70
     0
 40
0.0
 41
1.0
 50
0.0
 71
     0
 42
3.0
  3
MS Gothic.ttf
  4

1001
ACAD
1000
MS Gothic
1071
    32817
  0
STYLE
  5
47B
330
3
100
AcDbSymbolTableRecord
100
AcDbTextStyleTableRecord
  2

 70
     1
 40
0.0
 41
1.0
 50
0.0
 71
     0
 42
3.0
  3
ltypeshp.shx
  4

  0
STYLE
  5
F15
330
3
100
AcDbSymbolTableRecord
100
AcDbTextStyleTableRecord
  2
STYLE1
 70
     0
 40
0.0
 41
0.9
 50
0.0
 71
     0
 42
39.375
  3
TXT.shx
  4
extfont.shx
  0
STYLE
  5
2B46
330
3
100
AcDbSymbolTableRecord
100
AcDbTextStyleTableRecord
  2
Standard-tate
 70
     0
 40
0.0
 41
1.0
 50
0.0
 71
     0
 42
3.0
  3
@MS PGothic.ttf
  4

1001
ACAD
1000
@MS PGothic
1071
    32818
  0
ENDTAB
  0
TABLE
  2
VIEW
  5
6
330
0
100
AcDbSymbolTable
 70
     0
  0
ENDTAB
  0
TABLE
  2
UCS
  5
7
330
0
100
AcDbSymbolTable
 70
     0
  0
ENDTAB
  0
TABLE
  2
APPID
  5
9
330
0
100
AcDbSymbolTable
 70
     7
  0
APPID
  5
12
330
9
100
AcDbSymbolTableRecord
100
AcDbRegAppTableRecord
  2
ACAD
 70
     0
  0
APPID
  5
F19
330
9
100
AcDbSymbolTableRecord
100
AcDbRegAppTableRecord
  2
ACAD_PSEXT
 70
     0
  0
APPID
  5
33FD
330
9
100
AcDbSymbolTableRecord
100
AcDbRegAppTableRecord
  2
ACAD_EXEMPT_FROM_CAD_STANDARDS
 70
     0
  0
APPID
  5
3AC6
330
9
100
AcDbSymbolTableRecord
100
AcDbRegAppTableRecord
  2
ACAD_MLEADERVER
 70
     0
  0
APPID
  5
482E
330
9
100
AcDbSymbolTableRecord
100
AcDbRegAppTableRecord
  2
AECBASE
 70
     0
  0
APPID
  5
482F
330
9
100
AcDbSymbolTableRecord
100
AcDbRegAppTableRecord
  2
AEC_2DSECTION_XDATA
 70
     0
  0
APPID
  5
4830
330
9
100
AcDbSymbolTableRecord
100
AcDbRegAppTableRecord
  2
AEC_MASSGROUP_XDADA
 70
     0
  0
ENDTAB
  0
TABLE
  2
DIMSTYLE
  5
A
330
0
100
AcDbSymbolTable
 70
    15
100
AcDbDimStyleTable
  0
DIMSTYLE
105
73
330
A
100
AcDbSymbolTableRecord
100
AcDbDimStyleTableRecord
  2
NEMY-1
 70
     0
 41
3.0
 42
1.5
 43
10.0
 44
1.0
 73
     0
 74
     0
 77
     1
 78
     8
140
3.0
141
1.5
143
0.03937007874016
147
1.0
171
     3
172
     1
178
     0
271
     2
272
     2
274
     3
283
     0
284
     8
340
11
341
8F
342
8F
  0
DIMSTYLE
105
405
330
A
100
AcDbSymbolTableRecord
100
AcDbDimStyleTableRecord
  2
NEMY-5
 70
     0
 40
5.0
 41
3.0
 42
1.5
 43
10.0
 44
1.0
 73
     0
 74
     0
 77
     1
 78
     8
140
3.0
141
1.5
143
0.03937007874016
147
1.0
171
     3
172
     1
178
     0
271
     2
272
     2
274
     3
283
     0
284
     8
340
11
341
8F
342
8F
  0
DIMSTYLE
105
66E
330
A
100
AcDbSymbolTableRecord
100
AcDbDimStyleTableRecord
  2
NEMY-10
 70
     0
 40
10.0
 41
3.0
 42
1.5
 43
10.0
 44
1.0
 73
     0
 74
     0
 77
     1
 78
     8
140
3.0
141
1.5
143
0.03937007874016
147
1.0
171
     3
172
     1
178
     0
271
     2
272
     2
274
     3
283
     0
284
     8
340
11
341
8F
342
8F
  0
DIMSTYLE
105
BB5
330
A
100
AcDbSymbolTableRecord
100
AcDbDimStyleTableRecord
  2
NEMY-8
 70
     0
 41
24.0
 42
12.0
 43
80.0
 44
8.0
 73
     0
 74
     0
 77
     1
 78
     8
140
24.0
141
12.0
143
0.03937007874016
147
8.0
171
     3
172
     1
178
     0
271
     2
272
     2
274
     3
283
     0
284
     8
340
11
341
8F
342
8F
  0
DIMSTYLE
105
BF3
330
A
100
AcDbSymbolTableRecord
100
AcDbDimStyleTableRecord
  2
NEMY-20
 70
     0
 41
60.0
 42
30.0
 43
200.0
 44
20.0
 73
     0
 74
     0
 77
     1
 78
     8
140
60.0
141
30.0
143
0.03937007874016
147
20.0
171
     3
172
     1
178
     0
271
     2
272
     2
274
     3
283
     0
284
     8
340
11
341
8F
342
8F
  0
DIMSTYLE
105
D9B
330
A
100
AcDbSymbolTableRecord
100
AcDbDimStyleTableRecord
  2
NEMY-100
 70
     0
 41
300.0
 42
150.0
 43
1000.0
 44
100.0
 73
     0
 74
     0
 77
     1
 78
     8
140
300.0
141
150.0
143
0.03937007874016
147
100.0
171
     3
172
     1
178
     0
271
     2
272
     2
274
     3
283
     0
284
     8
340
11
341
8F
342
8F
  0
DIMSTYLE
105
D9C
102
{ACAD_REACTORS
102
}
330
A
100
AcDbSymbolTableRecord
100
AcDbDimStyleTableRecord
  2
NEMY-15
 70
     0
 41
45.0
 42
22.5
 43
150.0
 44
15.0
 73
     0
 74
     0
 77
     1
 78
     8
140
45.0
141
22.5
143
0.03937007874016
147
15.0
171
     3
172
     1
178
     0
271
     2
272
     2
274
     3
283
     0
284
     8
340
11
341
8F
342
8F
  0
DIMSTYLE
105
D9D
330
A
100
AcDbSymbolTableRecord
100
AcDbDimStyleTableRecord
  2
NEMY-2
 70
     0
 41
6.0
 42
3.0
 43
20.0
 44
2.0
 73
     0
 74
     0
 77
     1
 78
     8
140
6.0
141
3.0
143
0.03937007874016
147
2.0
171
     3
172
     1
174
     1
178
     0
271
     2
272
     2
274
     3
283
     0
284
     8
340
11
341
8F
342
8F
  0
DIMSTYLE
105
D9E
330
A
100
AcDbSymbolTableRecord
100
AcDbDimStyleTableRecord
  2
NEMY-25
 70
     0
 41
75.0
 42
37.5
 43
250.0
 44
25.0
 73
     0
 74
     0
 77
     1
 78
     8
140
75.0
141
37.5
143
0.03937007874016
147
25.0
171
     3
172
     1
178
     0
271
     2
272
     2
274
     3
283
     0
284
     8
340
11
341
8F
342
8F
  0
DIMSTYLE
105
D9F
330
A
100
AcDbSymbolTableRecord
100
AcDbDimStyleTableRecord
  2
NEMY-3
 70
     0
 41
9.0
 42
4.5
 43
30.0
 44
4.0
 73
     0
 74
     0
 77
     1
 78
     8
140
9.0
141
4.5
143
0.03937007874016
147
3.0
171
     3
172
     1
174
     1
178
     0
271
     2
272
     2
274
     3
283
     0
284
     8
340
11
341
8F
342
8F
  0
DIMSTYLE
105
DA0
330
A
100
AcDbSymbolTableRecord
100
AcDbDimStyleTableRecord
  2
NEMY-30
 70
     0
 41
90.0
 42
45.0
 43
300.0
 44
30.0
 73
     0
 74
     0
 77
     1
 78
     8
140
90.0
141
45.0
143
0.03937007874016
147
30.0
171
     3
172
     1
178
     0
271
     2
272
     2
274
     3
283
     0
284
     8
340
11
341
8F
342
8F
  0
DIMSTYLE
105
DA1
330
A
100
AcDbSymbolTableRecord
100
AcDbDimStyleTableRecord
  2
NEMY-50
 70
     0
 41
150.0
 42
75.0
 43
500.0
 44
50.0
 73
     0
 74
     0
 77
     1
 78
     8
140
150.0
141
75.0
143
0.03937007874016
147
50.0
171
     3
172
     1
178
     0
271
     2
272
     2
274
     3
283
     0
284
     8
340
11
341
8F
342
8F
  0
DIMSTYLE
105
F16
330
A
100
AcDbSymbolTableRecord
100
AcDbDimStyleTableRecord
  2
STANDARD-WS-15
 70
     0
 40
11.25
 41
2.5
 42
2.0
 43
3.75
 44
1.25
 73
     0
 74
     0
 77
     1
 78
     8
140
3.75
141
2.0
143
0.0394
147
1.5
171
     4
172
     1
173
     1
176
     7
177
     7
271
     2
178
   256
271
     2
272
     2
273
     8
274
     4
284
     8
340
F15
341
643
343
8F
344
8F
  0
DIMSTYLE
105
F17
330
A
100
AcDbSymbolTableRecord
100
AcDbDimStyleTableRecord
  2
STANDARD-WS-20
 70
     0
 40
15.0
 41
2.5
 42
2.0
 43
3.75
 44
1.25
 73
     0
 74
     0
 77
     1
 78
     8
140
3.75
141
2.0
143
0.0394
147
1.5
171
     4
172
     1
173
     1
176
     7
177
     7
271
     2
178
   256
271
     2
272
     2
273
     8
274
     4
284
     8
340
F15
341
643
343
8F
344
8F
  0
DIMSTYLE
105
F18
330
A
100
AcDbSymbolTableRecord
100
AcDbDimStyleTableRecord
  2
STANDARD-WS-20黒丸1
 70
     0
 40
14.0
 41
2.5
 42
2.0
 43
3.75
 44
1.25
 73
     0
 74
     0
 77
     1
 78
     8
140
3.75
141
2.5
147
1.5
172
     1
176
   256
177
   256
271
     1
178
   256
271
     1
272
     1
284
     8
340
F15
341
8F
342
8F
343
8F
344
626
  0
ENDTAB
  0
TABLE
  2
BLOCK_RECORD
  5
1
330
0
100
AcDbSymbolTable
 70
    18
  0
BLOCK_RECORD
  5
1F
330
1
100
AcDbSymbolTableRecord
100
AcDbBlockTableRecord
  2
*Model_Space
340
22
  0
BLOCK_RECORD
  5
1B
330
1
100
AcDbSymbolTableRecord
100
AcDbBlockTableRecord
  2
*Paper_Space
340
1E
  0
BLOCK_RECORD
  5
23
330
1
100
AcDbSymbolTableRecord
100
AcDbBlockTableRecord
  2
*Paper_Space0
340
26
  0
BLOCK_RECORD
  5
8F
330
1
100
AcDbSymbolTableRecord
100
AcDbBlockTableRecord
  2
_Open
340
0
102
{BLKREFS
331
4776
331
4777
331
478D
331
478E
331
47A1
331
47A2
331
47B3
331
47B4
331
47E7
331
47E8
331
47F2
331
47F3
331
4807
331
4808
102
}
  0
BLOCK_RECORD
  5
626
330
1
100
AcDbSymbolTableRecord
100
AcDbBlockTableRecord
  2
_DotSmall
340
0
  0
BLOCK_RECORD
  5
643
330
1
100
AcDbSymbolTableRecord
100
AcDbBlockTableRecord
  2
_None
340
0
  0
BLOCK_RECORD
  5
BCD
330
1
100
AcDbSymbolTableRecord
100
AcDbBlockTableRecord
  2
矢印
340
0
310
2800000020000000200000000100080000000000000400000000000000000000000000000000000000000000000080000080000000808000800000008000800080800000C0C0C000C0DCC000F0CAA6000020400000206000002080000020A0000020C0000020E00000400000004020000040400000406000004080000040A0
310
000040C0000040E00000600000006020000060400000606000006080000060A0000060C0000060E00000800000008020000080400000806000008080000080A0000080C0000080E00000A0000000A0200000A0400000A0600000A0800000A0A00000A0C00000A0E00000C0000000C0200000C0400000C0600000C0800000C0
310
A00000C0C00000C0E00000E0000000E0200000E0400000E0600000E0800000E0A00000E0C00000E0E00040000000400020004000400040006000400080004000A0004000C0004000E00040200000402020004020400040206000402080004020A0004020C0004020E000404000004040200040404000404060004040800040
310
40A0004040C0004040E00040600000406020004060400040606000406080004060A0004060C0004060E00040800000408020004080400040806000408080004080A0004080C0004080E00040A0000040A0200040A0400040A0600040A0800040A0A00040A0C00040A0E00040C0000040C0200040C0400040C0600040C08000
310
40C0A00040C0C00040C0E00040E0000040E0200040E0400040E0600040E0800040E0A00040E0C00040E0E00080000000800020008000400080006000800080008000A0008000C0008000E00080200000802020008020400080206000802080008020A0008020C0008020E00080400000804020008040400080406000804080
310
008040A0008040C0008040E00080600000806020008060400080606000806080008060A0008060C0008060E00080800000808020008080400080806000808080008080A0008080C0008080E00080A0000080A0200080A0400080A0600080A0800080A0A00080A0C00080A0E00080C0000080C0200080C0400080C0600080C0
310
800080C0A00080C0C00080C0E00080E0000080E0200080E0400080E0600080E0800080E0A00080E0C00080E0E000C0000000C0002000C0004000C0006000C0008000C000A000C000C000C000E000C0200000C0202000C0204000C0206000C0208000C020A000C020C000C020E000C0400000C0402000C0404000C0406000C0
310
408000C040A000C040C000C040E000C0600000C0602000C0604000C0606000C0608000C060A000C060C000C060E000C0800000C0802000C0804000C0806000C0808000C080A000C080C000C080E000C0A00000C0A02000C0A04000C0A06000C0A08000C0A0A000C0A0C000C0A0E000C0C00000C0C02000C0C04000C0C06000
310
C0C08000C0C0A000F0FBFF00A4A0A000808080000000FF0000FF000000FFFF00FF000000FF00FF00FFFF0000FFFFFF0000000000000000000000000000000000000000000000000000000000000000000000000000000000000000000000000000000000000000000000000000000000000000000000000000000000000000
310
00000000000000000000000000000000000000000000000000000000000000000000000000000000000000000000000000000000000000000000000000000000000000000000000000000000000000000000000000000000000000000000000000000000000000000000000000000000000000000000000000000000000000
310
000000000000000000000000000000000000000000000000000000000000000000000000000000000000000000000000000000000000000000000000000000000000000000000000000000000000000000000000000000000000000000000000000000000000000000000000000000000000000000000000000000000000FD
310
FD00000000000000000000000000000000000000000000000000000000FDFD00FD0000000000000000000000000000000000000000000000000000FDFD000000FD0000000000000000000000000000000000000000000000FDFDFD0000000000FDFDFDFDFDFDFDFDFDFDFDFDFDFDFDFDFDFD00000000FDFD00000000000000
310
000000000000000000000000000000000000FD0000FDFD000000000000000000000000000000000000000000000000000000FD000000FDFD0000000000000000000000000000000000000000000000000000FD0000000000FDFD000000000000000000000000000000000000000000000000FD00000000000000FDFD000000
310
0000FDFDFDFDFDFDFDFDFDFDFDFDFDFDFDFDFDFD000000000000000000FDFD000000FD00000000000000000000000000000000000000000000000000000000FDFD00FD000000000000000000000000000000000000000000000000000000000000FDFD00000000000000000000000000000000000000000000000000000000
310
00000000000000000000000000000000000000000000000000000000000000000000000000000000000000000000000000000000000000000000000000000000000000000000000000000000000000000000000000000000000000000000000000000000000000000000000000000000000000000000000000000000000000
310
00000000000000000000000000000000000000000000000000000000000000000000000000000000000000000000000000000000000000000000000000000000000000000000000000000000000000000000000000000000000000000000000000000000000000000000000000000000000000000000000000000000000000
310
0000000000000000000000000000000000000000000000000000000000000000000000000000000000000000000000000000000000000000
1001
ACAD
1000
DesignCenter Data
1002
{
1070
     1
1070
     4
1002
}
  0
BLOCK_RECORD
  5
2A08
330
1
100
AcDbSymbolTableRecord
100
AcDbBlockTableRecord
  2
A$C39B974CC
340
0
  0
BLOCK_RECORD
  5
430E
330
1
100
AcDbSymbolTableRecord
100
AcDbBlockTableRecord
  2
*D6
340
0
  0
BLOCK_RECORD
  5
4326
330
1
100
AcDbSymbolTableRecord
100
AcDbBlockTableRecord
  2
*D8
340
0
  0
BLOCK_RECORD
  5
46FA
330
1
100
AcDbSymbolTableRecord
100
AcDbBlockTableRecord
  2
*D10
340
0
  0
BLOCK_RECORD
  5
4707
330
1
100
AcDbSymbolTableRecord
100
AcDbBlockTableRecord
  2
*D11
340
0
  0
BLOCK_RECORD
  5
4726
330
1
100
AcDbSymbolTableRecord
100
AcDbBlockTableRecord
  2
*D12
340
0
  0
BLOCK_RECORD
  5
47C4
330
1
100
AcDbSymbolTableRecord
100
AcDbBlockTableRecord
  2
A$C2BB73C85
340
0
  0
BLOCK_RECORD
  5
47D8
330
1
100
AcDbSymbolTableRecord
100
AcDbBlockTableRecord
  2
*D14
340
0
  0
BLOCK_RECORD
  5
47EE
330
1
100
AcDbSymbolTableRecord
100
AcDbBlockTableRecord
  2
*D15
340
0
  0
BLOCK_RECORD
  5
4900
330
1
100
AcDbSymbolTableRecord
100
AcDbBlockTableRecord
  2
A$C19363
340
0
102
{BLKREFS
331
0
102
}
  0
ENDTAB
  0
ENDSEC
  0
SECTION
  2
BLOCKS
  0
BLOCK
  5
20
330
1F
100
AcDbEntity
  8
0
100
AcDbBlockBegin
  2
*Model_Space
 70
     0
 10
0.0
 20
0.0
 30
0.0
  3
*Model_Space
  1
*Model_Space
  0
ENDBLK
  5
21
330
1F
100
AcDbEntity
  8
0
100
AcDbBlockEnd
  0
BLOCK
  5
1C
330
1B
100
AcDbEntity
 67
     1
  8
0
100
AcDbBlockBegin
  2
*Paper_Space
 70
     0
 10
0.0
 20
0.0
 30
0.0
  3
*Paper_Space
  1
*Paper_Space
  0
ENDBLK
  5
1D
330
1B
100
AcDbEntity
 67
     1
  8
0
100
AcDbBlockEnd
  0
BLOCK
  5
24
330
23
100
AcDbEntity
  8
0
100
AcDbBlockBegin
  2
*Paper_Space0
 70
     0
 10
0.0
 20
0.0
 30
0.0
  3
*Paper_Space0
  1
*Paper_Space0
  0
ENDBLK
  5
25
330
23
100
AcDbEntity
  8
0
100
AcDbBlockEnd
  0
BLOCK
  5
93
330
8F
100
AcDbEntity
  8
0
100
AcDbBlockBegin
  2
_Open
 70
     0
 10
0.0
 20
0.0
 30
0.0
  3
_Open
  1
_Open
  0
LINE
  5
90
330
8F
100
AcDbEntity
  8
2　寸法
 62
     0
370
    -2
100
AcDbLine
 10
-1.0
 20
0.1666666666666667
 30
0.0
 11
0.0
 21
0.0
 31
0.0
  0
LINE
  5
91
330
8F
100
AcDbEntity
  8
2　寸法
 62
     0
370
    -2
100
AcDbLine
 10
-1.0
 20
-0.1666666666666667
 30
0.0
 11
0.0
 21
0.0
 31
0.0
  0
LINE
  5
92
330
8F
100
AcDbEntity
  8
2　寸法
 62
     0
370
    -2
100
AcDbLine
 10
0.0
 20
0.0
 30
0.0
 11
-1.0
 21
0.0
 31
0.0
  0
ENDBLK
  5
94
330
8F
100
AcDbEntity
  8
0
100
AcDbBlockEnd
  0
BLOCK
  5
628
330
626
100
AcDbEntity
  8
0
100
AcDbBlockBegin
  2
_DotSmall
 70
     0
 10
0.0
 20
0.0
 30
0.0
  3
_DotSmall
  1
_DotSmall
  0
LWPOLYLINE
  5
627
330
626
100
AcDbEntity
  8
2　寸法
 62
     0
100
AcDbPolyline
 90
        2
 70
     1
 43
0.5
 10
-0.0625
 20
0.0
 42
1.0
 10
0.0625
 20
0.0
 42
1.0
  0
ENDBLK
  5
629
330
626
100
AcDbEntity
  8
0
100
AcDbBlockEnd
  0
BLOCK
  5
644
330
643
100
AcDbEntity
  8
0
100
AcDbBlockBegin
  2
_None
 70
     0
 10
0.0
 20
0.0
 30
0.0
  3
_None
  1
_None
  0
ENDBLK
  5
645
330
643
100
AcDbEntity
  8
0
100
AcDbBlockEnd
  0
BLOCK
  5
BCE
330
BCD
100
AcDbEntity
  8
0
100
AcDbBlockBegin
  2
矢印
 70
     0
 10
0.0
 20
0.0
 30
0.0
  3
矢印
  1
矢印
  0
LINE
  5
BD0
330
BCD
100
AcDbEntity
  8
6　その他（細）
100
AcDbLine
 10
254.0616470530396
 20
130.975183949022
 30
0.0
 11
248.0616470530396
 21
133.975183949022
 31
0.0
  0
LINE
  5
BD1
330
BCD
100
AcDbEntity
  8
6　その他（細）
100
AcDbLine
 10
248.0616470530396
 20
133.975183949022
 30
0.0
 11
254.0616470530396
 21
136.975183949022
 31
0.0
  0
LINE
  5
BD2
330
BCD
100
AcDbEntity
  8
6　その他（細）
100
AcDbLine
 10
263.0616470530396
 20
132.775183949022
 30
0.0
 11
254.0616470530396
 21
132.775183949022
 31
0.0
  0
LINE
  5
BD3
330
BCD
100
AcDbEntity
  8
6　その他（細）
100
AcDbLine
 10
263.0616470530396
 20
135.175183949022
 30
0.0
 11
254.0616470530396
 21
135.175183949022
 31
0.0
  0
LINE
  5
BD4
330
BCD
100
AcDbEntity
  8
6　その他（細）
100
AcDbLine
 10
254.0616470530396
 20
130.975183949022
 30
0.0
 11
254.0616470530396
 21
132.775183949022
 31
0.0
  0
LINE
  5
BD5
330
BCD
100
AcDbEntity
  8
6　その他（細）
100
AcDbLine
 10
254.0616470530396
 20
135.175183949022
 30
0.0
 11
254.0616470530396
 21
136.975183949022
 31
0.0
  0
LINE
  5
BD6
330
BCD
100
AcDbEntity
  8
6　その他（細）
100
AcDbLine
 10
263.0616470530396
 20
132.775183949022
 30
0.0
 11
263.0616470530396
 21
135.175183949022
 31
0.0
  0
ENDBLK
  5
BCF
330
BCD
100
AcDbEntity
  8
0
100
AcDbBlockEnd
  0
BLOCK
  5
2A0A
330
2A08
100
AcDbEntity
  8
0
100
AcDbBlockBegin
  2
A$C39B974CC
 70
     0
 10
0.0
 20
0.0
 30
0.0
  3
A$C39B974CC
  1
A$C39B974CC
  0
TEXT
  5
2A09
330
2A08
100
AcDbEntity
  8
4　注記
 48
6.0
380
     1
100
AcDbText
 10
-3458.420170893946
 20
1648.917014877084
 30
0.0
 40
45.0
  1
Ｂ
 72
     2
 11
-3399.94301353354
 21
1671.417014877084
 31
0.0
100
AcDbText
 73
     2
  0
ENDBLK
  5
2A0B
330
2A08
100
AcDbEntity
  8
0
100
AcDbBlockEnd
  0
BLOCK
  5
4318
330
430E
100
AcDbEntity
  8
0
100
AcDbBlockBegin
  2
*D6
 70
     1
 10
0.0
 20
0.0
 30
0.0
  3
*D6
  1
*D6
  0
LINE
  5
47B0
330
430E
100
AcDbEntity
  8
2　寸法
 62
     0
 48
15.0
370
    -2
100
AcDbLine
 10
9215.058203921944
 20
1171.213796291726
 30
0.0
 11
9215.058203921944
 21
936.4575098739738
 31
0.0
  0
LINE
  5
47B1
330
430E
100
AcDbEntity
  8
2　寸法
 62
     0
 48
15.0
370
    -2
100
AcDbLine
 10
11195.05820392195
 20
1171.213796288695
 30
0.0
 11
11195.05820392195
 21
936.4575098739738
 31
0.0
  0
LINE
  5
47B2
330
430E
100
AcDbEntity
  8
2　寸法
 62
     0
 48
15.0
370
    -2
100
AcDbLine
 10
9260.058203921944
 20
951.4575098739738
 30
0.0
 11
11150.05820392195
 21
951.4575098739738
 31
0.0
  0
INSERT
  5
47B3
330
430E
100
AcDbEntity
  8
2　寸法
 62
     0
370
    -2
100
AcDbBlockReference
  2
_Open
 10
9215.058203921944
 20
951.4575098739738
 30
0.0
 41
45.0
 42
45.0
 43
45.0
 50
180.0
  0
INSERT
  5
47B4
330
430E
100
AcDbEntity
  8
2　寸法
 62
     0
370
    -2
100
AcDbBlockReference
  2
_Open
 10
11195.05820392195
 20
951.4575098739738
 30
0.0
 41
45.0
 42
45.0
 43
45.0
  0
MTEXT
  5
47B5
330
430E
100
AcDbEntity
  8
2　寸法
 62
     0
100
AcDbMText
 10
10218.05820392195
 20
988.9575098739738
 30
0.0
 40
45.0
 41
0.0
 71
     5
 72
     1
  1
1980
 73
     1
 44
1.0
  0
POINT
  5
47B6
330
430E
100
AcDbEntity
  8
Defpoints
 62
     0
100
AcDbPoint
 10
9215.058203921944
 20
1193.713796291726
 30
0.0
  0
POINT
  5
47B7
330
430E
100
AcDbEntity
  8
Defpoints
 62
     0
100
AcDbPoint
 10
11195.05820392195
 20
1193.713796288695
 30
0.0
  0
POINT
  5
47B8
330
430E
100
AcDbEntity
  8
Defpoints
 62
     0
100
AcDbPoint
 10
11195.05820392195
 20
951.4575098739738
 30
0.0
  0
ENDBLK
  5
4319
330
430E
100
AcDbEntity
  8
0
100
AcDbBlockEnd
  0
BLOCK
  5
4330
330
4326
100
AcDbEntity
  8
0
100
AcDbBlockBegin
  2
*D8
 70
     1
 10
0.0
 20
0.0
 30
0.0
  3
*D8
  1
*D8
  0
LINE
  5
4773
330
4326
100
AcDbEntity
  8
2　寸法
 62
     0
370
    -2
100
AcDbLine
 10
9260.058203921944
 20
3247.713796291728
 30
0.0
 11
9260.058203921944
 21
3420.254004128533
 31
0.0
  0
LINE
  5
4774
330
4326
100
AcDbEntity
  8
2　寸法
 62
     0
370
    -2
100
AcDbLine
 10
10150.05820392194
 20
3247.713796291728
 30
0.0
 11
10150.05820392194
 21
3420.254004128533
 31
0.0
  0
LINE
  5
4775
330
4326
100
AcDbEntity
  8
2　寸法
 62
     0
370
    -2
100
AcDbLine
 10
9305.058203921944
 20
3405.254004128533
 30
0.0
 11
10105.05820392194
 21
3405.254004128533
 31
0.0
  0
INSERT
  5
4776
330
4326
100
AcDbEntity
  8
2　寸法
 62
     0
370
    -2
100
AcDbBlockReference
  2
_Open
 10
9260.058203921944
 20
3405.254004128533
 30
0.0
 41
45.0
 42
45.0
 43
45.0
 50
180.0
  0
INSERT
  5
4777
330
4326
100
AcDbEntity
  8
2　寸法
 62
     0
370
    -2
100
AcDbBlockReference
  2
_Open
 10
10150.05820392194
 20
3405.254004128533
 30
0.0
 41
45.0
 42
45.0
 43
45.0
  0
MTEXT
  5
4778
330
4326
100
AcDbEntity
  8
2　寸法
 62
     0
100
AcDbMText
 10
9705.058203921943
 20
3442.754004128533
 30
0.0
 40
45.0
 41
0.0
 71
     5
 72
     1
  1
890
 73
     1
 44
1.0
  0
POINT
  5
4779
330
4326
100
AcDbEntity
  8
Defpoints
 62
     0
100
AcDbPoint
 10
9260.058203921944
 20
3225.213796291728
 30
0.0
  0
POINT
  5
477A
330
4326
100
AcDbEntity
  8
Defpoints
 62
     0
100
AcDbPoint
 10
10150.05820392194
 20
3225.213796291728
 30
0.0
  0
POINT
  5
477B
330
4326
100
AcDbEntity
  8
Defpoints
 62
     0
100
AcDbPoint
 10
10150.05820392194
 20
3405.254004128533
 30
0.0
  0
ENDBLK
  5
4331
330
4326
100
AcDbEntity
  8
0
100
AcDbBlockEnd
  0
BLOCK
  5
4704
330
46FA
100
AcDbEntity
  8
0
100
AcDbBlockBegin
  2
*D10
 70
     1
 10
0.0
 20
0.0
 30
0.0
  3
*D10
  1
*D10
  0
LINE
  5
479C
330
46FA
100
AcDbEntity
  8
2　寸法
 62
     0
370
    -2
100
AcDbLine
 10
10150.05820392194
 20
3247.713796291728
 30
0.0
 11
10150.05820392194
 21
3420.254004128533
 31
0.0
  0
LINE
  5
479D
330
46FA
100
AcDbEntity
  8
2　寸法
 62
     0
370
    -2
100
AcDbLine
 10
10260.05820392196
 20
3247.713796291727
 30
0.0
 11
10260.05820392196
 21
3420.254004128533
 31
0.0
  0
LINE
  5
479E
330
46FA
100
AcDbEntity
  8
2　寸法
 62
     0
370
    -2
100
AcDbLine
 10
10150.05820392194
 20
3405.254004128533
 30
0.0
 11
10260.05820392196
 21
3405.254004128533
 31
0.0
  0
LINE
  5
479F
330
46FA
100
AcDbEntity
  8
2　寸法
 62
     0
370
    -2
100
AcDbLine
 10
10105.05820392194
 20
3405.254004128533
 30
0.0
 11
10060.05820392194
 21
3405.254004128533
 31
0.0
  0
LINE
  5
47A0
330
46FA
100
AcDbEntity
  8
2　寸法
 62
     0
370
    -2
100
AcDbLine
 10
10305.05820392196
 20
3405.254004128533
 30
0.0
 11
10350.05820392196
 21
3405.254004128533
 31
0.0
  0
INSERT
  5
47A1
330
46FA
100
AcDbEntity
  8
2　寸法
 62
     0
370
    -2
100
AcDbBlockReference
  2
_Open
 10
10150.05820392194
 20
3405.254004128533
 30
0.0
 41
45.0
 42
45.0
 43
45.0
  0
INSERT
  5
47A2
330
46FA
100
AcDbEntity
  8
2　寸法
 62
     0
370
    -2
100
AcDbBlockReference
  2
_Open
 10
10260.05820392196
 20
3405.254004128533
 30
0.0
 41
45.0
 42
45.0
 43
45.0
 50
180.0
  0
MTEXT
  5
47A3
330
46FA
100
AcDbEntity
  8
2　寸法
 62
     0
100
AcDbMText
 10
10205.05820392195
 20
3442.754004128533
 30
0.0
 40
45.0
 41
0.0
 71
     5
 72
     1
  1
110
 73
     1
 44
1.0
  0
POINT
  5
47A4
330
46FA
100
AcDbEntity
  8
Defpoints
 62
     0
100
AcDbPoint
 10
10150.05820392194
 20
3225.213796291728
 30
0.0
  0
POINT
  5
47A5
330
46FA
100
AcDbEntity
  8
Defpoints
 62
     0
100
AcDbPoint
 10
10260.05820392196
 20
3225.213796291727
 30
0.0
  0
POINT
  5
47A6
330
46FA
100
AcDbEntity
  8
Defpoints
 62
     0
100
AcDbPoint
 10
10260.05820392196
 20
3405.254004128533
 30
0.0
  0
ENDBLK
  5
4705
330
46FA
100
AcDbEntity
  8
0
100
AcDbBlockEnd
  0
BLOCK
  5
4711
330
4707
100
AcDbEntity
  8
0
100
AcDbBlockBegin
  2
*D11
 70
     1
 10
0.0
 20
0.0
 30
0.0
  3
*D11
  1
*D11
  0
LINE
  5
478A
330
4707
100
AcDbEntity
  8
2　寸法
 62
     0
370
    -2
100
AcDbLine
 10
10260.05820392196
 20
3247.713796291727
 30
0.0
 11
10260.05820392196
 21
3420.254004128533
 31
0.0
  0
LINE
  5
478B
330
4707
100
AcDbEntity
  8
2　寸法
 62
     0
370
    -2
100
AcDbLine
 10
11150.05820392195
 20
3247.713796291728
 30
0.0
 11
11150.05820392195
 21
3420.254004128533
 31
0.0
  0
LINE
  5
478C
330
4707
100
AcDbEntity
  8
2　寸法
 62
     0
370
    -2
100
AcDbLine
 10
10305.05820392196
 20
3405.254004128533
 30
0.0
 11
11105.05820392195
 21
3405.254004128533
 31
0.0
  0
INSERT
  5
478D
330
4707
100
AcDbEntity
  8
2　寸法
 62
     0
370
    -2
100
AcDbBlockReference
  2
_Open
 10
10260.05820392196
 20
3405.254004128533
 30
0.0
 41
45.0
 42
45.0
 43
45.0
 50
180.0
  0
INSERT
  5
478E
330
4707
100
AcDbEntity
  8
2　寸法
 62
     0
370
    -2
100
AcDbBlockReference
  2
_Open
 10
11150.05820392195
 20
3405.254004128533
 30
0.0
 41
45.0
 42
45.0
 43
45.0
  0
MTEXT
  5
478F
330
4707
100
AcDbEntity
  8
2　寸法
 62
     0
100
AcDbMText
 10
10705.05820392195
 20
3442.754004128533
 30
0.0
 40
45.0
 41
0.0
 71
     5
 72
     1
  1
890
 73
     1
 44
1.0
  0
POINT
  5
4790
330
4707
100
AcDbEntity
  8
Defpoints
 62
     0
100
AcDbPoint
 10
10260.05820392196
 20
3225.213796291727
 30
0.0
  0
POINT
  5
4791
330
4707
100
AcDbEntity
  8
Defpoints
 62
     0
100
AcDbPoint
 10
11150.05820392195
 20
3225.213796291728
 30
0.0
  0
POINT
  5
4792
330
4707
100
AcDbEntity
  8
Defpoints
 62
     0
100
AcDbPoint
 10
11150.05820392195
 20
3405.254004128533
 30
0.0
  0
ENDBLK
  5
4712
330
4707
100
AcDbEntity
  8
0
100
AcDbBlockEnd
  0
BLOCK
  5
4730
330
4726
100
AcDbEntity
  8
0
100
AcDbBlockBegin
  2
*D12
 70
     1
 10
0.0
 20
0.0
 30
0.0
  3
*D12
  1
*D12
  0
LINE
  5
4804
330
4726
100
AcDbEntity
  8
2　寸法
 62
     0
370
    -2
100
AcDbLine
 10
9260.058203921952
 20
3247.713796291728
 30
0.0
 11
9260.058203921952
 21
3520.254004128532
 31
0.0
  0
LINE
  5
4805
330
4726
100
AcDbEntity
  8
2　寸法
 62
     0
370
    -2
100
AcDbLine
 10
11150.05820392195
 20
3247.713796291728
 30
0.0
 11
11150.05820392195
 21
3520.254004128532
 31
0.0
  0
LINE
  5
4806
330
4726
100
AcDbEntity
  8
2　寸法
 62
     0
370
    -2
100
AcDbLine
 10
9305.058203921952
 20
3505.254004128532
 30
0.0
 11
11105.05820392195
 21
3505.254004128532
 31
0.0
  0
INSERT
  5
4807
330
4726
100
AcDbEntity
  8
2　寸法
 62
     0
370
    -2
100
AcDbBlockReference
  2
_Open
 10
9260.058203921952
 20
3505.254004128532
 30
0.0
 41
45.0
 42
45.0
 43
45.0
 50
180.0
  0
INSERT
  5
4808
330
4726
100
AcDbEntity
  8
2　寸法
 62
     0
370
    -2
100
AcDbBlockReference
  2
_Open
 10
11150.05820392195
 20
3505.254004128532
 30
0.0
 41
45.0
 42
45.0
 43
45.0
  0
MTEXT
  5
4809
330
4726
100
AcDbEntity
  8
2　寸法
 62
     0
100
AcDbMText
 10
10205.05820392195
 20
3542.754004128532
 30
0.0
 40
45.0
 41
0.0
 71
     5
 72
     1
  1
1890
 73
     1
 44
1.0
  0
POINT
  5
480A
330
4726
100
AcDbEntity
  8
Defpoints
 62
     0
100
AcDbPoint
 10
9260.058203921952
 20
3225.213796291728
 30
0.0
  0
POINT
  5
480B
330
4726
100
AcDbEntity
  8
Defpoints
 62
     0
100
AcDbPoint
 10
11150.05820392195
 20
3225.213796291728
 30
0.0
  0
POINT
  5
480C
330
4726
100
AcDbEntity
  8
Defpoints
 62
     0
100
AcDbPoint
 10
11150.05820392195
 20
3505.254004128532
 30
0.0
  0
ENDBLK
  5
4731
330
4726
100
AcDbEntity
  8
0
100
AcDbBlockEnd
  0
BLOCK
  5
47CB
330
47C4
100
AcDbEntity
  8
0
100
AcDbBlockBegin
  2
A$C2BB73C85
 70
     0
 10
0.0
 20
0.0
 30
0.0
  3
A$C2BB73C85
  1
A$C2BB73C85
  0
TEXT
  5
47C5
330
47C4
100
AcDbEntity
  8
4　注記
100
AcDbText
 10
25.79697355638564
 20
-111.0674694661357
 30
0.0
 40
45.0
  1
エスタイトネジ
 11
25.79697355638564
 21
-88.56746946613566
 31
0.0
100
AcDbText
 73
     2
  0
TEXT
  5
47C6
330
47C4
100
AcDbEntity
  8
4　注記
100
AcDbText
 10
980.9888454984781
 20
-111.0674694661357
 30
0.0
 40
45.0
  1
M5
 72
     2
 11
1039.466002858884
 21
-88.56746946613566
 31
0.0
100
AcDbText
 73
     2
  0
TEXT
  5
47C7
330
47C4
100
AcDbEntity
  8
4　注記
100
AcDbText
 10
25.79697355638564
 20
-261.0674694661357
 30
0.0
 40
45.0
  1
タッピングネジ
 11
25.79697355638564
 21
-238.5674694661357
 31
0.0
100
AcDbText
 73
     2
  0
TEXT
  5
47C8
330
47C4
100
AcDbEntity
  8
4　注記
100
AcDbText
 10
980.9888454984781
 20
-261.0674694661357
 30
0.0
 40
45.0
  1
M5
 72
     2
 11
1039.466002858884
 21
-238.5674694661357
 31
0.0
100
AcDbText
 73
     2
  0
TEXT
  5
47C9
330
47C4
100
AcDbEntity
  8
4　注記
100
AcDbText
 10
25.79697355638564
 20
-186.0674694661338
 30
0.0
 40
45.0
  1
(SUS410+ジオメット処理)
 11
25.79697355638564
 21
-163.5674694661338
 31
0.0
100
AcDbText
 73
     2
  0
TEXT
  5
47CA
330
47C4
100
AcDbEntity
  8
4　注記
100
AcDbText
 10
25.79697355638564
 20
-336.0674694661375
 30
0.0
 40
45.0
  1
(SUS304）
 11
25.79697355638564
 21
-313.5674694661375
 31
0.0
100
AcDbText
 73
     2
  0
ENDBLK
  5
47CC
330
47C4
100
AcDbEntity
  8
0
100
AcDbBlockEnd
  0
BLOCK
  5
47E2
330
47D8
100
AcDbEntity
  8
0
100
AcDbBlockBegin
  2
*D14
 70
     1
 10
0.0
 20
0.0
 30
0.0
  3
*D14
  1
*D14
  0
LINE
  5
47E4
330
47D8
100
AcDbEntity
  8
2　寸法
 62
     0
370
    -2
100
AcDbLine
 10
11217.55820392195
 20
3225.213796291728
 30
0.0
 11
11360.05820392195
 21
3225.213796291728
 31
0.0
  0
LINE
  5
47E5
330
47D8
100
AcDbEntity
  8
2　寸法
 62
     0
370
    -2
100
AcDbLine
 10
11217.55820392195
 20
2395.213796291728
 30
0.0
 11
11360.05820392195
 21
2395.213796291728
 31
0.0
  0
LINE
  5
47E6
330
47D8
100
AcDbEntity
  8
2　寸法
 62
     0
370
    -2
100
AcDbLine
 10
11345.05820392195
 20
3180.213796291728
 30
0.0
 11
11345.05820392195
 21
2440.213796291728
 31
0.0
  0
INSERT
  5
47E7
330
47D8
100
AcDbEntity
  8
2　寸法
 62
     0
370
    -2
100
AcDbBlockReference
  2
_Open
 10
11345.05820392195
 20
3225.213796291728
 30
0.0
 41
45.0
 42
45.0
 43
45.0
 50
90.0
  0
INSERT
  5
47E8
330
47D8
100
AcDbEntity
  8
2　寸法
 62
     0
370
    -2
100
AcDbBlockReference
  2
_Open
 10
11345.05820392195
 20
2395.213796291728
 30
0.0
 41
45.0
 42
45.0
 43
45.0
 50
270.0
  0
MTEXT
  5
47E9
330
47D8
100
AcDbEntity
  8
2　寸法
 62
     0
100
AcDbMText
 10
11307.55820392195
 20
2810.213796291728
 30
0.0
 40
45.0
 41
0.0
 71
     5
 72
     1
  1
830
 11
0.0
 21
1.0
 31
0.0
 73
     1
 44
1.0
  0
POINT
  5
47EA
330
47D8
100
AcDbEntity
  8
Defpoints
 62
     0
100
AcDbPoint
 10
11195.05820392195
 20
3225.213796291728
 30
0.0
  0
POINT
  5
47EB
330
47D8
100
AcDbEntity
  8
Defpoints
 62
     0
100
AcDbPoint
 10
11195.05820392195
 20
2395.213796291728
 30
0.0
  0
POINT
  5
47EC
330
47D8
100
AcDbEntity
  8
Defpoints
 62
     0
100
AcDbPoint
 10
11345.05820392195
 20
2395.213796291728
 30
0.0
  0
ENDBLK
  5
47E3
330
47D8
100
AcDbEntity
  8
0
100
AcDbBlockEnd
  0
BLOCK
  5
47F8
330
47EE
100
AcDbEntity
  8
0
100
AcDbBlockBegin
  2
*D15
 70
     1
 10
0.0
 20
0.0
 30
0.0
  3
*D15
  1
*D15
  0
LINE
  5
47EF
330
47EE
100
AcDbEntity
  8
2　寸法
 62
     0
370
    -2
100
AcDbLine
 10
11173.54112317454
 20
1693.713796291728
 30
0.0
 11
11360.05820392195
 21
1693.713796291728
 31
0.0
  0
LINE
  5
47F0
330
47EE
100
AcDbEntity
  8
2　寸法
 62
     0
370
    -2
100
AcDbLine
 10
11217.55820392195
 20
1193.713796288695
 30
0.0
 11
11360.05820392195
 21
1193.713796288695
 31
0.0
  0
LINE
  5
47F1
330
47EE
100
AcDbEntity
  8
2　寸法
 62
     0
370
    -2
100
AcDbLine
 10
11345.05820392195
 20
1648.713796291728
 30
0.0
 11
11345.05820392195
 21
1238.713796288695
 31
0.0
  0
INSERT
  5
47F2
330
47EE
100
AcDbEntity
  8
2　寸法
 62
     0
370
    -2
100
AcDbBlockReference
  2
_Open
 10
11345.05820392195
 20
1693.713796291728
 30
0.0
 41
45.0
 42
45.0
 43
45.0
 50
90.0
  0
INSERT
  5
47F3
330
47EE
100
AcDbEntity
  8
2　寸法
 62
     0
370
    -2
100
AcDbBlockReference
  2
_Open
 10
11345.05820392195
 20
1193.713796288695
 30
0.0
 41
45.0
 42
45.0
 43
45.0
 50
270.0
  0
MTEXT
  5
47F4
330
47EE
100
AcDbEntity
  8
2　寸法
 62
     0
100
AcDbMText
 10
11307.55820392195
 20
1443.713796290211
 30
0.0
 40
45.0
 41
0.0
 71
     5
 72
     1
  1
500
 11
0.0
 21
1.0
 31
0.0
 73
     1
 44
1.0
  0
POINT
  5
47F5
330
47EE
100
AcDbEntity
  8
Defpoints
 62
     0
100
AcDbPoint
 10
11151.04112317454
 20
1693.713796291728
 30
0.0
  0
POINT
  5
47F6
330
47EE
100
AcDbEntity
  8
Defpoints
 62
     0
100
AcDbPoint
 10
11195.05820392195
 20
1193.713796288695
 30
0.0
  0
POINT
  5
47F7
330
47EE
100
AcDbEntity
  8
Defpoints
 62
     0
100
AcDbPoint
 10
11345.05820392195
 20
1193.713796288695
 30
0.0
  0
ENDBLK
  5
47F9
330
47EE
100
AcDbEntity
  8
0
100
AcDbBlockEnd
  0
BLOCK
  5
4901
330
4900
100
AcDbEntity
  8
0
100
AcDbBlockBegin
  2
A$C19363
 70
     0
 10
0.0
 20
0.0
 30
0.0
  3
A$C19363
  1
A$C19363
  0
LINE
  5
4902
330
4900
100
AcDbEntity
  8
01注記寸法
100
AcDbLine
 10
149.9999999999999
 20
200.0
 30
0.0
 11
0.0
 21
200.0
 31
0.0
  0
LINE
  5
4903
330
4900
100
AcDbEntity
  8
01注記寸法
100
AcDbLine
 10
0.0
 20
200.0
 30
0.0
 11
0.0
 21
0.0
 31
0.0
  0
LINE
  5
4904
330
4900
100
AcDbEntity
  8
01注記寸法
100
AcDbLine
 10
149.9999999999999
 20
194.0
 30
0.0
 11
0.0
 21
194.0
 31
0.0
  0
LINE
  5
4905
330
4900
100
AcDbEntity
  8
01注記寸法
100
AcDbLine
 10
149.9999999999998
 20
0.0
 30
0.0
 11
149.9999999999999
 21
200.0
 31
0.0
  0
LINE
  5
4906
330
4900
100
AcDbEntity
  8
01注記寸法
100
AcDbLine
 10
149.9999999999998
 20
0.0
 30
0.0
 11
0.0
 21
0.0
 31
0.0
  0
ENDBLK
  5
4907
330
4900
100
AcDbEntity
  8
0
100
AcDbBlockEnd
  0
ENDSEC
  0
SECTION
  2
ENTITIES
  0
TEXT
  5
D43
330
1F
100
AcDbEntity
  8
4　注記
100
AcDbText
 10
210.2343249531853
 20
3113.932530533866
 30
0.0
 40
45.0
  1

 72
     2
 11
210.2343249531853
 21
3136.432530533866
 31
0.0
100
AcDbText
 73
     2
  0
LINE
  5
3FC3
330
1F
100
AcDbEntity
  8
02製品
100
AcDbLine
 10
12628.05820392194
 20
1194.913796291725
 30
0.0
 11
11795.05820392195
 21
1194.913796291725
 31
0.0
  0
LINE
  5
3FC4
330
1F
100
AcDbEntity
  8
02製品
100
AcDbLine
 10
12626.55820392195
 20
1193.713796291726
 30
0.0
 11
11796.55820392195
 21
1193.713796291726
 31
0.0
  0
LINE
  5
3FC5
330
1F
100
AcDbEntity
  8
02製品
100
AcDbLine
 10
12586.55820392195
 20
1263.713796291728
 30
0.0
 11
11836.55820392195
 21
1263.713796291728
 31
0.0
  0
LINE
  5
3FC6
330
1F
100
AcDbEntity
  8
02製品
100
AcDbLine
 10
12506.55820392196
 20
1653.713796291726
 30
0.0
 11
11916.55820392195
 21
1653.713796291726
 31
0.0
  0
LINE
  5
3FC8
330
1F
100
AcDbEntity
  8
02製品
100
AcDbLine
 10
12628.05820392194
 20
1693.713796291728
 30
0.0
 11
11795.05820392195
 21
1693.713796291728
 31
0.0
  0
LINE
  5
3FCF
330
1F
100
AcDbEntity
  8
02製品
100
AcDbLine
 10
9258.558203921944
 20
1693.713796291728
 30
0.0
 11
10151.04112317453
 21
1693.713796291728
 31
0.0
  0
LINE
  5
3FD0
330
1F
100
AcDbEntity
  8
02製品
100
AcDbLine
 10
9380.058203921944
 20
1653.713796291728
 30
0.0
 11
10030.05820392192
 21
1653.713796291746
 31
0.0
  0
LINE
  5
3FD4
330
1F
100
AcDbEntity
  8
02製品
100
AcDbLine
 10
9300.058203921944
 20
1573.713796291725
 30
0.0
 11
9300.058203921944
 21
1194.913796291727
 31
0.0
  0
LINE
  5
3FD5
330
1F
100
AcDbEntity
  8
02製品
100
AcDbLine
 10
9258.558203921944
 20
1693.713796291728
 30
0.0
 11
9258.558203921944
 21
1194.913796291725
 31
0.0
  0
LINE
  5
3FD6
330
1F
100
AcDbEntity
  8
02製品
100
AcDbLine
 10
9215.058203921944
 20
1193.713796291726
 30
0.0
 11
9261.258203921945
 21
1193.713796291726
 31
0.0
  0
LINE
  5
3FD7
330
1F
100
AcDbEntity
  8
02製品
100
AcDbLine
 10
9215.058203921944
 20
1194.913796291725
 30
0.0
 11
9300.058203921944
 21
1194.913796291727
 31
0.0
  0
LINE
  5
3FD8
330
1F
100
AcDbEntity
  8
02製品
100
AcDbLine
 10
9215.058203921944
 20
1194.913796291725
 30
0.0
 11
9215.058203921944
 21
1193.713796291726
 31
0.0
  0
LINE
  5
3FDA
330
1F
100
AcDbEntity
  8
02製品
  6
CENTER
100
AcDbLine
 10
9280.058203921944
 20
1218.213796291726
 30
0.0
 11
9280.058203921944
 21
1199.213796291728
 31
0.0
  0
LINE
  5
3FDB
330
1F
100
AcDbEntity
  8
02製品
100
AcDbLine
 10
9276.558203921944
 20
1211.213796291726
 30
0.0
 11
9276.558203921944
 21
1206.213796291728
 31
0.0
  0
LINE
  5
3FDC
330
1F
100
AcDbEntity
  8
02製品
100
AcDbLine
 10
9283.558203921944
 20
1211.213796291726
 30
0.0
 11
9283.558203921944
 21
1206.213796291728
 31
0.0
  0
LINE
  5
3FDD
330
1F
100
AcDbEntity
  8
02製品
100
AcDbLine
 10
9276.558203921944
 20
1211.213796291726
 30
0.0
 11
9276.558203921944
 21
1206.213796291728
 31
0.0
  0
CIRCLE
  5
3FDE
330
1F
100
AcDbEntity
  8
02製品
100
AcDbCircle
 10
9280.058203921944
 20
1208.713796291728
 30
0.0
 40
3.0
  0
LINE
  5
3FDF
330
1F
100
AcDbEntity
  8
02製品
100
AcDbLine
 10
9261.258203921945
 20
1194.913796291725
 30
0.0
 11
9261.258203921945
 21
1193.713796291726
 31
0.0
  0
ARC
  5
3FE0
330
1F
100
AcDbEntity
  8
02製品
100
AcDbCircle
 10
9280.058203921944
 20
1206.213796291728
 30
0.0
 40
3.49999999999967
100
AcDbArc
 50
180.0
 51
0.0
  0
LINE
  5
3FE2
330
1F
100
AcDbEntity
  8
02製品
  6
CENTER
100
AcDbLine
 10
9280.058203921944
 20
1258.213796291725
 30
0.0
 11
9280.058203921944
 21
1239.213796291726
 31
0.0
  0
ARC
  5
3FE3
330
1F
100
AcDbEntity
  8
02製品
100
AcDbCircle
 10
9280.058203921944
 20
1211.213796291726
 30
0.0
 40
3.50000000000024
100
AcDbArc
 50
0.0
 51
180.0
  0
LINE
  5
3FE4
330
1F
100
AcDbEntity
  8
02製品
  6
CENTER
100
AcDbLine
 10
9273.058203921944
 20
1208.713796291728
 30
0.0
 11
9287.058203921944
 21
1208.713796291728
 31
0.0
  0
ARC
  5
3FE5
330
1F
100
AcDbEntity
  8
02製品
100
AcDbCircle
 10
9280.058203921944
 20
1246.213796291726
 30
0.0
 40
3.49999999999967
100
AcDbArc
 50
180.0
 51
0.0
  0
LINE
  5
3FE6
330
1F
100
AcDbEntity
  8
02製品
100
AcDbLine
 10
9276.558203921944
 20
1251.213796291725
 30
0.0
 11
9276.558203921944
 21
1246.213796291726
 31
0.0
  0
LINE
  5
3FE7
330
1F
100
AcDbEntity
  8
02製品
100
AcDbLine
 10
9283.558203921944
 20
1251.213796291725
 30
0.0
 11
9283.558203921944
 21
1246.213796291726
 31
0.0
  0
LINE
  5
3FE8
330
1F
100
AcDbEntity
  8
02製品
100
AcDbLine
 10
9276.558203921944
 20
1251.213796291725
 30
0.0
 11
9276.558203921944
 21
1246.213796291726
 31
0.0
  0
ARC
  5
3FE9
330
1F
100
AcDbEntity
  8
02製品
100
AcDbCircle
 10
9280.058203921944
 20
1251.213796291725
 30
0.0
 40
3.50000000000024
100
AcDbArc
 50
0.0
 51
180.0
  0
CIRCLE
  5
3FEA
330
1F
100
AcDbEntity
  8
02製品
100
AcDbCircle
 10
9280.058203921944
 20
1248.713796291725
 30
0.0
 40
3.0
  0
LINE
  5
3FEB
330
1F
100
AcDbEntity
  8
02製品
  6
CENTER
100
AcDbLine
 10
9273.058203921944
 20
1248.713796291726
 30
0.0
 11
9287.058203921944
 21
1248.713796291726
 31
0.0
  0
ARC
  5
3FEC
330
1F
100
AcDbEntity
  8
02製品
100
AcDbCircle
 10
9362.558203922446
 20
1673.713796291739
 30
0.0
 40
3.49999999999967
100
AcDbArc
 50
90.0
 51
270.0
  0
LINE
  5
3FED
330
1F
100
AcDbEntity
  8
02製品
  6
CENTER
100
AcDbLine
 10
9365.058203922446
 20
1680.713796291739
 30
0.0
 11
9365.058203922446
 21
1666.713796291739
 31
0.0
  0
ARC
  5
3FEE
330
1F
100
AcDbEntity
  8
02製品
100
AcDbCircle
 10
9367.558203922446
 20
1673.713796291739
 30
0.0
 40
3.50000000000024
100
AcDbArc
 50
270.0
 51
90.0
  0
LINE
  5
3FEF
330
1F
100
AcDbEntity
  8
02製品
100
AcDbLine
 10
9380.058203921944
 20
1693.713796291726
 30
0.0
 11
9380.058203921944
 21
1653.713796291728
 31
0.0
  0
ARC
  5
3FF0
330
1F
100
AcDbEntity
  8
02製品
100
AcDbCircle
 10
9302.558203922446
 20
1673.713796291743
 30
0.0
 40
3.49999999999967
100
AcDbArc
 50
90.0
 51
270.0
  0
LINE
  5
3FF1
330
1F
100
AcDbEntity
  8
02製品
  6
CENTER
100
AcDbLine
 10
9305.058203922446
 20
1680.713796291743
 30
0.0
 11
9305.058203922446
 21
1666.713796291743
 31
0.0
  0
ARC
  5
3FF2
330
1F
100
AcDbEntity
  8
02製品
100
AcDbCircle
 10
9307.558203922446
 20
1673.713796291743
 30
0.0
 40
3.50000000000024
100
AcDbArc
 50
270.0
 51
90.0
  0
CIRCLE
  5
3FF4
330
1F
100
AcDbEntity
  8
02製品
100
AcDbCircle
 10
9305.058203922446
 20
1673.713796291743
 30
0.0
 40
3.0
  0
CIRCLE
  5
3FF5
330
1F
100
AcDbEntity
  8
02製品
100
AcDbCircle
 10
9365.058203922446
 20
1673.713796291741
 30
0.0
 40
3.0
  0
LINE
  5
3FF6
330
1F
100
AcDbEntity
  8
02製品
100
AcDbLine
 10
9380.058203921944
 20
1653.713796291725
 30
0.0
 11
9300.058203921944
 21
1573.713796291725
 31
0.0
  0
LINE
  5
3FF9
330
1F
100
AcDbEntity
  8
02製品
100
AcDbLine
 10
9307.558203922446
 20
1670.213796291743
 30
0.0
 11
9302.558203922446
 21
1670.213796291743
 31
0.0
  0
LINE
  5
3FFA
330
1F
100
AcDbEntity
  8
02製品
100
AcDbLine
 10
9367.558203922446
 20
1670.213796291739
 30
0.0
 11
9362.558203922446
 21
1670.213796291739
 31
0.0
  0
LINE
  5
3FFB
330
1F
100
AcDbEntity
  8
02製品
  6
CENTER
100
AcDbLine
 10
9314.558203922446
 20
1673.713796291741
 30
0.0
 11
9295.558203922446
 21
1673.713796291743
 31
0.0
  0
LINE
  5
3FFC
330
1F
100
AcDbEntity
  8
02製品
100
AcDbLine
 10
9307.558203922446
 20
1677.213796291743
 30
0.0
 11
9302.558203922446
 21
1677.213796291743
 31
0.0
  0
LINE
  5
3FFD
330
1F
100
AcDbEntity
  8
02製品
100
AcDbLine
 10
9307.558203922446
 20
1677.213796291743
 30
0.0
 11
9302.558203922446
 21
1677.213796291743
 31
0.0
  0
LINE
  5
3FFE
330
1F
100
AcDbEntity
  8
02製品
  6
CENTER
100
AcDbLine
 10
9374.558203922446
 20
1673.713796291739
 30
0.0
 11
9355.558203922446
 21
1673.713796291739
 31
0.0
  0
LINE
  5
3FFF
330
1F
100
AcDbEntity
  8
02製品
100
AcDbLine
 10
9367.558203922446
 20
1677.213796291739
 30
0.0
 11
9362.558203922446
 21
1677.213796291739
 31
0.0
  0
LINE
  5
4000
330
1F
100
AcDbEntity
  8
02製品
100
AcDbLine
 10
9367.558203922446
 20
1677.213796291739
 30
0.0
 11
9362.558203922446
 21
1677.213796291739
 31
0.0
  0
LINE
  5
4002
330
1F
100
AcDbEntity
  8
02製品
100
AcDbLine
 10
10110.05820392194
 20
1573.713796291746
 30
0.0
 11
10110.05820392194
 21
1194.913796291727
 31
0.0
  0
LINE
  5
4003
330
1F
100
AcDbEntity
  8
02製品
100
AcDbLine
 10
10151.04112317453
 20
1693.713796291728
 30
0.0
 11
10151.04112317453
 21
1194.913796291727
 31
0.0
  0
CIRCLE
  5
4005
330
1F
100
AcDbEntity
  8
02製品
100
AcDbCircle
 10
10130.05820392194
 20
1208.713796291728
 30
0.0
 40
3.0
  0
LINE
  5
4006
330
1F
100
AcDbEntity
  8
02製品
100
AcDbLine
 10
10126.55820392194
 20
1211.213796291726
 30
0.0
 11
10126.55820392194
 21
1206.213796291728
 31
0.0
  0
LINE
  5
4007
330
1F
100
AcDbEntity
  8
02製品
  6
CENTER
100
AcDbLine
 10
10130.05820392194
 20
1218.213796291726
 30
0.0
 11
10130.05820392194
 21
1199.213796291728
 31
0.0
  0
LINE
  5
4008
330
1F
100
AcDbEntity
  8
02製品
100
AcDbLine
 10
10133.55820392194
 20
1211.213796291726
 30
0.0
 11
10133.55820392194
 21
1206.213796291728
 31
0.0
  0
LINE
  5
4009
330
1F
100
AcDbEntity
  8
02製品
100
AcDbLine
 10
10133.55820392194
 20
1211.213796291726
 30
0.0
 11
10133.55820392194
 21
1206.213796291728
 31
0.0
  0
LINE
  5
400A
330
1F
100
AcDbEntity
  8
02製品
100
AcDbLine
 10
10195.05820392194
 20
1194.913796291725
 30
0.0
 11
10110.05820392194
 21
1194.913796291727
 31
0.0
  0
LINE
  5
400B
330
1F
100
AcDbEntity
  8
02製品
100
AcDbLine
 10
10195.05820392194
 20
1193.713796291725
 30
0.0
 11
10148.85820392194
 21
1193.713796291725
 31
0.0
  0
ARC
  5
400C
330
1F
100
AcDbEntity
  8
02製品
100
AcDbCircle
 10
10130.05820392194
 20
1206.213796291728
 30
0.0
 40
3.49999999999967
100
AcDbArc
 50
180.0
 51
0.0
  0
LINE
  5
400D
330
1F
100
AcDbEntity
  8
02製品
100
AcDbLine
 10
10148.85820392194
 20
1194.913796291727
 30
0.0
 11
10148.85820392194
 21
1193.713796291725
 31
0.0
  0
LINE
  5
400E
330
1F
100
AcDbEntity
  8
02製品
100
AcDbLine
 10
10195.05820392194
 20
1194.913796291725
 30
0.0
 11
10195.05820392194
 21
1193.713796291725
 31
0.0
  0
LINE
  5
400F
330
1F
100
AcDbEntity
  8
02製品
  6
CENTER
100
AcDbLine
 10
10137.05820392194
 20
1208.713796291728
 30
0.0
 11
10123.05820392194
 21
1208.713796291728
 31
0.0
  0
LINE
  5
4011
330
1F
100
AcDbEntity
  8
02製品
  6
CENTER
100
AcDbLine
 10
10137.05820392194
 20
1248.713796291728
 30
0.0
 11
10123.05820392194
 21
1248.713796291728
 31
0.0
  0
LINE
  5
4012
330
1F
100
AcDbEntity
  8
02製品
  6
CENTER
100
AcDbLine
 10
10130.05820392194
 20
1258.213796291726
 30
0.0
 11
10130.05820392194
 21
1239.213796291728
 31
0.0
  0
ARC
  5
4013
330
1F
100
AcDbEntity
  8
02製品
100
AcDbCircle
 10
10130.05820392194
 20
1211.213796291726
 30
0.0
 40
3.50000000000024
100
AcDbArc
 50
0.0
 51
180.0
  0
ARC
  5
4014
330
1F
100
AcDbEntity
  8
02製品
100
AcDbCircle
 10
10130.05820392194
 20
1246.213796291728
 30
0.0
 40
3.49999999999967
100
AcDbArc
 50
180.0
 51
0.0
  0
CIRCLE
  5
4015
330
1F
100
AcDbEntity
  8
02製品
100
AcDbCircle
 10
10130.05820392194
 20
1248.713796291726
 30
0.0
 40
3.0
  0
ARC
  5
4016
330
1F
100
AcDbEntity
  8
02製品
100
AcDbCircle
 10
10130.05820392194
 20
1251.213796291726
 30
0.0
 40
3.50000000000024
100
AcDbArc
 50
0.0
 51
180.0
  0
LINE
  5
4017
330
1F
100
AcDbEntity
  8
02製品
100
AcDbLine
 10
10126.55820392194
 20
1251.213796291726
 30
0.0
 11
10126.55820392194
 21
1246.213796291728
 31
0.0
  0
LINE
  5
4018
330
1F
100
AcDbEntity
  8
02製品
100
AcDbLine
 10
10133.55820392194
 20
1251.213796291726
 30
0.0
 11
10133.55820392194
 21
1246.213796291728
 31
0.0
  0
LINE
  5
4019
330
1F
100
AcDbEntity
  8
02製品
100
AcDbLine
 10
10133.55820392194
 20
1251.213796291726
 30
0.0
 11
10133.55820392194
 21
1246.213796291728
 31
0.0
  0
LINE
  5
401A
330
1F
100
AcDbEntity
  8
02製品
  6
CENTER
100
AcDbLine
 10
10105.05820392232
 20
1680.713796291746
 30
0.0
 11
10105.05820392232
 21
1666.713796291746
 31
0.0
  0
ARC
  5
401B
330
1F
100
AcDbEntity
  8
02製品
100
AcDbCircle
 10
10107.55820392232
 20
1673.713796291746
 30
0.0
 40
3.49999999999967
100
AcDbArc
 50
270.0
 51
90.0
  0
LINE
  5
401D
330
1F
100
AcDbEntity
  8
02製品
  6
CENTER
100
AcDbLine
 10
10045.05820392232
 20
1680.713796291741
 30
0.0
 11
10045.05820392232
 21
1666.713796291743
 31
0.0
  0
ARC
  5
401E
330
1F
100
AcDbEntity
  8
02製品
100
AcDbCircle
 10
10047.55820392232
 20
1673.713796291743
 30
0.0
 40
3.49999999999967
100
AcDbArc
 50
270.0
 51
90.0
  0
ARC
  5
401F
330
1F
100
AcDbEntity
  8
02製品
100
AcDbCircle
 10
10042.55820392232
 20
1673.713796291741
 30
0.0
 40
3.50000000000024
100
AcDbArc
 50
90.0
 51
270.0
  0
LINE
  5
4020
330
1F
100
AcDbEntity
  8
02製品
100
AcDbLine
 10
10030.05820392192
 20
1693.713796291726
 30
0.0
 11
10030.05820392192
 21
1653.713796291728
 31
0.0
  0
ARC
  5
4021
330
1F
100
AcDbEntity
  8
02製品
100
AcDbCircle
 10
10102.55820392232
 20
1673.713796291746
 30
0.0
 40
3.50000000000024
100
AcDbArc
 50
90.0
 51
270.0
  0
CIRCLE
  5
4022
330
1F
100
AcDbEntity
  8
02製品
100
AcDbCircle
 10
10105.05820392232
 20
1673.713796291743
 30
0.0
 40
3.0
  0
CIRCLE
  5
4023
330
1F
100
AcDbEntity
  8
02製品
100
AcDbCircle
 10
10045.05820392232
 20
1673.713796291741
 30
0.0
 40
3.0
  0
LINE
  5
4024
330
1F
100
AcDbEntity
  8
02製品
100
AcDbLine
 10
10030.05820392192
 20
1653.713796291754
 30
0.0
 11
10110.05820392192
 21
1573.713796291763
 31
0.0
  0
LINE
  5
4027
330
1F
100
AcDbEntity
  8
02製品
100
AcDbLine
 10
10042.55820392232
 20
1670.213796291743
 30
0.0
 11
10047.55820392232
 21
1670.213796291743
 31
0.0
  0
LINE
  5
4028
330
1F
100
AcDbEntity
  8
02製品
100
AcDbLine
 10
10102.55820392232
 20
1670.213796291746
 30
0.0
 11
10107.55820392232
 21
1670.213796291746
 31
0.0
  0
LINE
  5
4029
330
1F
100
AcDbEntity
  8
02製品
  6
CENTER
100
AcDbLine
 10
10035.55820392232
 20
1673.713796291741
 30
0.0
 11
10054.55820392232
 21
1673.713796291743
 31
0.0
  0
LINE
  5
402A
330
1F
100
AcDbEntity
  8
02製品
100
AcDbLine
 10
10042.55820392232
 20
1677.213796291741
 30
0.0
 11
10047.55820392232
 21
1677.213796291741
 31
0.0
  0
LINE
  5
402B
330
1F
100
AcDbEntity
  8
02製品
  6
CENTER
100
AcDbLine
 10
10097.15820392194
 20
1673.713796291743
 30
0.0
 11
10116.15820392194
 21
1673.713796291743
 31
0.0
  0
LINE
  5
402C
330
1F
100
AcDbEntity
  8
02製品
100
AcDbLine
 10
10102.55820392232
 20
1677.213796291746
 30
0.0
 11
10107.55820392232
 21
1677.213796291746
 31
0.0
  0
LINE
  5
402E
330
1F
100
AcDbEntity
  8
02製品
100
AcDbLine
 10
11836.55820392195
 20
1573.713796291721
 30
0.0
 11
11836.55820392195
 21
1194.913796291727
 31
0.0
  0
LINE
  5
402F
330
1F
100
AcDbEntity
  8
02製品
100
AcDbLine
 10
11795.05820392195
 20
1693.713796291728
 30
0.0
 11
11795.05820392195
 21
1194.913796291725
 31
0.0
  0
CIRCLE
  5
4031
330
1F
100
AcDbEntity
  8
02製品
100
AcDbCircle
 10
11816.55820392195
 20
1208.713796291739
 30
0.0
 40
3.0
  0
LINE
  5
4032
330
1F
100
AcDbEntity
  8
02製品
100
AcDbLine
 10
11813.05820392195
 20
1211.213796291739
 30
0.0
 11
11813.05820392195
 21
1206.213796291739
 31
0.0
  0
LINE
  5
4033
330
1F
100
AcDbEntity
  8
02製品
  6
CENTER
100
AcDbLine
 10
11816.55820392195
 20
1218.213796291739
 30
0.0
 11
11816.55820392195
 21
1199.213796291739
 31
0.0
  0
LINE
  5
4034
330
1F
100
AcDbEntity
  8
02製品
100
AcDbLine
 10
11820.05820392195
 20
1211.213796291739
 30
0.0
 11
11820.05820392195
 21
1206.213796291739
 31
0.0
  0
LINE
  5
4035
330
1F
100
AcDbEntity
  8
02製品
100
AcDbLine
 10
11820.05820392195
 20
1211.213796291739
 30
0.0
 11
11820.05820392195
 21
1206.213796291739
 31
0.0
  0
ARC
  5
4036
330
1F
100
AcDbEntity
  8
02製品
100
AcDbCircle
 10
11816.55820392195
 20
1206.213796291739
 30
0.0
 40
3.49999999999967
100
AcDbArc
 50
180.0
 51
0.0
  0
LINE
  5
4037
330
1F
100
AcDbEntity
  8
02製品
  6
CENTER
100
AcDbLine
 10
11823.55820392195
 20
1208.713796291739
 30
0.0
 11
11809.55820392195
 21
1208.713796291739
 31
0.0
  0
LINE
  5
4039
330
1F
100
AcDbEntity
  8
02製品
  6
CENTER
100
AcDbLine
 10
11823.55820392195
 20
1248.713796291726
 30
0.0
 11
11809.55820392195
 21
1248.713796291726
 31
0.0
  0
LINE
  5
403A
330
1F
100
AcDbEntity
  8
02製品
  6
CENTER
100
AcDbLine
 10
11816.55820392195
 20
1258.213796291725
 30
0.0
 11
11816.55820392195
 21
1239.213796291726
 31
0.0
  0
ARC
  5
403B
330
1F
100
AcDbEntity
  8
02製品
100
AcDbCircle
 10
11816.55820392195
 20
1211.213796291739
 30
0.0
 40
3.50000000000024
100
AcDbArc
 50
0.0
 51
180.0
  0
ARC
  5
403C
330
1F
100
AcDbEntity
  8
02製品
100
AcDbCircle
 10
11816.55820392195
 20
1246.213796291726
 30
0.0
 40
3.49999999999967
100
AcDbArc
 50
180.0
 51
0.0
  0
ARC
  5
403D
330
1F
100
AcDbEntity
  8
02製品
100
AcDbCircle
 10
11816.55820392195
 20
1251.213796291725
 30
0.0
 40
3.50000000000024
100
AcDbArc
 50
0.0
 51
180.0
  0
CIRCLE
  5
403E
330
1F
100
AcDbEntity
  8
02製品
100
AcDbCircle
 10
11816.55820392195
 20
1248.713796291725
 30
0.0
 40
3.0
  0
LINE
  5
403F
330
1F
100
AcDbEntity
  8
02製品
100
AcDbLine
 10
11813.05820392195
 20
1251.213796291725
 30
0.0
 11
11813.05820392195
 21
1246.213796291726
 31
0.0
  0
LINE
  5
4040
330
1F
100
AcDbEntity
  8
02製品
100
AcDbLine
 10
11820.05820392195
 20
1251.213796291725
 30
0.0
 11
11820.05820392195
 21
1246.213796291726
 31
0.0
  0
LINE
  5
4041
330
1F
100
AcDbEntity
  8
02製品
100
AcDbLine
 10
11820.05820392195
 20
1251.213796291725
 30
0.0
 11
11820.05820392195
 21
1246.213796291726
 31
0.0
  0
ARC
  5
4042
330
1F
100
AcDbEntity
  8
02製品
100
AcDbCircle
 10
11904.05820392153
 20
1673.713796291579
 30
0.0
 40
3.50000000000024
100
AcDbArc
 50
270.0
 51
90.0
  0
ARC
  5
4043
330
1F
100
AcDbEntity
  8
02製品
100
AcDbCircle
 10
11899.05820392153
 20
1673.713796291579
 30
0.0
 40
3.49999999999967
100
AcDbArc
 50
90.0
 51
270.0
  0
LINE
  5
4044
330
1F
100
AcDbEntity
  8
02製品
  6
CENTER
100
AcDbLine
 10
11901.55820392153
 20
1680.713796291577
 30
0.0
 11
11901.55820392153
 21
1666.713796291579
 31
0.0
  0
LINE
  5
4045
330
1F
100
AcDbEntity
  8
02製品
100
AcDbLine
 10
11916.55820392195
 20
1693.713796291726
 30
0.0
 11
11916.55820392195
 21
1653.713796291726
 31
0.0
  0
ARC
  5
4047
330
1F
100
AcDbEntity
  8
02製品
100
AcDbCircle
 10
11844.05820392153
 20
1673.713796291486
 30
0.0
 40
3.50000000000024
100
AcDbArc
 50
270.0
 51
90.0
  0
ARC
  5
4048
330
1F
100
AcDbEntity
  8
02製品
100
AcDbCircle
 10
11839.05820392153
 20
1673.713796291486
 30
0.0
 40
3.49999999999967
100
AcDbArc
 50
90.0
 51
270.0
  0
LINE
  5
4049
330
1F
100
AcDbEntity
  8
02製品
  6
CENTER
100
AcDbLine
 10
11841.55820392153
 20
1680.713796291484
 30
0.0
 11
11841.55820392153
 21
1666.713796291486
 31
0.0
  0
CIRCLE
  5
404A
330
1F
100
AcDbEntity
  8
02製品
100
AcDbCircle
 10
11841.55820392154
 20
1673.713796291577
 30
0.0
 40
3.0
  0
CIRCLE
  5
404B
330
1F
100
AcDbEntity
  8
02製品
100
AcDbCircle
 10
11901.55820392153
 20
1673.713796291577
 30
0.0
 40
3.0
  0
LINE
  5
404C
330
1F
100
AcDbEntity
  8
02製品
100
AcDbLine
 10
11916.55820392195
 20
1653.713796291725
 30
0.0
 11
11836.55820392196
 21
1573.713796291725
 31
0.0
  0
LINE
  5
404F
330
1F
100
AcDbEntity
  8
02製品
100
AcDbLine
 10
11844.05820392153
 20
1670.213796291486
 30
0.0
 11
11839.05820392153
 21
1670.213796291486
 31
0.0
  0
LINE
  5
4050
330
1F
100
AcDbEntity
  8
02製品
100
AcDbLine
 10
11904.05820392153
 20
1670.213796291579
 30
0.0
 11
11899.05820392153
 21
1670.213796291579
 31
0.0
  0
LINE
  5
4051
330
1F
100
AcDbEntity
  8
02製品
  6
CENTER
100
AcDbLine
 10
11851.05820392195
 20
1673.713796291726
 30
0.0
 11
11832.05820392195
 21
1673.713796291726
 31
0.0
  0
LINE
  5
4052
330
1F
100
AcDbEntity
  8
02製品
100
AcDbLine
 10
11844.05820392153
 20
1677.213796291484
 30
0.0
 11
11839.05820392153
 21
1677.213796291484
 31
0.0
  0
LINE
  5
4053
330
1F
100
AcDbEntity
  8
02製品
  6
CENTER
100
AcDbLine
 10
11911.05820392153
 20
1673.713796291577
 30
0.0
 11
11892.05820392153
 21
1673.713796291577
 31
0.0
  0
LINE
  5
4054
330
1F
100
AcDbEntity
  8
02製品
100
AcDbLine
 10
11904.05820392153
 20
1677.213796291577
 30
0.0
 11
11899.05820392153
 21
1677.213796291577
 31
0.0
  0
CIRCLE
  5
4055
330
1F
100
AcDbEntity
  8
02製品
100
AcDbCircle
 10
9545.058203921944
 20
3110.213796291728
 30
0.0
 40
15.0
  0
CIRCLE
  5
4056
330
1F
100
AcDbEntity
  8
02製品
100
AcDbCircle
 10
9545.058203921944
 20
2630.213796291728
 30
0.0
 40
15.0
  0
LINE
  5
4058
330
1F
100
AcDbEntity
  8
02製品
100
AcDbLine
 10
9215.058203921944
 20
2395.213796291728
 30
0.0
 11
9258.558203921944
 21
2395.213796291728
 31
0.0
  0
CIRCLE
  5
4059
330
1F
100
AcDbEntity
  8
02製品
100
AcDbCircle
 10
9545.058203921944
 20
2510.213796291728
 30
0.0
 40
15.0
  0
CIRCLE
  5
405A
330
1F
100
AcDbEntity
  8
02製品
100
AcDbCircle
 10
9545.058203921944
 20
2430.213796291728
 30
0.0
 40
15.0
  0
CIRCLE
  5
405B
330
1F
100
AcDbEntity
  8
02製品
100
AcDbCircle
 10
9545.058203921944
 20
2470.213796291728
 30
0.0
 40
15.0
  0
CIRCLE
  5
405C
330
1F
100
AcDbEntity
  8
02製品
100
AcDbCircle
 10
9545.058203921944
 20
2550.213796291728
 30
0.0
 40
15.0
  0
CIRCLE
  5
405D
330
1F
100
AcDbEntity
  8
02製品
100
AcDbCircle
 10
9545.058203921944
 20
2590.213796291728
 30
0.0
 40
15.0
  0
CIRCLE
  5
405E
330
1F
100
AcDbEntity
  8
02製品
100
AcDbCircle
 10
9545.058203921944
 20
2870.213796291728
 30
0.0
 40
15.0
  0
CIRCLE
  5
405F
330
1F
100
AcDbEntity
  8
02製品
100
AcDbCircle
 10
9545.058203921944
 20
2750.213796291728
 30
0.0
 40
15.0
  0
CIRCLE
  5
4060
330
1F
100
AcDbEntity
  8
02製品
100
AcDbCircle
 10
9545.058203921944
 20
2670.213796291728
 30
0.0
 40
15.0
  0
CIRCLE
  5
4061
330
1F
100
AcDbEntity
  8
02製品
100
AcDbCircle
 10
9545.058203921944
 20
2710.213796291728
 30
0.0
 40
15.0
  0
CIRCLE
  5
4062
330
1F
100
AcDbEntity
  8
02製品
100
AcDbCircle
 10
9545.058203921944
 20
2790.213796291728
 30
0.0
 40
15.0
  0
CIRCLE
  5
4063
330
1F
100
AcDbEntity
  8
02製品
100
AcDbCircle
 10
9545.058203921944
 20
2830.213796291728
 30
0.0
 40
15.0
  0
CIRCLE
  5
4064
330
1F
100
AcDbEntity
  8
02製品
100
AcDbCircle
 10
9545.058203921944
 20
2990.213796291728
 30
0.0
 40
15.0
  0
CIRCLE
  5
4065
330
1F
100
AcDbEntity
  8
02製品
100
AcDbCircle
 10
9545.058203921944
 20
2950.213796291728
 30
0.0
 40
15.0
  0
CIRCLE
  5
4066
330
1F
100
AcDbEntity
  8
02製品
100
AcDbCircle
 10
9545.058203921944
 20
2910.213796291728
 30
0.0
 40
15.0
  0
CIRCLE
  5
4067
330
1F
100
AcDbEntity
  8
02製品
100
AcDbCircle
 10
9545.058203921944
 20
3070.213796291728
 30
0.0
 40
15.0
  0
CIRCLE
  5
4068
330
1F
100
AcDbEntity
  8
02製品
100
AcDbCircle
 10
9545.058203921944
 20
3030.213796291728
 30
0.0
 40
15.0
  0
LINE
  5
406A
330
1F
100
AcDbEntity
  8
02製品
100
AcDbLine
 10
9215.058203921952
 20
3225.213796291728
 30
0.0
 11
9258.558203921944
 21
3225.213796291728
 31
0.0
  0
CIRCLE
  5
406C
330
1F
100
AcDbEntity
  8
02製品
100
AcDbCircle
 10
9545.058203921944
 20
3190.213796291728
 30
0.0
 40
15.0
  0
CIRCLE
  5
406D
330
1F
100
AcDbEntity
  8
02製品
100
AcDbCircle
 10
9545.058203921944
 20
3150.213796291728
 30
0.0
 40
15.0
  0
LINE
  5
406E
330
1F
100
AcDbEntity
  8
02製品
100
AcDbLine
 10
9260.058203921944
 20
2395.213796291728
 30
0.0
 11
9260.058203921952
 21
3225.213796291728
 31
0.0
  0
LINE
  5
406F
330
1F
100
AcDbEntity
  8
02製品
100
AcDbLine
 10
9260.058203921952
 20
3225.213796291728
 30
0.0
 11
9260.058203921944
 21
2395.213796291728
 31
0.0
  0
LINE
  5
4072
330
1F
100
AcDbEntity
  8
02製品
100
AcDbLine
 10
9215.058203921952
 20
3225.213796291728
 30
0.0
 11
9215.058203921944
 21
2395.213796291728
 31
0.0
  0
CIRCLE
  5
4073
330
1F
100
AcDbEntity
  8
02製品
100
AcDbCircle
 10
9425.058203921944
 20
2770.213796291728
 30
0.0
 40
15.0
  0
CIRCLE
  5
4074
330
1F
100
AcDbEntity
  8
02製品
100
AcDbCircle
 10
9345.058203921944
 20
2770.213796291728
 30
0.0
 40
15.0
  0
CIRCLE
  5
4075
330
1F
100
AcDbEntity
  8
02製品
100
AcDbCircle
 10
9505.058203921944
 20
2770.213796291728
 30
0.0
 40
15.0
  0
LINE
  5
4076
330
1F
100
AcDbEntity
  8
02製品
  6
CENTER
100
AcDbLine
 10
9214.558203921944
 20
2430.213796291743
 30
0.0
 11
9235.558203921944
 21
2430.213796291743
 31
0.0
  0
LINE
  5
4077
330
1F
100
AcDbEntity
  8
02製品
  6
CENTER
100
AcDbLine
 10
9214.558203921944
 20
2620.213796291743
 30
0.0
 11
9235.558203921944
 21
2620.213796291743
 31
0.0
  0
CIRCLE
  5
4078
330
1F
100
AcDbEntity
  8
02製品
100
AcDbCircle
 10
9465.058203921944
 20
2550.213796291728
 30
0.0
 40
15.0
  0
CIRCLE
  5
4079
330
1F
100
AcDbEntity
  8
02製品
100
AcDbCircle
 10
9305.058203921944
 20
2550.213796291728
 30
0.0
 40
15.0
  0
CIRCLE
  5
407A
330
1F
100
AcDbEntity
  8
02製品
100
AcDbCircle
 10
9385.058203921944
 20
2550.213796291728
 30
0.0
 40
15.0
  0
CIRCLE
  5
407B
330
1F
100
AcDbEntity
  8
02製品
100
AcDbCircle
 10
9425.058203921944
 20
2530.213796291728
 30
0.0
 40
15.0
  0
CIRCLE
  5
407C
330
1F
100
AcDbEntity
  8
02製品
100
AcDbCircle
 10
9345.058203921944
 20
2530.213796291728
 30
0.0
 40
15.0
  0
CIRCLE
  5
407D
330
1F
100
AcDbEntity
  8
02製品
100
AcDbCircle
 10
9505.058203921944
 20
2530.213796291728
 30
0.0
 40
15.0
  0
CIRCLE
  5
407E
330
1F
100
AcDbEntity
  8
02製品
100
AcDbCircle
 10
9385.058203921944
 20
2510.213796291728
 30
0.0
 40
15.0
  0
CIRCLE
  5
407F
330
1F
100
AcDbEntity
  8
02製品
100
AcDbCircle
 10
9385.058203921944
 20
2430.213796291728
 30
0.0
 40
15.0
  0
CIRCLE
  5
4080
330
1F
100
AcDbEntity
  8
02製品
100
AcDbCircle
 10
9385.058203921944
 20
2470.213796291728
 30
0.0
 40
15.0
  0
LINE
  5
4081
330
1F
100
AcDbEntity
  8
02製品
100
AcDbLine
 10
9258.558203921944
 20
2515.213796291728
 30
0.0
 11
9258.558203921944
 21
2393.713796291728
 31
0.0
  0
CIRCLE
  5
4082
330
1F
100
AcDbEntity
  8
02製品
100
AcDbCircle
 10
9305.058203921944
 20
2430.213796291728
 30
0.0
 40
15.0
  0
LINE
  5
4083
330
1F
100
AcDbEntity
  8
02製品
  6
CENTER
100
AcDbLine
 10
9225.058203921944
 20
2440.713796291746
 30
0.0
 11
9225.058203921944
 21
2419.713796291746
 31
0.0
  0
LINE
  5
4084
330
1F
100
AcDbEntity
  8
02製品
100
AcDbLine
 10
9258.558203921944
 20
2393.713796291728
 30
0.0
 11
9380.058203921944
 21
2393.713796291728
 31
0.0
  0
LINE
  5
4085
330
1F
100
AcDbEntity
  8
02製品
100
AcDbLine
 10
9260.058203921944
 20
2395.213796291743
 30
0.0
 11
9300.058203921944
 21
2395.213796291743
 31
0.0
  0
LINE
  5
4086
330
1F
100
AcDbEntity
  8
02製品
100
AcDbLine
 10
9380.058203921944
 20
2395.213796291728
 30
0.0
 11
9380.058203921944
 21
2393.713796291728
 31
0.0
  0
CIRCLE
  5
4087
330
1F
100
AcDbEntity
  8
02製品
100
AcDbCircle
 10
9305.058203921944
 20
2510.213796291728
 30
0.0
 40
15.0
  0
CIRCLE
  5
4088
330
1F
100
AcDbEntity
  8
02製品
100
AcDbCircle
 10
9305.058203921944
 20
2470.213796291728
 30
0.0
 40
15.0
  0
CIRCLE
  5
4089
330
1F
100
AcDbEntity
  8
02製品
100
AcDbCircle
 10
9225.058203921944
 20
2430.213796291743
 30
0.0
 40
3.5
  0
LINE
  5
408A
330
1F
100
AcDbEntity
  8
02製品
100
AcDbLine
 10
9258.558203921944
 20
2515.213796291728
 30
0.0
 11
9260.058203921944
 21
2515.213796291728
 31
0.0
  0
CIRCLE
  5
408B
330
1F
100
AcDbEntity
  8
02製品
100
AcDbCircle
 10
9345.058203921944
 20
2490.213796291728
 30
0.0
 40
15.0
  0
CIRCLE
  5
408C
330
1F
100
AcDbEntity
  8
02製品
100
AcDbCircle
 10
9345.058203921944
 20
2450.213796291728
 30
0.0
 40
15.0
  0
CIRCLE
  5
408D
330
1F
100
AcDbEntity
  8
02製品
100
AcDbCircle
 10
9465.058203921944
 20
2430.213796291728
 30
0.0
 40
15.0
  0
CIRCLE
  5
408E
330
1F
100
AcDbEntity
  8
02製品
100
AcDbCircle
 10
9465.058203921944
 20
2470.213796291728
 30
0.0
 40
15.0
  0
CIRCLE
  5
408F
330
1F
100
AcDbEntity
  8
02製品
100
AcDbCircle
 10
9465.058203921944
 20
2510.213796291728
 30
0.0
 40
15.0
  0
CIRCLE
  5
4090
330
1F
100
AcDbEntity
  8
02製品
100
AcDbCircle
 10
9425.058203921944
 20
2490.213796291728
 30
0.0
 40
15.0
  0
CIRCLE
  5
4091
330
1F
100
AcDbEntity
  8
02製品
100
AcDbCircle
 10
9425.058203921944
 20
2450.213796291728
 30
0.0
 40
15.0
  0
CIRCLE
  5
4092
330
1F
100
AcDbEntity
  8
02製品
100
AcDbCircle
 10
9505.058203921944
 20
2490.213796291728
 30
0.0
 40
15.0
  0
CIRCLE
  5
4093
330
1F
100
AcDbEntity
  8
02製品
100
AcDbCircle
 10
9505.058203921944
 20
2450.213796291728
 30
0.0
 40
15.0
  0
CIRCLE
  5
4094
330
1F
100
AcDbEntity
  8
02製品
100
AcDbCircle
 10
9385.058203921944
 20
2630.213796291728
 30
0.0
 40
15.0
  0
CIRCLE
  5
4095
330
1F
100
AcDbEntity
  8
02製品
100
AcDbCircle
 10
9385.058203921944
 20
2590.213796291728
 30
0.0
 40
15.0
  0
CIRCLE
  5
4096
330
1F
100
AcDbEntity
  8
02製品
100
AcDbCircle
 10
9385.058203921944
 20
2750.213796291728
 30
0.0
 40
15.0
  0
CIRCLE
  5
4097
330
1F
100
AcDbEntity
  8
02製品
100
AcDbCircle
 10
9385.058203921944
 20
2670.213796291728
 30
0.0
 40
15.0
  0
CIRCLE
  5
4098
330
1F
100
AcDbEntity
  8
02製品
100
AcDbCircle
 10
9385.058203921944
 20
2710.213796291728
 30
0.0
 40
15.0
  0
CIRCLE
  5
4099
330
1F
100
AcDbEntity
  8
02製品
100
AcDbCircle
 10
9345.058203921944
 20
2650.213796291728
 30
0.0
 40
15.0
  0
CIRCLE
  5
409A
330
1F
100
AcDbEntity
  8
02製品
100
AcDbCircle
 10
9305.058203921944
 20
2630.213796291728
 30
0.0
 40
15.0
  0
CIRCLE
  5
409B
330
1F
100
AcDbEntity
  8
02製品
100
AcDbCircle
 10
9305.058203921944
 20
2590.213796291728
 30
0.0
 40
15.0
  0
LINE
  5
409C
330
1F
100
AcDbEntity
  8
02製品
  6
CENTER
100
AcDbLine
 10
9225.058203921944
 20
2630.713796291746
 30
0.0
 11
9225.058203921944
 21
2609.713796291746
 31
0.0
  0
CIRCLE
  5
409D
330
1F
100
AcDbEntity
  8
02製品
100
AcDbCircle
 10
9225.058203921944
 20
2620.213796291743
 30
0.0
 40
3.5
  0
CIRCLE
  5
409E
330
1F
100
AcDbEntity
  8
02製品
100
AcDbCircle
 10
9345.058203921944
 20
2570.213796291728
 30
0.0
 40
15.0
  0
CIRCLE
  5
409F
330
1F
100
AcDbEntity
  8
02製品
100
AcDbCircle
 10
9345.058203921944
 20
2610.213796291728
 30
0.0
 40
15.0
  0
CIRCLE
  5
40A0
330
1F
100
AcDbEntity
  8
02製品
100
AcDbCircle
 10
9305.058203921944
 20
2750.213796291728
 30
0.0
 40
15.0
  0
CIRCLE
  5
40A1
330
1F
100
AcDbEntity
  8
02製品
100
AcDbCircle
 10
9305.058203921944
 20
2670.213796291728
 30
0.0
 40
15.0
  0
CIRCLE
  5
40A2
330
1F
100
AcDbEntity
  8
02製品
100
AcDbCircle
 10
9305.058203921944
 20
2710.213796291728
 30
0.0
 40
15.0
  0
CIRCLE
  5
40A3
330
1F
100
AcDbEntity
  8
02製品
100
AcDbCircle
 10
9345.058203921944
 20
2690.213796291728
 30
0.0
 40
15.0
  0
CIRCLE
  5
40A4
330
1F
100
AcDbEntity
  8
02製品
100
AcDbCircle
 10
9345.058203921944
 20
2730.213796291728
 30
0.0
 40
15.0
  0
CIRCLE
  5
40A5
330
1F
100
AcDbEntity
  8
02製品
100
AcDbCircle
 10
9425.058203921944
 20
2650.213796291728
 30
0.0
 40
15.0
  0
CIRCLE
  5
40A6
330
1F
100
AcDbEntity
  8
02製品
100
AcDbCircle
 10
9505.058203921944
 20
2650.213796291728
 30
0.0
 40
15.0
  0
CIRCLE
  5
40A7
330
1F
100
AcDbEntity
  8
02製品
100
AcDbCircle
 10
9465.058203921944
 20
2630.213796291728
 30
0.0
 40
15.0
  0
CIRCLE
  5
40A8
330
1F
100
AcDbEntity
  8
02製品
100
AcDbCircle
 10
9465.058203921944
 20
2590.213796291728
 30
0.0
 40
15.0
  0
CIRCLE
  5
40A9
330
1F
100
AcDbEntity
  8
02製品
100
AcDbCircle
 10
9425.058203921944
 20
2570.213796291728
 30
0.0
 40
15.0
  0
CIRCLE
  5
40AA
330
1F
100
AcDbEntity
  8
02製品
100
AcDbCircle
 10
9425.058203921944
 20
2610.213796291728
 30
0.0
 40
15.0
  0
CIRCLE
  5
40AB
330
1F
100
AcDbEntity
  8
02製品
100
AcDbCircle
 10
9505.058203921944
 20
2570.213796291728
 30
0.0
 40
15.0
  0
CIRCLE
  5
40AC
330
1F
100
AcDbEntity
  8
02製品
100
AcDbCircle
 10
9505.058203921944
 20
2610.213796291728
 30
0.0
 40
15.0
  0
CIRCLE
  5
40AD
330
1F
100
AcDbEntity
  8
02製品
100
AcDbCircle
 10
9465.058203921944
 20
2710.213796291728
 30
0.0
 40
15.0
  0
CIRCLE
  5
40AE
330
1F
100
AcDbEntity
  8
02製品
100
AcDbCircle
 10
9465.058203921944
 20
2670.213796291728
 30
0.0
 40
15.0
  0
CIRCLE
  5
40AF
330
1F
100
AcDbEntity
  8
02製品
100
AcDbCircle
 10
9465.058203921944
 20
2750.213796291728
 30
0.0
 40
15.0
  0
CIRCLE
  5
40B0
330
1F
100
AcDbEntity
  8
02製品
100
AcDbCircle
 10
9425.058203921944
 20
2690.213796291728
 30
0.0
 40
15.0
  0
CIRCLE
  5
40B1
330
1F
100
AcDbEntity
  8
02製品
100
AcDbCircle
 10
9425.058203921944
 20
2730.213796291728
 30
0.0
 40
15.0
  0
CIRCLE
  5
40B2
330
1F
100
AcDbEntity
  8
02製品
100
AcDbCircle
 10
9505.058203921944
 20
2690.213796291728
 30
0.0
 40
15.0
  0
CIRCLE
  5
40B3
330
1F
100
AcDbEntity
  8
02製品
100
AcDbCircle
 10
9505.058203921944
 20
2730.213796291728
 30
0.0
 40
15.0
  0
LINE
  5
40B4
330
1F
100
AcDbEntity
  8
02製品
  6
CENTER
100
AcDbLine
 10
9214.558203921944
 20
2810.213796291743
 30
0.0
 11
9235.558203921944
 21
2810.213796291743
 31
0.0
  0
LINE
  5
40B5
330
1F
100
AcDbEntity
  8
02製品
  6
CENTER
100
AcDbLine
 10
9214.558203921944
 20
3000.213796291743
 30
0.0
 11
9235.558203921944
 21
3000.213796291743
 31
0.0
  0
LINE
  5
40B6
330
1F
100
AcDbEntity
  8
02製品
  6
CENTER
100
AcDbLine
 10
9214.558203921944
 20
3190.213796291739
 30
0.0
 11
9235.558203921944
 21
3190.213796291739
 31
0.0
  0
CIRCLE
  5
40B7
330
1F
100
AcDbEntity
  8
02製品
100
AcDbCircle
 10
9465.058203921944
 20
2990.213796291728
 30
0.0
 40
15.0
  0
CIRCLE
  5
40B8
330
1F
100
AcDbEntity
  8
02製品
100
AcDbCircle
 10
9385.058203921944
 20
2990.213796291728
 30
0.0
 40
15.0
  0
CIRCLE
  5
40B9
330
1F
100
AcDbEntity
  8
02製品
100
AcDbCircle
 10
9425.058203921944
 20
3010.213796291728
 30
0.0
 40
15.0
  0
CIRCLE
  5
40BA
330
1F
100
AcDbEntity
  8
02製品
100
AcDbCircle
 10
9225.058203921944
 20
3000.213796291743
 30
0.0
 40
3.5
  0
LINE
  5
40BB
330
1F
100
AcDbEntity
  8
02製品
  6
CENTER
100
AcDbLine
 10
9225.058203921944
 20
3010.713796291746
 30
0.0
 11
9225.058203921944
 21
2989.713796291746
 31
0.0
  0
CIRCLE
  5
40BC
330
1F
100
AcDbEntity
  8
02製品
100
AcDbCircle
 10
9305.058203921944
 20
2990.213796291728
 30
0.0
 40
15.0
  0
CIRCLE
  5
40BD
330
1F
100
AcDbEntity
  8
02製品
100
AcDbCircle
 10
9345.058203921944
 20
3010.213796291728
 30
0.0
 40
15.0
  0
CIRCLE
  5
40BE
330
1F
100
AcDbEntity
  8
02製品
100
AcDbCircle
 10
9505.058203921944
 20
3010.213796291728
 30
0.0
 40
15.0
  0
CIRCLE
  5
40BF
330
1F
100
AcDbEntity
  8
02製品
100
AcDbCircle
 10
9385.058203921944
 20
2870.213796291728
 30
0.0
 40
15.0
  0
CIRCLE
  5
40C0
330
1F
100
AcDbEntity
  8
02製品
100
AcDbCircle
 10
9385.058203921944
 20
2790.213796291728
 30
0.0
 40
15.0
  0
CIRCLE
  5
40C1
330
1F
100
AcDbEntity
  8
02製品
100
AcDbCircle
 10
9385.058203921944
 20
2830.213796291728
 30
0.0
 40
15.0
  0
CIRCLE
  5
40C2
330
1F
100
AcDbEntity
  8
02製品
100
AcDbCircle
 10
9385.058203921944
 20
2950.213796291728
 30
0.0
 40
15.0
  0
CIRCLE
  5
40C3
330
1F
100
AcDbEntity
  8
02製品
100
AcDbCircle
 10
9385.058203921944
 20
2910.213796291728
 30
0.0
 40
15.0
  0
CIRCLE
  5
40C4
330
1F
100
AcDbEntity
  8
02製品
100
AcDbCircle
 10
9305.058203921944
 20
2870.213796291728
 30
0.0
 40
15.0
  0
CIRCLE
  5
40C5
330
1F
100
AcDbEntity
  8
02製品
100
AcDbCircle
 10
9345.058203921944
 20
2890.213796291728
 30
0.0
 40
15.0
  0
CIRCLE
  5
40C6
330
1F
100
AcDbEntity
  8
02製品
100
AcDbCircle
 10
9305.058203921944
 20
2790.213796291728
 30
0.0
 40
15.0
  0
CIRCLE
  5
40C7
330
1F
100
AcDbEntity
  8
02製品
100
AcDbCircle
 10
9305.058203921944
 20
2830.213796291728
 30
0.0
 40
15.0
  0
LINE
  5
40C8
330
1F
100
AcDbEntity
  8
02製品
  6
CENTER
100
AcDbLine
 10
9225.058203921944
 20
2820.713796291746
 30
0.0
 11
9225.058203921944
 21
2799.713796291746
 31
0.0
  0
CIRCLE
  5
40C9
330
1F
100
AcDbEntity
  8
02製品
100
AcDbCircle
 10
9225.058203921944
 20
2810.213796291743
 30
0.0
 40
3.5
  0
CIRCLE
  5
40CA
330
1F
100
AcDbEntity
  8
02製品
100
AcDbCircle
 10
9345.058203921944
 20
2810.213796291728
 30
0.0
 40
15.0
  0
CIRCLE
  5
40CB
330
1F
100
AcDbEntity
  8
02製品
100
AcDbCircle
 10
9345.058203921944
 20
2850.213796291728
 30
0.0
 40
15.0
  0
CIRCLE
  5
40CC
330
1F
100
AcDbEntity
  8
02製品
100
AcDbCircle
 10
9305.058203921944
 20
2950.213796291728
 30
0.0
 40
15.0
  0
CIRCLE
  5
40CD
330
1F
100
AcDbEntity
  8
02製品
100
AcDbCircle
 10
9305.058203921944
 20
2910.213796291728
 30
0.0
 40
15.0
  0
CIRCLE
  5
40CE
330
1F
100
AcDbEntity
  8
02製品
100
AcDbCircle
 10
9345.058203921944
 20
2930.213796291728
 30
0.0
 40
15.0
  0
CIRCLE
  5
40CF
330
1F
100
AcDbEntity
  8
02製品
100
AcDbCircle
 10
9345.058203921944
 20
2970.213796291728
 30
0.0
 40
15.0
  0
CIRCLE
  5
40D0
330
1F
100
AcDbEntity
  8
02製品
100
AcDbCircle
 10
9465.058203921944
 20
2870.213796291728
 30
0.0
 40
15.0
  0
CIRCLE
  5
40D1
330
1F
100
AcDbEntity
  8
02製品
100
AcDbCircle
 10
9425.058203921944
 20
2890.213796291728
 30
0.0
 40
15.0
  0
CIRCLE
  5
40D2
330
1F
100
AcDbEntity
  8
02製品
100
AcDbCircle
 10
9505.058203921944
 20
2890.213796291728
 30
0.0
 40
15.0
  0
CIRCLE
  5
40D3
330
1F
100
AcDbEntity
  8
02製品
100
AcDbCircle
 10
9465.058203921944
 20
2830.213796291728
 30
0.0
 40
15.0
  0
CIRCLE
  5
40D4
330
1F
100
AcDbEntity
  8
02製品
100
AcDbCircle
 10
9465.058203921944
 20
2790.213796291728
 30
0.0
 40
15.0
  0
CIRCLE
  5
40D5
330
1F
100
AcDbEntity
  8
02製品
100
AcDbCircle
 10
9425.058203921944
 20
2810.213796291728
 30
0.0
 40
15.0
  0
CIRCLE
  5
40D6
330
1F
100
AcDbEntity
  8
02製品
100
AcDbCircle
 10
9425.058203921944
 20
2850.213796291728
 30
0.0
 40
15.0
  0
CIRCLE
  5
40D7
330
1F
100
AcDbEntity
  8
02製品
100
AcDbCircle
 10
9505.058203921944
 20
2810.213796291728
 30
0.0
 40
15.0
  0
CIRCLE
  5
40D8
330
1F
100
AcDbEntity
  8
02製品
100
AcDbCircle
 10
9505.058203921944
 20
2850.213796291728
 30
0.0
 40
15.0
  0
CIRCLE
  5
40D9
330
1F
100
AcDbEntity
  8
02製品
100
AcDbCircle
 10
9465.058203921944
 20
2910.213796291728
 30
0.0
 40
15.0
  0
CIRCLE
  5
40DA
330
1F
100
AcDbEntity
  8
02製品
100
AcDbCircle
 10
9465.058203921944
 20
2950.213796291728
 30
0.0
 40
15.0
  0
CIRCLE
  5
40DB
330
1F
100
AcDbEntity
  8
02製品
100
AcDbCircle
 10
9425.058203921944
 20
2930.213796291728
 30
0.0
 40
15.0
  0
CIRCLE
  5
40DC
330
1F
100
AcDbEntity
  8
02製品
100
AcDbCircle
 10
9425.058203921944
 20
2970.213796291728
 30
0.0
 40
15.0
  0
CIRCLE
  5
40DD
330
1F
100
AcDbEntity
  8
02製品
100
AcDbCircle
 10
9505.058203921944
 20
2930.213796291728
 30
0.0
 40
15.0
  0
CIRCLE
  5
40DE
330
1F
100
AcDbEntity
  8
02製品
100
AcDbCircle
 10
9505.058203921944
 20
2970.213796291728
 30
0.0
 40
15.0
  0
CIRCLE
  5
40DF
330
1F
100
AcDbEntity
  8
02製品
100
AcDbCircle
 10
9385.058203921944
 20
3110.213796291728
 30
0.0
 40
15.0
  0
CIRCLE
  5
40E0
330
1F
100
AcDbEntity
  8
02製品
100
AcDbCircle
 10
9385.058203921944
 20
3070.213796291728
 30
0.0
 40
15.0
  0
CIRCLE
  5
40E1
330
1F
100
AcDbEntity
  8
02製品
100
AcDbCircle
 10
9385.058203921944
 20
3030.213796291728
 30
0.0
 40
15.0
  0
CIRCLE
  5
40E2
330
1F
100
AcDbEntity
  8
02製品
100
AcDbCircle
 10
9385.058203921944
 20
3190.213796291728
 30
0.0
 40
15.0
  0
CIRCLE
  5
40E3
330
1F
100
AcDbEntity
  8
02製品
100
AcDbCircle
 10
9385.058203921944
 20
3150.213796291728
 30
0.0
 40
15.0
  0
CIRCLE
  5
40E4
330
1F
100
AcDbEntity
  8
02製品
100
AcDbCircle
 10
9305.058203921944
 20
3110.213796291728
 30
0.0
 40
15.0
  0
CIRCLE
  5
40E5
330
1F
100
AcDbEntity
  8
02製品
100
AcDbCircle
 10
9345.058203921944
 20
3130.213796291728
 30
0.0
 40
15.0
  0
LINE
  5
40E6
330
1F
100
AcDbEntity
  8
02製品
100
AcDbLine
 10
9258.558203921944
 20
3226.713796291732
 30
0.0
 11
9258.55820392194
 21
3105.213796291728
 31
0.0
  0
CIRCLE
  5
40E7
330
1F
100
AcDbEntity
  8
02製品
100
AcDbCircle
 10
9305.058203921944
 20
3070.213796291728
 30
0.0
 40
15.0
  0
CIRCLE
  5
40E8
330
1F
100
AcDbEntity
  8
02製品
100
AcDbCircle
 10
9305.058203921944
 20
3030.213796291728
 30
0.0
 40
15.0
  0
LINE
  5
40E9
330
1F
100
AcDbEntity
  8
02製品
100
AcDbLine
 10
9258.55820392194
 20
3105.213796291728
 30
0.0
 11
9260.058203921944
 21
3105.213796291728
 31
0.0
  0
CIRCLE
  5
40EA
330
1F
100
AcDbEntity
  8
02製品
100
AcDbCircle
 10
9345.058203921944
 20
3050.213796291728
 30
0.0
 40
15.0
  0
CIRCLE
  5
40EB
330
1F
100
AcDbEntity
  8
02製品
100
AcDbCircle
 10
9345.058203921944
 20
3090.213796291728
 30
0.0
 40
15.0
  0
CIRCLE
  5
40EC
330
1F
100
AcDbEntity
  8
02製品
100
AcDbCircle
 10
9305.058203921944
 20
3190.213796291728
 30
0.0
 40
15.0
  0
CIRCLE
  5
40ED
330
1F
100
AcDbEntity
  8
02製品
100
AcDbCircle
 10
9305.058203921944
 20
3150.213796291728
 30
0.0
 40
15.0
  0
LINE
  5
40EE
330
1F
100
AcDbEntity
  8
02製品
100
AcDbLine
 10
9258.558203921944
 20
3226.713796291732
 30
0.0
 11
9380.058203921944
 21
3226.713796291728
 31
0.0
  0
LINE
  5
40EF
330
1F
100
AcDbEntity
  8
02製品
100
AcDbLine
 10
9260.058203921952
 20
3225.213796291739
 30
0.0
 11
9300.058203921944
 21
3225.213796291743
 31
0.0
  0
LINE
  5
40F0
330
1F
100
AcDbEntity
  8
02製品
  6
CENTER
100
AcDbLine
 10
9225.058203921944
 20
3200.713796291743
 30
0.0
 11
9225.058203921944
 21
3179.713796291743
 31
0.0
  0
CIRCLE
  5
40F1
330
1F
100
AcDbEntity
  8
02製品
100
AcDbCircle
 10
9225.058203921944
 20
3190.213796291743
 30
0.0
 40
3.5
  0
CIRCLE
  5
40F2
330
1F
100
AcDbEntity
  8
02製品
100
AcDbCircle
 10
9345.058203921944
 20
3170.213796291728
 30
0.0
 40
15.0
  0
LINE
  5
40F3
330
1F
100
AcDbEntity
  8
02製品
100
AcDbLine
 10
9380.058203921944
 20
3226.713796291728
 30
0.0
 11
9380.058203921944
 21
3225.213796291728
 31
0.0
  0
CIRCLE
  5
40F4
330
1F
100
AcDbEntity
  8
02製品
100
AcDbCircle
 10
9505.058203921944
 20
3130.213796291728
 30
0.0
 40
15.0
  0
CIRCLE
  5
40F5
330
1F
100
AcDbEntity
  8
02製品
100
AcDbCircle
 10
9425.058203921944
 20
3130.213796291728
 30
0.0
 40
15.0
  0
CIRCLE
  5
40F6
330
1F
100
AcDbEntity
  8
02製品
100
AcDbCircle
 10
9465.058203921944
 20
3110.213796291728
 30
0.0
 40
15.0
  0
CIRCLE
  5
40F7
330
1F
100
AcDbEntity
  8
02製品
100
AcDbCircle
 10
9465.058203921944
 20
3030.213796291728
 30
0.0
 40
15.0
  0
CIRCLE
  5
40F8
330
1F
100
AcDbEntity
  8
02製品
100
AcDbCircle
 10
9465.058203921944
 20
3070.213796291728
 30
0.0
 40
15.0
  0
CIRCLE
  5
40F9
330
1F
100
AcDbEntity
  8
02製品
100
AcDbCircle
 10
9425.058203921944
 20
3050.213796291728
 30
0.0
 40
15.0
  0
CIRCLE
  5
40FA
330
1F
100
AcDbEntity
  8
02製品
100
AcDbCircle
 10
9425.058203921944
 20
3090.213796291728
 30
0.0
 40
15.0
  0
CIRCLE
  5
40FB
330
1F
100
AcDbEntity
  8
02製品
100
AcDbCircle
 10
9505.058203921944
 20
3050.213796291728
 30
0.0
 40
15.0
  0
CIRCLE
  5
40FC
330
1F
100
AcDbEntity
  8
02製品
100
AcDbCircle
 10
9505.058203921944
 20
3090.213796291728
 30
0.0
 40
15.0
  0
CIRCLE
  5
40FD
330
1F
100
AcDbEntity
  8
02製品
100
AcDbCircle
 10
9465.058203921944
 20
3150.213796291728
 30
0.0
 40
15.0
  0
CIRCLE
  5
40FE
330
1F
100
AcDbEntity
  8
02製品
100
AcDbCircle
 10
9465.058203921944
 20
3190.213796291728
 30
0.0
 40
15.0
  0
CIRCLE
  5
40FF
330
1F
100
AcDbEntity
  8
02製品
100
AcDbCircle
 10
9425.058203921944
 20
3170.213796291728
 30
0.0
 40
15.0
  0
CIRCLE
  5
4100
330
1F
100
AcDbEntity
  8
02製品
100
AcDbCircle
 10
9505.058203921944
 20
3170.213796291728
 30
0.0
 40
15.0
  0
LINE
  5
4102
330
1F
100
AcDbEntity
  8
02製品
100
AcDbLine
 10
10150.05820392194
 20
2395.213796291728
 30
0.0
 11
10150.05820392195
 21
3225.213796291728
 31
0.0
  0
LINE
  5
4104
330
1F
100
AcDbEntity
  8
02製品
100
AcDbLine
 10
10150.05820392195
 20
3225.213796291728
 30
0.0
 11
10150.05820392194
 21
2395.213796291728
 31
0.0
  0
LINE
  5
4105
330
1F
100
AcDbEntity
  8
02製品
100
AcDbLine
 10
10195.05820392194
 20
3225.213796291728
 30
0.0
 11
10195.05820392195
 21
2395.213796291728
 31
0.0
  0
CIRCLE
  5
4106
330
1F
100
AcDbEntity
  8
02製品
100
AcDbCircle
 10
9985.058203921944
 20
2770.213796291728
 30
0.0
 40
15.0
  0
CIRCLE
  5
4107
330
1F
100
AcDbEntity
  8
02製品
100
AcDbCircle
 10
9585.058203921944
 20
2770.213796291728
 30
0.0
 40
15.0
  0
CIRCLE
  5
4108
330
1F
100
AcDbEntity
  8
02製品
100
AcDbCircle
 10
9665.058203921944
 20
2770.213796291728
 30
0.0
 40
15.0
  0
CIRCLE
  5
4109
330
1F
100
AcDbEntity
  8
02製品
100
AcDbCircle
 10
9745.058203921944
 20
2770.213796291728
 30
0.0
 40
15.0
  0
CIRCLE
  5
410A
330
1F
100
AcDbEntity
  8
02製品
100
AcDbCircle
 10
9825.058203921944
 20
2770.213796291728
 30
0.0
 40
15.0
  0
CIRCLE
  5
410B
330
1F
100
AcDbEntity
  8
02製品
100
AcDbCircle
 10
9905.058203921944
 20
2770.213796291728
 30
0.0
 40
15.0
  0
CIRCLE
  5
410C
330
1F
100
AcDbEntity
  8
02製品
100
AcDbCircle
 10
10065.05820392194
 20
2770.213796291728
 30
0.0
 40
15.0
  0
CIRCLE
  5
410D
330
1F
100
AcDbEntity
  8
02製品
100
AcDbCircle
 10
9865.058203921944
 20
2630.213796291728
 30
0.0
 40
15.0
  0
CIRCLE
  5
410E
330
1F
100
AcDbEntity
  8
02製品
100
AcDbCircle
 10
9865.058203921944
 20
2510.213796291728
 30
0.0
 40
15.0
  0
CIRCLE
  5
410F
330
1F
100
AcDbEntity
  8
02製品
100
AcDbCircle
 10
9865.058203921944
 20
2430.213796291728
 30
0.0
 40
15.0
  0
CIRCLE
  5
4110
330
1F
100
AcDbEntity
  8
02製品
100
AcDbCircle
 10
9865.058203921944
 20
2470.213796291728
 30
0.0
 40
15.0
  0
CIRCLE
  5
4111
330
1F
100
AcDbEntity
  8
02製品
100
AcDbCircle
 10
9865.058203921944
 20
2550.213796291728
 30
0.0
 40
15.0
  0
CIRCLE
  5
4112
330
1F
100
AcDbEntity
  8
02製品
100
AcDbCircle
 10
9865.058203921944
 20
2590.213796291728
 30
0.0
 40
15.0
  0
CIRCLE
  5
4113
330
1F
100
AcDbEntity
  8
02製品
100
AcDbCircle
 10
9865.058203921944
 20
2750.213796291728
 30
0.0
 40
15.0
  0
CIRCLE
  5
4114
330
1F
100
AcDbEntity
  8
02製品
100
AcDbCircle
 10
9865.058203921944
 20
2670.213796291728
 30
0.0
 40
15.0
  0
CIRCLE
  5
4115
330
1F
100
AcDbEntity
  8
02製品
100
AcDbCircle
 10
9865.058203921944
 20
2710.213796291728
 30
0.0
 40
15.0
  0
CIRCLE
  5
4116
330
1F
100
AcDbEntity
  8
02製品
100
AcDbCircle
 10
9585.058203921944
 20
2530.213796291728
 30
0.0
 40
15.0
  0
CIRCLE
  5
4117
330
1F
100
AcDbEntity
  8
02製品
100
AcDbCircle
 10
9665.058203921944
 20
2530.213796291728
 30
0.0
 40
15.0
  0
CIRCLE
  5
4118
330
1F
100
AcDbEntity
  8
02製品
100
AcDbCircle
 10
9705.058203921944
 20
2550.213796291728
 30
0.0
 40
15.0
  0
CIRCLE
  5
4119
330
1F
100
AcDbEntity
  8
02製品
100
AcDbCircle
 10
9625.058203921944
 20
2550.213796291728
 30
0.0
 40
15.0
  0
CIRCLE
  5
411A
330
1F
100
AcDbEntity
  8
02製品
100
AcDbCircle
 10
9745.058203921944
 20
2530.213796291728
 30
0.0
 40
15.0
  0
CIRCLE
  5
411B
330
1F
100
AcDbEntity
  8
02製品
100
AcDbCircle
 10
9785.058203921944
 20
2550.213796291728
 30
0.0
 40
15.0
  0
CIRCLE
  5
411C
330
1F
100
AcDbEntity
  8
02製品
100
AcDbCircle
 10
9825.058203921944
 20
2530.213796291728
 30
0.0
 40
15.0
  0
CIRCLE
  5
411D
330
1F
100
AcDbEntity
  8
02製品
100
AcDbCircle
 10
9705.058203921944
 20
2510.213796291728
 30
0.0
 40
15.0
  0
CIRCLE
  5
411E
330
1F
100
AcDbEntity
  8
02製品
100
AcDbCircle
 10
9705.058203921944
 20
2430.213796291728
 30
0.0
 40
15.0
  0
CIRCLE
  5
411F
330
1F
100
AcDbEntity
  8
02製品
100
AcDbCircle
 10
9705.058203921944
 20
2470.213796291728
 30
0.0
 40
15.0
  0
CIRCLE
  5
4120
330
1F
100
AcDbEntity
  8
02製品
100
AcDbCircle
 10
9625.058203921944
 20
2430.213796291728
 30
0.0
 40
15.0
  0
CIRCLE
  5
4121
330
1F
100
AcDbEntity
  8
02製品
100
AcDbCircle
 10
9625.058203921944
 20
2510.213796291728
 30
0.0
 40
15.0
  0
CIRCLE
  5
4122
330
1F
100
AcDbEntity
  8
02製品
100
AcDbCircle
 10
9625.058203921944
 20
2470.213796291728
 30
0.0
 40
15.0
  0
CIRCLE
  5
4123
330
1F
100
AcDbEntity
  8
02製品
100
AcDbCircle
 10
9585.058203921944
 20
2490.213796291728
 30
0.0
 40
15.0
  0
CIRCLE
  5
4124
330
1F
100
AcDbEntity
  8
02製品
100
AcDbCircle
 10
9585.058203921944
 20
2450.213796291728
 30
0.0
 40
15.0
  0
CIRCLE
  5
4125
330
1F
100
AcDbEntity
  8
02製品
100
AcDbCircle
 10
9665.058203921944
 20
2490.213796291728
 30
0.0
 40
15.0
  0
CIRCLE
  5
4126
330
1F
100
AcDbEntity
  8
02製品
100
AcDbCircle
 10
9665.058203921944
 20
2450.213796291728
 30
0.0
 40
15.0
  0
CIRCLE
  5
4127
330
1F
100
AcDbEntity
  8
02製品
100
AcDbCircle
 10
9785.058203921944
 20
2430.213796291728
 30
0.0
 40
15.0
  0
CIRCLE
  5
4128
330
1F
100
AcDbEntity
  8
02製品
100
AcDbCircle
 10
9785.058203921944
 20
2510.213796291728
 30
0.0
 40
15.0
  0
CIRCLE
  5
4129
330
1F
100
AcDbEntity
  8
02製品
100
AcDbCircle
 10
9785.058203921944
 20
2470.213796291728
 30
0.0
 40
15.0
  0
CIRCLE
  5
412A
330
1F
100
AcDbEntity
  8
02製品
100
AcDbCircle
 10
9745.058203921944
 20
2490.213796291728
 30
0.0
 40
15.0
  0
CIRCLE
  5
412B
330
1F
100
AcDbEntity
  8
02製品
100
AcDbCircle
 10
9745.058203921944
 20
2450.213796291728
 30
0.0
 40
15.0
  0
CIRCLE
  5
412C
330
1F
100
AcDbEntity
  8
02製品
100
AcDbCircle
 10
9825.058203921944
 20
2490.213796291728
 30
0.0
 40
15.0
  0
CIRCLE
  5
412D
330
1F
100
AcDbEntity
  8
02製品
100
AcDbCircle
 10
9825.058203921944
 20
2450.213796291728
 30
0.0
 40
15.0
  0
CIRCLE
  5
412E
330
1F
100
AcDbEntity
  8
02製品
100
AcDbCircle
 10
9705.058203921944
 20
2630.213796291728
 30
0.0
 40
15.0
  0
CIRCLE
  5
412F
330
1F
100
AcDbEntity
  8
02製品
100
AcDbCircle
 10
9705.058203921944
 20
2590.213796291728
 30
0.0
 40
15.0
  0
CIRCLE
  5
4130
330
1F
100
AcDbEntity
  8
02製品
100
AcDbCircle
 10
9705.058203921944
 20
2750.213796291728
 30
0.0
 40
15.0
  0
CIRCLE
  5
4131
330
1F
100
AcDbEntity
  8
02製品
100
AcDbCircle
 10
9705.058203921944
 20
2670.213796291728
 30
0.0
 40
15.0
  0
CIRCLE
  5
4132
330
1F
100
AcDbEntity
  8
02製品
100
AcDbCircle
 10
9705.058203921944
 20
2710.213796291728
 30
0.0
 40
15.0
  0
CIRCLE
  5
4133
330
1F
100
AcDbEntity
  8
02製品
100
AcDbCircle
 10
9585.058203921944
 20
2650.213796291728
 30
0.0
 40
15.0
  0
CIRCLE
  5
4134
330
1F
100
AcDbEntity
  8
02製品
100
AcDbCircle
 10
9665.058203921944
 20
2650.213796291728
 30
0.0
 40
15.0
  0
CIRCLE
  5
4135
330
1F
100
AcDbEntity
  8
02製品
100
AcDbCircle
 10
9625.058203921944
 20
2630.213796291728
 30
0.0
 40
15.0
  0
CIRCLE
  5
4136
330
1F
100
AcDbEntity
  8
02製品
100
AcDbCircle
 10
9625.058203921944
 20
2590.213796291728
 30
0.0
 40
15.0
  0
CIRCLE
  5
4137
330
1F
100
AcDbEntity
  8
02製品
100
AcDbCircle
 10
9585.058203921944
 20
2570.213796291728
 30
0.0
 40
15.0
  0
CIRCLE
  5
4138
330
1F
100
AcDbEntity
  8
02製品
100
AcDbCircle
 10
9585.058203921944
 20
2610.213796291728
 30
0.0
 40
15.0
  0
CIRCLE
  5
4139
330
1F
100
AcDbEntity
  8
02製品
100
AcDbCircle
 10
9665.058203921944
 20
2570.213796291728
 30
0.0
 40
15.0
  0
CIRCLE
  5
413A
330
1F
100
AcDbEntity
  8
02製品
100
AcDbCircle
 10
9665.058203921944
 20
2610.213796291728
 30
0.0
 40
15.0
  0
CIRCLE
  5
413B
330
1F
100
AcDbEntity
  8
02製品
100
AcDbCircle
 10
9625.058203921944
 20
2750.213796291728
 30
0.0
 40
15.0
  0
CIRCLE
  5
413C
330
1F
100
AcDbEntity
  8
02製品
100
AcDbCircle
 10
9625.058203921944
 20
2670.213796291728
 30
0.0
 40
15.0
  0
CIRCLE
  5
413D
330
1F
100
AcDbEntity
  8
02製品
100
AcDbCircle
 10
9625.058203921944
 20
2710.213796291728
 30
0.0
 40
15.0
  0
CIRCLE
  5
413E
330
1F
100
AcDbEntity
  8
02製品
100
AcDbCircle
 10
9585.058203921944
 20
2690.213796291728
 30
0.0
 40
15.0
  0
CIRCLE
  5
413F
330
1F
100
AcDbEntity
  8
02製品
100
AcDbCircle
 10
9585.058203921944
 20
2730.213796291728
 30
0.0
 40
15.0
  0
CIRCLE
  5
4140
330
1F
100
AcDbEntity
  8
02製品
100
AcDbCircle
 10
9665.058203921944
 20
2690.213796291728
 30
0.0
 40
15.0
  0
CIRCLE
  5
4141
330
1F
100
AcDbEntity
  8
02製品
100
AcDbCircle
 10
9665.058203921944
 20
2730.213796291728
 30
0.0
 40
15.0
  0
CIRCLE
  5
4142
330
1F
100
AcDbEntity
  8
02製品
100
AcDbCircle
 10
9745.058203921944
 20
2650.213796291728
 30
0.0
 40
15.0
  0
CIRCLE
  5
4143
330
1F
100
AcDbEntity
  8
02製品
100
AcDbCircle
 10
9825.058203921944
 20
2650.213796291728
 30
0.0
 40
15.0
  0
CIRCLE
  5
4144
330
1F
100
AcDbEntity
  8
02製品
100
AcDbCircle
 10
9785.058203921944
 20
2630.213796291728
 30
0.0
 40
15.0
  0
CIRCLE
  5
4145
330
1F
100
AcDbEntity
  8
02製品
100
AcDbCircle
 10
9785.058203921944
 20
2590.213796291728
 30
0.0
 40
15.0
  0
CIRCLE
  5
4146
330
1F
100
AcDbEntity
  8
02製品
100
AcDbCircle
 10
9745.058203921944
 20
2570.213796291728
 30
0.0
 40
15.0
  0
CIRCLE
  5
4147
330
1F
100
AcDbEntity
  8
02製品
100
AcDbCircle
 10
9745.058203921944
 20
2610.213796291728
 30
0.0
 40
15.0
  0
CIRCLE
  5
4148
330
1F
100
AcDbEntity
  8
02製品
100
AcDbCircle
 10
9825.058203921944
 20
2570.213796291728
 30
0.0
 40
15.0
  0
CIRCLE
  5
4149
330
1F
100
AcDbEntity
  8
02製品
100
AcDbCircle
 10
9825.058203921944
 20
2610.213796291728
 30
0.0
 40
15.0
  0
CIRCLE
  5
414A
330
1F
100
AcDbEntity
  8
02製品
100
AcDbCircle
 10
9785.058203921944
 20
2750.213796291728
 30
0.0
 40
15.0
  0
CIRCLE
  5
414B
330
1F
100
AcDbEntity
  8
02製品
100
AcDbCircle
 10
9785.058203921944
 20
2670.213796291728
 30
0.0
 40
15.0
  0
CIRCLE
  5
414C
330
1F
100
AcDbEntity
  8
02製品
100
AcDbCircle
 10
9785.058203921944
 20
2710.213796291728
 30
0.0
 40
15.0
  0
CIRCLE
  5
414D
330
1F
100
AcDbEntity
  8
02製品
100
AcDbCircle
 10
9745.058203921944
 20
2690.213796291728
 30
0.0
 40
15.0
  0
CIRCLE
  5
414E
330
1F
100
AcDbEntity
  8
02製品
100
AcDbCircle
 10
9745.058203921944
 20
2730.213796291728
 30
0.0
 40
15.0
  0
CIRCLE
  5
414F
330
1F
100
AcDbEntity
  8
02製品
100
AcDbCircle
 10
9825.058203921944
 20
2690.213796291728
 30
0.0
 40
15.0
  0
CIRCLE
  5
4150
330
1F
100
AcDbEntity
  8
02製品
100
AcDbCircle
 10
9825.058203921944
 20
2730.213796291728
 30
0.0
 40
15.0
  0
CIRCLE
  5
4151
330
1F
100
AcDbEntity
  8
02製品
100
AcDbCircle
 10
9985.058203921944
 20
2530.213796291728
 30
0.0
 40
15.0
  0
CIRCLE
  5
4152
330
1F
100
AcDbEntity
  8
02製品
100
AcDbCircle
 10
9945.058203921944
 20
2550.213796291728
 30
0.0
 40
15.0
  0
CIRCLE
  5
4153
330
1F
100
AcDbEntity
  8
02製品
100
AcDbCircle
 10
9905.058203921944
 20
2530.213796291728
 30
0.0
 40
15.0
  0
CIRCLE
  5
4154
330
1F
100
AcDbEntity
  8
02製品
100
AcDbCircle
 10
10025.05820392194
 20
2550.213796291728
 30
0.0
 40
15.0
  0
CIRCLE
  5
4155
330
1F
100
AcDbEntity
  8
02製品
100
AcDbCircle
 10
10065.05820392194
 20
2530.213796291728
 30
0.0
 40
15.0
  0
CIRCLE
  5
4156
330
1F
100
AcDbEntity
  8
02製品
100
AcDbCircle
 10
10105.05820392194
 20
2550.213796291728
 30
0.0
 40
15.0
  0
LINE
  5
4157
330
1F
100
AcDbEntity
  8
02製品
100
AcDbLine
 10
10030.05820392194
 20
2393.713796291732
 30
0.0
 11
10151.55820392195
 21
2393.713796291732
 31
0.0
  0
CIRCLE
  5
4158
330
1F
100
AcDbEntity
  8
02製品
100
AcDbCircle
 10
9945.058203921944
 20
2430.213796291728
 30
0.0
 40
15.0
  0
CIRCLE
  5
4159
330
1F
100
AcDbEntity
  8
02製品
100
AcDbCircle
 10
10025.05820392194
 20
2430.213796291728
 30
0.0
 40
15.0
  0
LINE
  5
415A
330
1F
100
AcDbEntity
  8
02製品
100
AcDbLine
 10
10030.05820392194
 20
2395.213796291728
 30
0.0
 11
10030.05820392194
 21
2393.713796291732
 31
0.0
  0
CIRCLE
  5
415B
330
1F
100
AcDbEntity
  8
02製品
100
AcDbCircle
 10
9945.058203921944
 20
2510.213796291728
 30
0.0
 40
15.0
  0
CIRCLE
  5
415C
330
1F
100
AcDbEntity
  8
02製品
100
AcDbCircle
 10
9945.058203921944
 20
2470.213796291728
 30
0.0
 40
15.0
  0
CIRCLE
  5
415D
330
1F
100
AcDbEntity
  8
02製品
100
AcDbCircle
 10
9905.058203921944
 20
2490.213796291728
 30
0.0
 40
15.0
  0
CIRCLE
  5
415E
330
1F
100
AcDbEntity
  8
02製品
100
AcDbCircle
 10
9905.058203921944
 20
2450.213796291728
 30
0.0
 40
15.0
  0
CIRCLE
  5
415F
330
1F
100
AcDbEntity
  8
02製品
100
AcDbCircle
 10
9985.058203921944
 20
2490.213796291728
 30
0.0
 40
15.0
  0
CIRCLE
  5
4160
330
1F
100
AcDbEntity
  8
02製品
100
AcDbCircle
 10
10025.05820392194
 20
2470.213796291728
 30
0.0
 40
15.0
  0
CIRCLE
  5
4161
330
1F
100
AcDbEntity
  8
02製品
100
AcDbCircle
 10
9985.058203921944
 20
2450.213796291728
 30
0.0
 40
15.0
  0
CIRCLE
  5
4162
330
1F
100
AcDbEntity
  8
02製品
100
AcDbCircle
 10
10025.05820392194
 20
2510.213796291728
 30
0.0
 40
15.0
  0
LINE
  5
4163
330
1F
100
AcDbEntity
  8
02製品
100
AcDbLine
 10
10151.55820392194
 20
2515.213796291728
 30
0.0
 11
10151.55820392195
 21
2393.713796291732
 31
0.0
  0
CIRCLE
  5
4164
330
1F
100
AcDbEntity
  8
02製品
100
AcDbCircle
 10
10105.05820392194
 20
2430.213796291728
 30
0.0
 40
15.0
  0
LINE
  5
4165
330
1F
100
AcDbEntity
  8
02製品
  6
CENTER
100
AcDbLine
 10
10185.05820392195
 20
2440.713796291735
 30
0.0
 11
10185.05820392195
 21
2419.713796291735
 31
0.0
  0
LINE
  5
4166
330
1F
100
AcDbEntity
  8
02製品
100
AcDbLine
 10
10150.05820392195
 20
2395.213796291732
 30
0.0
 11
10110.05820392195
 21
2395.213796291732
 31
0.0
  0
CIRCLE
  5
4167
330
1F
100
AcDbEntity
  8
02製品
100
AcDbCircle
 10
10065.05820392194
 20
2490.213796291728
 30
0.0
 40
15.0
  0
CIRCLE
  5
4168
330
1F
100
AcDbEntity
  8
02製品
100
AcDbCircle
 10
10105.05820392194
 20
2470.213796291728
 30
0.0
 40
15.0
  0
CIRCLE
  5
4169
330
1F
100
AcDbEntity
  8
02製品
100
AcDbCircle
 10
10065.05820392194
 20
2450.213796291728
 30
0.0
 40
15.0
  0
CIRCLE
  5
416A
330
1F
100
AcDbEntity
  8
02製品
100
AcDbCircle
 10
10105.05820392194
 20
2510.213796291728
 30
0.0
 40
15.0
  0
LINE
  5
416B
330
1F
100
AcDbEntity
  8
02製品
  6
CENTER
100
AcDbLine
 10
10174.55820392195
 20
2430.213796291732
 30
0.0
 11
10195.55820392195
 21
2430.213796291732
 31
0.0
  0
CIRCLE
  5
416C
330
1F
100
AcDbEntity
  8
02製品
100
AcDbCircle
 10
10185.05820392195
 20
2430.213796291732
 30
0.0
 40
3.5
  0
LINE
  5
416D
330
1F
100
AcDbEntity
  8
02製品
100
AcDbLine
 10
10150.05820392194
 20
2515.213796291728
 30
0.0
 11
10151.55820392194
 21
2515.213796291728
 31
0.0
  0
CIRCLE
  5
416E
330
1F
100
AcDbEntity
  8
02製品
100
AcDbCircle
 10
9985.058203921944
 20
2650.213796291728
 30
0.0
 40
15.0
  0
CIRCLE
  5
416F
330
1F
100
AcDbEntity
  8
02製品
100
AcDbCircle
 10
9905.058203921944
 20
2650.213796291728
 30
0.0
 40
15.0
  0
CIRCLE
  5
4170
330
1F
100
AcDbEntity
  8
02製品
100
AcDbCircle
 10
9945.058203921944
 20
2630.213796291728
 30
0.0
 40
15.0
  0
CIRCLE
  5
4171
330
1F
100
AcDbEntity
  8
02製品
100
AcDbCircle
 10
9945.058203921944
 20
2590.213796291728
 30
0.0
 40
15.0
  0
CIRCLE
  5
4172
330
1F
100
AcDbEntity
  8
02製品
100
AcDbCircle
 10
9905.058203921944
 20
2570.213796291728
 30
0.0
 40
15.0
  0
CIRCLE
  5
4173
330
1F
100
AcDbEntity
  8
02製品
100
AcDbCircle
 10
9905.058203921944
 20
2610.213796291728
 30
0.0
 40
15.0
  0
CIRCLE
  5
4174
330
1F
100
AcDbEntity
  8
02製品
100
AcDbCircle
 10
10025.05820392194
 20
2590.213796291728
 30
0.0
 40
15.0
  0
CIRCLE
  5
4175
330
1F
100
AcDbEntity
  8
02製品
100
AcDbCircle
 10
9985.058203921944
 20
2570.213796291728
 30
0.0
 40
15.0
  0
CIRCLE
  5
4176
330
1F
100
AcDbEntity
  8
02製品
100
AcDbCircle
 10
9985.058203921944
 20
2610.213796291728
 30
0.0
 40
15.0
  0
CIRCLE
  5
4177
330
1F
100
AcDbEntity
  8
02製品
100
AcDbCircle
 10
10025.05820392194
 20
2630.213796291728
 30
0.0
 40
15.0
  0
CIRCLE
  5
4178
330
1F
100
AcDbEntity
  8
02製品
100
AcDbCircle
 10
9945.058203921944
 20
2750.213796291728
 30
0.0
 40
15.0
  0
CIRCLE
  5
4179
330
1F
100
AcDbEntity
  8
02製品
100
AcDbCircle
 10
9945.058203921944
 20
2670.213796291728
 30
0.0
 40
15.0
  0
CIRCLE
  5
417A
330
1F
100
AcDbEntity
  8
02製品
100
AcDbCircle
 10
9945.058203921944
 20
2710.213796291728
 30
0.0
 40
15.0
  0
CIRCLE
  5
417B
330
1F
100
AcDbEntity
  8
02製品
100
AcDbCircle
 10
9905.058203921944
 20
2690.213796291728
 30
0.0
 40
15.0
  0
CIRCLE
  5
417C
330
1F
100
AcDbEntity
  8
02製品
100
AcDbCircle
 10
9905.058203921944
 20
2730.213796291728
 30
0.0
 40
15.0
  0
CIRCLE
  5
417D
330
1F
100
AcDbEntity
  8
02製品
100
AcDbCircle
 10
10025.05820392194
 20
2710.213796291728
 30
0.0
 40
15.0
  0
CIRCLE
  5
417E
330
1F
100
AcDbEntity
  8
02製品
100
AcDbCircle
 10
9985.058203921944
 20
2690.213796291728
 30
0.0
 40
15.0
  0
CIRCLE
  5
417F
330
1F
100
AcDbEntity
  8
02製品
100
AcDbCircle
 10
10025.05820392194
 20
2670.213796291728
 30
0.0
 40
15.0
  0
CIRCLE
  5
4180
330
1F
100
AcDbEntity
  8
02製品
100
AcDbCircle
 10
9985.058203921944
 20
2730.213796291728
 30
0.0
 40
15.0
  0
CIRCLE
  5
4181
330
1F
100
AcDbEntity
  8
02製品
100
AcDbCircle
 10
10025.05820392194
 20
2750.213796291728
 30
0.0
 40
15.0
  0
CIRCLE
  5
4182
330
1F
100
AcDbEntity
  8
02製品
100
AcDbCircle
 10
10065.05820392194
 20
2650.213796291728
 30
0.0
 40
15.0
  0
CIRCLE
  5
4183
330
1F
100
AcDbEntity
  8
02製品
100
AcDbCircle
 10
10105.05820392194
 20
2590.213796291728
 30
0.0
 40
15.0
  0
CIRCLE
  5
4184
330
1F
100
AcDbEntity
  8
02製品
100
AcDbCircle
 10
10065.05820392194
 20
2570.213796291728
 30
0.0
 40
15.0
  0
CIRCLE
  5
4185
330
1F
100
AcDbEntity
  8
02製品
100
AcDbCircle
 10
10065.05820392194
 20
2610.213796291728
 30
0.0
 40
15.0
  0
CIRCLE
  5
4186
330
1F
100
AcDbEntity
  8
02製品
100
AcDbCircle
 10
10105.05820392194
 20
2630.213796291728
 30
0.0
 40
15.0
  0
LINE
  5
4187
330
1F
100
AcDbEntity
  8
02製品
  6
CENTER
100
AcDbLine
 10
10185.05820392195
 20
2630.713796291735
 30
0.0
 11
10185.05820392195
 21
2609.713796291735
 31
0.0
  0
LINE
  5
4188
330
1F
100
AcDbEntity
  8
02製品
  6
CENTER
100
AcDbLine
 10
10174.55820392195
 20
2620.213796291732
 30
0.0
 11
10195.55820392195
 21
2620.213796291732
 31
0.0
  0
CIRCLE
  5
4189
330
1F
100
AcDbEntity
  8
02製品
100
AcDbCircle
 10
10185.05820392195
 20
2620.213796291732
 30
0.0
 40
3.5
  0
CIRCLE
  5
418A
330
1F
100
AcDbEntity
  8
02製品
100
AcDbCircle
 10
10105.05820392194
 20
2710.213796291728
 30
0.0
 40
15.0
  0
CIRCLE
  5
418B
330
1F
100
AcDbEntity
  8
02製品
100
AcDbCircle
 10
10065.05820392194
 20
2690.213796291728
 30
0.0
 40
15.0
  0
CIRCLE
  5
418C
330
1F
100
AcDbEntity
  8
02製品
100
AcDbCircle
 10
10105.05820392194
 20
2670.213796291728
 30
0.0
 40
15.0
  0
CIRCLE
  5
418D
330
1F
100
AcDbEntity
  8
02製品
100
AcDbCircle
 10
10065.05820392194
 20
2730.213796291728
 30
0.0
 40
15.0
  0
CIRCLE
  5
418E
330
1F
100
AcDbEntity
  8
02製品
100
AcDbCircle
 10
10105.05820392194
 20
2750.213796291728
 30
0.0
 40
15.0
  0
CIRCLE
  5
418F
330
1F
100
AcDbEntity
  8
02製品
100
AcDbCircle
 10
9865.058203921944
 20
3110.213796291728
 30
0.0
 40
15.0
  0
CIRCLE
  5
4190
330
1F
100
AcDbEntity
  8
02製品
100
AcDbCircle
 10
9865.058203921944
 20
2870.213796291728
 30
0.0
 40
15.0
  0
CIRCLE
  5
4191
330
1F
100
AcDbEntity
  8
02製品
100
AcDbCircle
 10
9865.058203921944
 20
2790.213796291728
 30
0.0
 40
15.0
  0
CIRCLE
  5
4192
330
1F
100
AcDbEntity
  8
02製品
100
AcDbCircle
 10
9865.058203921944
 20
2830.213796291728
 30
0.0
 40
15.0
  0
CIRCLE
  5
4193
330
1F
100
AcDbEntity
  8
02製品
100
AcDbCircle
 10
9865.058203921944
 20
2990.213796291728
 30
0.0
 40
15.0
  0
CIRCLE
  5
4194
330
1F
100
AcDbEntity
  8
02製品
100
AcDbCircle
 10
9865.058203921944
 20
2950.213796291728
 30
0.0
 40
15.0
  0
CIRCLE
  5
4195
330
1F
100
AcDbEntity
  8
02製品
100
AcDbCircle
 10
9865.058203921944
 20
2910.213796291728
 30
0.0
 40
15.0
  0
CIRCLE
  5
4196
330
1F
100
AcDbEntity
  8
02製品
100
AcDbCircle
 10
9865.058203921944
 20
3070.213796291728
 30
0.0
 40
15.0
  0
CIRCLE
  5
4197
330
1F
100
AcDbEntity
  8
02製品
100
AcDbCircle
 10
9865.058203921944
 20
3030.213796291728
 30
0.0
 40
15.0
  0
CIRCLE
  5
4198
330
1F
100
AcDbEntity
  8
02製品
100
AcDbCircle
 10
9865.058203921944
 20
3190.213796291728
 30
0.0
 40
15.0
  0
CIRCLE
  5
4199
330
1F
100
AcDbEntity
  8
02製品
100
AcDbCircle
 10
9865.058203921944
 20
3150.213796291728
 30
0.0
 40
15.0
  0
CIRCLE
  5
419A
330
1F
100
AcDbEntity
  8
02製品
100
AcDbCircle
 10
9745.058203921944
 20
3010.213796291728
 30
0.0
 40
15.0
  0
CIRCLE
  5
419B
330
1F
100
AcDbEntity
  8
02製品
100
AcDbCircle
 10
9825.058203921944
 20
3010.213796291728
 30
0.0
 40
15.0
  0
CIRCLE
  5
419C
330
1F
100
AcDbEntity
  8
02製品
100
AcDbCircle
 10
9785.058203921944
 20
2990.213796291728
 30
0.0
 40
15.0
  0
CIRCLE
  5
419D
330
1F
100
AcDbEntity
  8
02製品
100
AcDbCircle
 10
9665.058203921944
 20
3010.213796291728
 30
0.0
 40
15.0
  0
CIRCLE
  5
419E
330
1F
100
AcDbEntity
  8
02製品
100
AcDbCircle
 10
9585.058203921944
 20
3010.213796291728
 30
0.0
 40
15.0
  0
CIRCLE
  5
419F
330
1F
100
AcDbEntity
  8
02製品
100
AcDbCircle
 10
9625.058203921944
 20
2990.213796291728
 30
0.0
 40
15.0
  0
CIRCLE
  5
41A0
330
1F
100
AcDbEntity
  8
02製品
100
AcDbCircle
 10
9705.058203921944
 20
2990.213796291728
 30
0.0
 40
15.0
  0
CIRCLE
  5
41A1
330
1F
100
AcDbEntity
  8
02製品
100
AcDbCircle
 10
9705.058203921944
 20
2870.213796291728
 30
0.0
 40
15.0
  0
CIRCLE
  5
41A2
330
1F
100
AcDbEntity
  8
02製品
100
AcDbCircle
 10
9705.058203921944
 20
2790.213796291728
 30
0.0
 40
15.0
  0
CIRCLE
  5
41A3
330
1F
100
AcDbEntity
  8
02製品
100
AcDbCircle
 10
9705.058203921944
 20
2830.213796291728
 30
0.0
 40
15.0
  0
CIRCLE
  5
41A4
330
1F
100
AcDbEntity
  8
02製品
100
AcDbCircle
 10
9705.058203921944
 20
2950.213796291728
 30
0.0
 40
15.0
  0
CIRCLE
  5
41A5
330
1F
100
AcDbEntity
  8
02製品
100
AcDbCircle
 10
9705.058203921944
 20
2910.213796291728
 30
0.0
 40
15.0
  0
CIRCLE
  5
41A6
330
1F
100
AcDbEntity
  8
02製品
100
AcDbCircle
 10
9625.058203921944
 20
2870.213796291728
 30
0.0
 40
15.0
  0
CIRCLE
  5
41A7
330
1F
100
AcDbEntity
  8
02製品
100
AcDbCircle
 10
9585.058203921944
 20
2890.213796291728
 30
0.0
 40
15.0
  0
CIRCLE
  5
41A8
330
1F
100
AcDbEntity
  8
02製品
100
AcDbCircle
 10
9665.058203921944
 20
2890.213796291728
 30
0.0
 40
15.0
  0
CIRCLE
  5
41A9
330
1F
100
AcDbEntity
  8
02製品
100
AcDbCircle
 10
9625.058203921944
 20
2790.213796291728
 30
0.0
 40
15.0
  0
CIRCLE
  5
41AA
330
1F
100
AcDbEntity
  8
02製品
100
AcDbCircle
 10
9625.058203921944
 20
2830.213796291728
 30
0.0
 40
15.0
  0
CIRCLE
  5
41AB
330
1F
100
AcDbEntity
  8
02製品
100
AcDbCircle
 10
9585.058203921944
 20
2810.213796291728
 30
0.0
 40
15.0
  0
CIRCLE
  5
41AC
330
1F
100
AcDbEntity
  8
02製品
100
AcDbCircle
 10
9585.058203921944
 20
2850.213796291728
 30
0.0
 40
15.0
  0
CIRCLE
  5
41AD
330
1F
100
AcDbEntity
  8
02製品
100
AcDbCircle
 10
9665.058203921944
 20
2810.213796291728
 30
0.0
 40
15.0
  0
CIRCLE
  5
41AE
330
1F
100
AcDbEntity
  8
02製品
100
AcDbCircle
 10
9665.058203921944
 20
2850.213796291728
 30
0.0
 40
15.0
  0
CIRCLE
  5
41AF
330
1F
100
AcDbEntity
  8
02製品
100
AcDbCircle
 10
9625.058203921944
 20
2950.213796291728
 30
0.0
 40
15.0
  0
CIRCLE
  5
41B0
330
1F
100
AcDbEntity
  8
02製品
100
AcDbCircle
 10
9625.058203921944
 20
2910.213796291728
 30
0.0
 40
15.0
  0
CIRCLE
  5
41B1
330
1F
100
AcDbEntity
  8
02製品
100
AcDbCircle
 10
9585.058203921944
 20
2930.213796291728
 30
0.0
 40
15.0
  0
CIRCLE
  5
41B2
330
1F
100
AcDbEntity
  8
02製品
100
AcDbCircle
 10
9585.058203921944
 20
2970.213796291728
 30
0.0
 40
15.0
  0
CIRCLE
  5
41B3
330
1F
100
AcDbEntity
  8
02製品
100
AcDbCircle
 10
9665.058203921944
 20
2930.213796291728
 30
0.0
 40
15.0
  0
CIRCLE
  5
41B4
330
1F
100
AcDbEntity
  8
02製品
100
AcDbCircle
 10
9665.058203921944
 20
2970.213796291728
 30
0.0
 40
15.0
  0
CIRCLE
  5
41B5
330
1F
100
AcDbEntity
  8
02製品
100
AcDbCircle
 10
9785.058203921944
 20
2870.213796291728
 30
0.0
 40
15.0
  0
CIRCLE
  5
41B6
330
1F
100
AcDbEntity
  8
02製品
100
AcDbCircle
 10
9745.058203921944
 20
2890.213796291728
 30
0.0
 40
15.0
  0
CIRCLE
  5
41B7
330
1F
100
AcDbEntity
  8
02製品
100
AcDbCircle
 10
9825.058203921944
 20
2890.213796291728
 30
0.0
 40
15.0
  0
CIRCLE
  5
41B8
330
1F
100
AcDbEntity
  8
02製品
100
AcDbCircle
 10
9785.058203921944
 20
2790.213796291728
 30
0.0
 40
15.0
  0
CIRCLE
  5
41B9
330
1F
100
AcDbEntity
  8
02製品
100
AcDbCircle
 10
9785.058203921944
 20
2830.213796291728
 30
0.0
 40
15.0
  0
CIRCLE
  5
41BA
330
1F
100
AcDbEntity
  8
02製品
100
AcDbCircle
 10
9745.058203921944
 20
2810.213796291728
 30
0.0
 40
15.0
  0
CIRCLE
  5
41BB
330
1F
100
AcDbEntity
  8
02製品
100
AcDbCircle
 10
9745.058203921944
 20
2850.213796291728
 30
0.0
 40
15.0
  0
CIRCLE
  5
41BC
330
1F
100
AcDbEntity
  8
02製品
100
AcDbCircle
 10
9825.058203921944
 20
2810.213796291728
 30
0.0
 40
15.0
  0
CIRCLE
  5
41BD
330
1F
100
AcDbEntity
  8
02製品
100
AcDbCircle
 10
9825.058203921944
 20
2850.213796291728
 30
0.0
 40
15.0
  0
CIRCLE
  5
41BE
330
1F
100
AcDbEntity
  8
02製品
100
AcDbCircle
 10
9785.058203921944
 20
2950.213796291728
 30
0.0
 40
15.0
  0
CIRCLE
  5
41BF
330
1F
100
AcDbEntity
  8
02製品
100
AcDbCircle
 10
9785.058203921944
 20
2910.213796291728
 30
0.0
 40
15.0
  0
CIRCLE
  5
41C0
330
1F
100
AcDbEntity
  8
02製品
100
AcDbCircle
 10
9745.058203921944
 20
2930.213796291728
 30
0.0
 40
15.0
  0
CIRCLE
  5
41C1
330
1F
100
AcDbEntity
  8
02製品
100
AcDbCircle
 10
9745.058203921944
 20
2970.213796291728
 30
0.0
 40
15.0
  0
CIRCLE
  5
41C2
330
1F
100
AcDbEntity
  8
02製品
100
AcDbCircle
 10
9825.058203921944
 20
2930.213796291728
 30
0.0
 40
15.0
  0
CIRCLE
  5
41C3
330
1F
100
AcDbEntity
  8
02製品
100
AcDbCircle
 10
9825.058203921944
 20
2970.213796291728
 30
0.0
 40
15.0
  0
CIRCLE
  5
41C4
330
1F
100
AcDbEntity
  8
02製品
100
AcDbCircle
 10
9705.058203921944
 20
3110.213796291728
 30
0.0
 40
15.0
  0
CIRCLE
  5
41C5
330
1F
100
AcDbEntity
  8
02製品
100
AcDbCircle
 10
9705.058203921944
 20
3070.213796291728
 30
0.0
 40
15.0
  0
CIRCLE
  5
41C6
330
1F
100
AcDbEntity
  8
02製品
100
AcDbCircle
 10
9705.058203921944
 20
3030.213796291728
 30
0.0
 40
15.0
  0
CIRCLE
  5
41C7
330
1F
100
AcDbEntity
  8
02製品
100
AcDbCircle
 10
9705.058203921944
 20
3190.213796291728
 30
0.0
 40
15.0
  0
CIRCLE
  5
41C8
330
1F
100
AcDbEntity
  8
02製品
100
AcDbCircle
 10
9705.058203921944
 20
3150.213796291728
 30
0.0
 40
15.0
  0
CIRCLE
  5
41C9
330
1F
100
AcDbEntity
  8
02製品
100
AcDbCircle
 10
9665.058203921944
 20
3130.213796291728
 30
0.0
 40
15.0
  0
CIRCLE
  5
41CA
330
1F
100
AcDbEntity
  8
02製品
100
AcDbCircle
 10
9625.058203921944
 20
3110.213796291728
 30
0.0
 40
15.0
  0
CIRCLE
  5
41CB
330
1F
100
AcDbEntity
  8
02製品
100
AcDbCircle
 10
9585.058203921944
 20
3130.213796291728
 30
0.0
 40
15.0
  0
CIRCLE
  5
41CC
330
1F
100
AcDbEntity
  8
02製品
100
AcDbCircle
 10
9625.058203921944
 20
3070.213796291728
 30
0.0
 40
15.0
  0
CIRCLE
  5
41CD
330
1F
100
AcDbEntity
  8
02製品
100
AcDbCircle
 10
9625.058203921944
 20
3030.213796291728
 30
0.0
 40
15.0
  0
CIRCLE
  5
41CE
330
1F
100
AcDbEntity
  8
02製品
100
AcDbCircle
 10
9585.058203921944
 20
3050.213796291728
 30
0.0
 40
15.0
  0
CIRCLE
  5
41CF
330
1F
100
AcDbEntity
  8
02製品
100
AcDbCircle
 10
9585.058203921944
 20
3090.213796291728
 30
0.0
 40
15.0
  0
CIRCLE
  5
41D0
330
1F
100
AcDbEntity
  8
02製品
100
AcDbCircle
 10
9665.058203921944
 20
3050.213796291728
 30
0.0
 40
15.0
  0
CIRCLE
  5
41D1
330
1F
100
AcDbEntity
  8
02製品
100
AcDbCircle
 10
9665.058203921944
 20
3090.213796291728
 30
0.0
 40
15.0
  0
CIRCLE
  5
41D2
330
1F
100
AcDbEntity
  8
02製品
100
AcDbCircle
 10
9625.058203921944
 20
3190.213796291728
 30
0.0
 40
15.0
  0
CIRCLE
  5
41D3
330
1F
100
AcDbEntity
  8
02製品
100
AcDbCircle
 10
9625.058203921944
 20
3150.213796291728
 30
0.0
 40
15.0
  0
CIRCLE
  5
41D4
330
1F
100
AcDbEntity
  8
02製品
100
AcDbCircle
 10
9585.058203921944
 20
3170.213796291728
 30
0.0
 40
15.0
  0
CIRCLE
  5
41D5
330
1F
100
AcDbEntity
  8
02製品
100
AcDbCircle
 10
9665.058203921944
 20
3170.213796291728
 30
0.0
 40
15.0
  0
CIRCLE
  5
41D6
330
1F
100
AcDbEntity
  8
02製品
100
AcDbCircle
 10
9745.058203921944
 20
3130.213796291728
 30
0.0
 40
15.0
  0
CIRCLE
  5
41D7
330
1F
100
AcDbEntity
  8
02製品
100
AcDbCircle
 10
9825.058203921944
 20
3130.213796291728
 30
0.0
 40
15.0
  0
CIRCLE
  5
41D8
330
1F
100
AcDbEntity
  8
02製品
100
AcDbCircle
 10
9785.058203921944
 20
3110.213796291728
 30
0.0
 40
15.0
  0
CIRCLE
  5
41D9
330
1F
100
AcDbEntity
  8
02製品
100
AcDbCircle
 10
9785.058203921944
 20
3070.213796291728
 30
0.0
 40
15.0
  0
CIRCLE
  5
41DA
330
1F
100
AcDbEntity
  8
02製品
100
AcDbCircle
 10
9785.058203921944
 20
3030.213796291728
 30
0.0
 40
15.0
  0
CIRCLE
  5
41DB
330
1F
100
AcDbEntity
  8
02製品
100
AcDbCircle
 10
9745.058203921944
 20
3050.213796291728
 30
0.0
 40
15.0
  0
CIRCLE
  5
41DC
330
1F
100
AcDbEntity
  8
02製品
100
AcDbCircle
 10
9745.058203921944
 20
3090.213796291728
 30
0.0
 40
15.0
  0
CIRCLE
  5
41DD
330
1F
100
AcDbEntity
  8
02製品
100
AcDbCircle
 10
9825.058203921944
 20
3050.213796291728
 30
0.0
 40
15.0
  0
CIRCLE
  5
41DE
330
1F
100
AcDbEntity
  8
02製品
100
AcDbCircle
 10
9825.058203921944
 20
3090.213796291728
 30
0.0
 40
15.0
  0
CIRCLE
  5
41DF
330
1F
100
AcDbEntity
  8
02製品
100
AcDbCircle
 10
9785.058203921944
 20
3190.213796291728
 30
0.0
 40
15.0
  0
CIRCLE
  5
41E0
330
1F
100
AcDbEntity
  8
02製品
100
AcDbCircle
 10
9785.058203921944
 20
3150.213796291728
 30
0.0
 40
15.0
  0
CIRCLE
  5
41E1
330
1F
100
AcDbEntity
  8
02製品
100
AcDbCircle
 10
9745.058203921944
 20
3170.213796291728
 30
0.0
 40
15.0
  0
CIRCLE
  5
41E2
330
1F
100
AcDbEntity
  8
02製品
100
AcDbCircle
 10
9825.058203921944
 20
3170.213796291728
 30
0.0
 40
15.0
  0
CIRCLE
  5
41E3
330
1F
100
AcDbEntity
  8
02製品
100
AcDbCircle
 10
9985.058203921944
 20
3010.213796291728
 30
0.0
 40
15.0
  0
CIRCLE
  5
41E4
330
1F
100
AcDbEntity
  8
02製品
100
AcDbCircle
 10
9905.058203921944
 20
3010.213796291728
 30
0.0
 40
15.0
  0
CIRCLE
  5
41E5
330
1F
100
AcDbEntity
  8
02製品
100
AcDbCircle
 10
9945.058203921944
 20
2990.213796291728
 30
0.0
 40
15.0
  0
CIRCLE
  5
41E6
330
1F
100
AcDbEntity
  8
02製品
100
AcDbCircle
 10
10185.05820392195
 20
3000.213796291732
 30
0.0
 40
3.5
  0
LINE
  5
41E7
330
1F
100
AcDbEntity
  8
02製品
  6
CENTER
100
AcDbLine
 10
10185.05820392195
 20
3010.713796291735
 30
0.0
 11
10185.05820392195
 21
2989.713796291735
 31
0.0
  0
CIRCLE
  5
41E8
330
1F
100
AcDbEntity
  8
02製品
100
AcDbCircle
 10
10025.05820392194
 20
2990.213796291728
 30
0.0
 40
15.0
  0
CIRCLE
  5
41E9
330
1F
100
AcDbEntity
  8
02製品
100
AcDbCircle
 10
10065.05820392194
 20
3010.213796291728
 30
0.0
 40
15.0
  0
CIRCLE
  5
41EA
330
1F
100
AcDbEntity
  8
02製品
100
AcDbCircle
 10
10105.05820392194
 20
2990.213796291728
 30
0.0
 40
15.0
  0
CIRCLE
  5
41EB
330
1F
100
AcDbEntity
  8
02製品
100
AcDbCircle
 10
9985.058203921944
 20
2890.213796291728
 30
0.0
 40
15.0
  0
CIRCLE
  5
41EC
330
1F
100
AcDbEntity
  8
02製品
100
AcDbCircle
 10
9945.058203921944
 20
2870.213796291728
 30
0.0
 40
15.0
  0
CIRCLE
  5
41ED
330
1F
100
AcDbEntity
  8
02製品
100
AcDbCircle
 10
9905.058203921944
 20
2890.213796291728
 30
0.0
 40
15.0
  0
CIRCLE
  5
41EE
330
1F
100
AcDbEntity
  8
02製品
100
AcDbCircle
 10
10025.05820392194
 20
2870.213796291728
 30
0.0
 40
15.0
  0
CIRCLE
  5
41EF
330
1F
100
AcDbEntity
  8
02製品
100
AcDbCircle
 10
9945.058203921944
 20
2790.213796291728
 30
0.0
 40
15.0
  0
CIRCLE
  5
41F0
330
1F
100
AcDbEntity
  8
02製品
100
AcDbCircle
 10
9945.058203921944
 20
2830.213796291728
 30
0.0
 40
15.0
  0
CIRCLE
  5
41F1
330
1F
100
AcDbEntity
  8
02製品
100
AcDbCircle
 10
9905.058203921944
 20
2810.213796291728
 30
0.0
 40
15.0
  0
CIRCLE
  5
41F2
330
1F
100
AcDbEntity
  8
02製品
100
AcDbCircle
 10
9905.058203921944
 20
2850.213796291728
 30
0.0
 40
15.0
  0
CIRCLE
  5
41F3
330
1F
100
AcDbEntity
  8
02製品
100
AcDbCircle
 10
10025.05820392194
 20
2830.213796291728
 30
0.0
 40
15.0
  0
CIRCLE
  5
41F4
330
1F
100
AcDbEntity
  8
02製品
100
AcDbCircle
 10
9985.058203921944
 20
2810.213796291728
 30
0.0
 40
15.0
  0
CIRCLE
  5
41F5
330
1F
100
AcDbEntity
  8
02製品
100
AcDbCircle
 10
10025.05820392194
 20
2790.213796291728
 30
0.0
 40
15.0
  0
CIRCLE
  5
41F6
330
1F
100
AcDbEntity
  8
02製品
100
AcDbCircle
 10
9985.058203921944
 20
2850.213796291728
 30
0.0
 40
15.0
  0
CIRCLE
  5
41F7
330
1F
100
AcDbEntity
  8
02製品
100
AcDbCircle
 10
9945.058203921944
 20
2950.213796291728
 30
0.0
 40
15.0
  0
CIRCLE
  5
41F8
330
1F
100
AcDbEntity
  8
02製品
100
AcDbCircle
 10
9945.058203921944
 20
2910.213796291728
 30
0.0
 40
15.0
  0
CIRCLE
  5
41F9
330
1F
100
AcDbEntity
  8
02製品
100
AcDbCircle
 10
9905.058203921944
 20
2930.213796291728
 30
0.0
 40
15.0
  0
CIRCLE
  5
41FA
330
1F
100
AcDbEntity
  8
02製品
100
AcDbCircle
 10
9905.058203921944
 20
2970.213796291728
 30
0.0
 40
15.0
  0
CIRCLE
  5
41FB
330
1F
100
AcDbEntity
  8
02製品
100
AcDbCircle
 10
9985.058203921944
 20
2930.213796291728
 30
0.0
 40
15.0
  0
CIRCLE
  5
41FC
330
1F
100
AcDbEntity
  8
02製品
100
AcDbCircle
 10
10025.05820392194
 20
2950.213796291728
 30
0.0
 40
15.0
  0
CIRCLE
  5
41FD
330
1F
100
AcDbEntity
  8
02製品
100
AcDbCircle
 10
10025.05820392194
 20
2910.213796291728
 30
0.0
 40
15.0
  0
CIRCLE
  5
41FE
330
1F
100
AcDbEntity
  8
02製品
100
AcDbCircle
 10
9985.058203921944
 20
2970.213796291728
 30
0.0
 40
15.0
  0
CIRCLE
  5
41FF
330
1F
100
AcDbEntity
  8
02製品
100
AcDbCircle
 10
10105.05820392194
 20
2870.213796291728
 30
0.0
 40
15.0
  0
CIRCLE
  5
4200
330
1F
100
AcDbEntity
  8
02製品
100
AcDbCircle
 10
10065.05820392194
 20
2890.213796291728
 30
0.0
 40
15.0
  0
CIRCLE
  5
4201
330
1F
100
AcDbEntity
  8
02製品
100
AcDbCircle
 10
10105.05820392194
 20
2830.213796291728
 30
0.0
 40
15.0
  0
CIRCLE
  5
4202
330
1F
100
AcDbEntity
  8
02製品
100
AcDbCircle
 10
10065.05820392194
 20
2810.213796291728
 30
0.0
 40
15.0
  0
CIRCLE
  5
4203
330
1F
100
AcDbEntity
  8
02製品
100
AcDbCircle
 10
10105.05820392194
 20
2790.213796291728
 30
0.0
 40
15.0
  0
CIRCLE
  5
4204
330
1F
100
AcDbEntity
  8
02製品
100
AcDbCircle
 10
10065.05820392194
 20
2850.213796291728
 30
0.0
 40
15.0
  0
LINE
  5
4205
330
1F
100
AcDbEntity
  8
02製品
  6
CENTER
100
AcDbLine
 10
10185.05820392195
 20
2820.713796291735
 30
0.0
 11
10185.05820392195
 21
2799.713796291735
 31
0.0
  0
CIRCLE
  5
4206
330
1F
100
AcDbEntity
  8
02製品
100
AcDbCircle
 10
10185.05820392195
 20
2810.213796291732
 30
0.0
 40
3.5
  0
LINE
  5
4207
330
1F
100
AcDbEntity
  8
02製品
  6
CENTER
100
AcDbLine
 10
10174.55820392195
 20
2810.213796291732
 30
0.0
 11
10195.55820392195
 21
2810.213796291732
 31
0.0
  0
CIRCLE
  5
4208
330
1F
100
AcDbEntity
  8
02製品
100
AcDbCircle
 10
10065.05820392194
 20
2930.213796291728
 30
0.0
 40
15.0
  0
CIRCLE
  5
4209
330
1F
100
AcDbEntity
  8
02製品
100
AcDbCircle
 10
10105.05820392194
 20
2950.213796291728
 30
0.0
 40
15.0
  0
CIRCLE
  5
420A
330
1F
100
AcDbEntity
  8
02製品
100
AcDbCircle
 10
10105.05820392194
 20
2910.213796291728
 30
0.0
 40
15.0
  0
CIRCLE
  5
420B
330
1F
100
AcDbEntity
  8
02製品
100
AcDbCircle
 10
10065.05820392194
 20
2970.213796291728
 30
0.0
 40
15.0
  0
LINE
  5
420C
330
1F
100
AcDbEntity
  8
02製品
  6
CENTER
100
AcDbLine
 10
10174.55820392195
 20
3000.213796291732
 30
0.0
 11
10195.55820392195
 21
3000.213796291732
 31
0.0
  0
LINE
  5
420D
330
1F
100
AcDbEntity
  8
02製品
100
AcDbLine
 10
10030.05820392194
 20
3226.713796291728
 30
0.0
 11
10151.55820392194
 21
3226.713796291728
 31
0.0
  0
CIRCLE
  5
420E
330
1F
100
AcDbEntity
  8
02製品
100
AcDbCircle
 10
10025.05820392194
 20
3110.213796291728
 30
0.0
 40
15.0
  0
CIRCLE
  5
420F
330
1F
100
AcDbEntity
  8
02製品
100
AcDbCircle
 10
9905.058203921944
 20
3130.213796291728
 30
0.0
 40
15.0
  0
CIRCLE
  5
4210
330
1F
100
AcDbEntity
  8
02製品
100
AcDbCircle
 10
9985.058203921944
 20
3130.213796291728
 30
0.0
 40
15.0
  0
CIRCLE
  5
4211
330
1F
100
AcDbEntity
  8
02製品
100
AcDbCircle
 10
9945.058203921944
 20
3110.213796291728
 30
0.0
 40
15.0
  0
CIRCLE
  5
4212
330
1F
100
AcDbEntity
  8
02製品
100
AcDbCircle
 10
9945.058203921944
 20
3070.213796291728
 30
0.0
 40
15.0
  0
CIRCLE
  5
4213
330
1F
100
AcDbEntity
  8
02製品
100
AcDbCircle
 10
9945.058203921944
 20
3030.213796291728
 30
0.0
 40
15.0
  0
CIRCLE
  5
4214
330
1F
100
AcDbEntity
  8
02製品
100
AcDbCircle
 10
9905.058203921944
 20
3050.213796291728
 30
0.0
 40
15.0
  0
CIRCLE
  5
4215
330
1F
100
AcDbEntity
  8
02製品
100
AcDbCircle
 10
9905.058203921944
 20
3090.213796291728
 30
0.0
 40
15.0
  0
CIRCLE
  5
4216
330
1F
100
AcDbEntity
  8
02製品
100
AcDbCircle
 10
9985.058203921944
 20
3050.213796291728
 30
0.0
 40
15.0
  0
CIRCLE
  5
4217
330
1F
100
AcDbEntity
  8
02製品
100
AcDbCircle
 10
10025.05820392194
 20
3070.213796291728
 30
0.0
 40
15.0
  0
CIRCLE
  5
4218
330
1F
100
AcDbEntity
  8
02製品
100
AcDbCircle
 10
10025.05820392194
 20
3030.213796291728
 30
0.0
 40
15.0
  0
CIRCLE
  5
4219
330
1F
100
AcDbEntity
  8
02製品
100
AcDbCircle
 10
9985.058203921944
 20
3090.213796291728
 30
0.0
 40
15.0
  0
CIRCLE
  5
421A
330
1F
100
AcDbEntity
  8
02製品
100
AcDbCircle
 10
9945.058203921944
 20
3190.213796291728
 30
0.0
 40
15.0
  0
CIRCLE
  5
421B
330
1F
100
AcDbEntity
  8
02製品
100
AcDbCircle
 10
9945.058203921944
 20
3150.213796291728
 30
0.0
 40
15.0
  0
CIRCLE
  5
421C
330
1F
100
AcDbEntity
  8
02製品
100
AcDbCircle
 10
9905.058203921944
 20
3170.213796291728
 30
0.0
 40
15.0
  0
CIRCLE
  5
421D
330
1F
100
AcDbEntity
  8
02製品
100
AcDbCircle
 10
9985.058203921944
 20
3170.213796291728
 30
0.0
 40
15.0
  0
CIRCLE
  5
421E
330
1F
100
AcDbEntity
  8
02製品
100
AcDbCircle
 10
10025.05820392194
 20
3150.213796291728
 30
0.0
 40
15.0
  0
CIRCLE
  5
421F
330
1F
100
AcDbEntity
  8
02製品
100
AcDbCircle
 10
10025.05820392194
 20
3190.213796291728
 30
0.0
 40
15.0
  0
LINE
  5
4220
330
1F
100
AcDbEntity
  8
02製品
100
AcDbLine
 10
10030.05820392194
 20
3226.713796291728
 30
0.0
 11
10030.05820392194
 21
3225.213796291728
 31
0.0
  0
CIRCLE
  5
4221
330
1F
100
AcDbEntity
  8
02製品
100
AcDbCircle
 10
10105.05820392194
 20
3110.213796291728
 30
0.0
 40
15.0
  0
CIRCLE
  5
4222
330
1F
100
AcDbEntity
  8
02製品
100
AcDbCircle
 10
10065.05820392194
 20
3130.213796291728
 30
0.0
 40
15.0
  0
LINE
  5
4223
330
1F
100
AcDbEntity
  8
02製品
100
AcDbLine
 10
10151.55820392194
 20
3226.713796291728
 30
0.0
 11
10151.55820392194
 21
3105.213796291725
 31
0.0
  0
CIRCLE
  5
4224
330
1F
100
AcDbEntity
  8
02製品
100
AcDbCircle
 10
10065.05820392194
 20
3050.213796291728
 30
0.0
 40
15.0
  0
CIRCLE
  5
4225
330
1F
100
AcDbEntity
  8
02製品
100
AcDbCircle
 10
10105.05820392194
 20
3070.213796291728
 30
0.0
 40
15.0
  0
CIRCLE
  5
4226
330
1F
100
AcDbEntity
  8
02製品
100
AcDbCircle
 10
10105.05820392194
 20
3030.213796291728
 30
0.0
 40
15.0
  0
CIRCLE
  5
4227
330
1F
100
AcDbEntity
  8
02製品
100
AcDbCircle
 10
10065.05820392194
 20
3090.213796291728
 30
0.0
 40
15.0
  0
LINE
  5
4228
330
1F
100
AcDbEntity
  8
02製品
100
AcDbLine
 10
10150.05820392194
 20
3105.213796291732
 30
0.0
 11
10151.55820392194
 21
3105.213796291725
 31
0.0
  0
LINE
  5
4229
330
1F
100
AcDbEntity
  8
02製品
100
AcDbLine
 10
10150.05820392194
 20
3225.213796291728
 30
0.0
 11
10110.05820392195
 21
3225.213796291732
 31
0.0
  0
CIRCLE
  5
422A
330
1F
100
AcDbEntity
  8
02製品
100
AcDbCircle
 10
10065.05820392194
 20
3170.213796291728
 30
0.0
 40
15.0
  0
CIRCLE
  5
422B
330
1F
100
AcDbEntity
  8
02製品
100
AcDbCircle
 10
10105.05820392194
 20
3150.213796291728
 30
0.0
 40
15.0
  0
CIRCLE
  5
422C
330
1F
100
AcDbEntity
  8
02製品
100
AcDbCircle
 10
10105.05820392194
 20
3190.213796291728
 30
0.0
 40
15.0
  0
LINE
  5
422D
330
1F
100
AcDbEntity
  8
02製品
  6
CENTER
100
AcDbLine
 10
10185.05820392195
 20
3200.713796291735
 30
0.0
 11
10185.05820392195
 21
3179.713796291735
 31
0.0
  0
LINE
  5
422E
330
1F
100
AcDbEntity
  8
02製品
  6
CENTER
100
AcDbLine
 10
10174.55820392195
 20
3190.213796291732
 30
0.0
 11
10195.55820392195
 21
3190.213796291732
 31
0.0
  0
CIRCLE
  5
422F
330
1F
100
AcDbEntity
  8
02製品
100
AcDbCircle
 10
10185.05820392195
 20
3190.213796291732
 30
0.0
 40
3.5
  0
LINE
  5
424F
330
1F
100
AcDbEntity
  8
02製品
100
AcDbLine
 10
12628.05820392194
 20
1693.713796291728
 30
0.0
 11
12628.05820392194
 21
1194.913796291725
 31
0.0
  0
LINE
  5
4250
330
1F
100
AcDbEntity
  8
02製品
100
AcDbLine
 10
12586.55820392195
 20
1573.713796291723
 30
0.0
 11
12586.55820392195
 21
1194.913796291725
 31
0.0
  0
CIRCLE
  5
4253
330
1F
100
AcDbEntity
  8
02製品
100
AcDbCircle
 10
12606.55820392196
 20
1208.713796291728
 30
0.0
 40
3.0
  0
LINE
  5
4254
330
1F
100
AcDbEntity
  8
02製品
100
AcDbLine
 10
12610.05820392195
 20
1211.213796291728
 30
0.0
 11
12610.05820392195
 21
1206.213796291728
 31
0.0
  0
LINE
  5
4255
330
1F
100
AcDbEntity
  8
02製品
  6
CENTER
100
AcDbLine
 10
12606.55820392196
 20
1218.213796291728
 30
0.0
 11
12606.55820392195
 21
1199.213796291728
 31
0.0
  0
LINE
  5
4256
330
1F
100
AcDbEntity
  8
02製品
100
AcDbLine
 10
12603.05820392196
 20
1211.213796291728
 30
0.0
 11
12603.05820392196
 21
1206.213796291728
 31
0.0
  0
LINE
  5
4257
330
1F
100
AcDbEntity
  8
02製品
100
AcDbLine
 10
12603.05820392196
 20
1211.213796291741
 30
0.0
 11
12603.05820392196
 21
1206.213796291741
 31
0.0
  0
ARC
  5
4258
330
1F
100
AcDbEntity
  8
02製品
100
AcDbCircle
 10
12606.55820392196
 20
1206.213796291728
 30
0.0
 40
3.49999999999967
100
AcDbArc
 50
180.0
 51
0.0
  0
LINE
  5
4259
330
1F
100
AcDbEntity
  8
02製品
  6
CENTER
100
AcDbLine
 10
12606.55820392196
 20
1258.21379629171
 30
0.0
 11
12606.55820392195
 21
1239.21379629171
 31
0.0
  0
LINE
  5
425A
330
1F
100
AcDbEntity
  8
02製品
  6
CENTER
100
AcDbLine
 10
12599.55820392196
 20
1208.713796291728
 30
0.0
 11
12613.55820392195
 21
1208.713796291728
 31
0.0
  0
ARC
  5
425B
330
1F
100
AcDbEntity
  8
02製品
100
AcDbCircle
 10
12606.55820392196
 20
1211.213796291728
 30
0.0
 40
3.50000000000024
100
AcDbArc
 50
0.0
 51
180.0
  0
ARC
  5
425C
330
1F
100
AcDbEntity
  8
02製品
100
AcDbCircle
 10
12606.55820392196
 20
1246.21379629171
 30
0.0
 40
3.49999999999967
100
AcDbArc
 50
180.0
 51
0.0
  0
LINE
  5
425D
330
1F
100
AcDbEntity
  8
02製品
100
AcDbLine
 10
12610.05820392195
 20
1251.21379629171
 30
0.0
 11
12610.05820392195
 21
1246.21379629171
 31
0.0
  0
CIRCLE
  5
425E
330
1F
100
AcDbEntity
  8
02製品
100
AcDbCircle
 10
12606.55820392196
 20
1248.71379629171
 30
0.0
 40
3.0
  0
ARC
  5
425F
330
1F
100
AcDbEntity
  8
02製品
100
AcDbCircle
 10
12606.55820392196
 20
1251.21379629171
 30
0.0
 40
3.50000000000024
100
AcDbArc
 50
0.0
 51
180.0
  0
LINE
  5
4260
330
1F
100
AcDbEntity
  8
02製品
  6
CENTER
100
AcDbLine
 10
12599.55820392196
 20
1248.71379629171
 30
0.0
 11
12613.55820392195
 21
1248.71379629171
 31
0.0
  0
LINE
  5
4261
330
1F
100
AcDbEntity
  8
02製品
100
AcDbLine
 10
12603.05820392196
 20
1251.21379629171
 30
0.0
 11
12603.05820392196
 21
1246.21379629171
 31
0.0
  0
LINE
  5
4262
330
1F
100
AcDbEntity
  8
02製品
100
AcDbLine
 10
12603.05820392196
 20
1251.213796291725
 30
0.0
 11
12603.05820392196
 21
1246.213796291726
 31
0.0
  0
LINE
  5
4265
330
1F
100
AcDbEntity
  8
02製品
  6
CENTER
100
AcDbLine
 10
12572.05820392154
 20
1673.713796291728
 30
0.0
 11
12591.05820392154
 21
1673.713796291728
 31
0.0
  0
ARC
  5
4266
330
1F
100
AcDbEntity
  8
02製品
100
AcDbCircle
 10
12584.05820392154
 20
1673.713796291728
 30
0.0
 40
3.49999999999967
100
AcDbArc
 50
270.0
 51
90.0
  0
LINE
  5
4267
330
1F
100
AcDbEntity
  8
02製品
  6
CENTER
100
AcDbLine
 10
12581.55820392154
 20
1680.713796291728
 30
0.0
 11
12581.55820392154
 21
1666.713796291728
 31
0.0
  0
ARC
  5
4268
330
1F
100
AcDbEntity
  8
02製品
100
AcDbCircle
 10
12579.05820392154
 20
1673.713796291728
 30
0.0
 40
3.50000000000024
100
AcDbArc
 50
90.0
 51
270.0
  0
ARC
  5
4269
330
1F
100
AcDbEntity
  8
02製品
100
AcDbCircle
 10
12519.05820392154
 20
1673.713796291755
 30
0.0
 40
3.50000000000024
100
AcDbArc
 50
90.0
 51
270.0
  0
LINE
  5
426A
330
1F
100
AcDbEntity
  8
02製品
  6
CENTER
100
AcDbLine
 10
12521.55820392154
 20
1680.713796291754
 30
0.0
 11
12521.55820392154
 21
1666.713796291755
 31
0.0
  0
ARC
  5
426B
330
1F
100
AcDbEntity
  8
02製品
100
AcDbCircle
 10
12524.05820392154
 20
1673.713796291755
 30
0.0
 40
3.49999999999967
100
AcDbArc
 50
270.0
 51
90.0
  0
LINE
  5
426C
330
1F
100
AcDbEntity
  8
02製品
100
AcDbLine
 10
12506.55820392196
 20
1693.71379629171
 30
0.0
 11
12506.55820392196
 21
1653.71379629171
 31
0.0
  0
CIRCLE
  5
426D
330
1F
100
AcDbEntity
  8
02製品
100
AcDbCircle
 10
12521.55820392154
 20
1673.713796291685
 30
0.0
 40
3.0
  0
CIRCLE
  5
426E
330
1F
100
AcDbEntity
  8
02製品
100
AcDbCircle
 10
12581.55820392154
 20
1673.713796291728
 30
0.0
 40
3.0
  0
LINE
  5
426F
330
1F
100
AcDbEntity
  8
02製品
100
AcDbLine
 10
12506.55820392195
 20
1653.713796291725
 30
0.0
 11
12586.55820392194
 21
1573.713796291725
 31
0.0
  0
LINE
  5
4270
330
1F
100
AcDbEntity
  8
02製品
100
AcDbLine
 10
12519.05820392154
 20
1670.213796291755
 30
0.0
 11
12524.05820392154
 21
1670.213796291755
 31
0.0
  0
LINE
  5
4271
330
1F
100
AcDbEntity
  8
02製品
100
AcDbLine
 10
12579.05820392154
 20
1670.213796291728
 30
0.0
 11
12584.05820392154
 21
1670.213796291728
 31
0.0
  0
LINE
  5
4272
330
1F
100
AcDbEntity
  8
02製品
  6
CENTER
100
AcDbLine
 10
12512.05820392154
 20
1673.713796291754
 30
0.0
 11
12531.05820392154
 21
1673.713796291754
 31
0.0
  0
LINE
  5
4273
330
1F
100
AcDbEntity
  8
02製品
100
AcDbLine
 10
12518.89997966853
 20
1677.213796291754
 30
0.0
 11
12523.89997966853
 21
1677.213796291754
 31
0.0
  0
LINE
  5
4274
330
1F
100
AcDbEntity
  8
02製品
100
AcDbLine
 10
12579.05820392154
 20
1677.213796291728
 30
0.0
 11
12584.05820392154
 21
1677.213796291728
 31
0.0
  0
CIRCLE
  5
444A
330
1F
100
AcDbEntity
  8
02製品
100
AcDbCircle
 10
11185.05820392196
 20
3190.213796291732
 30
0.0
 40
3.5
  0
LINE
  5
444B
330
1F
100
AcDbEntity
  8
02製品
  6
CENTER
100
AcDbLine
 10
11174.55820392196
 20
3190.213796291732
 30
0.0
 11
11195.55820392196
 21
3190.213796291732
 31
0.0
  0
LINE
  5
444C
330
1F
100
AcDbEntity
  8
02製品
  6
CENTER
100
AcDbLine
 10
11185.05820392196
 20
3200.713796291735
 30
0.0
 11
11185.05820392196
 21
3179.713796291735
 31
0.0
  0
CIRCLE
  5
444D
330
1F
100
AcDbEntity
  8
02製品
100
AcDbCircle
 10
11105.05820392195
 20
3190.213796291728
 30
0.0
 40
15.0
  0
CIRCLE
  5
444E
330
1F
100
AcDbEntity
  8
02製品
100
AcDbCircle
 10
11105.05820392195
 20
3150.213796291728
 30
0.0
 40
15.0
  0
CIRCLE
  5
444F
330
1F
100
AcDbEntity
  8
02製品
100
AcDbCircle
 10
11065.05820392195
 20
3170.213796291728
 30
0.0
 40
15.0
  0
LINE
  5
4450
330
1F
100
AcDbEntity
  8
02製品
100
AcDbLine
 10
11150.05820392195
 20
3225.213796291728
 30
0.0
 11
11110.05820392196
 21
3225.213796291732
 31
0.0
  0
LINE
  5
4451
330
1F
100
AcDbEntity
  8
02製品
100
AcDbLine
 10
11150.05820392195
 20
3105.213796291732
 30
0.0
 11
11151.55820392195
 21
3105.213796291725
 31
0.0
  0
CIRCLE
  5
4452
330
1F
100
AcDbEntity
  8
02製品
100
AcDbCircle
 10
11065.05820392195
 20
3090.213796291728
 30
0.0
 40
15.0
  0
CIRCLE
  5
4453
330
1F
100
AcDbEntity
  8
02製品
100
AcDbCircle
 10
11105.05820392195
 20
3030.213796291728
 30
0.0
 40
15.0
  0
CIRCLE
  5
4454
330
1F
100
AcDbEntity
  8
02製品
100
AcDbCircle
 10
11105.05820392195
 20
3070.213796291728
 30
0.0
 40
15.0
  0
CIRCLE
  5
4455
330
1F
100
AcDbEntity
  8
02製品
100
AcDbCircle
 10
11065.05820392195
 20
3050.213796291728
 30
0.0
 40
15.0
  0
LINE
  5
4456
330
1F
100
AcDbEntity
  8
02製品
100
AcDbLine
 10
11151.55820392195
 20
3226.713796291728
 30
0.0
 11
11151.55820392195
 21
3105.213796291725
 31
0.0
  0
CIRCLE
  5
4457
330
1F
100
AcDbEntity
  8
02製品
100
AcDbCircle
 10
11065.05820392195
 20
3130.213796291728
 30
0.0
 40
15.0
  0
CIRCLE
  5
4458
330
1F
100
AcDbEntity
  8
02製品
100
AcDbCircle
 10
11105.05820392195
 20
3110.213796291728
 30
0.0
 40
15.0
  0
LINE
  5
4459
330
1F
100
AcDbEntity
  8
02製品
100
AcDbLine
 10
11030.05820392195
 20
3226.713796291728
 30
0.0
 11
11030.05820392195
 21
3225.213796291728
 31
0.0
  0
CIRCLE
  5
445A
330
1F
100
AcDbEntity
  8
02製品
100
AcDbCircle
 10
11025.05820392195
 20
3190.213796291728
 30
0.0
 40
15.0
  0
CIRCLE
  5
445B
330
1F
100
AcDbEntity
  8
02製品
100
AcDbCircle
 10
11025.05820392195
 20
3150.213796291728
 30
0.0
 40
15.0
  0
CIRCLE
  5
445C
330
1F
100
AcDbEntity
  8
02製品
100
AcDbCircle
 10
10985.05820392195
 20
3170.213796291728
 30
0.0
 40
15.0
  0
CIRCLE
  5
445D
330
1F
100
AcDbEntity
  8
02製品
100
AcDbCircle
 10
10905.05820392195
 20
3170.213796291728
 30
0.0
 40
15.0
  0
CIRCLE
  5
445E
330
1F
100
AcDbEntity
  8
02製品
100
AcDbCircle
 10
10945.05820392195
 20
3150.213796291728
 30
0.0
 40
15.0
  0
CIRCLE
  5
445F
330
1F
100
AcDbEntity
  8
02製品
100
AcDbCircle
 10
10945.05820392195
 20
3190.213796291728
 30
0.0
 40
15.0
  0
CIRCLE
  5
4460
330
1F
100
AcDbEntity
  8
02製品
100
AcDbCircle
 10
10985.05820392195
 20
3090.213796291728
 30
0.0
 40
15.0
  0
CIRCLE
  5
4461
330
1F
100
AcDbEntity
  8
02製品
100
AcDbCircle
 10
11025.05820392195
 20
3030.213796291728
 30
0.0
 40
15.0
  0
CIRCLE
  5
4462
330
1F
100
AcDbEntity
  8
02製品
100
AcDbCircle
 10
11025.05820392195
 20
3070.213796291728
 30
0.0
 40
15.0
  0
CIRCLE
  5
4463
330
1F
100
AcDbEntity
  8
02製品
100
AcDbCircle
 10
10985.05820392195
 20
3050.213796291728
 30
0.0
 40
15.0
  0
CIRCLE
  5
4464
330
1F
100
AcDbEntity
  8
02製品
100
AcDbCircle
 10
10905.05820392195
 20
3090.213796291728
 30
0.0
 40
15.0
  0
CIRCLE
  5
4465
330
1F
100
AcDbEntity
  8
02製品
100
AcDbCircle
 10
10905.05820392195
 20
3050.213796291728
 30
0.0
 40
15.0
  0
CIRCLE
  5
4466
330
1F
100
AcDbEntity
  8
02製品
100
AcDbCircle
 10
10945.05820392195
 20
3030.213796291728
 30
0.0
 40
15.0
  0
CIRCLE
  5
4467
330
1F
100
AcDbEntity
  8
02製品
100
AcDbCircle
 10
10945.05820392195
 20
3070.213796291728
 30
0.0
 40
15.0
  0
CIRCLE
  5
4468
330
1F
100
AcDbEntity
  8
02製品
100
AcDbCircle
 10
10945.05820392195
 20
3110.213796291728
 30
0.0
 40
15.0
  0
CIRCLE
  5
4469
330
1F
100
AcDbEntity
  8
02製品
100
AcDbCircle
 10
10985.05820392195
 20
3130.213796291728
 30
0.0
 40
15.0
  0
CIRCLE
  5
446A
330
1F
100
AcDbEntity
  8
02製品
100
AcDbCircle
 10
10905.05820392195
 20
3130.213796291728
 30
0.0
 40
15.0
  0
CIRCLE
  5
446B
330
1F
100
AcDbEntity
  8
02製品
100
AcDbCircle
 10
11025.05820392195
 20
3110.213796291728
 30
0.0
 40
15.0
  0
LINE
  5
446C
330
1F
100
AcDbEntity
  8
02製品
100
AcDbLine
 10
11030.05820392195
 20
3226.713796291728
 30
0.0
 11
11151.55820392195
 21
3226.713796291728
 31
0.0
  0
LINE
  5
446D
330
1F
100
AcDbEntity
  8
02製品
  6
CENTER
100
AcDbLine
 10
11174.55820392196
 20
3000.213796291732
 30
0.0
 11
11195.55820392196
 21
3000.213796291732
 31
0.0
  0
CIRCLE
  5
446E
330
1F
100
AcDbEntity
  8
02製品
100
AcDbCircle
 10
11065.05820392195
 20
2970.213796291728
 30
0.0
 40
15.0
  0
CIRCLE
  5
446F
330
1F
100
AcDbEntity
  8
02製品
100
AcDbCircle
 10
11105.05820392195
 20
2910.213796291728
 30
0.0
 40
15.0
  0
CIRCLE
  5
4470
330
1F
100
AcDbEntity
  8
02製品
100
AcDbCircle
 10
11105.05820392195
 20
2950.213796291728
 30
0.0
 40
15.0
  0
CIRCLE
  5
4471
330
1F
100
AcDbEntity
  8
02製品
100
AcDbCircle
 10
11065.05820392195
 20
2930.213796291728
 30
0.0
 40
15.0
  0
LINE
  5
4472
330
1F
100
AcDbEntity
  8
02製品
  6
CENTER
100
AcDbLine
 10
11174.55820392196
 20
2810.213796291732
 30
0.0
 11
11195.55820392196
 21
2810.213796291732
 31
0.0
  0
CIRCLE
  5
4473
330
1F
100
AcDbEntity
  8
02製品
100
AcDbCircle
 10
11185.05820392196
 20
2810.213796291732
 30
0.0
 40
3.5
  0
LINE
  5
4474
330
1F
100
AcDbEntity
  8
02製品
  6
CENTER
100
AcDbLine
 10
11185.05820392196
 20
2820.713796291735
 30
0.0
 11
11185.05820392196
 21
2799.713796291735
 31
0.0
  0
CIRCLE
  5
4475
330
1F
100
AcDbEntity
  8
02製品
100
AcDbCircle
 10
11065.05820392195
 20
2850.213796291728
 30
0.0
 40
15.0
  0
CIRCLE
  5
4476
330
1F
100
AcDbEntity
  8
02製品
100
AcDbCircle
 10
11105.05820392195
 20
2790.213796291728
 30
0.0
 40
15.0
  0
CIRCLE
  5
4477
330
1F
100
AcDbEntity
  8
02製品
100
AcDbCircle
 10
11065.05820392195
 20
2810.213796291728
 30
0.0
 40
15.0
  0
CIRCLE
  5
4478
330
1F
100
AcDbEntity
  8
02製品
100
AcDbCircle
 10
11105.05820392195
 20
2830.213796291728
 30
0.0
 40
15.0
  0
CIRCLE
  5
4479
330
1F
100
AcDbEntity
  8
02製品
100
AcDbCircle
 10
11065.05820392195
 20
2890.213796291728
 30
0.0
 40
15.0
  0
CIRCLE
  5
447A
330
1F
100
AcDbEntity
  8
02製品
100
AcDbCircle
 10
11105.05820392195
 20
2870.213796291728
 30
0.0
 40
15.0
  0
CIRCLE
  5
447B
330
1F
100
AcDbEntity
  8
02製品
100
AcDbCircle
 10
10985.05820392195
 20
2970.213796291728
 30
0.0
 40
15.0
  0
CIRCLE
  5
447C
330
1F
100
AcDbEntity
  8
02製品
100
AcDbCircle
 10
11025.05820392195
 20
2910.213796291728
 30
0.0
 40
15.0
  0
CIRCLE
  5
447D
330
1F
100
AcDbEntity
  8
02製品
100
AcDbCircle
 10
11025.05820392195
 20
2950.213796291728
 30
0.0
 40
15.0
  0
CIRCLE
  5
447E
330
1F
100
AcDbEntity
  8
02製品
100
AcDbCircle
 10
10985.05820392195
 20
2930.213796291728
 30
0.0
 40
15.0
  0
CIRCLE
  5
447F
330
1F
100
AcDbEntity
  8
02製品
100
AcDbCircle
 10
10905.05820392195
 20
2970.213796291728
 30
0.0
 40
15.0
  0
CIRCLE
  5
4480
330
1F
100
AcDbEntity
  8
02製品
100
AcDbCircle
 10
10905.05820392195
 20
2930.213796291728
 30
0.0
 40
15.0
  0
CIRCLE
  5
4481
330
1F
100
AcDbEntity
  8
02製品
100
AcDbCircle
 10
10945.05820392195
 20
2910.213796291728
 30
0.0
 40
15.0
  0
CIRCLE
  5
4482
330
1F
100
AcDbEntity
  8
02製品
100
AcDbCircle
 10
10945.05820392195
 20
2950.213796291728
 30
0.0
 40
15.0
  0
CIRCLE
  5
4483
330
1F
100
AcDbEntity
  8
02製品
100
AcDbCircle
 10
10985.05820392195
 20
2850.213796291728
 30
0.0
 40
15.0
  0
CIRCLE
  5
4484
330
1F
100
AcDbEntity
  8
02製品
100
AcDbCircle
 10
11025.05820392195
 20
2790.213796291728
 30
0.0
 40
15.0
  0
CIRCLE
  5
4485
330
1F
100
AcDbEntity
  8
02製品
100
AcDbCircle
 10
10985.05820392195
 20
2810.213796291728
 30
0.0
 40
15.0
  0
CIRCLE
  5
4486
330
1F
100
AcDbEntity
  8
02製品
100
AcDbCircle
 10
11025.05820392195
 20
2830.213796291728
 30
0.0
 40
15.0
  0
CIRCLE
  5
4487
330
1F
100
AcDbEntity
  8
02製品
100
AcDbCircle
 10
10905.05820392195
 20
2850.213796291728
 30
0.0
 40
15.0
  0
CIRCLE
  5
4488
330
1F
100
AcDbEntity
  8
02製品
100
AcDbCircle
 10
10905.05820392195
 20
2810.213796291728
 30
0.0
 40
15.0
  0
CIRCLE
  5
4489
330
1F
100
AcDbEntity
  8
02製品
100
AcDbCircle
 10
10945.05820392195
 20
2830.213796291728
 30
0.0
 40
15.0
  0
CIRCLE
  5
448A
330
1F
100
AcDbEntity
  8
02製品
100
AcDbCircle
 10
10945.05820392195
 20
2790.213796291728
 30
0.0
 40
15.0
  0
CIRCLE
  5
448B
330
1F
100
AcDbEntity
  8
02製品
100
AcDbCircle
 10
11025.05820392195
 20
2870.213796291728
 30
0.0
 40
15.0
  0
CIRCLE
  5
448C
330
1F
100
AcDbEntity
  8
02製品
100
AcDbCircle
 10
10905.05820392195
 20
2890.213796291728
 30
0.0
 40
15.0
  0
CIRCLE
  5
448D
330
1F
100
AcDbEntity
  8
02製品
100
AcDbCircle
 10
10945.05820392195
 20
2870.213796291728
 30
0.0
 40
15.0
  0
CIRCLE
  5
448E
330
1F
100
AcDbEntity
  8
02製品
100
AcDbCircle
 10
10985.05820392195
 20
2890.213796291728
 30
0.0
 40
15.0
  0
CIRCLE
  5
448F
330
1F
100
AcDbEntity
  8
02製品
100
AcDbCircle
 10
11105.05820392195
 20
2990.213796291728
 30
0.0
 40
15.0
  0
CIRCLE
  5
4490
330
1F
100
AcDbEntity
  8
02製品
100
AcDbCircle
 10
11065.05820392195
 20
3010.213796291728
 30
0.0
 40
15.0
  0
CIRCLE
  5
4491
330
1F
100
AcDbEntity
  8
02製品
100
AcDbCircle
 10
11025.05820392195
 20
2990.213796291728
 30
0.0
 40
15.0
  0
LINE
  5
4492
330
1F
100
AcDbEntity
  8
02製品
  6
CENTER
100
AcDbLine
 10
11185.05820392196
 20
3010.713796291735
 30
0.0
 11
11185.05820392196
 21
2989.713796291735
 31
0.0
  0
CIRCLE
  5
4493
330
1F
100
AcDbEntity
  8
02製品
100
AcDbCircle
 10
11185.05820392196
 20
3000.213796291732
 30
0.0
 40
3.5
  0
CIRCLE
  5
4494
330
1F
100
AcDbEntity
  8
02製品
100
AcDbCircle
 10
10945.05820392195
 20
2990.213796291728
 30
0.0
 40
15.0
  0
CIRCLE
  5
4495
330
1F
100
AcDbEntity
  8
02製品
100
AcDbCircle
 10
10905.05820392195
 20
3010.213796291728
 30
0.0
 40
15.0
  0
CIRCLE
  5
4496
330
1F
100
AcDbEntity
  8
02製品
100
AcDbCircle
 10
10985.05820392195
 20
3010.213796291728
 30
0.0
 40
15.0
  0
CIRCLE
  5
4497
330
1F
100
AcDbEntity
  8
02製品
100
AcDbCircle
 10
10825.05820392195
 20
3170.213796291728
 30
0.0
 40
15.0
  0
CIRCLE
  5
4498
330
1F
100
AcDbEntity
  8
02製品
100
AcDbCircle
 10
10745.05820392195
 20
3170.213796291728
 30
0.0
 40
15.0
  0
CIRCLE
  5
4499
330
1F
100
AcDbEntity
  8
02製品
100
AcDbCircle
 10
10785.05820392195
 20
3150.213796291728
 30
0.0
 40
15.0
  0
CIRCLE
  5
449A
330
1F
100
AcDbEntity
  8
02製品
100
AcDbCircle
 10
10785.05820392195
 20
3190.213796291728
 30
0.0
 40
15.0
  0
CIRCLE
  5
449B
330
1F
100
AcDbEntity
  8
02製品
100
AcDbCircle
 10
10825.05820392195
 20
3090.213796291728
 30
0.0
 40
15.0
  0
CIRCLE
  5
449C
330
1F
100
AcDbEntity
  8
02製品
100
AcDbCircle
 10
10825.05820392195
 20
3050.213796291728
 30
0.0
 40
15.0
  0
CIRCLE
  5
449D
330
1F
100
AcDbEntity
  8
02製品
100
AcDbCircle
 10
10745.05820392195
 20
3090.213796291728
 30
0.0
 40
15.0
  0
CIRCLE
  5
449E
330
1F
100
AcDbEntity
  8
02製品
100
AcDbCircle
 10
10745.05820392195
 20
3050.213796291728
 30
0.0
 40
15.0
  0
CIRCLE
  5
449F
330
1F
100
AcDbEntity
  8
02製品
100
AcDbCircle
 10
10785.05820392195
 20
3030.213796291728
 30
0.0
 40
15.0
  0
CIRCLE
  5
44A0
330
1F
100
AcDbEntity
  8
02製品
100
AcDbCircle
 10
10785.05820392195
 20
3070.213796291728
 30
0.0
 40
15.0
  0
CIRCLE
  5
44A1
330
1F
100
AcDbEntity
  8
02製品
100
AcDbCircle
 10
10785.05820392195
 20
3110.213796291728
 30
0.0
 40
15.0
  0
CIRCLE
  5
44A2
330
1F
100
AcDbEntity
  8
02製品
100
AcDbCircle
 10
10825.05820392195
 20
3130.213796291728
 30
0.0
 40
15.0
  0
CIRCLE
  5
44A3
330
1F
100
AcDbEntity
  8
02製品
100
AcDbCircle
 10
10745.05820392195
 20
3130.213796291728
 30
0.0
 40
15.0
  0
CIRCLE
  5
44A4
330
1F
100
AcDbEntity
  8
02製品
100
AcDbCircle
 10
10665.05820392195
 20
3170.213796291728
 30
0.0
 40
15.0
  0
CIRCLE
  5
44A5
330
1F
100
AcDbEntity
  8
02製品
100
AcDbCircle
 10
10585.05820392195
 20
3170.213796291728
 30
0.0
 40
15.0
  0
CIRCLE
  5
44A6
330
1F
100
AcDbEntity
  8
02製品
100
AcDbCircle
 10
10625.05820392195
 20
3150.213796291728
 30
0.0
 40
15.0
  0
CIRCLE
  5
44A7
330
1F
100
AcDbEntity
  8
02製品
100
AcDbCircle
 10
10625.05820392195
 20
3190.213796291728
 30
0.0
 40
15.0
  0
CIRCLE
  5
44A8
330
1F
100
AcDbEntity
  8
02製品
100
AcDbCircle
 10
10665.05820392195
 20
3090.213796291728
 30
0.0
 40
15.0
  0
CIRCLE
  5
44A9
330
1F
100
AcDbEntity
  8
02製品
100
AcDbCircle
 10
10665.05820392195
 20
3050.213796291728
 30
0.0
 40
15.0
  0
CIRCLE
  5
44AA
330
1F
100
AcDbEntity
  8
02製品
100
AcDbCircle
 10
10585.05820392195
 20
3090.213796291728
 30
0.0
 40
15.0
  0
CIRCLE
  5
44AB
330
1F
100
AcDbEntity
  8
02製品
100
AcDbCircle
 10
10585.05820392195
 20
3050.213796291728
 30
0.0
 40
15.0
  0
CIRCLE
  5
44AC
330
1F
100
AcDbEntity
  8
02製品
100
AcDbCircle
 10
10625.05820392195
 20
3030.213796291728
 30
0.0
 40
15.0
  0
CIRCLE
  5
44AD
330
1F
100
AcDbEntity
  8
02製品
100
AcDbCircle
 10
10625.05820392195
 20
3070.213796291728
 30
0.0
 40
15.0
  0
CIRCLE
  5
44AE
330
1F
100
AcDbEntity
  8
02製品
100
AcDbCircle
 10
10585.05820392195
 20
3130.213796291728
 30
0.0
 40
15.0
  0
CIRCLE
  5
44AF
330
1F
100
AcDbEntity
  8
02製品
100
AcDbCircle
 10
10625.05820392195
 20
3110.213796291728
 30
0.0
 40
15.0
  0
CIRCLE
  5
44B0
330
1F
100
AcDbEntity
  8
02製品
100
AcDbCircle
 10
10665.05820392195
 20
3130.213796291728
 30
0.0
 40
15.0
  0
CIRCLE
  5
44B1
330
1F
100
AcDbEntity
  8
02製品
100
AcDbCircle
 10
10705.05820392195
 20
3150.213796291728
 30
0.0
 40
15.0
  0
CIRCLE
  5
44B2
330
1F
100
AcDbEntity
  8
02製品
100
AcDbCircle
 10
10705.05820392195
 20
3190.213796291728
 30
0.0
 40
15.0
  0
CIRCLE
  5
44B3
330
1F
100
AcDbEntity
  8
02製品
100
AcDbCircle
 10
10705.05820392195
 20
3030.213796291728
 30
0.0
 40
15.0
  0
CIRCLE
  5
44B4
330
1F
100
AcDbEntity
  8
02製品
100
AcDbCircle
 10
10705.05820392195
 20
3070.213796291728
 30
0.0
 40
15.0
  0
CIRCLE
  5
44B5
330
1F
100
AcDbEntity
  8
02製品
100
AcDbCircle
 10
10705.05820392195
 20
3110.213796291728
 30
0.0
 40
15.0
  0
CIRCLE
  5
44B6
330
1F
100
AcDbEntity
  8
02製品
100
AcDbCircle
 10
10825.05820392195
 20
2970.213796291728
 30
0.0
 40
15.0
  0
CIRCLE
  5
44B7
330
1F
100
AcDbEntity
  8
02製品
100
AcDbCircle
 10
10825.05820392195
 20
2930.213796291728
 30
0.0
 40
15.0
  0
CIRCLE
  5
44B8
330
1F
100
AcDbEntity
  8
02製品
100
AcDbCircle
 10
10745.05820392195
 20
2970.213796291728
 30
0.0
 40
15.0
  0
CIRCLE
  5
44B9
330
1F
100
AcDbEntity
  8
02製品
100
AcDbCircle
 10
10745.05820392195
 20
2930.213796291728
 30
0.0
 40
15.0
  0
CIRCLE
  5
44BA
330
1F
100
AcDbEntity
  8
02製品
100
AcDbCircle
 10
10785.05820392195
 20
2910.213796291728
 30
0.0
 40
15.0
  0
CIRCLE
  5
44BB
330
1F
100
AcDbEntity
  8
02製品
100
AcDbCircle
 10
10785.05820392195
 20
2950.213796291728
 30
0.0
 40
15.0
  0
CIRCLE
  5
44BC
330
1F
100
AcDbEntity
  8
02製品
100
AcDbCircle
 10
10825.05820392195
 20
2850.213796291728
 30
0.0
 40
15.0
  0
CIRCLE
  5
44BD
330
1F
100
AcDbEntity
  8
02製品
100
AcDbCircle
 10
10825.05820392195
 20
2810.213796291728
 30
0.0
 40
15.0
  0
CIRCLE
  5
44BE
330
1F
100
AcDbEntity
  8
02製品
100
AcDbCircle
 10
10745.05820392195
 20
2850.213796291728
 30
0.0
 40
15.0
  0
CIRCLE
  5
44BF
330
1F
100
AcDbEntity
  8
02製品
100
AcDbCircle
 10
10745.05820392195
 20
2810.213796291728
 30
0.0
 40
15.0
  0
CIRCLE
  5
44C0
330
1F
100
AcDbEntity
  8
02製品
100
AcDbCircle
 10
10785.05820392195
 20
2830.213796291728
 30
0.0
 40
15.0
  0
CIRCLE
  5
44C1
330
1F
100
AcDbEntity
  8
02製品
100
AcDbCircle
 10
10785.05820392195
 20
2790.213796291728
 30
0.0
 40
15.0
  0
CIRCLE
  5
44C2
330
1F
100
AcDbEntity
  8
02製品
100
AcDbCircle
 10
10825.05820392195
 20
2890.213796291728
 30
0.0
 40
15.0
  0
CIRCLE
  5
44C3
330
1F
100
AcDbEntity
  8
02製品
100
AcDbCircle
 10
10745.05820392195
 20
2890.213796291728
 30
0.0
 40
15.0
  0
CIRCLE
  5
44C4
330
1F
100
AcDbEntity
  8
02製品
100
AcDbCircle
 10
10785.05820392195
 20
2870.213796291728
 30
0.0
 40
15.0
  0
CIRCLE
  5
44C5
330
1F
100
AcDbEntity
  8
02製品
100
AcDbCircle
 10
10665.05820392195
 20
2970.213796291728
 30
0.0
 40
15.0
  0
CIRCLE
  5
44C6
330
1F
100
AcDbEntity
  8
02製品
100
AcDbCircle
 10
10665.05820392195
 20
2930.213796291728
 30
0.0
 40
15.0
  0
CIRCLE
  5
44C7
330
1F
100
AcDbEntity
  8
02製品
100
AcDbCircle
 10
10585.05820392195
 20
2970.213796291728
 30
0.0
 40
15.0
  0
CIRCLE
  5
44C8
330
1F
100
AcDbEntity
  8
02製品
100
AcDbCircle
 10
10585.05820392195
 20
2930.213796291728
 30
0.0
 40
15.0
  0
CIRCLE
  5
44C9
330
1F
100
AcDbEntity
  8
02製品
100
AcDbCircle
 10
10625.05820392195
 20
2910.213796291728
 30
0.0
 40
15.0
  0
CIRCLE
  5
44CA
330
1F
100
AcDbEntity
  8
02製品
100
AcDbCircle
 10
10625.05820392195
 20
2950.213796291728
 30
0.0
 40
15.0
  0
CIRCLE
  5
44CB
330
1F
100
AcDbEntity
  8
02製品
100
AcDbCircle
 10
10665.05820392195
 20
2850.213796291728
 30
0.0
 40
15.0
  0
CIRCLE
  5
44CC
330
1F
100
AcDbEntity
  8
02製品
100
AcDbCircle
 10
10665.05820392195
 20
2810.213796291728
 30
0.0
 40
15.0
  0
CIRCLE
  5
44CD
330
1F
100
AcDbEntity
  8
02製品
100
AcDbCircle
 10
10585.05820392195
 20
2850.213796291728
 30
0.0
 40
15.0
  0
CIRCLE
  5
44CE
330
1F
100
AcDbEntity
  8
02製品
100
AcDbCircle
 10
10585.05820392195
 20
2810.213796291728
 30
0.0
 40
15.0
  0
CIRCLE
  5
44CF
330
1F
100
AcDbEntity
  8
02製品
100
AcDbCircle
 10
10625.05820392195
 20
2830.213796291728
 30
0.0
 40
15.0
  0
CIRCLE
  5
44D0
330
1F
100
AcDbEntity
  8
02製品
100
AcDbCircle
 10
10625.05820392195
 20
2790.213796291728
 30
0.0
 40
15.0
  0
CIRCLE
  5
44D1
330
1F
100
AcDbEntity
  8
02製品
100
AcDbCircle
 10
10665.05820392195
 20
2890.213796291728
 30
0.0
 40
15.0
  0
CIRCLE
  5
44D2
330
1F
100
AcDbEntity
  8
02製品
100
AcDbCircle
 10
10585.05820392195
 20
2890.213796291728
 30
0.0
 40
15.0
  0
CIRCLE
  5
44D3
330
1F
100
AcDbEntity
  8
02製品
100
AcDbCircle
 10
10625.05820392195
 20
2870.213796291728
 30
0.0
 40
15.0
  0
CIRCLE
  5
44D4
330
1F
100
AcDbEntity
  8
02製品
100
AcDbCircle
 10
10705.05820392195
 20
2910.213796291728
 30
0.0
 40
15.0
  0
CIRCLE
  5
44D5
330
1F
100
AcDbEntity
  8
02製品
100
AcDbCircle
 10
10705.05820392195
 20
2950.213796291728
 30
0.0
 40
15.0
  0
CIRCLE
  5
44D6
330
1F
100
AcDbEntity
  8
02製品
100
AcDbCircle
 10
10705.05820392195
 20
2830.213796291728
 30
0.0
 40
15.0
  0
CIRCLE
  5
44D7
330
1F
100
AcDbEntity
  8
02製品
100
AcDbCircle
 10
10705.05820392195
 20
2790.213796291728
 30
0.0
 40
15.0
  0
CIRCLE
  5
44D8
330
1F
100
AcDbEntity
  8
02製品
100
AcDbCircle
 10
10705.05820392195
 20
2870.213796291728
 30
0.0
 40
15.0
  0
CIRCLE
  5
44D9
330
1F
100
AcDbEntity
  8
02製品
100
AcDbCircle
 10
10705.05820392195
 20
2990.213796291728
 30
0.0
 40
15.0
  0
CIRCLE
  5
44DA
330
1F
100
AcDbEntity
  8
02製品
100
AcDbCircle
 10
10625.05820392195
 20
2990.213796291728
 30
0.0
 40
15.0
  0
CIRCLE
  5
44DB
330
1F
100
AcDbEntity
  8
02製品
100
AcDbCircle
 10
10585.05820392195
 20
3010.213796291728
 30
0.0
 40
15.0
  0
CIRCLE
  5
44DC
330
1F
100
AcDbEntity
  8
02製品
100
AcDbCircle
 10
10665.05820392195
 20
3010.213796291728
 30
0.0
 40
15.0
  0
CIRCLE
  5
44DD
330
1F
100
AcDbEntity
  8
02製品
100
AcDbCircle
 10
10785.05820392195
 20
2990.213796291728
 30
0.0
 40
15.0
  0
CIRCLE
  5
44DE
330
1F
100
AcDbEntity
  8
02製品
100
AcDbCircle
 10
10825.05820392195
 20
3010.213796291728
 30
0.0
 40
15.0
  0
CIRCLE
  5
44DF
330
1F
100
AcDbEntity
  8
02製品
100
AcDbCircle
 10
10745.05820392195
 20
3010.213796291728
 30
0.0
 40
15.0
  0
CIRCLE
  5
44E0
330
1F
100
AcDbEntity
  8
02製品
100
AcDbCircle
 10
10865.05820392195
 20
3150.213796291728
 30
0.0
 40
15.0
  0
CIRCLE
  5
44E1
330
1F
100
AcDbEntity
  8
02製品
100
AcDbCircle
 10
10865.05820392195
 20
3190.213796291728
 30
0.0
 40
15.0
  0
CIRCLE
  5
44E2
330
1F
100
AcDbEntity
  8
02製品
100
AcDbCircle
 10
10865.05820392195
 20
3030.213796291728
 30
0.0
 40
15.0
  0
CIRCLE
  5
44E3
330
1F
100
AcDbEntity
  8
02製品
100
AcDbCircle
 10
10865.05820392195
 20
3070.213796291728
 30
0.0
 40
15.0
  0
CIRCLE
  5
44E4
330
1F
100
AcDbEntity
  8
02製品
100
AcDbCircle
 10
10865.05820392195
 20
2910.213796291728
 30
0.0
 40
15.0
  0
CIRCLE
  5
44E5
330
1F
100
AcDbEntity
  8
02製品
100
AcDbCircle
 10
10865.05820392195
 20
2950.213796291728
 30
0.0
 40
15.0
  0
CIRCLE
  5
44E6
330
1F
100
AcDbEntity
  8
02製品
100
AcDbCircle
 10
10865.05820392195
 20
2990.213796291728
 30
0.0
 40
15.0
  0
CIRCLE
  5
44E7
330
1F
100
AcDbEntity
  8
02製品
100
AcDbCircle
 10
10865.05820392195
 20
2830.213796291728
 30
0.0
 40
15.0
  0
CIRCLE
  5
44E8
330
1F
100
AcDbEntity
  8
02製品
100
AcDbCircle
 10
10865.05820392195
 20
2790.213796291728
 30
0.0
 40
15.0
  0
CIRCLE
  5
44E9
330
1F
100
AcDbEntity
  8
02製品
100
AcDbCircle
 10
10865.05820392195
 20
2870.213796291728
 30
0.0
 40
15.0
  0
CIRCLE
  5
44EA
330
1F
100
AcDbEntity
  8
02製品
100
AcDbCircle
 10
10865.05820392195
 20
3110.213796291728
 30
0.0
 40
15.0
  0
CIRCLE
  5
44EB
330
1F
100
AcDbEntity
  8
02製品
100
AcDbCircle
 10
11105.05820392195
 20
2750.213796291728
 30
0.0
 40
15.0
  0
CIRCLE
  5
44EC
330
1F
100
AcDbEntity
  8
02製品
100
AcDbCircle
 10
11065.05820392195
 20
2730.213796291728
 30
0.0
 40
15.0
  0
CIRCLE
  5
44ED
330
1F
100
AcDbEntity
  8
02製品
100
AcDbCircle
 10
11105.05820392195
 20
2670.213796291728
 30
0.0
 40
15.0
  0
CIRCLE
  5
44EE
330
1F
100
AcDbEntity
  8
02製品
100
AcDbCircle
 10
11065.05820392195
 20
2690.213796291728
 30
0.0
 40
15.0
  0
CIRCLE
  5
44EF
330
1F
100
AcDbEntity
  8
02製品
100
AcDbCircle
 10
11105.05820392195
 20
2710.213796291728
 30
0.0
 40
15.0
  0
CIRCLE
  5
44F0
330
1F
100
AcDbEntity
  8
02製品
100
AcDbCircle
 10
11185.05820392196
 20
2620.213796291732
 30
0.0
 40
3.5
  0
LINE
  5
44F1
330
1F
100
AcDbEntity
  8
02製品
  6
CENTER
100
AcDbLine
 10
11174.55820392196
 20
2620.213796291732
 30
0.0
 11
11195.55820392196
 21
2620.213796291732
 31
0.0
  0
LINE
  5
44F2
330
1F
100
AcDbEntity
  8
02製品
  6
CENTER
100
AcDbLine
 10
11185.05820392196
 20
2630.713796291735
 30
0.0
 11
11185.05820392196
 21
2609.713796291735
 31
0.0
  0
CIRCLE
  5
44F3
330
1F
100
AcDbEntity
  8
02製品
100
AcDbCircle
 10
11105.05820392195
 20
2630.213796291728
 30
0.0
 40
15.0
  0
CIRCLE
  5
44F4
330
1F
100
AcDbEntity
  8
02製品
100
AcDbCircle
 10
11065.05820392195
 20
2610.213796291728
 30
0.0
 40
15.0
  0
CIRCLE
  5
44F5
330
1F
100
AcDbEntity
  8
02製品
100
AcDbCircle
 10
11065.05820392195
 20
2570.213796291728
 30
0.0
 40
15.0
  0
CIRCLE
  5
44F6
330
1F
100
AcDbEntity
  8
02製品
100
AcDbCircle
 10
11105.05820392195
 20
2590.213796291728
 30
0.0
 40
15.0
  0
CIRCLE
  5
44F7
330
1F
100
AcDbEntity
  8
02製品
100
AcDbCircle
 10
11065.05820392195
 20
2650.213796291728
 30
0.0
 40
15.0
  0
CIRCLE
  5
44F8
330
1F
100
AcDbEntity
  8
02製品
100
AcDbCircle
 10
11025.05820392195
 20
2750.213796291728
 30
0.0
 40
15.0
  0
CIRCLE
  5
44F9
330
1F
100
AcDbEntity
  8
02製品
100
AcDbCircle
 10
10985.05820392195
 20
2730.213796291728
 30
0.0
 40
15.0
  0
CIRCLE
  5
44FA
330
1F
100
AcDbEntity
  8
02製品
100
AcDbCircle
 10
11025.05820392195
 20
2670.213796291728
 30
0.0
 40
15.0
  0
CIRCLE
  5
44FB
330
1F
100
AcDbEntity
  8
02製品
100
AcDbCircle
 10
10985.05820392195
 20
2690.213796291728
 30
0.0
 40
15.0
  0
CIRCLE
  5
44FC
330
1F
100
AcDbEntity
  8
02製品
100
AcDbCircle
 10
11025.05820392195
 20
2710.213796291728
 30
0.0
 40
15.0
  0
CIRCLE
  5
44FD
330
1F
100
AcDbEntity
  8
02製品
100
AcDbCircle
 10
10905.05820392195
 20
2730.213796291728
 30
0.0
 40
15.0
  0
CIRCLE
  5
44FE
330
1F
100
AcDbEntity
  8
02製品
100
AcDbCircle
 10
10905.05820392195
 20
2690.213796291728
 30
0.0
 40
15.0
  0
CIRCLE
  5
44FF
330
1F
100
AcDbEntity
  8
02製品
100
AcDbCircle
 10
10945.05820392195
 20
2710.213796291728
 30
0.0
 40
15.0
  0
CIRCLE
  5
4500
330
1F
100
AcDbEntity
  8
02製品
100
AcDbCircle
 10
10945.05820392195
 20
2670.213796291728
 30
0.0
 40
15.0
  0
CIRCLE
  5
4501
330
1F
100
AcDbEntity
  8
02製品
100
AcDbCircle
 10
10945.05820392195
 20
2750.213796291728
 30
0.0
 40
15.0
  0
CIRCLE
  5
4502
330
1F
100
AcDbEntity
  8
02製品
100
AcDbCircle
 10
11025.05820392195
 20
2630.213796291728
 30
0.0
 40
15.0
  0
CIRCLE
  5
4503
330
1F
100
AcDbEntity
  8
02製品
100
AcDbCircle
 10
10985.05820392195
 20
2610.213796291728
 30
0.0
 40
15.0
  0
CIRCLE
  5
4504
330
1F
100
AcDbEntity
  8
02製品
100
AcDbCircle
 10
10985.05820392195
 20
2570.213796291728
 30
0.0
 40
15.0
  0
CIRCLE
  5
4505
330
1F
100
AcDbEntity
  8
02製品
100
AcDbCircle
 10
11025.05820392195
 20
2590.213796291728
 30
0.0
 40
15.0
  0
CIRCLE
  5
4506
330
1F
100
AcDbEntity
  8
02製品
100
AcDbCircle
 10
10905.05820392195
 20
2610.213796291728
 30
0.0
 40
15.0
  0
CIRCLE
  5
4507
330
1F
100
AcDbEntity
  8
02製品
100
AcDbCircle
 10
10905.05820392195
 20
2570.213796291728
 30
0.0
 40
15.0
  0
CIRCLE
  5
4508
330
1F
100
AcDbEntity
  8
02製品
100
AcDbCircle
 10
10945.05820392195
 20
2590.213796291728
 30
0.0
 40
15.0
  0
CIRCLE
  5
4509
330
1F
100
AcDbEntity
  8
02製品
100
AcDbCircle
 10
10945.05820392195
 20
2630.213796291728
 30
0.0
 40
15.0
  0
CIRCLE
  5
450A
330
1F
100
AcDbEntity
  8
02製品
100
AcDbCircle
 10
10905.05820392195
 20
2650.213796291728
 30
0.0
 40
15.0
  0
CIRCLE
  5
450B
330
1F
100
AcDbEntity
  8
02製品
100
AcDbCircle
 10
10985.05820392195
 20
2650.213796291728
 30
0.0
 40
15.0
  0
LINE
  5
450C
330
1F
100
AcDbEntity
  8
02製品
100
AcDbLine
 10
11150.05820392195
 20
2515.213796291728
 30
0.0
 11
11151.55820392195
 21
2515.213796291728
 31
0.0
  0
CIRCLE
  5
450D
330
1F
100
AcDbEntity
  8
02製品
100
AcDbCircle
 10
11185.05820392196
 20
2430.213796291732
 30
0.0
 40
3.5
  0
LINE
  5
450E
330
1F
100
AcDbEntity
  8
02製品
  6
CENTER
100
AcDbLine
 10
11174.55820392196
 20
2430.213796291732
 30
0.0
 11
11195.55820392196
 21
2430.213796291732
 31
0.0
  0
CIRCLE
  5
450F
330
1F
100
AcDbEntity
  8
02製品
100
AcDbCircle
 10
11105.05820392195
 20
2510.213796291728
 30
0.0
 40
15.0
  0
CIRCLE
  5
4510
330
1F
100
AcDbEntity
  8
02製品
100
AcDbCircle
 10
11065.05820392195
 20
2450.213796291728
 30
0.0
 40
15.0
  0
CIRCLE
  5
4511
330
1F
100
AcDbEntity
  8
02製品
100
AcDbCircle
 10
11105.05820392195
 20
2470.213796291728
 30
0.0
 40
15.0
  0
CIRCLE
  5
4512
330
1F
100
AcDbEntity
  8
02製品
100
AcDbCircle
 10
11065.05820392195
 20
2490.213796291728
 30
0.0
 40
15.0
  0
LINE
  5
4513
330
1F
100
AcDbEntity
  8
02製品
100
AcDbLine
 10
11150.05820392196
 20
2395.213796291732
 30
0.0
 11
11110.05820392196
 21
2395.213796291732
 31
0.0
  0
LINE
  5
4514
330
1F
100
AcDbEntity
  8
02製品
  6
CENTER
100
AcDbLine
 10
11185.05820392196
 20
2440.713796291735
 30
0.0
 11
11185.05820392196
 21
2419.713796291735
 31
0.0
  0
CIRCLE
  5
4515
330
1F
100
AcDbEntity
  8
02製品
100
AcDbCircle
 10
11105.05820392195
 20
2430.213796291728
 30
0.0
 40
15.0
  0
LINE
  5
4516
330
1F
100
AcDbEntity
  8
02製品
100
AcDbLine
 10
11151.55820392195
 20
2515.213796291728
 30
0.0
 11
11151.55820392196
 21
2393.713796291732
 31
0.0
  0
CIRCLE
  5
4517
330
1F
100
AcDbEntity
  8
02製品
100
AcDbCircle
 10
11025.05820392195
 20
2510.213796291728
 30
0.0
 40
15.0
  0
CIRCLE
  5
4518
330
1F
100
AcDbEntity
  8
02製品
100
AcDbCircle
 10
10985.05820392195
 20
2450.213796291728
 30
0.0
 40
15.0
  0
CIRCLE
  5
4519
330
1F
100
AcDbEntity
  8
02製品
100
AcDbCircle
 10
11025.05820392195
 20
2470.213796291728
 30
0.0
 40
15.0
  0
CIRCLE
  5
451A
330
1F
100
AcDbEntity
  8
02製品
100
AcDbCircle
 10
10985.05820392195
 20
2490.213796291728
 30
0.0
 40
15.0
  0
CIRCLE
  5
451B
330
1F
100
AcDbEntity
  8
02製品
100
AcDbCircle
 10
10905.05820392195
 20
2450.213796291728
 30
0.0
 40
15.0
  0
CIRCLE
  5
451C
330
1F
100
AcDbEntity
  8
02製品
100
AcDbCircle
 10
10905.05820392195
 20
2490.213796291728
 30
0.0
 40
15.0
  0
CIRCLE
  5
451D
330
1F
100
AcDbEntity
  8
02製品
100
AcDbCircle
 10
10945.05820392195
 20
2470.213796291728
 30
0.0
 40
15.0
  0
CIRCLE
  5
451E
330
1F
100
AcDbEntity
  8
02製品
100
AcDbCircle
 10
10945.05820392195
 20
2510.213796291728
 30
0.0
 40
15.0
  0
LINE
  5
451F
330
1F
100
AcDbEntity
  8
02製品
100
AcDbLine
 10
11030.05820392195
 20
2395.213796291728
 30
0.0
 11
11030.05820392195
 21
2393.713796291732
 31
0.0
  0
CIRCLE
  5
4520
330
1F
100
AcDbEntity
  8
02製品
100
AcDbCircle
 10
11025.05820392195
 20
2430.213796291728
 30
0.0
 40
15.0
  0
CIRCLE
  5
4521
330
1F
100
AcDbEntity
  8
02製品
100
AcDbCircle
 10
10945.05820392195
 20
2430.213796291728
 30
0.0
 40
15.0
  0
LINE
  5
4522
330
1F
100
AcDbEntity
  8
02製品
100
AcDbLine
 10
11030.05820392195
 20
2393.713796291732
 30
0.0
 11
11151.55820392196
 21
2393.713796291732
 31
0.0
  0
CIRCLE
  5
4523
330
1F
100
AcDbEntity
  8
02製品
100
AcDbCircle
 10
11105.05820392195
 20
2550.213796291728
 30
0.0
 40
15.0
  0
CIRCLE
  5
4524
330
1F
100
AcDbEntity
  8
02製品
100
AcDbCircle
 10
11065.05820392195
 20
2530.213796291728
 30
0.0
 40
15.0
  0
CIRCLE
  5
4525
330
1F
100
AcDbEntity
  8
02製品
100
AcDbCircle
 10
11025.05820392195
 20
2550.213796291728
 30
0.0
 40
15.0
  0
CIRCLE
  5
4526
330
1F
100
AcDbEntity
  8
02製品
100
AcDbCircle
 10
10905.05820392195
 20
2530.213796291728
 30
0.0
 40
15.0
  0
CIRCLE
  5
4527
330
1F
100
AcDbEntity
  8
02製品
100
AcDbCircle
 10
10945.05820392195
 20
2550.213796291728
 30
0.0
 40
15.0
  0
CIRCLE
  5
4528
330
1F
100
AcDbEntity
  8
02製品
100
AcDbCircle
 10
10985.05820392195
 20
2530.213796291728
 30
0.0
 40
15.0
  0
CIRCLE
  5
4529
330
1F
100
AcDbEntity
  8
02製品
100
AcDbCircle
 10
10825.05820392195
 20
2730.213796291728
 30
0.0
 40
15.0
  0
CIRCLE
  5
452A
330
1F
100
AcDbEntity
  8
02製品
100
AcDbCircle
 10
10825.05820392195
 20
2690.213796291728
 30
0.0
 40
15.0
  0
CIRCLE
  5
452B
330
1F
100
AcDbEntity
  8
02製品
100
AcDbCircle
 10
10745.05820392195
 20
2730.213796291728
 30
0.0
 40
15.0
  0
CIRCLE
  5
452C
330
1F
100
AcDbEntity
  8
02製品
100
AcDbCircle
 10
10745.05820392195
 20
2690.213796291728
 30
0.0
 40
15.0
  0
CIRCLE
  5
452D
330
1F
100
AcDbEntity
  8
02製品
100
AcDbCircle
 10
10785.05820392195
 20
2710.213796291728
 30
0.0
 40
15.0
  0
CIRCLE
  5
452E
330
1F
100
AcDbEntity
  8
02製品
100
AcDbCircle
 10
10785.05820392195
 20
2670.213796291728
 30
0.0
 40
15.0
  0
CIRCLE
  5
452F
330
1F
100
AcDbEntity
  8
02製品
100
AcDbCircle
 10
10785.05820392195
 20
2750.213796291728
 30
0.0
 40
15.0
  0
CIRCLE
  5
4530
330
1F
100
AcDbEntity
  8
02製品
100
AcDbCircle
 10
10825.05820392195
 20
2610.213796291728
 30
0.0
 40
15.0
  0
CIRCLE
  5
4531
330
1F
100
AcDbEntity
  8
02製品
100
AcDbCircle
 10
10825.05820392195
 20
2570.213796291728
 30
0.0
 40
15.0
  0
CIRCLE
  5
4532
330
1F
100
AcDbEntity
  8
02製品
100
AcDbCircle
 10
10745.05820392195
 20
2610.213796291728
 30
0.0
 40
15.0
  0
CIRCLE
  5
4533
330
1F
100
AcDbEntity
  8
02製品
100
AcDbCircle
 10
10745.05820392195
 20
2570.213796291728
 30
0.0
 40
15.0
  0
CIRCLE
  5
4534
330
1F
100
AcDbEntity
  8
02製品
100
AcDbCircle
 10
10785.05820392195
 20
2590.213796291728
 30
0.0
 40
15.0
  0
CIRCLE
  5
4535
330
1F
100
AcDbEntity
  8
02製品
100
AcDbCircle
 10
10785.05820392195
 20
2630.213796291728
 30
0.0
 40
15.0
  0
CIRCLE
  5
4536
330
1F
100
AcDbEntity
  8
02製品
100
AcDbCircle
 10
10825.05820392195
 20
2650.213796291728
 30
0.0
 40
15.0
  0
CIRCLE
  5
4537
330
1F
100
AcDbEntity
  8
02製品
100
AcDbCircle
 10
10745.05820392195
 20
2650.213796291728
 30
0.0
 40
15.0
  0
CIRCLE
  5
4538
330
1F
100
AcDbEntity
  8
02製品
100
AcDbCircle
 10
10665.05820392195
 20
2730.213796291728
 30
0.0
 40
15.0
  0
CIRCLE
  5
4539
330
1F
100
AcDbEntity
  8
02製品
100
AcDbCircle
 10
10665.05820392195
 20
2690.213796291728
 30
0.0
 40
15.0
  0
CIRCLE
  5
453A
330
1F
100
AcDbEntity
  8
02製品
100
AcDbCircle
 10
10585.05820392195
 20
2730.213796291728
 30
0.0
 40
15.0
  0
CIRCLE
  5
453B
330
1F
100
AcDbEntity
  8
02製品
100
AcDbCircle
 10
10585.05820392195
 20
2690.213796291728
 30
0.0
 40
15.0
  0
CIRCLE
  5
453C
330
1F
100
AcDbEntity
  8
02製品
100
AcDbCircle
 10
10625.05820392195
 20
2710.213796291728
 30
0.0
 40
15.0
  0
CIRCLE
  5
453D
330
1F
100
AcDbEntity
  8
02製品
100
AcDbCircle
 10
10625.05820392195
 20
2670.213796291728
 30
0.0
 40
15.0
  0
CIRCLE
  5
453E
330
1F
100
AcDbEntity
  8
02製品
100
AcDbCircle
 10
10625.05820392195
 20
2750.213796291728
 30
0.0
 40
15.0
  0
CIRCLE
  5
453F
330
1F
100
AcDbEntity
  8
02製品
100
AcDbCircle
 10
10665.05820392195
 20
2610.213796291728
 30
0.0
 40
15.0
  0
CIRCLE
  5
4540
330
1F
100
AcDbEntity
  8
02製品
100
AcDbCircle
 10
10665.05820392195
 20
2570.213796291728
 30
0.0
 40
15.0
  0
CIRCLE
  5
4541
330
1F
100
AcDbEntity
  8
02製品
100
AcDbCircle
 10
10585.05820392195
 20
2610.213796291728
 30
0.0
 40
15.0
  0
CIRCLE
  5
4542
330
1F
100
AcDbEntity
  8
02製品
100
AcDbCircle
 10
10585.05820392195
 20
2570.213796291728
 30
0.0
 40
15.0
  0
CIRCLE
  5
4543
330
1F
100
AcDbEntity
  8
02製品
100
AcDbCircle
 10
10625.05820392195
 20
2590.213796291728
 30
0.0
 40
15.0
  0
CIRCLE
  5
4544
330
1F
100
AcDbEntity
  8
02製品
100
AcDbCircle
 10
10625.05820392195
 20
2630.213796291728
 30
0.0
 40
15.0
  0
CIRCLE
  5
4545
330
1F
100
AcDbEntity
  8
02製品
100
AcDbCircle
 10
10665.05820392195
 20
2650.213796291728
 30
0.0
 40
15.0
  0
CIRCLE
  5
4546
330
1F
100
AcDbEntity
  8
02製品
100
AcDbCircle
 10
10585.05820392195
 20
2650.213796291728
 30
0.0
 40
15.0
  0
CIRCLE
  5
4547
330
1F
100
AcDbEntity
  8
02製品
100
AcDbCircle
 10
10705.05820392195
 20
2710.213796291728
 30
0.0
 40
15.0
  0
CIRCLE
  5
4548
330
1F
100
AcDbEntity
  8
02製品
100
AcDbCircle
 10
10705.05820392195
 20
2670.213796291728
 30
0.0
 40
15.0
  0
CIRCLE
  5
4549
330
1F
100
AcDbEntity
  8
02製品
100
AcDbCircle
 10
10705.05820392195
 20
2750.213796291728
 30
0.0
 40
15.0
  0
CIRCLE
  5
454A
330
1F
100
AcDbEntity
  8
02製品
100
AcDbCircle
 10
10705.05820392195
 20
2590.213796291728
 30
0.0
 40
15.0
  0
CIRCLE
  5
454B
330
1F
100
AcDbEntity
  8
02製品
100
AcDbCircle
 10
10705.05820392195
 20
2630.213796291728
 30
0.0
 40
15.0
  0
CIRCLE
  5
454C
330
1F
100
AcDbEntity
  8
02製品
100
AcDbCircle
 10
10825.05820392195
 20
2450.213796291728
 30
0.0
 40
15.0
  0
CIRCLE
  5
454D
330
1F
100
AcDbEntity
  8
02製品
100
AcDbCircle
 10
10825.05820392195
 20
2490.213796291728
 30
0.0
 40
15.0
  0
CIRCLE
  5
454E
330
1F
100
AcDbEntity
  8
02製品
100
AcDbCircle
 10
10745.05820392195
 20
2450.213796291728
 30
0.0
 40
15.0
  0
CIRCLE
  5
454F
330
1F
100
AcDbEntity
  8
02製品
100
AcDbCircle
 10
10745.05820392195
 20
2490.213796291728
 30
0.0
 40
15.0
  0
CIRCLE
  5
4550
330
1F
100
AcDbEntity
  8
02製品
100
AcDbCircle
 10
10785.05820392195
 20
2470.213796291728
 30
0.0
 40
15.0
  0
CIRCLE
  5
4551
330
1F
100
AcDbEntity
  8
02製品
100
AcDbCircle
 10
10785.05820392195
 20
2510.213796291728
 30
0.0
 40
15.0
  0
CIRCLE
  5
4552
330
1F
100
AcDbEntity
  8
02製品
100
AcDbCircle
 10
10785.05820392195
 20
2430.213796291728
 30
0.0
 40
15.0
  0
CIRCLE
  5
4553
330
1F
100
AcDbEntity
  8
02製品
100
AcDbCircle
 10
10665.05820392195
 20
2450.213796291728
 30
0.0
 40
15.0
  0
CIRCLE
  5
4554
330
1F
100
AcDbEntity
  8
02製品
100
AcDbCircle
 10
10665.05820392195
 20
2490.213796291728
 30
0.0
 40
15.0
  0
CIRCLE
  5
4555
330
1F
100
AcDbEntity
  8
02製品
100
AcDbCircle
 10
10585.05820392195
 20
2450.213796291728
 30
0.0
 40
15.0
  0
CIRCLE
  5
4556
330
1F
100
AcDbEntity
  8
02製品
100
AcDbCircle
 10
10585.05820392195
 20
2490.213796291728
 30
0.0
 40
15.0
  0
CIRCLE
  5
4557
330
1F
100
AcDbEntity
  8
02製品
100
AcDbCircle
 10
10625.05820392195
 20
2470.213796291728
 30
0.0
 40
15.0
  0
CIRCLE
  5
4558
330
1F
100
AcDbEntity
  8
02製品
100
AcDbCircle
 10
10625.05820392195
 20
2510.213796291728
 30
0.0
 40
15.0
  0
CIRCLE
  5
4559
330
1F
100
AcDbEntity
  8
02製品
100
AcDbCircle
 10
10625.05820392195
 20
2430.213796291728
 30
0.0
 40
15.0
  0
CIRCLE
  5
455A
330
1F
100
AcDbEntity
  8
02製品
100
AcDbCircle
 10
10705.05820392195
 20
2470.213796291728
 30
0.0
 40
15.0
  0
CIRCLE
  5
455B
330
1F
100
AcDbEntity
  8
02製品
100
AcDbCircle
 10
10705.05820392195
 20
2430.213796291728
 30
0.0
 40
15.0
  0
CIRCLE
  5
455C
330
1F
100
AcDbEntity
  8
02製品
100
AcDbCircle
 10
10705.05820392195
 20
2510.213796291728
 30
0.0
 40
15.0
  0
CIRCLE
  5
455D
330
1F
100
AcDbEntity
  8
02製品
100
AcDbCircle
 10
10825.05820392195
 20
2530.213796291728
 30
0.0
 40
15.0
  0
CIRCLE
  5
455E
330
1F
100
AcDbEntity
  8
02製品
100
AcDbCircle
 10
10785.05820392195
 20
2550.213796291728
 30
0.0
 40
15.0
  0
CIRCLE
  5
455F
330
1F
100
AcDbEntity
  8
02製品
100
AcDbCircle
 10
10745.05820392195
 20
2530.213796291728
 30
0.0
 40
15.0
  0
CIRCLE
  5
4560
330
1F
100
AcDbEntity
  8
02製品
100
AcDbCircle
 10
10625.05820392195
 20
2550.213796291728
 30
0.0
 40
15.0
  0
CIRCLE
  5
4561
330
1F
100
AcDbEntity
  8
02製品
100
AcDbCircle
 10
10705.05820392195
 20
2550.213796291728
 30
0.0
 40
15.0
  0
CIRCLE
  5
4562
330
1F
100
AcDbEntity
  8
02製品
100
AcDbCircle
 10
10665.05820392195
 20
2530.213796291728
 30
0.0
 40
15.0
  0
CIRCLE
  5
4563
330
1F
100
AcDbEntity
  8
02製品
100
AcDbCircle
 10
10585.05820392195
 20
2530.213796291728
 30
0.0
 40
15.0
  0
CIRCLE
  5
4564
330
1F
100
AcDbEntity
  8
02製品
100
AcDbCircle
 10
10865.05820392195
 20
2710.213796291728
 30
0.0
 40
15.0
  0
CIRCLE
  5
4565
330
1F
100
AcDbEntity
  8
02製品
100
AcDbCircle
 10
10865.05820392195
 20
2670.213796291728
 30
0.0
 40
15.0
  0
CIRCLE
  5
4566
330
1F
100
AcDbEntity
  8
02製品
100
AcDbCircle
 10
10865.05820392195
 20
2750.213796291728
 30
0.0
 40
15.0
  0
CIRCLE
  5
4567
330
1F
100
AcDbEntity
  8
02製品
100
AcDbCircle
 10
10865.05820392195
 20
2590.213796291728
 30
0.0
 40
15.0
  0
CIRCLE
  5
4568
330
1F
100
AcDbEntity
  8
02製品
100
AcDbCircle
 10
10865.05820392195
 20
2550.213796291728
 30
0.0
 40
15.0
  0
CIRCLE
  5
4569
330
1F
100
AcDbEntity
  8
02製品
100
AcDbCircle
 10
10865.05820392195
 20
2470.213796291728
 30
0.0
 40
15.0
  0
CIRCLE
  5
456A
330
1F
100
AcDbEntity
  8
02製品
100
AcDbCircle
 10
10865.05820392195
 20
2430.213796291728
 30
0.0
 40
15.0
  0
CIRCLE
  5
456B
330
1F
100
AcDbEntity
  8
02製品
100
AcDbCircle
 10
10865.05820392195
 20
2510.213796291728
 30
0.0
 40
15.0
  0
CIRCLE
  5
456C
330
1F
100
AcDbEntity
  8
02製品
100
AcDbCircle
 10
10865.05820392195
 20
2630.213796291728
 30
0.0
 40
15.0
  0
CIRCLE
  5
456D
330
1F
100
AcDbEntity
  8
02製品
100
AcDbCircle
 10
11065.05820392195
 20
2770.213796291728
 30
0.0
 40
15.0
  0
CIRCLE
  5
456E
330
1F
100
AcDbEntity
  8
02製品
100
AcDbCircle
 10
10905.05820392195
 20
2770.213796291728
 30
0.0
 40
15.0
  0
CIRCLE
  5
456F
330
1F
100
AcDbEntity
  8
02製品
100
AcDbCircle
 10
10825.05820392195
 20
2770.213796291728
 30
0.0
 40
15.0
  0
CIRCLE
  5
4570
330
1F
100
AcDbEntity
  8
02製品
100
AcDbCircle
 10
10745.05820392195
 20
2770.213796291728
 30
0.0
 40
15.0
  0
CIRCLE
  5
4571
330
1F
100
AcDbEntity
  8
02製品
100
AcDbCircle
 10
10665.05820392195
 20
2770.213796291728
 30
0.0
 40
15.0
  0
CIRCLE
  5
4572
330
1F
100
AcDbEntity
  8
02製品
100
AcDbCircle
 10
10585.05820392195
 20
2770.213796291728
 30
0.0
 40
15.0
  0
CIRCLE
  5
4573
330
1F
100
AcDbEntity
  8
02製品
100
AcDbCircle
 10
10985.05820392195
 20
2770.213796291728
 30
0.0
 40
15.0
  0
LINE
  5
4574
330
1F
100
AcDbEntity
  8
02製品
100
AcDbLine
 10
11195.05820392195
 20
3225.213796291728
 30
0.0
 11
11195.05820392196
 21
2395.213796291728
 31
0.0
  0
LINE
  5
4575
330
1F
100
AcDbEntity
  8
02製品
100
AcDbLine
 10
11150.05820392196
 20
3225.213796291728
 30
0.0
 11
11150.05820392195
 21
2395.213796291728
 31
0.0
  0
LINE
  5
4577
330
1F
100
AcDbEntity
  8
02製品
100
AcDbLine
 10
11150.05820392195
 20
2395.213796291728
 30
0.0
 11
11150.05820392196
 21
3225.213796291728
 31
0.0
  0
CIRCLE
  5
4578
330
1F
100
AcDbEntity
  8
02製品
100
AcDbCircle
 10
10505.05820392195
 20
3170.213796291728
 30
0.0
 40
15.0
  0
CIRCLE
  5
4579
330
1F
100
AcDbEntity
  8
02製品
100
AcDbCircle
 10
10425.05820392195
 20
3170.213796291728
 30
0.0
 40
15.0
  0
CIRCLE
  5
457A
330
1F
100
AcDbEntity
  8
02製品
100
AcDbCircle
 10
10465.05820392195
 20
3190.213796291728
 30
0.0
 40
15.0
  0
CIRCLE
  5
457B
330
1F
100
AcDbEntity
  8
02製品
100
AcDbCircle
 10
10465.05820392195
 20
3150.213796291728
 30
0.0
 40
15.0
  0
CIRCLE
  5
457C
330
1F
100
AcDbEntity
  8
02製品
100
AcDbCircle
 10
10505.05820392195
 20
3090.213796291728
 30
0.0
 40
15.0
  0
CIRCLE
  5
457D
330
1F
100
AcDbEntity
  8
02製品
100
AcDbCircle
 10
10505.05820392195
 20
3050.213796291728
 30
0.0
 40
15.0
  0
CIRCLE
  5
457E
330
1F
100
AcDbEntity
  8
02製品
100
AcDbCircle
 10
10425.05820392195
 20
3090.213796291728
 30
0.0
 40
15.0
  0
CIRCLE
  5
457F
330
1F
100
AcDbEntity
  8
02製品
100
AcDbCircle
 10
10425.05820392195
 20
3050.213796291728
 30
0.0
 40
15.0
  0
CIRCLE
  5
4580
330
1F
100
AcDbEntity
  8
02製品
100
AcDbCircle
 10
10465.05820392195
 20
3070.213796291728
 30
0.0
 40
15.0
  0
CIRCLE
  5
4581
330
1F
100
AcDbEntity
  8
02製品
100
AcDbCircle
 10
10465.05820392195
 20
3030.213796291728
 30
0.0
 40
15.0
  0
CIRCLE
  5
4582
330
1F
100
AcDbEntity
  8
02製品
100
AcDbCircle
 10
10465.05820392195
 20
3110.213796291728
 30
0.0
 40
15.0
  0
CIRCLE
  5
4583
330
1F
100
AcDbEntity
  8
02製品
100
AcDbCircle
 10
10425.05820392195
 20
3130.213796291728
 30
0.0
 40
15.0
  0
CIRCLE
  5
4584
330
1F
100
AcDbEntity
  8
02製品
100
AcDbCircle
 10
10505.05820392195
 20
3130.213796291728
 30
0.0
 40
15.0
  0
LINE
  5
4585
330
1F
100
AcDbEntity
  8
02製品
100
AcDbLine
 10
10380.05820392195
 20
3226.713796291728
 30
0.0
 11
10380.05820392195
 21
3225.213796291728
 31
0.0
  0
CIRCLE
  5
4586
330
1F
100
AcDbEntity
  8
02製品
100
AcDbCircle
 10
10345.05820392195
 20
3170.213796291728
 30
0.0
 40
15.0
  0
CIRCLE
  5
4587
330
1F
100
AcDbEntity
  8
02製品
100
AcDbCircle
 10
10225.05820392195
 20
3190.213796291743
 30
0.0
 40
3.5
  0
LINE
  5
4588
330
1F
100
AcDbEntity
  8
02製品
  6
CENTER
100
AcDbLine
 10
10225.05820392195
 20
3200.713796291743
 30
0.0
 11
10225.05820392195
 21
3179.713796291743
 31
0.0
  0
LINE
  5
4589
330
1F
100
AcDbEntity
  8
02製品
100
AcDbLine
 10
10260.05820392196
 20
3225.213796291739
 30
0.0
 11
10300.05820392195
 21
3225.213796291743
 31
0.0
  0
LINE
  5
458A
330
1F
100
AcDbEntity
  8
02製品
100
AcDbLine
 10
10258.55820392195
 20
3226.713796291732
 30
0.0
 11
10380.05820392195
 21
3226.713796291728
 31
0.0
  0
CIRCLE
  5
458B
330
1F
100
AcDbEntity
  8
02製品
100
AcDbCircle
 10
10305.05820392195
 20
3150.213796291728
 30
0.0
 40
15.0
  0
CIRCLE
  5
458C
330
1F
100
AcDbEntity
  8
02製品
100
AcDbCircle
 10
10305.05820392195
 20
3190.213796291728
 30
0.0
 40
15.0
  0
CIRCLE
  5
458D
330
1F
100
AcDbEntity
  8
02製品
100
AcDbCircle
 10
10345.05820392195
 20
3090.213796291728
 30
0.0
 40
15.0
  0
CIRCLE
  5
458E
330
1F
100
AcDbEntity
  8
02製品
100
AcDbCircle
 10
10345.05820392195
 20
3050.213796291728
 30
0.0
 40
15.0
  0
LINE
  5
458F
330
1F
100
AcDbEntity
  8
02製品
100
AcDbLine
 10
10258.55820392195
 20
3105.213796291728
 30
0.0
 11
10260.05820392195
 21
3105.213796291728
 31
0.0
  0
CIRCLE
  5
4590
330
1F
100
AcDbEntity
  8
02製品
100
AcDbCircle
 10
10305.05820392195
 20
3030.213796291728
 30
0.0
 40
15.0
  0
CIRCLE
  5
4591
330
1F
100
AcDbEntity
  8
02製品
100
AcDbCircle
 10
10305.05820392195
 20
3070.213796291728
 30
0.0
 40
15.0
  0
LINE
  5
4592
330
1F
100
AcDbEntity
  8
02製品
100
AcDbLine
 10
10258.55820392195
 20
3226.713796291732
 30
0.0
 11
10258.55820392195
 21
3105.213796291728
 31
0.0
  0
CIRCLE
  5
4593
330
1F
100
AcDbEntity
  8
02製品
100
AcDbCircle
 10
10345.05820392195
 20
3130.213796291728
 30
0.0
 40
15.0
  0
CIRCLE
  5
4594
330
1F
100
AcDbEntity
  8
02製品
100
AcDbCircle
 10
10305.05820392195
 20
3110.213796291728
 30
0.0
 40
15.0
  0
CIRCLE
  5
4595
330
1F
100
AcDbEntity
  8
02製品
100
AcDbCircle
 10
10385.05820392195
 20
3150.213796291728
 30
0.0
 40
15.0
  0
CIRCLE
  5
4596
330
1F
100
AcDbEntity
  8
02製品
100
AcDbCircle
 10
10385.05820392195
 20
3190.213796291728
 30
0.0
 40
15.0
  0
CIRCLE
  5
4597
330
1F
100
AcDbEntity
  8
02製品
100
AcDbCircle
 10
10385.05820392195
 20
3030.213796291728
 30
0.0
 40
15.0
  0
CIRCLE
  5
4598
330
1F
100
AcDbEntity
  8
02製品
100
AcDbCircle
 10
10385.05820392195
 20
3070.213796291728
 30
0.0
 40
15.0
  0
CIRCLE
  5
4599
330
1F
100
AcDbEntity
  8
02製品
100
AcDbCircle
 10
10385.05820392195
 20
3110.213796291728
 30
0.0
 40
15.0
  0
CIRCLE
  5
459A
330
1F
100
AcDbEntity
  8
02製品
100
AcDbCircle
 10
10505.05820392195
 20
2970.213796291728
 30
0.0
 40
15.0
  0
CIRCLE
  5
459B
330
1F
100
AcDbEntity
  8
02製品
100
AcDbCircle
 10
10505.05820392195
 20
2930.213796291728
 30
0.0
 40
15.0
  0
CIRCLE
  5
459C
330
1F
100
AcDbEntity
  8
02製品
100
AcDbCircle
 10
10425.05820392195
 20
2970.213796291728
 30
0.0
 40
15.0
  0
CIRCLE
  5
459D
330
1F
100
AcDbEntity
  8
02製品
100
AcDbCircle
 10
10425.05820392195
 20
2930.213796291728
 30
0.0
 40
15.0
  0
CIRCLE
  5
459E
330
1F
100
AcDbEntity
  8
02製品
100
AcDbCircle
 10
10465.05820392195
 20
2950.213796291728
 30
0.0
 40
15.0
  0
CIRCLE
  5
459F
330
1F
100
AcDbEntity
  8
02製品
100
AcDbCircle
 10
10465.05820392195
 20
2910.213796291728
 30
0.0
 40
15.0
  0
CIRCLE
  5
45A0
330
1F
100
AcDbEntity
  8
02製品
100
AcDbCircle
 10
10505.05820392195
 20
2850.213796291728
 30
0.0
 40
15.0
  0
CIRCLE
  5
45A1
330
1F
100
AcDbEntity
  8
02製品
100
AcDbCircle
 10
10505.05820392195
 20
2810.213796291728
 30
0.0
 40
15.0
  0
CIRCLE
  5
45A2
330
1F
100
AcDbEntity
  8
02製品
100
AcDbCircle
 10
10425.05820392195
 20
2850.213796291728
 30
0.0
 40
15.0
  0
CIRCLE
  5
45A3
330
1F
100
AcDbEntity
  8
02製品
100
AcDbCircle
 10
10425.05820392195
 20
2810.213796291728
 30
0.0
 40
15.0
  0
CIRCLE
  5
45A4
330
1F
100
AcDbEntity
  8
02製品
100
AcDbCircle
 10
10465.05820392195
 20
2790.213796291728
 30
0.0
 40
15.0
  0
CIRCLE
  5
45A5
330
1F
100
AcDbEntity
  8
02製品
100
AcDbCircle
 10
10465.05820392195
 20
2830.213796291728
 30
0.0
 40
15.0
  0
CIRCLE
  5
45A6
330
1F
100
AcDbEntity
  8
02製品
100
AcDbCircle
 10
10505.05820392195
 20
2890.213796291728
 30
0.0
 40
15.0
  0
CIRCLE
  5
45A7
330
1F
100
AcDbEntity
  8
02製品
100
AcDbCircle
 10
10425.05820392195
 20
2890.213796291728
 30
0.0
 40
15.0
  0
CIRCLE
  5
45A8
330
1F
100
AcDbEntity
  8
02製品
100
AcDbCircle
 10
10465.05820392195
 20
2870.213796291728
 30
0.0
 40
15.0
  0
CIRCLE
  5
45A9
330
1F
100
AcDbEntity
  8
02製品
100
AcDbCircle
 10
10345.05820392195
 20
2970.213796291728
 30
0.0
 40
15.0
  0
CIRCLE
  5
45AA
330
1F
100
AcDbEntity
  8
02製品
100
AcDbCircle
 10
10345.05820392195
 20
2930.213796291728
 30
0.0
 40
15.0
  0
CIRCLE
  5
45AB
330
1F
100
AcDbEntity
  8
02製品
100
AcDbCircle
 10
10305.05820392195
 20
2910.213796291728
 30
0.0
 40
15.0
  0
CIRCLE
  5
45AC
330
1F
100
AcDbEntity
  8
02製品
100
AcDbCircle
 10
10305.05820392195
 20
2950.213796291728
 30
0.0
 40
15.0
  0
CIRCLE
  5
45AD
330
1F
100
AcDbEntity
  8
02製品
100
AcDbCircle
 10
10345.05820392195
 20
2850.213796291728
 30
0.0
 40
15.0
  0
CIRCLE
  5
45AE
330
1F
100
AcDbEntity
  8
02製品
100
AcDbCircle
 10
10345.05820392195
 20
2810.213796291728
 30
0.0
 40
15.0
  0
CIRCLE
  5
45AF
330
1F
100
AcDbEntity
  8
02製品
100
AcDbCircle
 10
10225.05820392195
 20
2810.213796291743
 30
0.0
 40
3.5
  0
LINE
  5
45B0
330
1F
100
AcDbEntity
  8
02製品
  6
CENTER
100
AcDbLine
 10
10225.05820392195
 20
2820.713796291746
 30
0.0
 11
10225.05820392195
 21
2799.713796291746
 31
0.0
  0
CIRCLE
  5
45B1
330
1F
100
AcDbEntity
  8
02製品
100
AcDbCircle
 10
10305.05820392195
 20
2830.213796291728
 30
0.0
 40
15.0
  0
CIRCLE
  5
45B2
330
1F
100
AcDbEntity
  8
02製品
100
AcDbCircle
 10
10305.05820392195
 20
2790.213796291728
 30
0.0
 40
15.0
  0
CIRCLE
  5
45B3
330
1F
100
AcDbEntity
  8
02製品
100
AcDbCircle
 10
10345.05820392195
 20
2890.213796291728
 30
0.0
 40
15.0
  0
CIRCLE
  5
45B4
330
1F
100
AcDbEntity
  8
02製品
100
AcDbCircle
 10
10305.05820392195
 20
2870.213796291728
 30
0.0
 40
15.0
  0
CIRCLE
  5
45B5
330
1F
100
AcDbEntity
  8
02製品
100
AcDbCircle
 10
10385.05820392195
 20
2910.213796291728
 30
0.0
 40
15.0
  0
CIRCLE
  5
45B6
330
1F
100
AcDbEntity
  8
02製品
100
AcDbCircle
 10
10385.05820392195
 20
2950.213796291728
 30
0.0
 40
15.0
  0
CIRCLE
  5
45B7
330
1F
100
AcDbEntity
  8
02製品
100
AcDbCircle
 10
10385.05820392195
 20
2830.213796291728
 30
0.0
 40
15.0
  0
CIRCLE
  5
45B8
330
1F
100
AcDbEntity
  8
02製品
100
AcDbCircle
 10
10385.05820392195
 20
2790.213796291728
 30
0.0
 40
15.0
  0
CIRCLE
  5
45B9
330
1F
100
AcDbEntity
  8
02製品
100
AcDbCircle
 10
10385.05820392195
 20
2870.213796291728
 30
0.0
 40
15.0
  0
CIRCLE
  5
45BA
330
1F
100
AcDbEntity
  8
02製品
100
AcDbCircle
 10
10505.05820392195
 20
3010.213796291728
 30
0.0
 40
15.0
  0
CIRCLE
  5
45BB
330
1F
100
AcDbEntity
  8
02製品
100
AcDbCircle
 10
10345.05820392195
 20
3010.213796291728
 30
0.0
 40
15.0
  0
CIRCLE
  5
45BC
330
1F
100
AcDbEntity
  8
02製品
100
AcDbCircle
 10
10305.05820392195
 20
2990.213796291728
 30
0.0
 40
15.0
  0
LINE
  5
45BD
330
1F
100
AcDbEntity
  8
02製品
  6
CENTER
100
AcDbLine
 10
10225.05820392195
 20
3010.713796291746
 30
0.0
 11
10225.05820392195
 21
2989.713796291746
 31
0.0
  0
CIRCLE
  5
45BE
330
1F
100
AcDbEntity
  8
02製品
100
AcDbCircle
 10
10225.05820392195
 20
3000.213796291743
 30
0.0
 40
3.5
  0
CIRCLE
  5
45BF
330
1F
100
AcDbEntity
  8
02製品
100
AcDbCircle
 10
10425.05820392195
 20
3010.213796291728
 30
0.0
 40
15.0
  0
CIRCLE
  5
45C0
330
1F
100
AcDbEntity
  8
02製品
100
AcDbCircle
 10
10385.05820392195
 20
2990.213796291728
 30
0.0
 40
15.0
  0
CIRCLE
  5
45C1
330
1F
100
AcDbEntity
  8
02製品
100
AcDbCircle
 10
10465.05820392195
 20
2990.213796291728
 30
0.0
 40
15.0
  0
LINE
  5
45C2
330
1F
100
AcDbEntity
  8
02製品
  6
CENTER
100
AcDbLine
 10
10214.55820392195
 20
3190.213796291739
 30
0.0
 11
10235.55820392195
 21
3190.213796291739
 31
0.0
  0
LINE
  5
45C3
330
1F
100
AcDbEntity
  8
02製品
  6
CENTER
100
AcDbLine
 10
10214.55820392195
 20
3000.213796291743
 30
0.0
 11
10235.55820392195
 21
3000.213796291743
 31
0.0
  0
LINE
  5
45C4
330
1F
100
AcDbEntity
  8
02製品
  6
CENTER
100
AcDbLine
 10
10214.55820392195
 20
2810.213796291743
 30
0.0
 11
10235.55820392195
 21
2810.213796291743
 31
0.0
  0
CIRCLE
  5
45C5
330
1F
100
AcDbEntity
  8
02製品
100
AcDbCircle
 10
10505.05820392195
 20
2730.213796291728
 30
0.0
 40
15.0
  0
CIRCLE
  5
45C6
330
1F
100
AcDbEntity
  8
02製品
100
AcDbCircle
 10
10505.05820392195
 20
2690.213796291728
 30
0.0
 40
15.0
  0
CIRCLE
  5
45C7
330
1F
100
AcDbEntity
  8
02製品
100
AcDbCircle
 10
10425.05820392195
 20
2730.213796291728
 30
0.0
 40
15.0
  0
CIRCLE
  5
45C8
330
1F
100
AcDbEntity
  8
02製品
100
AcDbCircle
 10
10425.05820392195
 20
2690.213796291728
 30
0.0
 40
15.0
  0
CIRCLE
  5
45C9
330
1F
100
AcDbEntity
  8
02製品
100
AcDbCircle
 10
10465.05820392195
 20
2750.213796291728
 30
0.0
 40
15.0
  0
CIRCLE
  5
45CA
330
1F
100
AcDbEntity
  8
02製品
100
AcDbCircle
 10
10465.05820392195
 20
2670.213796291728
 30
0.0
 40
15.0
  0
CIRCLE
  5
45CB
330
1F
100
AcDbEntity
  8
02製品
100
AcDbCircle
 10
10465.05820392195
 20
2710.213796291728
 30
0.0
 40
15.0
  0
CIRCLE
  5
45CC
330
1F
100
AcDbEntity
  8
02製品
100
AcDbCircle
 10
10505.05820392195
 20
2610.213796291728
 30
0.0
 40
15.0
  0
CIRCLE
  5
45CD
330
1F
100
AcDbEntity
  8
02製品
100
AcDbCircle
 10
10505.05820392195
 20
2570.213796291728
 30
0.0
 40
15.0
  0
CIRCLE
  5
45CE
330
1F
100
AcDbEntity
  8
02製品
100
AcDbCircle
 10
10425.05820392195
 20
2610.213796291728
 30
0.0
 40
15.0
  0
CIRCLE
  5
45CF
330
1F
100
AcDbEntity
  8
02製品
100
AcDbCircle
 10
10425.05820392195
 20
2570.213796291728
 30
0.0
 40
15.0
  0
CIRCLE
  5
45D0
330
1F
100
AcDbEntity
  8
02製品
100
AcDbCircle
 10
10465.05820392195
 20
2590.213796291728
 30
0.0
 40
15.0
  0
CIRCLE
  5
45D1
330
1F
100
AcDbEntity
  8
02製品
100
AcDbCircle
 10
10465.05820392195
 20
2630.213796291728
 30
0.0
 40
15.0
  0
CIRCLE
  5
45D2
330
1F
100
AcDbEntity
  8
02製品
100
AcDbCircle
 10
10505.05820392195
 20
2650.213796291728
 30
0.0
 40
15.0
  0
CIRCLE
  5
45D3
330
1F
100
AcDbEntity
  8
02製品
100
AcDbCircle
 10
10425.05820392195
 20
2650.213796291728
 30
0.0
 40
15.0
  0
CIRCLE
  5
45D4
330
1F
100
AcDbEntity
  8
02製品
100
AcDbCircle
 10
10345.05820392195
 20
2730.213796291728
 30
0.0
 40
15.0
  0
CIRCLE
  5
45D5
330
1F
100
AcDbEntity
  8
02製品
100
AcDbCircle
 10
10345.05820392195
 20
2690.213796291728
 30
0.0
 40
15.0
  0
CIRCLE
  5
45D6
330
1F
100
AcDbEntity
  8
02製品
100
AcDbCircle
 10
10305.05820392195
 20
2710.213796291728
 30
0.0
 40
15.0
  0
CIRCLE
  5
45D7
330
1F
100
AcDbEntity
  8
02製品
100
AcDbCircle
 10
10305.05820392195
 20
2670.213796291728
 30
0.0
 40
15.0
  0
CIRCLE
  5
45D8
330
1F
100
AcDbEntity
  8
02製品
100
AcDbCircle
 10
10305.05820392195
 20
2750.213796291728
 30
0.0
 40
15.0
  0
CIRCLE
  5
45D9
330
1F
100
AcDbEntity
  8
02製品
100
AcDbCircle
 10
10345.05820392195
 20
2610.213796291728
 30
0.0
 40
15.0
  0
CIRCLE
  5
45DA
330
1F
100
AcDbEntity
  8
02製品
100
AcDbCircle
 10
10345.05820392195
 20
2570.213796291728
 30
0.0
 40
15.0
  0
CIRCLE
  5
45DB
330
1F
100
AcDbEntity
  8
02製品
100
AcDbCircle
 10
10225.05820392195
 20
2620.213796291743
 30
0.0
 40
3.5
  0
LINE
  5
45DC
330
1F
100
AcDbEntity
  8
02製品
  6
CENTER
100
AcDbLine
 10
10225.05820392195
 20
2630.713796291746
 30
0.0
 11
10225.05820392195
 21
2609.713796291746
 31
0.0
  0
CIRCLE
  5
45DD
330
1F
100
AcDbEntity
  8
02製品
100
AcDbCircle
 10
10305.05820392195
 20
2590.213796291728
 30
0.0
 40
15.0
  0
CIRCLE
  5
45DE
330
1F
100
AcDbEntity
  8
02製品
100
AcDbCircle
 10
10305.05820392195
 20
2630.213796291728
 30
0.0
 40
15.0
  0
CIRCLE
  5
45DF
330
1F
100
AcDbEntity
  8
02製品
100
AcDbCircle
 10
10345.05820392195
 20
2650.213796291728
 30
0.0
 40
15.0
  0
CIRCLE
  5
45E0
330
1F
100
AcDbEntity
  8
02製品
100
AcDbCircle
 10
10385.05820392195
 20
2710.213796291728
 30
0.0
 40
15.0
  0
CIRCLE
  5
45E1
330
1F
100
AcDbEntity
  8
02製品
100
AcDbCircle
 10
10385.05820392195
 20
2670.213796291728
 30
0.0
 40
15.0
  0
CIRCLE
  5
45E2
330
1F
100
AcDbEntity
  8
02製品
100
AcDbCircle
 10
10385.05820392195
 20
2750.213796291728
 30
0.0
 40
15.0
  0
CIRCLE
  5
45E3
330
1F
100
AcDbEntity
  8
02製品
100
AcDbCircle
 10
10385.05820392195
 20
2590.213796291728
 30
0.0
 40
15.0
  0
CIRCLE
  5
45E4
330
1F
100
AcDbEntity
  8
02製品
100
AcDbCircle
 10
10385.05820392195
 20
2630.213796291728
 30
0.0
 40
15.0
  0
CIRCLE
  5
45E5
330
1F
100
AcDbEntity
  8
02製品
100
AcDbCircle
 10
10505.05820392195
 20
2450.213796291728
 30
0.0
 40
15.0
  0
CIRCLE
  5
45E6
330
1F
100
AcDbEntity
  8
02製品
100
AcDbCircle
 10
10505.05820392195
 20
2490.213796291728
 30
0.0
 40
15.0
  0
CIRCLE
  5
45E7
330
1F
100
AcDbEntity
  8
02製品
100
AcDbCircle
 10
10425.05820392195
 20
2450.213796291728
 30
0.0
 40
15.0
  0
CIRCLE
  5
45E8
330
1F
100
AcDbEntity
  8
02製品
100
AcDbCircle
 10
10425.05820392195
 20
2490.213796291728
 30
0.0
 40
15.0
  0
CIRCLE
  5
45E9
330
1F
100
AcDbEntity
  8
02製品
100
AcDbCircle
 10
10465.05820392195
 20
2510.213796291728
 30
0.0
 40
15.0
  0
CIRCLE
  5
45EA
330
1F
100
AcDbEntity
  8
02製品
100
AcDbCircle
 10
10465.05820392195
 20
2470.213796291728
 30
0.0
 40
15.0
  0
CIRCLE
  5
45EB
330
1F
100
AcDbEntity
  8
02製品
100
AcDbCircle
 10
10465.05820392195
 20
2430.213796291728
 30
0.0
 40
15.0
  0
CIRCLE
  5
45EC
330
1F
100
AcDbEntity
  8
02製品
100
AcDbCircle
 10
10345.05820392195
 20
2450.213796291728
 30
0.0
 40
15.0
  0
CIRCLE
  5
45ED
330
1F
100
AcDbEntity
  8
02製品
100
AcDbCircle
 10
10345.05820392195
 20
2490.213796291728
 30
0.0
 40
15.0
  0
LINE
  5
45EE
330
1F
100
AcDbEntity
  8
02製品
100
AcDbLine
 10
10258.55820392195
 20
2515.213796291728
 30
0.0
 11
10260.05820392195
 21
2515.213796291728
 31
0.0
  0
CIRCLE
  5
45EF
330
1F
100
AcDbEntity
  8
02製品
100
AcDbCircle
 10
10225.05820392195
 20
2430.213796291743
 30
0.0
 40
3.5
  0
CIRCLE
  5
45F0
330
1F
100
AcDbEntity
  8
02製品
100
AcDbCircle
 10
10305.05820392195
 20
2470.213796291728
 30
0.0
 40
15.0
  0
CIRCLE
  5
45F1
330
1F
100
AcDbEntity
  8
02製品
100
AcDbCircle
 10
10305.05820392195
 20
2510.213796291728
 30
0.0
 40
15.0
  0
LINE
  5
45F2
330
1F
100
AcDbEntity
  8
02製品
100
AcDbLine
 10
10380.05820392195
 20
2395.213796291728
 30
0.0
 11
10380.05820392195
 21
2393.713796291728
 31
0.0
  0
LINE
  5
45F3
330
1F
100
AcDbEntity
  8
02製品
100
AcDbLine
 10
10260.05820392195
 20
2395.213796291743
 30
0.0
 11
10300.05820392195
 21
2395.213796291743
 31
0.0
  0
LINE
  5
45F4
330
1F
100
AcDbEntity
  8
02製品
100
AcDbLine
 10
10258.55820392195
 20
2393.713796291728
 30
0.0
 11
10380.05820392195
 21
2393.713796291728
 31
0.0
  0
LINE
  5
45F5
330
1F
100
AcDbEntity
  8
02製品
  6
CENTER
100
AcDbLine
 10
10225.05820392195
 20
2440.713796291746
 30
0.0
 11
10225.05820392195
 21
2419.713796291746
 31
0.0
  0
CIRCLE
  5
45F6
330
1F
100
AcDbEntity
  8
02製品
100
AcDbCircle
 10
10305.05820392195
 20
2430.213796291728
 30
0.0
 40
15.0
  0
LINE
  5
45F7
330
1F
100
AcDbEntity
  8
02製品
100
AcDbLine
 10
10258.55820392195
 20
2515.213796291728
 30
0.0
 11
10258.55820392195
 21
2393.713796291728
 31
0.0
  0
CIRCLE
  5
45F8
330
1F
100
AcDbEntity
  8
02製品
100
AcDbCircle
 10
10385.05820392195
 20
2470.213796291728
 30
0.0
 40
15.0
  0
CIRCLE
  5
45F9
330
1F
100
AcDbEntity
  8
02製品
100
AcDbCircle
 10
10385.05820392195
 20
2430.213796291728
 30
0.0
 40
15.0
  0
CIRCLE
  5
45FA
330
1F
100
AcDbEntity
  8
02製品
100
AcDbCircle
 10
10385.05820392195
 20
2510.213796291728
 30
0.0
 40
15.0
  0
CIRCLE
  5
45FB
330
1F
100
AcDbEntity
  8
02製品
100
AcDbCircle
 10
10505.05820392195
 20
2530.213796291728
 30
0.0
 40
15.0
  0
CIRCLE
  5
45FC
330
1F
100
AcDbEntity
  8
02製品
100
AcDbCircle
 10
10345.05820392195
 20
2530.213796291728
 30
0.0
 40
15.0
  0
CIRCLE
  5
45FD
330
1F
100
AcDbEntity
  8
02製品
100
AcDbCircle
 10
10425.05820392195
 20
2530.213796291728
 30
0.0
 40
15.0
  0
CIRCLE
  5
45FE
330
1F
100
AcDbEntity
  8
02製品
100
AcDbCircle
 10
10385.05820392195
 20
2550.213796291728
 30
0.0
 40
15.0
  0
CIRCLE
  5
45FF
330
1F
100
AcDbEntity
  8
02製品
100
AcDbCircle
 10
10305.05820392195
 20
2550.213796291728
 30
0.0
 40
15.0
  0
CIRCLE
  5
4600
330
1F
100
AcDbEntity
  8
02製品
100
AcDbCircle
 10
10465.05820392195
 20
2550.213796291728
 30
0.0
 40
15.0
  0
LINE
  5
4601
330
1F
100
AcDbEntity
  8
02製品
  6
CENTER
100
AcDbLine
 10
10214.55820392195
 20
2620.213796291743
 30
0.0
 11
10235.55820392195
 21
2620.213796291743
 31
0.0
  0
LINE
  5
4602
330
1F
100
AcDbEntity
  8
02製品
  6
CENTER
100
AcDbLine
 10
10214.55820392195
 20
2430.213796291743
 30
0.0
 11
10235.55820392195
 21
2430.213796291743
 31
0.0
  0
CIRCLE
  5
4603
330
1F
100
AcDbEntity
  8
02製品
100
AcDbCircle
 10
10505.05820392195
 20
2770.213796291728
 30
0.0
 40
15.0
  0
CIRCLE
  5
4604
330
1F
100
AcDbEntity
  8
02製品
100
AcDbCircle
 10
10345.05820392195
 20
2770.213796291728
 30
0.0
 40
15.0
  0
CIRCLE
  5
4605
330
1F
100
AcDbEntity
  8
02製品
100
AcDbCircle
 10
10425.05820392195
 20
2770.213796291728
 30
0.0
 40
15.0
  0
LINE
  5
4606
330
1F
100
AcDbEntity
  8
02製品
100
AcDbLine
 10
10215.05820392196
 20
3225.213796291728
 30
0.0
 11
10215.05820392195
 21
2395.213796291728
 31
0.0
  0
LINE
  5
4608
330
1F
100
AcDbEntity
  8
02製品
100
AcDbLine
 10
10260.05820392196
 20
3225.213796291728
 30
0.0
 11
10260.05820392195
 21
2395.213796291728
 31
0.0
  0
LINE
  5
4609
330
1F
100
AcDbEntity
  8
02製品
100
AcDbLine
 10
10260.05820392195
 20
2395.213796291728
 30
0.0
 11
10260.05820392196
 21
3225.213796291728
 31
0.0
  0
CIRCLE
  5
460A
330
1F
100
AcDbEntity
  8
02製品
100
AcDbCircle
 10
10545.05820392195
 20
3150.213796291728
 30
0.0
 40
15.0
  0
CIRCLE
  5
460B
330
1F
100
AcDbEntity
  8
02製品
100
AcDbCircle
 10
10545.05820392195
 20
3190.213796291728
 30
0.0
 40
15.0
  0
LINE
  5
460C
330
1F
100
AcDbEntity
  8
02製品
100
AcDbLine
 10
10215.05820392196
 20
3225.213796291728
 30
0.0
 11
10258.55820392195
 21
3225.213796291728
 31
0.0
  0
CIRCLE
  5
460E
330
1F
100
AcDbEntity
  8
02製品
100
AcDbCircle
 10
10545.05820392195
 20
3030.213796291728
 30
0.0
 40
15.0
  0
CIRCLE
  5
460F
330
1F
100
AcDbEntity
  8
02製品
100
AcDbCircle
 10
10545.05820392195
 20
3070.213796291728
 30
0.0
 40
15.0
  0
CIRCLE
  5
4610
330
1F
100
AcDbEntity
  8
02製品
100
AcDbCircle
 10
10545.05820392195
 20
2910.213796291728
 30
0.0
 40
15.0
  0
CIRCLE
  5
4611
330
1F
100
AcDbEntity
  8
02製品
100
AcDbCircle
 10
10545.05820392195
 20
2950.213796291728
 30
0.0
 40
15.0
  0
CIRCLE
  5
4612
330
1F
100
AcDbEntity
  8
02製品
100
AcDbCircle
 10
10545.05820392195
 20
2990.213796291728
 30
0.0
 40
15.0
  0
CIRCLE
  5
4613
330
1F
100
AcDbEntity
  8
02製品
100
AcDbCircle
 10
10545.05820392195
 20
2830.213796291728
 30
0.0
 40
15.0
  0
CIRCLE
  5
4614
330
1F
100
AcDbEntity
  8
02製品
100
AcDbCircle
 10
10545.05820392195
 20
2790.213796291728
 30
0.0
 40
15.0
  0
CIRCLE
  5
4615
330
1F
100
AcDbEntity
  8
02製品
100
AcDbCircle
 10
10545.05820392195
 20
2710.213796291728
 30
0.0
 40
15.0
  0
CIRCLE
  5
4616
330
1F
100
AcDbEntity
  8
02製品
100
AcDbCircle
 10
10545.05820392195
 20
2670.213796291728
 30
0.0
 40
15.0
  0
CIRCLE
  5
4617
330
1F
100
AcDbEntity
  8
02製品
100
AcDbCircle
 10
10545.05820392195
 20
2750.213796291728
 30
0.0
 40
15.0
  0
CIRCLE
  5
4618
330
1F
100
AcDbEntity
  8
02製品
100
AcDbCircle
 10
10545.05820392195
 20
2870.213796291728
 30
0.0
 40
15.0
  0
CIRCLE
  5
4619
330
1F
100
AcDbEntity
  8
02製品
100
AcDbCircle
 10
10545.05820392195
 20
2590.213796291728
 30
0.0
 40
15.0
  0
CIRCLE
  5
461A
330
1F
100
AcDbEntity
  8
02製品
100
AcDbCircle
 10
10545.05820392195
 20
2550.213796291728
 30
0.0
 40
15.0
  0
CIRCLE
  5
461B
330
1F
100
AcDbEntity
  8
02製品
100
AcDbCircle
 10
10545.05820392195
 20
2470.213796291728
 30
0.0
 40
15.0
  0
CIRCLE
  5
461C
330
1F
100
AcDbEntity
  8
02製品
100
AcDbCircle
 10
10545.05820392195
 20
2430.213796291728
 30
0.0
 40
15.0
  0
CIRCLE
  5
461D
330
1F
100
AcDbEntity
  8
02製品
100
AcDbCircle
 10
10545.05820392195
 20
2510.213796291728
 30
0.0
 40
15.0
  0
LINE
  5
461E
330
1F
100
AcDbEntity
  8
02製品
100
AcDbLine
 10
10215.05820392195
 20
2395.213796291728
 30
0.0
 11
10258.55820392195
 21
2395.213796291728
 31
0.0
  0
CIRCLE
  5
4620
330
1F
100
AcDbEntity
  8
02製品
100
AcDbCircle
 10
10545.05820392195
 20
2630.213796291728
 30
0.0
 40
15.0
  0
CIRCLE
  5
4621
330
1F
100
AcDbEntity
  8
02製品
100
AcDbCircle
 10
10545.05820392195
 20
3110.213796291728
 30
0.0
 40
15.0
  0
LINE
  5
4622
330
1F
100
AcDbEntity
  8
02製品
100
AcDbLine
 10
11102.55820392233
 20
1677.213796291746
 30
0.0
 11
11107.55820392233
 21
1677.213796291746
 31
0.0
  0
LINE
  5
4623
330
1F
100
AcDbEntity
  8
02製品
  6
CENTER
100
AcDbLine
 10
11097.15820392195
 20
1673.713796291743
 30
0.0
 11
11116.15820392195
 21
1673.713796291743
 31
0.0
  0
LINE
  5
4624
330
1F
100
AcDbEntity
  8
02製品
100
AcDbLine
 10
11042.55820392233
 20
1677.213796291741
 30
0.0
 11
11047.55820392233
 21
1677.213796291741
 31
0.0
  0
LINE
  5
4625
330
1F
100
AcDbEntity
  8
02製品
  6
CENTER
100
AcDbLine
 10
11035.55820392233
 20
1673.713796291741
 30
0.0
 11
11054.55820392233
 21
1673.713796291743
 31
0.0
  0
LINE
  5
4626
330
1F
100
AcDbEntity
  8
02製品
100
AcDbLine
 10
11102.55820392233
 20
1670.213796291746
 30
0.0
 11
11107.55820392233
 21
1670.213796291746
 31
0.0
  0
LINE
  5
4627
330
1F
100
AcDbEntity
  8
02製品
100
AcDbLine
 10
11042.55820392233
 20
1670.213796291743
 30
0.0
 11
11047.55820392233
 21
1670.213796291743
 31
0.0
  0
LINE
  5
462A
330
1F
100
AcDbEntity
  8
02製品
100
AcDbLine
 10
11030.05820392192
 20
1653.713796291754
 30
0.0
 11
11110.05820392193
 21
1573.713796291763
 31
0.0
  0
CIRCLE
  5
462B
330
1F
100
AcDbEntity
  8
02製品
100
AcDbCircle
 10
11045.05820392233
 20
1673.713796291741
 30
0.0
 40
3.0
  0
CIRCLE
  5
462C
330
1F
100
AcDbEntity
  8
02製品
100
AcDbCircle
 10
11105.05820392233
 20
1673.713796291743
 30
0.0
 40
3.0
  0
ARC
  5
462D
330
1F
100
AcDbEntity
  8
02製品
100
AcDbCircle
 10
11102.55820392233
 20
1673.713796291746
 30
0.0
 40
3.50000000000024
100
AcDbArc
 50
90.0
 51
270.0
  0
LINE
  5
462E
330
1F
100
AcDbEntity
  8
02製品
100
AcDbLine
 10
11030.05820392193
 20
1693.713796291726
 30
0.0
 11
11030.05820392193
 21
1653.713796291728
 31
0.0
  0
ARC
  5
462F
330
1F
100
AcDbEntity
  8
02製品
100
AcDbCircle
 10
11042.55820392233
 20
1673.713796291741
 30
0.0
 40
3.50000000000024
100
AcDbArc
 50
90.0
 51
270.0
  0
ARC
  5
4630
330
1F
100
AcDbEntity
  8
02製品
100
AcDbCircle
 10
11047.55820392233
 20
1673.713796291743
 30
0.0
 40
3.49999999999967
100
AcDbArc
 50
270.0
 51
90.0
  0
LINE
  5
4631
330
1F
100
AcDbEntity
  8
02製品
  6
CENTER
100
AcDbLine
 10
11045.05820392233
 20
1680.713796291741
 30
0.0
 11
11045.05820392233
 21
1666.713796291743
 31
0.0
  0
ARC
  5
4633
330
1F
100
AcDbEntity
  8
02製品
100
AcDbCircle
 10
11107.55820392233
 20
1673.713796291746
 30
0.0
 40
3.49999999999967
100
AcDbArc
 50
270.0
 51
90.0
  0
LINE
  5
4634
330
1F
100
AcDbEntity
  8
02製品
  6
CENTER
100
AcDbLine
 10
11105.05820392233
 20
1680.713796291746
 30
0.0
 11
11105.05820392233
 21
1666.713796291746
 31
0.0
  0
LINE
  5
4635
330
1F
100
AcDbEntity
  8
02製品
100
AcDbLine
 10
11133.55820392195
 20
1251.213796291726
 30
0.0
 11
11133.55820392195
 21
1246.213796291728
 31
0.0
  0
LINE
  5
4636
330
1F
100
AcDbEntity
  8
02製品
100
AcDbLine
 10
11133.55820392195
 20
1251.213796291726
 30
0.0
 11
11133.55820392195
 21
1246.213796291728
 31
0.0
  0
LINE
  5
4637
330
1F
100
AcDbEntity
  8
02製品
100
AcDbLine
 10
11126.55820392195
 20
1251.213796291726
 30
0.0
 11
11126.55820392195
 21
1246.213796291728
 31
0.0
  0
ARC
  5
4638
330
1F
100
AcDbEntity
  8
02製品
100
AcDbCircle
 10
11130.05820392195
 20
1251.213796291726
 30
0.0
 40
3.50000000000024
100
AcDbArc
 50
0.0
 51
180.0
  0
CIRCLE
  5
4639
330
1F
100
AcDbEntity
  8
02製品
100
AcDbCircle
 10
11130.05820392195
 20
1248.713796291726
 30
0.0
 40
3.0
  0
ARC
  5
463A
330
1F
100
AcDbEntity
  8
02製品
100
AcDbCircle
 10
11130.05820392195
 20
1246.213796291728
 30
0.0
 40
3.49999999999967
100
AcDbArc
 50
180.0
 51
0.0
  0
ARC
  5
463B
330
1F
100
AcDbEntity
  8
02製品
100
AcDbCircle
 10
11130.05820392195
 20
1211.213796291726
 30
0.0
 40
3.50000000000024
100
AcDbArc
 50
0.0
 51
180.0
  0
LINE
  5
463C
330
1F
100
AcDbEntity
  8
02製品
  6
CENTER
100
AcDbLine
 10
11130.05820392195
 20
1258.213796291726
 30
0.0
 11
11130.05820392195
 21
1239.213796291728
 31
0.0
  0
LINE
  5
463D
330
1F
100
AcDbEntity
  8
02製品
  6
CENTER
100
AcDbLine
 10
11137.05820392195
 20
1248.713796291728
 30
0.0
 11
11123.05820392195
 21
1248.713796291728
 31
0.0
  0
LINE
  5
463F
330
1F
100
AcDbEntity
  8
02製品
  6
CENTER
100
AcDbLine
 10
11137.05820392195
 20
1208.713796291728
 30
0.0
 11
11123.05820392195
 21
1208.713796291728
 31
0.0
  0
LINE
  5
4640
330
1F
100
AcDbEntity
  8
02製品
100
AcDbLine
 10
11195.05820392195
 20
1194.913796291725
 30
0.0
 11
11195.05820392195
 21
1193.713796291725
 31
0.0
  0
LINE
  5
4641
330
1F
100
AcDbEntity
  8
02製品
100
AcDbLine
 10
11148.85820392195
 20
1194.913796291727
 30
0.0
 11
11148.85820392195
 21
1193.713796291725
 31
0.0
  0
ARC
  5
4642
330
1F
100
AcDbEntity
  8
02製品
100
AcDbCircle
 10
11130.05820392195
 20
1206.213796291728
 30
0.0
 40
3.49999999999967
100
AcDbArc
 50
180.0
 51
0.0
  0
LINE
  5
4643
330
1F
100
AcDbEntity
  8
02製品
100
AcDbLine
 10
11195.05820392195
 20
1193.713796291725
 30
0.0
 11
11148.85820392195
 21
1193.713796291725
 31
0.0
  0
LINE
  5
4644
330
1F
100
AcDbEntity
  8
02製品
100
AcDbLine
 10
11195.05820392195
 20
1194.913796291725
 30
0.0
 11
11110.05820392195
 21
1194.913796291727
 31
0.0
  0
LINE
  5
4645
330
1F
100
AcDbEntity
  8
02製品
100
AcDbLine
 10
11133.55820392195
 20
1211.213796291726
 30
0.0
 11
11133.55820392195
 21
1206.213796291728
 31
0.0
  0
LINE
  5
4646
330
1F
100
AcDbEntity
  8
02製品
100
AcDbLine
 10
11133.55820392195
 20
1211.213796291726
 30
0.0
 11
11133.55820392195
 21
1206.213796291728
 31
0.0
  0
LINE
  5
4647
330
1F
100
AcDbEntity
  8
02製品
  6
CENTER
100
AcDbLine
 10
11130.05820392195
 20
1218.213796291726
 30
0.0
 11
11130.05820392195
 21
1199.213796291728
 31
0.0
  0
LINE
  5
4648
330
1F
100
AcDbEntity
  8
02製品
100
AcDbLine
 10
11126.55820392195
 20
1211.213796291726
 30
0.0
 11
11126.55820392195
 21
1206.213796291728
 31
0.0
  0
CIRCLE
  5
4649
330
1F
100
AcDbEntity
  8
02製品
100
AcDbCircle
 10
11130.05820392195
 20
1208.713796291728
 30
0.0
 40
3.0
  0
LINE
  5
464B
330
1F
100
AcDbEntity
  8
02製品
100
AcDbLine
 10
11151.04112317454
 20
1693.713796291728
 30
0.0
 11
11151.04112317454
 21
1194.913796291727
 31
0.0
  0
LINE
  5
464C
330
1F
100
AcDbEntity
  8
02製品
100
AcDbLine
 10
11110.05820392195
 20
1573.713796291746
 30
0.0
 11
11110.05820392195
 21
1194.913796291727
 31
0.0
  0
LINE
  5
464E
330
1F
100
AcDbEntity
  8
02製品
100
AcDbLine
 10
10367.55820392245
 20
1677.213796291739
 30
0.0
 11
10362.55820392245
 21
1677.213796291739
 31
0.0
  0
LINE
  5
464F
330
1F
100
AcDbEntity
  8
02製品
100
AcDbLine
 10
10367.55820392245
 20
1677.213796291739
 30
0.0
 11
10362.55820392245
 21
1677.213796291739
 31
0.0
  0
LINE
  5
4650
330
1F
100
AcDbEntity
  8
02製品
  6
CENTER
100
AcDbLine
 10
10374.55820392245
 20
1673.713796291739
 30
0.0
 11
10355.55820392245
 21
1673.713796291739
 31
0.0
  0
LINE
  5
4651
330
1F
100
AcDbEntity
  8
02製品
100
AcDbLine
 10
10307.55820392245
 20
1677.213796291743
 30
0.0
 11
10302.55820392245
 21
1677.213796291743
 31
0.0
  0
LINE
  5
4652
330
1F
100
AcDbEntity
  8
02製品
100
AcDbLine
 10
10307.55820392245
 20
1677.213796291743
 30
0.0
 11
10302.55820392245
 21
1677.213796291743
 31
0.0
  0
LINE
  5
4653
330
1F
100
AcDbEntity
  8
02製品
  6
CENTER
100
AcDbLine
 10
10314.55820392245
 20
1673.713796291741
 30
0.0
 11
10295.55820392245
 21
1673.713796291743
 31
0.0
  0
LINE
  5
4654
330
1F
100
AcDbEntity
  8
02製品
100
AcDbLine
 10
10367.55820392245
 20
1670.213796291739
 30
0.0
 11
10362.55820392245
 21
1670.213796291739
 31
0.0
  0
LINE
  5
4655
330
1F
100
AcDbEntity
  8
02製品
100
AcDbLine
 10
10307.55820392245
 20
1670.213796291743
 30
0.0
 11
10302.55820392245
 21
1670.213796291743
 31
0.0
  0
LINE
  5
4658
330
1F
100
AcDbEntity
  8
02製品
100
AcDbLine
 10
10380.05820392195
 20
1653.713796291725
 30
0.0
 11
10300.05820392195
 21
1573.713796291725
 31
0.0
  0
CIRCLE
  5
4659
330
1F
100
AcDbEntity
  8
02製品
100
AcDbCircle
 10
10365.05820392245
 20
1673.713796291741
 30
0.0
 40
3.0
  0
CIRCLE
  5
465A
330
1F
100
AcDbEntity
  8
02製品
100
AcDbCircle
 10
10305.05820392245
 20
1673.713796291743
 30
0.0
 40
3.0
  0
ARC
  5
465C
330
1F
100
AcDbEntity
  8
02製品
100
AcDbCircle
 10
10307.55820392245
 20
1673.713796291743
 30
0.0
 40
3.50000000000024
100
AcDbArc
 50
270.0
 51
90.0
  0
LINE
  5
465D
330
1F
100
AcDbEntity
  8
02製品
  6
CENTER
100
AcDbLine
 10
10305.05820392245
 20
1680.713796291743
 30
0.0
 11
10305.05820392245
 21
1666.713796291743
 31
0.0
  0
ARC
  5
465E
330
1F
100
AcDbEntity
  8
02製品
100
AcDbCircle
 10
10302.55820392245
 20
1673.713796291743
 30
0.0
 40
3.49999999999967
100
AcDbArc
 50
90.0
 51
270.0
  0
LINE
  5
465F
330
1F
100
AcDbEntity
  8
02製品
100
AcDbLine
 10
10380.05820392195
 20
1693.713796291726
 30
0.0
 11
10380.05820392195
 21
1653.713796291728
 31
0.0
  0
ARC
  5
4660
330
1F
100
AcDbEntity
  8
02製品
100
AcDbCircle
 10
10367.55820392245
 20
1673.713796291739
 30
0.0
 40
3.50000000000024
100
AcDbArc
 50
270.0
 51
90.0
  0
LINE
  5
4661
330
1F
100
AcDbEntity
  8
02製品
  6
CENTER
100
AcDbLine
 10
10365.05820392245
 20
1680.713796291739
 30
0.0
 11
10365.05820392245
 21
1666.713796291739
 31
0.0
  0
ARC
  5
4662
330
1F
100
AcDbEntity
  8
02製品
100
AcDbCircle
 10
10362.55820392245
 20
1673.713796291739
 30
0.0
 40
3.49999999999967
100
AcDbArc
 50
90.0
 51
270.0
  0
LINE
  5
4663
330
1F
100
AcDbEntity
  8
02製品
  6
CENTER
100
AcDbLine
 10
10273.05820392195
 20
1248.713796291726
 30
0.0
 11
10287.05820392195
 21
1248.713796291726
 31
0.0
  0
CIRCLE
  5
4664
330
1F
100
AcDbEntity
  8
02製品
100
AcDbCircle
 10
10280.05820392195
 20
1248.713796291725
 30
0.0
 40
3.0
  0
ARC
  5
4665
330
1F
100
AcDbEntity
  8
02製品
100
AcDbCircle
 10
10280.05820392195
 20
1251.213796291725
 30
0.0
 40
3.50000000000024
100
AcDbArc
 50
0.0
 51
180.0
  0
LINE
  5
4666
330
1F
100
AcDbEntity
  8
02製品
100
AcDbLine
 10
10276.55820392195
 20
1251.213796291725
 30
0.0
 11
10276.55820392195
 21
1246.213796291726
 31
0.0
  0
LINE
  5
4667
330
1F
100
AcDbEntity
  8
02製品
100
AcDbLine
 10
10283.55820392195
 20
1251.213796291725
 30
0.0
 11
10283.55820392195
 21
1246.213796291726
 31
0.0
  0
LINE
  5
4668
330
1F
100
AcDbEntity
  8
02製品
100
AcDbLine
 10
10276.55820392195
 20
1251.213796291725
 30
0.0
 11
10276.55820392195
 21
1246.213796291726
 31
0.0
  0
ARC
  5
4669
330
1F
100
AcDbEntity
  8
02製品
100
AcDbCircle
 10
10280.05820392195
 20
1246.213796291726
 30
0.0
 40
3.49999999999967
100
AcDbArc
 50
180.0
 51
0.0
  0
LINE
  5
466A
330
1F
100
AcDbEntity
  8
02製品
  6
CENTER
100
AcDbLine
 10
10273.05820392195
 20
1208.713796291728
 30
0.0
 11
10287.05820392195
 21
1208.713796291728
 31
0.0
  0
ARC
  5
466B
330
1F
100
AcDbEntity
  8
02製品
100
AcDbCircle
 10
10280.05820392195
 20
1211.213796291726
 30
0.0
 40
3.50000000000024
100
AcDbArc
 50
0.0
 51
180.0
  0
LINE
  5
466C
330
1F
100
AcDbEntity
  8
02製品
  6
CENTER
100
AcDbLine
 10
10280.05820392195
 20
1258.213796291725
 30
0.0
 11
10280.05820392195
 21
1239.213796291726
 31
0.0
  0
ARC
  5
466E
330
1F
100
AcDbEntity
  8
02製品
100
AcDbCircle
 10
10280.05820392195
 20
1206.213796291728
 30
0.0
 40
3.49999999999967
100
AcDbArc
 50
180.0
 51
0.0
  0
LINE
  5
466F
330
1F
100
AcDbEntity
  8
02製品
100
AcDbLine
 10
10261.25820392195
 20
1194.913796291725
 30
0.0
 11
10261.25820392195
 21
1193.713796291726
 31
0.0
  0
CIRCLE
  5
4670
330
1F
100
AcDbEntity
  8
02製品
100
AcDbCircle
 10
10280.05820392195
 20
1208.713796291728
 30
0.0
 40
3.0
  0
LINE
  5
4671
330
1F
100
AcDbEntity
  8
02製品
100
AcDbLine
 10
10276.55820392195
 20
1211.213796291726
 30
0.0
 11
10276.55820392195
 21
1206.213796291728
 31
0.0
  0
LINE
  5
4672
330
1F
100
AcDbEntity
  8
02製品
100
AcDbLine
 10
10283.55820392195
 20
1211.213796291726
 30
0.0
 11
10283.55820392195
 21
1206.213796291728
 31
0.0
  0
LINE
  5
4673
330
1F
100
AcDbEntity
  8
02製品
100
AcDbLine
 10
10276.55820392195
 20
1211.213796291726
 30
0.0
 11
10276.55820392195
 21
1206.213796291728
 31
0.0
  0
LINE
  5
4674
330
1F
100
AcDbEntity
  8
02製品
  6
CENTER
100
AcDbLine
 10
10280.05820392195
 20
1218.213796291726
 30
0.0
 11
10280.05820392195
 21
1199.213796291728
 31
0.0
  0
LINE
  5
4676
330
1F
100
AcDbEntity
  8
02製品
100
AcDbLine
 10
10215.05820392195
 20
1194.913796291725
 30
0.0
 11
10215.05820392195
 21
1193.713796291726
 31
0.0
  0
LINE
  5
4677
330
1F
100
AcDbEntity
  8
02製品
100
AcDbLine
 10
10215.05820392195
 20
1194.913796291725
 30
0.0
 11
10300.05820392195
 21
1194.913796291727
 31
0.0
  0
LINE
  5
4678
330
1F
100
AcDbEntity
  8
02製品
100
AcDbLine
 10
10215.05820392195
 20
1193.713796291726
 30
0.0
 11
10261.25820392195
 21
1193.713796291726
 31
0.0
  0
LINE
  5
4679
330
1F
100
AcDbEntity
  8
02製品
100
AcDbLine
 10
10258.55820392195
 20
1693.713796291728
 30
0.0
 11
10258.55820392195
 21
1194.913796291725
 31
0.0
  0
LINE
  5
467A
330
1F
100
AcDbEntity
  8
02製品
100
AcDbLine
 10
10300.05820392195
 20
1573.713796291725
 30
0.0
 11
10300.05820392195
 21
1194.913796291727
 31
0.0
  0
LINE
  5
467D
330
1F
100
AcDbEntity
  8
02製品
100
AcDbLine
 10
10380.05820392195
 20
1653.713796291728
 30
0.0
 11
11030.05820392193
 21
1653.713796291746
 31
0.0
  0
LINE
  5
467E
330
1F
100
AcDbEntity
  8
02製品
100
AcDbLine
 10
10258.55820392195
 20
1693.713796291728
 30
0.0
 11
11151.04112317454
 21
1693.713796291728
 31
0.0
  0
LINE
  5
4F84
330
1F
100
AcDbEntity
  8
02製品
100
AcDbLine
 10
12626.55820392195
 20
1193.713796291726
 30
0.0
 11
12626.55820392195
 21
1194.913796291725
 31
0.0
  0
LINE
  5
4F85
330
1F
100
AcDbEntity
  8
02製品
100
AcDbLine
 10
11796.55820392195
 20
1193.713796291726
 30
0.0
 11
11796.55820392195
 21
1194.913796291725
 31
0.0
  0
LINE
  5
4F86
330
1F
100
AcDbEntity
  8
02製品
100
AcDbLine
 10
10260.05820392196
 20
3225.213796291728
 30
0.0
 11
11150.05820392195
 21
3225.213796291728
 31
0.0
  0
LINE
  5
4F87
330
1F
100
AcDbEntity
  8
02製品
100
AcDbLine
 10
10151.55820392194
 20
3225.213796291728
 30
0.0
 11
10195.05820392194
 21
3225.213796291728
 31
0.0
  0
LINE
  5
4F88
330
1F
100
AcDbEntity
  8
02製品
100
AcDbLine
 10
10151.55820392195
 20
2395.213796291728
 30
0.0
 11
10195.05820392195
 21
2395.213796291728
 31
0.0
  0
LINE
  5
4F89
330
1F
100
AcDbEntity
  8
02製品
100
AcDbLine
 10
10260.05820392195
 20
2395.213796291728
 30
0.0
 11
11150.05820392195
 21
2395.213796291728
 31
0.0
  0
LINE
  5
4F8A
330
1F
100
AcDbEntity
  8
02製品
100
AcDbLine
 10
9260.058203921944
 20
2395.213796291728
 30
0.0
 11
10150.05820392194
 21
2395.213796291728
 31
0.0
  0
LINE
  5
4F8B
330
1F
100
AcDbEntity
  8
02製品
100
AcDbLine
 10
9260.058203921952
 20
3225.213796291728
 30
0.0
 11
10150.05820392195
 21
3225.213796291728
 31
0.0
  0
LINE
  5
4F8C
330
1F
100
AcDbEntity
  8
02製品
100
AcDbLine
 10
11151.55820392196
 20
2395.213796291728
 30
0.0
 11
11195.05820392196
 21
2395.213796291728
 31
0.0
  0
LINE
  5
4F8D
330
1F
100
AcDbEntity
  8
02製品
100
AcDbLine
 10
11151.55820392195
 20
3225.213796291728
 30
0.0
 11
11195.05820392195
 21
3225.213796291728
 31
0.0
  0
ENDSEC
  0
SECTION
  2
OBJECTS
  0
DICTIONARY
  5
C
330
0
100
AcDbDictionary
281
     1
  3
ACAD_GROUP
350
D
  3
ACAD_IMAGE_VARS
350
481B
  3
ACAD_LAYOUT
350
1A
  3
ACAD_MLINESTYLE
350
17
  3
ACAD_PLOTSETTINGS
350
19
  3
ACAD_PLOTSTYLENAME
350
E
  3
ACAD_SCALELIST
350
2A8C
  3
AcDbVariableDictionary
350
6EF
  3
APPDATA
350
4819
  3
DWGPROPS
350
508F
  0
DICTIONARY
  5
39C7
330
2
100
AcDbDictionary
280
     1
281
     1
  3
ACAD_LAYERSTATES
360
39C8
  0
DICTIONARY
  5
39AE
330
10
100
AcDbDictionary
280
     1
281
     1
  3
ADSK_XREC_LAYER_RECONCILED
360
39AF
  0
DICTIONARY
  5
39B0
330
44
100
AcDbDictionary
280
     1
281
     1
  3
ADSK_XREC_LAYER_RECONCILED
360
39B1
  0
DICTIONARY
  5
39B2
330
45
100
AcDbDictionary
280
     1
281
     1
  3
ADSK_XREC_LAYER_RECONCILED
360
39B3
  0
DICTIONARY
  5
39B4
330
46
100
AcDbDictionary
280
     1
281
     1
  3
ADSK_XREC_LAYER_RECONCILED
360
39B5
  0
DICTIONARY
  5
39B6
330
47
100
AcDbDictionary
280
     1
281
     1
  3
ADSK_XREC_LAYER_RECONCILED
360
39B7
  0
DICTIONARY
  5
39B8
330
48
100
AcDbDictionary
280
     1
281
     1
  3
ADSK_XREC_LAYER_RECONCILED
360
39B9
  0
DICTIONARY
  5
39BA
330
49
100
AcDbDictionary
280
     1
281
     1
  3
ADSK_XREC_LAYER_RECONCILED
360
39BB
  0
DICTIONARY
  5
39BC
330
59
100
AcDbDictionary
280
     1
281
     1
  3
ADSK_XREC_LAYER_RECONCILED
360
39BD
  0
DICTIONARY
  5
39BE
330
553
100
AcDbDictionary
280
     1
281
     1
  3
ADSK_XREC_LAYER_RECONCILED
360
39BF
  0
DICTIONARY
  5
39C0
330
F13
100
AcDbDictionary
280
     1
281
     1
  3
ADSK_XREC_LAYER_RECONCILED
360
39C1
  0
DICTIONARY
  5
39C2
330
F14
100
AcDbDictionary
280
     1
281
     1
  3
ADSK_XREC_LAYER_RECONCILED
360
39C3
  0
DICTIONARY
  5
D
102
{ACAD_REACTORS
330
C
102
}
330
C
100
AcDbDictionary
281
     1
  3
*A1
350
3D8
  3
*A2
350
C26
  0
RASTERVARIABLES
  5
481B
102
{ACAD_REACTORS
330
C
102
}
330
C
100
AcDbRasterVariables
 90
        0
 70
     1
 71
     1
 72
     1
  0
DICTIONARY
  5
1A
102
{ACAD_REACTORS
330
C
102
}
330
C
100
AcDbDictionary
281
     1
  3
Layout1
350
1E
  3
Layout2
350
26
  3
Model
350
22
  0
DICTIONARY
  5
17
102
{ACAD_REACTORS
330
C
102
}
330
C
100
AcDbDictionary
281
     1
  3
Standard
350
18
  0
DICTIONARY
  5
19
102
{ACAD_REACTORS
330
C
102
}
330
C
100
AcDbDictionary
281
     1
  0
ACDBDICTIONARYWDFLT
  5
E
102
{ACAD_REACTORS
330
C
102
}
330
C
100
AcDbDictionary
281
     1
  3
Normal
350
F
100
AcDbDictionaryWithDefault
340
F
  0
DICTIONARY
  5
2A8C
102
{ACAD_REACTORS
330
C
102
}
330
C
100
AcDbDictionary
281
     1
  3
A0
350
2A8D
  3
A1
350
2A8E
  3
A2
350
2A8F
  3
A3
350
2A90
  3
A4
350
2A91
  3
A5
350
2A92
  3
A6
350
2A93
  3
A7
350
2A94
  3
A8
350
2A95
  3
A9
350
2A96
  3
B0
350
2A97
  3
B1
350
2A98
  3
B2
350
2A99
  3
B3
350
2A9A
  3
B4
350
2A9B
  3
B5
350
2A9C
  3
B6
350
2A9D
  0
DICTIONARY
  5
6EF
102
{ACAD_REACTORS
330
C
102
}
330
C
100
AcDbDictionary
281
     1
  3
DIMASSOC
350
6F0
  3
INDEXCTL
350
3AC8
  3
SORTENTS
350
3AC7
  0
DICTIONARY
  5
4819
102
{ACAD_REACTORS
330
C
102
}
330
C
100
AcDbDictionary
281
     1
  0
XRECORD
  5
508F
102
{ACAD_REACTORS
330
C
102
}
330
C
100
AcDbXrecord
280
     1
  1
DWGPROPS COOKIE
  2

  3

  4

  6

  7

  8
2233
  9

300
=
301
=
302
=
303
=
304
=
305
=
306
=
307
=
308
=
309
=
 40
0.0
 41
2454740.218452685
 42
2457632.18351265
  1

 90
        0
  0
DICTIONARY
  5
39C8
102
{ACAD_REACTORS
330
39C7
102
}
330
39C7
100
AcDbDictionary
281
     1
  3
ARGON_LAYERP_1
350
4F83
  0
XRECORD
  5
39AF
102
{ACAD_REACTORS
330
39AE
102
}
330
39AE
100
AcDbXrecord
280
     1
290
     1
  0
XRECORD
  5
39B1
102
{ACAD_REACTORS
330
39B0
102
}
330
39B0
100
AcDbXrecord
280
     1
290
     1
  0
XRECORD
  5
39B3
102
{ACAD_REACTORS
330
39B2
102
}
330
39B2
100
AcDbXrecord
280
     1
290
     1
  0
XRECORD
  5
39B5
102
{ACAD_REACTORS
330
39B4
102
}
330
39B4
100
AcDbXrecord
280
     1
290
     1
  0
XRECORD
  5
39B7
102
{ACAD_REACTORS
330
39B6
102
}
330
39B6
100
AcDbXrecord
280
     1
290
     1
  0
XRECORD
  5
39B9
102
{ACAD_REACTORS
330
39B8
102
}
330
39B8
100
AcDbXrecord
280
     1
290
     1
  0
XRECORD
  5
39BB
102
{ACAD_REACTORS
330
39BA
102
}
330
39BA
100
AcDbXrecord
280
     1
290
     1
  0
XRECORD
  5
39BD
102
{ACAD_REACTORS
330
39BC
102
}
330
39BC
100
AcDbXrecord
280
     1
290
     1
  0
XRECORD
  5
39BF
102
{ACAD_REACTORS
330
39BE
102
}
330
39BE
100
AcDbXrecord
280
     1
290
     1
  0
XRECORD
  5
39C1
102
{ACAD_REACTORS
330
39C0
102
}
330
39C0
100
AcDbXrecord
280
     1
290
     1
  0
XRECORD
  5
39C3
102
{ACAD_REACTORS
330
39C2
102
}
330
39C2
100
AcDbXrecord
280
     1
290
     1
  0
GROUP
  5
3D8
102
{ACAD_REACTORS
330
D
102
}
330
D
100
AcDbGroup
300

 70
     1
 71
     1
  0
GROUP
  5
C26
102
{ACAD_REACTORS
330
D
102
}
330
D
100
AcDbGroup
300

 70
     1
 71
     1
  0
LAYOUT
  5
1E
102
{ACAD_REACTORS
330
1A
102
}
330
1A
100
AcDbPlotSettings
  1

  2

  4

  6

 40
0.0
 41
0.0
 42
0.0
 43
0.0
 44
0.0
 45
0.0
 46
0.0
 47
0.0
 48
0.0
 49
0.0
140
0.0
141
0.0
142
1.0
143
1.0
 70
   688
 72
     0
 73
     0
 74
     5
  7
monochrome2.ctb
 75
    16
147
1.0
148
0.0
149
0.0
100
AcDbLayout
  1
Layout1
 70
     1
 71
     1
 10
0.0
 20
0.0
 11
420.0
 21
297.0
 12
0.0
 22
0.0
 32
0.0
 14
1.000000000000000E+20
 24
1.000000000000000E+20
 34
1.000000000000000E+20
 15
-1.000000000000000E+20
 25
-1.000000000000000E+20
 35
-1.000000000000000E+20
146
0.0
 13
0.0
 23
0.0
 33
0.0
 16
1.0
 26
0.0
 36
0.0
 17
0.0
 27
1.0
 37
0.0
 76
     0
330
1B
  0
LAYOUT
  5
26
102
{ACAD_REACTORS
330
1A
102
}
330
1A
100
AcDbPlotSettings
  1

  2

  4

  6

 40
0.0
 41
0.0
 42
0.0
 43
0.0
 44
0.0
 45
0.0
 46
0.0
 47
0.0
 48
0.0
 49
0.0
140
0.0
141
0.0
142
1.0
143
1.0
 70
   688
 72
     0
 73
     0
 74
     5
  7
monochrome2.ctb
 75
    16
147
1.0
148
0.0
149
0.0
100
AcDbLayout
  1
Layout2
 70
     1
 71
     2
 10
0.0
 20
0.0
 11
12.0
 21
9.0
 12
0.0
 22
0.0
 32
0.0
 14
0.0
 24
0.0
 34
0.0
 15
0.0
 25
0.0
 35
0.0
146
0.0
 13
0.0
 23
0.0
 33
0.0
 16
1.0
 26
0.0
 36
0.0
 17
0.0
 27
1.0
 37
0.0
 76
     0
330
23
  0
LAYOUT
  5
22
102
{ACAD_REACTORS
330
1A
102
}
102
{ACAD_XDICTIONARY
360
39CD
102
}
330
1A
100
AcDbPlotSettings
  1

  2
tokyo02ApeosPort-III C3300 - 東京02ApeosPort-ⅢC3300
  4
A4
  6

 40
4.85775
 41
4.94239
 42
4.942413
 43
4.857758
 44
209.973328
 45
297.010651
 46
0.0
 47
2.07
 48
-5880.0
 49
0.0
140
420.0
141
4455.0
142
1.0
143
22.25573043219854
 70
 11956
 72
     1
 73
     1
 74
     4
  7
monochrome.ctb
 75
     0
147
0.0449322480359147
148
5880.0
149
0.0
100
AcDbLayout
  1
Model
 70
     1
 71
     0
 10
8335.137246202092
 20
-61.29073938466354
 11
14635.13724620209
 21
4393.709260615342
 12
0.0
 22
0.0
 32
0.0
 14
8185.137246202092
 24
-1776.240739384664
 34
0.0
 15
17110.13724620209
 25
4543.709260615342
 35
0.0
146
0.0
 13
0.0
 23
0.0
 33
0.0
 16
1.0
 26
0.0
 36
0.0
 17
0.0
 27
1.0
 37
0.0
 76
     0
330
1F
331
4811
  0
MLINESTYLE
  5
18
102
{ACAD_REACTORS
330
17
102
}
330
17
100
AcDbMlineStyle
  2
STANDARD
 70
     0
  3

 62
   256
 51
90.0
 52
90.0
 71
     2
 49
0.5
 62
   256
  6
BYLAYER
 49
-0.5
 62
   256
  6
BYLAYER
  0
ACDBPLACEHOLDER
  5
F
102
{ACAD_REACTORS
330
E
102
}
330
E
  0
SCALE
  5
2A8D
102
{ACAD_REACTORS
330
2A8C
102
}
330
2A8C
100
AcDbScale
 70
     0
300
1:1
140
1.0
141
1.0
290
     1
  0
SCALE
  5
2A8E
102
{ACAD_REACTORS
330
2A8C
102
}
330
2A8C
100
AcDbScale
 70
     0
300
1:2
140
1.0
141
2.0
290
     0
  0
SCALE
  5
2A8F
102
{ACAD_REACTORS
330
2A8C
102
}
330
2A8C
100
AcDbScale
 70
     0
300
1:4
140
1.0
141
4.0
290
     0
  0
SCALE
  5
2A90
102
{ACAD_REACTORS
330
2A8C
102
}
330
2A8C
100
AcDbScale
 70
     0
300
1:5
140
1.0
141
5.0
290
     0
  0
SCALE
  5
2A91
102
{ACAD_REACTORS
330
2A8C
102
}
330
2A8C
100
AcDbScale
 70
     0
300
1:8
140
1.0
141
8.0
290
     0
  0
SCALE
  5
2A92
102
{ACAD_REACTORS
330
2A8C
102
}
330
2A8C
100
AcDbScale
 70
     0
300
1:10
140
1.0
141
10.0
290
     0
  0
SCALE
  5
2A93
102
{ACAD_REACTORS
330
2A8C
102
}
330
2A8C
100
AcDbScale
 70
     0
300
1:16
140
1.0
141
16.0
290
     0
  0
SCALE
  5
2A94
102
{ACAD_REACTORS
330
2A8C
102
}
330
2A8C
100
AcDbScale
 70
     0
300
1:20
140
1.0
141
20.0
290
     0
  0
SCALE
  5
2A95
102
{ACAD_REACTORS
330
2A8C
102
}
330
2A8C
100
AcDbScale
 70
     0
300
1:30
140
1.0
141
30.0
290
     0
  0
SCALE
  5
2A96
102
{ACAD_REACTORS
330
2A8C
102
}
330
2A8C
100
AcDbScale
 70
     0
300
1:40
140
1.0
141
40.0
290
     0
  0
SCALE
  5
2A97
102
{ACAD_REACTORS
330
2A8C
102
}
330
2A8C
100
AcDbScale
 70
     0
300
1:50
140
1.0
141
50.0
290
     0
  0
SCALE
  5
2A98
102
{ACAD_REACTORS
330
2A8C
102
}
330
2A8C
100
AcDbScale
 70
     0
300
1:100
140
1.0
141
100.0
290
     0
  0
SCALE
  5
2A99
102
{ACAD_REACTORS
330
2A8C
102
}
330
2A8C
100
AcDbScale
 70
     0
300
2:1
140
2.0
141
1.0
290
     0
  0
SCALE
  5
2A9A
102
{ACAD_REACTORS
330
2A8C
102
}
330
2A8C
100
AcDbScale
 70
     0
300
4:1
140
4.0
141
1.0
290
     0
  0
SCALE
  5
2A9B
102
{ACAD_REACTORS
330
2A8C
102
}
330
2A8C
100
AcDbScale
 70
     0
300
8:1
140
8.0
141
1.0
290
     0
  0
SCALE
  5
2A9C
102
{ACAD_REACTORS
330
2A8C
102
}
330
2A8C
100
AcDbScale
 70
     0
300
10:1
140
10.0
141
1.0
290
     0
  0
SCALE
  5
2A9D
102
{ACAD_REACTORS
330
2A8C
102
}
330
2A8C
100
AcDbScale
 70
     0
300
100:1
140
100.0
141
1.0
290
     0
  0
DICTIONARYVAR
  5
6F0
102
{ACAD_REACTORS
330
6EF
102
}
330
6EF
100
DictionaryVariables
280
     0
  1
1
  0
DICTIONARYVAR
  5
3AC8
102
{ACAD_REACTORS
330
6EF
102
}
330
6EF
100
DictionaryVariables
280
     0
  1
0
  0
DICTIONARYVAR
  5
3AC7
102
{ACAD_REACTORS
330
6EF
102
}
330
6EF
100
DictionaryVariables
280
     0
  1
127
  0
XRECORD
  5
4F83
102
{ACAD_REACTORS
330
39C8
102
}
330
39C8
100
AcDbXrecord
280
     1
 91
     1023
301

290
     0
302
2　寸法
330
10
 90
        8
 62
     7
370
    -3
331
16
  1
Color_7
330
44
 90
        8
 62
     2
370
    15
331
16
  1
Color_2
330
45
 90
        8
 62
     7
370
     9
331
16
  1
Color_7
330
46
 90
        8
 62
     7
370
     9
331
16
  1
Color_7
330
47
 90
        0
 62
     3
370
     9
331
16
  1
Color_3
330
48
 90
        8
 62
     1
370
    30
331
16
  1
Color_1
330
49
 90
        8
 62
     6
370
     9
331
16
  1
Color_6
330
59
 90
        0
 62
     4
370
     5
331
16
  1
Color_4
330
5F
 90
        0
 62
     7
370
    -3
331
16
  1
Color_7
330
553
 90
        8
 62
     5
370
    15
331
16
  1
Color_5
330
F13
 90
        8
 62
     7
370
    -3
331
16
  1
Color_7
330
F14
 90
        0
 62
     7
370
    -3
331
16
  1
Color_7
330
481D
 90
        8
 62
     7
370
     9
331
16
  1
Color_7
330
481F
 90
        8
 62
     2
370
    15
331
16
  1
Color_2
330
4820
 90
        0
 62
     4
370
     0
331
16
  1
Color_4
330
4821
 90
        8
 62
     1
370
    30
331
16
  1
Color_1
  0
DICTIONARY
  5
39CD
330
22
100
AcDbDictionary
280
     1
281
     1
  3
ADSK_XREC_LAYOUTTHUMBNAIL
360
39CE
  0
XRECORD
  5
39CE
102
{ACAD_REACTORS
330
39CD
102
}
330
39CD
100
AcDbXrecord
280
     1
310
280000000001000091000000010008000000000000910000000000000000000000010000000000000000000000000000FFFFFF000000000000000000000000000000000000000000000000000000000000000000330000006600000099000000CC000000FF00000000330000333300006633000099330000CC330000FF3300
310
0000660000336600006666000099660000CC660000FF66000000990000339900006699000099990000CC990000FF99000000CC000033CC000066CC000099CC0000CCCC0000FFCC000000FF000033FF000066FF000099FF0000CCFF0000FFFF000000003300330033006600330099003300CC003300FF003300003333003333
310
33006633330099333300CC333300FF33330000663300336633006666330099663300CC663300FF66330000993300339933006699330099993300CC993300FF99330000CC330033CC330066CC330099CC3300CCCC3300FFCC330000FF330033FF330066FF330099FF3300CCFF3300FFFF330000006600330066006600660099
310
006600CC006600FF00660000336600333366006633660099336600CC336600FF33660000666600336666006666660099666600CC666600FF66660000996600339966006699660099996600CC996600FF99660000CC660033CC660066CC660099CC6600CCCC6600FFCC660000FF660033FF660066FF660099FF6600CCFF6600
310
FFFF660000009900330099006600990099009900CC009900FF00990000339900333399006633990099339900CC339900FF33990000669900336699006666990099669900CC669900FF66990000999900339999006699990099999900CC999900FF99990000CC990033CC990066CC990099CC9900CCCC9900FFCC990000FF99
310
0033FF990066FF990099FF9900CCFF9900FFFF99000000CC003300CC006600CC009900CC00CC00CC00FF00CC000033CC003333CC006633CC009933CC00CC33CC00FF33CC000066CC003366CC006666CC009966CC00CC66CC00FF66CC000099CC003399CC006699CC009999CC00CC99CC00FF99CC0000CCCC0033CCCC0066CC
310
CC0099CCCC00CCCCCC00FFCCCC0000FFCC0033FFCC0066FFCC0099FFCC00CCFFCC00FFFFCC000000FF003300FF006600FF009900FF00CC00FF00FF00FF000033FF003333FF006633FF009933FF00CC33FF00FF33FF000066FF003366FF006666FF009966FF00CC66FF00FF66FF000099FF003399FF006699FF009999FF00CC
310
99FF00FF99FF0000CCFF0033CCFF0066CCFF0099CCFF00CCCCFF00FFCCFF0000FFFF0033FFFF0066FFFF0099FFFF00CCFFFF00FFFFFF00000000000D0D0D001A1A1A00282828003535350043434300505050005D5D5D006B6B6B00787878008686860093939300A1A1A100AEAEAE00BBBBBB00C9C9C900D6D6D600E4E4E400
310
F1F1F100FFFFFF0000000000000000000000000000000000000000000000000000000000000000000000000000000000E2E2E2E2E2E2E2E2E2E2E2E2E2E2E2E2E2E2E2E2E2E2E2E2E2E2E2E2E2E2E2E2E2E2E2E2E2E2E2E2E2E2E2E2E2E2E2E2E2E2E2E2E2E2E2E2E2E2E2E2E2E2E2E2E2E2E2E2E2E2E2E2E2E2E2E2E2E2E2
310
E2E2E2E2E2E2E2E2E2E2E2E2E2E2E2E2E2E2E2E2E2E2E2E2E2E2E2E2E2E2E2E2E2E2E2E2E2E2E2E2E2E2E2E2E2E2E2E2E2E2E2E2E2E2E2E2E2E2E2E2E2E2E2E2E2E2E2E2E2E2E2E2E2E2E2E2E2E2E2E2E2E2E2E2E2E2E2E2E2E2E2E2E2E2E2E2E2E2E2E2E2E2E2E2E2E2E2E2E2E2E2E2E2E2E2E2E2E2E2E2E2E2E2E2E2E2E2
310
E2E2E2E2E2E2E2E2E2E2E2E2E2E2E2E2E2E2E2E2E2E2E2E2E2E2E2E2E2E2E2E2E2E2E2E2E2E2E2E2E2E2E2E2E2E2E2E2E2E2E2E2E2E2E2E2E2E2E2E2E2E2E2E2E2E2E2E2E2E2E2E2E2E2E2E2E2E2E2E2E2E2E2E2E2E2E2E2E2E2E2E2E2E2E2E2E2E2E2E2E2E2E2E2E2E2E2E2E2E2E2E2E2E2E2E2E2E2E2E2E2E2E2E2E2E2E2
310
E2E2E2E2E2E2E2E2E2E2E2E2E2E2E2E2E2E2E2E2E2E2E2E2E2E2E2E2E2E2E2E2E2E2E2E2E2E2E2E2E2E2E2E2E2E2E2E2E2E2E2E2E2E2E2E2E2E2E2E2E2E2E2E2E2E2E2E2E2E2E2E2E2E2E2E2E2E2E2E2E2E2E2E2E2E2E2E2E2E2E2E2E2E2E2E2E2E2E2E2E2E2E2E2E2E2E2E2E2E2E2E2E2E2E2E2E2E2E2E2E2E2E2E2E2E2E2
310
E2E2E2E2E2E2E2E2E2E2E2E2E2E2E2E2E2E2E2E2E2E2E2E2E2E2E2E2E2E2E2E2E2E2E2E2E2E2E2E2E2E2E2E2E2E2E2E2E2E2E2E2E2E2E2E2E2E2E2E2E2E2E2E2E2E2E2E2E2E2E2E2E2E2E2E2E2E2E2E2E2E2E2E2E2E2E2E2E2E2E2E2E2E2E2E2E2E2E2E2E2E2E2E2E2E2E2E2E2E2E2E2E2E2E2E2E2E2E2E2E2E2E2E2E2E2E2
310
E2E2E2E2E2E2E2E2E2E2E2E2E2E2E2E2E2E2E2E2E2E2E2E2E2E2E2E2E2E2E2E2E2E2E2E2E2E2E2E2E2E2E2E2E2E2E2E2E2E2E2E2E2E2E2E2E2E2E2E2E2E2E2E2E2E2E2E2E2E2E2E2E2E2E2E2E2E2E2E2E2E2E2E2E2E2E2E2E2E2E2E2E2E2E2E2E2E2E2E2E2E2E2E2E2E2E2E2E2E2E2E2E2E2E2E2E2E2E2E2E2E2E2E2E2E2E2
310
E2E2E2E2E2E2E2E2E2E2E2E2E2E2E2E2E2E2E2E2E2E2E2E2E2E2E2E2E2E2E2E2E2E2E2E2E2E2E2E2E2E2E2E2E2E2E2E2E2E2E2E2E2E2E2E2E2E2E2E2E2E2E2E2E2E2E2E2E2E2E2E2E2E2E2E2E2E2E2E2E2E2E2E2E2E2E2E2E2E2E2E2E2E2E2E2E2E2E2E2E2E2E2E2E2E2E2E2E2E2E2E2E2E2E2E2E2E2E2E2E2E2E2E2E2E2E2
310
E2E2E2E2E2E2E2E2E2E2E2E2E2E2E2E2E2E2E2E2E2E2E2E2E2E2E2E2E2E2E2E2E2E2E2E2E2E2E2E2E2E2E2E2E2E2E2E2E2E2E2E2E2E2E2E2E2E2E2E2E2E2E2E2E2E2E2E2E2E2E2E2E2E2E2E2E2E2E2E2E2E2E2E2E2E2E2E2E2E2E2E2E2E2E2E2E2E2E2E2E2E2E2E2E2E2E2E2E2E2E2E2E2E2E2E2E2E2E2E2E2E2E2E2E2E2E2
310
E2E2E2E2E2E2E2E2E2E2E2E2E2E2E2E2E2E2E2E2E2E2E2E2E2E2E2E2E2E2E2E2E2E2E2E2E2E2E2E2E2E2E2E2E2E2E2E2E2E2E2E2E2E2E2E2E2E2E2E2E2E2E2E2E2E2E2E2E2E2E2E2E2E2E2E2E2E2E2E2E2E2E2E2E2E2E2E2E2E2E2E2E2E2E2E2E2E2E2E2E2E2E2E2E2E2E2E2E2E2E2E2E2E2E2E2E2E2E2E2E2E2E2E2E2E2E2
310
E2E2E2E2E2E2E2E2E2E2E2E2E2E2E2E2E2E2E2E2E2E2E2E2E2E2E2E2E2E2E2E2E2E2E2E2E2E2E2E2E2E2E2E2E2E2E2E2E2E2E2E2E2E2E2E2E2E2E2E2E2E2E2E2E2E2E2E2E2E2E2E2E2E2E2E2E2E2E2E2E2E2E2E2E2E2E2E2E2E2E2E2E2E2E2E2E2E2E2E2E2E2E2E2E2E2E2E2E2E2E2E2E2E2E2E2E2E2E2E2E2E2E2E2E2E2E2
310
E2E2E2E2E2E2E2E2E2E2E2E2E2E2E2E2E2E2E2E2E2E2E2E2E2E2E2E2E2E2E2E2E2E2E2E2E2E2E2E2E2E2E2E2E2E2E2E2E2E2E2E2E2E2E2E2E2E2E2E2E2E2E2E2E2E2E2E2E2E2E2E2E2E2E2E2E2E2E2E2E2E2E2E2E2E2E2E2E2E2E2E2E2E2E2E2E2E2E2E2E2E2E2E2E2E2E2E2E2E2E2E2E2E2E2E2E2E2E2E2E2E2E2E2E2E2E2
310
E2E2E2E2E2E2E2E2E2E2E2E2E2E2E2E2E2E2E2E2E2E2E2E2E2E2E2E2E2E2E2E2E2E2E2E2E2E2E2E2E2E2E2E2E2E2E2E2E2E2E2E2E2E2E2E2E2E2E2E2E2E2E2E2E2E2E2E2E2E2E2E2E2E2E2E2E2E2E2E2E2E2E2E2E2E2E2E2E2E2E2E2E2E2E2E2E2E2E2E2E2E2E2E2E2E2E2E2E2E2E2E2E2E2E2E2E2E2E2E2E2E2E2E2E2E2E2
310
E2E2E2E2E2E2E2E2E2E2E2E2E2E2E2E2E2E2E2E2E2E2E2E2E2E2E2E2E2E2E2E2E2E2E2E2E2E2E2E2E2E2E2E2E2E2E2E2E2E2E2E2E2E2E2E2E2E2E2E2E2E2E2E2E2E2E2E2E2E2E2E2E2E2E2E2E2E2E2E2E2E2E2E2E2E2E2E2E2E2E2E2E2E2E2E2E2E2E2E2E2E2E2E2E2E2E2E2E2E2E2E2E2E2E2E2E2E2E2E2E2E2E2E2E2E2E2
310
E2E2E2E2E2E2E2E2E2E2E2E2E2E2E2E2E2E2E2E2E2E2E2E2E2E2E2E2E2E2E2E2E2E2E2E2E2E2E2E2E2E2E2E2E2E2E2E2E2E2E2E2E2E2E2E2E2E2E2E2E2E2E2E2E2E2E2E2E2E2E2E2E2E2E2E2E2E2E2E2E2E2E2E2E2E2E2E2E2E2E2E2E2E2E2E2E2E2E2E2E2E2E2E2E2E2E2E2E2E2E2E2E2E2E2E2E2E2E2E2E2E2E2E2E2E2E2
310
E2E2E2E2E2E2E2E2E2E2E2E2E2E2E2E2E2E2E2E2E2E2E2E2E2E2E2E2E2E2E2E2E2E2E2E2E2E2E2E2E2E2E2E2E2E2E2E2E2E2E2E2E2E2E2E2E2E2E2E2E2E2E2E2E2E2E2E2E2E2E2E2E2E2E2E2E2E2E2E2E2E2E2E2E2E2E2E2E2E2E2E2E2E2E2E2E2E2E2E2E2E2E2E2E2E2E2E2E2E2E2E2E2E2E2E2E2E2E2E2E2E2E2E2E2E2E2
310
E2E2E2E2E2E2E2E2E2E2E2E2E2E2E2E2E2E2E2E2E2E2E2E2E2E2E2E2E2E2E2E2E2E2E2E2E2E2E2E2E2E2E2E2E2E2E2E2E2E2E2E2E2E2E2E2E2E2E2E2E2E2E2E2E2E2E2E2E2E2E2E2E2E2E2E2E2E2E2E2E2E2E2E2E2E2E2E2E2E2E2E2E2E2E2E2E2E2E2E2E2E2E2E2E2E2E2E2E2E2E2E2E2E2E2E2E2E2E2E2E2E2E2E2E2E2E2
310
E2E2E2E2E2E2E2E2E2E2E2E2E2E2E2E2E2E2E2E2E2E2E2E2E2E2E2E2E2E2E2E2E2E2E2E2E2E2E2E2E2E2E2E2E2E2E2E2E2E2E2E2E2E2E2E2E2E2E2E2E2E2E2E2E2E2E2E2E2E2E2E2E2E2E2E2E2E2E2E2E2E2E2E2E2E2E2E2E2E2E2E2E2E2E2E2E2E2E2E2E2E2E2E2E2E2E2E2E2E2E2E2E2E2E2E2E2E2E2E2E2E2E2E2E2E2E2
310
E2E2E2E2E2E2E2E2E2E2E2E2E2E2E2E2E2E2E2E2E2E2E2E2E2E2E2E2E2E2E2E2E2E2E2E2E2E2E2E2E2E2E2E2E2E2E2E2E2E2E2E2E2E2E2E2E2E2E2E2E2E2E2E2E2E2E2E2E2E2E2E2E2E2E2E2E2E2E2E2E2E2E2E2E2E2E2E2E2E2E2E2E2E2E2E2E2E2E2E2E2E2E2E2E2E2E2E2E2E2E2E2E2E2E2E2E2E2E2E2E2E2E2E2E2E2E2
310
E2E2E2E2E2E2E2E2E2E2E2E2E2E2E2E2E2E2E2E2E2E2E2E2E2E2E2E2E2E2E2E2E2E2E2E2E2E2E2E2E2E2E2E2E2E2E2E2E2E2E2E2E2E2E2E2E2E2E2E2E2E2E2E2E2E2E2E2E2E2E2E2E2E2E2E2E2E2E2E2E2E2E2E2E2E2E2E2E2E2E2E2E2E2E2E2E2E2E2E2E2E2E2E2E2E2E2E2E2E2E2E2E2E2E2E2E2E2E2E2E2E2E2E2E2E2E2
310
E2E2E2E2E2E2E2E2E2E2E2E2E2E2E2E2E2E2E2E2E2E2E2E2E2E2E2E2E2E2E2E2E2E2E2E2E2E2E2E2E2E2E2E2E2E2E2E2E2E2E2E2E2E2E2E2E2E2E2E2E2E2E2E2E2E2E2E2E2E2E2E2E2E2E2E2E2E2E2E2E2E2E2E2E2E2E2E2E2E2E2E2E2E2E2E2E2E2E2E2E2E2E2E2E2E2E2E2E2E2E2E2E2E2E2E2E2E2E2E2E2E2E2E2E2E2E2
310
E2E2E2E2E2E2E2E2E2E2E2E2E2E2E2E2E2E2E2E2E2E2E2E2E2E2E2E2E2E2E2E2E2E2E2E2E2E2E2E2E2E2E2E2E2E2E2E2E2E2E2E2E2E2E2E2E2E2E2E2E2E2E2E2E2E2E2E2E2E2E2E2E2E2E2E2E2E2E2E2E2E2E2E2E2E2E2E2E2E2E2E2E2E2E2E2E2E2E2E2E2E2E2E2E2E2E2E2E2E2E2E2E2E2E2E2E2E2E2E2E2E2E2E2E2E2E2
310
E2E2E2E2E2E2E2E2E2E2E2E2E2E2E2E2E2E2E2E2E2E2E2E2E2E2E2E2E2E2E2E2E2E2E2E2E2E2E2E2E2E2E2E2E2E2E2E2E2E2E2E2E2E2E2E2E2E2E2E2E2E2E2E2E2E2E2E2E2E2E2E2E2E2E2E2E2E2E2E2E2E2E2E2E2E2E2E2E2E2E2E2E2E2E2E2E2E2E2E2E2E2E2E2E2E2E2E2E2E2E2E2E2E2E2E2E2E2E2E2E2E2E2E2E2E2E2
310
E2E2E2E2E2E2E2E2E2E2E2E2E2E2E2E2E2E2E2E2E2E2E2E2E2E2E2E2E2E2E2E2E2E2E2E2E2E2E2E2E2E2E2E2E2E2E2E2E2E2E2E2E2E2E2E2E2E2E2E2E2E2E2E2E2E2E2E2E2E2E2E2E2E2E2E2E2E2E2E2E2E2E2E2E2E2E2E2E2E2E2E2E2E2E2E2E2E2E2E2E2E2E2E2E2E2E2E2E2E2E2E2E2E2E2E2E2E2E2E2E2E2E2E2E2E2E2
310
E2E2E2E2E2E2E2E2E2E2E2E2E2E2E2E2E2E2E2E2E2E2E2E2E2E2E2E2E2E2E2E2E2E2E2E2E2E2E2E2E2E2E2E2E2E2E2E2E2E2E2E2E2E2E2E2E2E2E2E2E2E2E2E2E2E2E2E2E2E2E2E2E2E2E2E2E2E2E2E2E2E2E2E2E2E2E2E2E2E2E2E2E2E2E2E2E2E2E2E2E2E2E2E2E2E2E2E2E2E2E2E2E2E2E2E2E2E2E2E2E2E2E2E2E2E2E2
310
E2E2E2E2E2E2E2E2E2E2E2E2E2E2E2E2E2E2E2E2E2E2E2E2E2E2E2E2E2E2E2E2E2E2E2E2E2E2E2E2E2E2E2E2E2E2E2E2E2E2E2E2E2E2E2E2E2E2E2E2E2E2E2E2E2E2E2E2E2E2E2E2E2E2E2E2E2E2E2E2E2E2E2E2E2E2E2E2E2E2E2E2E2E2E2E2E2E2E2E2E2E2E2E2E2E2E2E2E2E2E2E2E2E2E2E2E2E2E2E2E2E2E2E2E2E2E2
310
E2E2E2E2E2E2E2E2E2E2E2E2E2E2E2E2E2E2E2E2E2E2E2E2E2E2E2E2E2E2E2E2E2E2E2E2E2E2E2E2E2E2E2E2E2E2E2E2E2E2E2E2E2E2E2E2E2E2E2E2E2E2E2E2E2E2E2E2E2E2E2E2E2E2E2E2E2E2E2E2E2E2E2E2E2E2E2E2E2E2E2E2E2E2E2E2E2E2E2E2E2E2E2E2E2E2E2E2E2E2E2E2E2E2E2E2E2E2E2E2E2E2E2E2E2E2E2
310
E2E2E2E2E2E2E2E2E2E2E2E2E2E2E2E2E2E2E2E2E2E2E2E2E2E2E2E2E2E2E2E2E2E2E2E2E2E2E2E2E2E2E2E2E2E2E2E2E2E2E2E2E2E2E2E2E2E2E2E2E2E2E2E2E2E2E2E2E2E2E2E2E2E2E2E2E2E2E2E2E2E2E2E2E2E2E2E2E2E2E2E2E2E2E2E2E2E2E2E2E2E2E2E2E2E2E2E2E2E2E2E2E2E2E2E2E2E2E2E2E2E2E2E2E2E2E2
310
E2E2E2E2E2E2E2E2E2E2E2E2E2E2E2E2E2E2E2E2E2E2E2E2E2E2E2E2E2E2E2E2E2E2E2E2E2E2E2E2E2E2E2E2E2E2E2E2E2E2E2E2E2E2E2E2E2E2E2E2E2E2E2E2E2E2E2E2E2E2E2E2E2E2E2E2E2E2E2E2E2E2E2E2E2E2E2E2E2E2E2E2E2E2E2E2E2E2E2E2E2E2E2E2E2E2E2E2E2E2E2E2E2E2E2E2E2E2E2E2E2E2E2E2E2E2E2
310
E2E2E2E2E2E2E2E2E2E2E2E2E2E2E2E2E2E2E2E2E2E2E2E2E2E2E2E2E2E2E2E2E2E2E2E2E2E2E2E2E2E2E2E2E2E2E2E2E2E2E2E2E2E2E2E2E2E2E2E2E2E2E2E2E2E2E2E2E2E2E2E2E2E2E2E2E2E2E2E2E2E2E2E2E2E2E2E2E2E2E2E2E2E2E2E2E2E2E2E2E2E2E2E2E2E2E2E2E2E2E2E2E2E2E2E2E2E2E2E2E2E2E2E2E2E2E2
310
E2E2E2E2E2E2E2E2E2E2E2E2E2E2E2E2E2E2E2E2E2E2E2E2E2E2E2E2E2E2E2E2E2E2E2E2E2E2E2E2E2E2E2E2E2E2E2E2E2E2E2E2E2E2E2E2E2E2E2E2E2E2E2E2E2E2E2E2E2E2E2E2E2E2E2E2E2E2E2E2E2E2E2E2E2E2E2E2E2E2E2E2E2E2E2E2E2E2E2E2E2E2E2E2E2E2E2E2E2E2E2E2E2E2E2E2E2E2E2E2E2E2E2E2E2E2E2
310
E2E2E2E2E2E2E2E2E2E2E2E2E2E2E2E2E2E2E2E2E2E2E2E2E2E2E2E2E2E2E2E2E2E2E2E2E2E2E2E2E2E2E2E2E2E2E2E2E2E2E2E2E2E2E2E2E2E2E2E2E2E2E2E2E2E2E2E2E2E2E2E2E2E2E2E2E2E2E2E2E2E2E2E2E2E2E2E2E2E2E2E2E2E2E2E2E2E2E2E2E2E2E2E2E2E2E2E2E2E2E2E2E2E2E2E2E2E2E2E2E2E2E2E2E2E2E2
310
E2E2E2E2E2E2E2E2E2E2E2E2E2E2E2E2E2E2E2E2E2E2E2E2E2E2E2E2E2E2E2E2E2E2E2E2E2E2E2E2E2E2E2E2E2E2E2E2E2E2E2E2E2E2E2E2E2E2E2E2E2E2E2E2E2E2E2E2E2E2E2E2E2E2E2E2E2E2E2E2E2E2E2E2E2E2E2E2E2E2E2E2E2E2E2E2E2E2E2E2E2E2E2E2E2E2E2E2E2E2E2E2E2E2E2E2E2E2E2E2E2E2E2E2E2E2E2
310
E2E2E2E2E2E2E2E2E2E2E2E2E2E2E2E2E2E2E2E2E2E2E2E2E2E2E2E2E2E2E2E2E2E2E2E2E2E2E2E2E2E2E2E2E2E2E2E2E2E2E2E2E2E2E2E2E2E2E2E2E2E2E2E2E2E2E2E2E2E2E2E2E2E2E2E2E2E2E2E2E2E2E2E2E2E2E2E2E2E2E2E2E2E2E2E2E2E2E2E2E2E2E2E2E2E2E2E2E2E2E2E2E2E2E2E2E2E2E2E2E2E2E2E2E2E2E2
310
E2E2E2E2E2E2E2E2E2E2E2E2E2E2E2E2E2E2E2E2E2E2E2E2E2E2E2E2E2E2E2E2E2E2E2E2E2E2E2E2E2E2E2E2E2E2E2E2E2E2E2E2E2E2E2E2E2E2E2E2E2E2E2E2E2E2E2E2E2E2E2E2E2E2E2E2E2E2E2E2E2E2E2E2E2E2E2E2E2E2E2E2E2E2E2E2E2E2E2E2E2E2E2E2E2E2E2E2E2E2E2E2E2E2E2E2E2E2E2E2E2E2E2E2E2E2E2
310
E2E2E2E2E2E2E2E2E2E2E2E2E2E2E2E2E2E2E2E2E2E2E2E2E2E2E2E2E2E2E2E2E2E2E2E2E2E2E2E2E2E2E2E2E2E2E2E2E2E2E2E2E2E2E2E2E2E2E2E2E2E2E2E2E2E2E2E2E2E2E2E2E2E2E2E2E2E2E2E2E2E2E2E2E2E2E2E2E2E2E2E2E2E2E2E2E2E2E2E2E2E2E2E2E2E2E2E2E2E2E2E2E2E2E2E2E2E2E2E2E2E2E2E2E2E2E2
310
E2E2E2E2E2E2E2E2E2E2E2E2E2E2E2E2E2E2E2E2E2E2E2E2E2E2E2E2E2E2E2E2E2E2E2E2E2E2E2E2E2E2E2E2E2E2E2E2E2E2E2E2E2E2E2E2E2E2E2E2E2E2E2E2E2E2E2E2E2E2E2E2E2E2E2E2E2E2E2E2E2E2E2E2E2E2E2E2E2E2E2E2E2E2E2E2E2E2E2E2E2E2E2E2E2E2E2E2E2E2E2E2E2E2E2E2E2E2E2E2E2E2E2E2E2E2E2
310
E2E2E2E2E2E2E2E2E2E2E2E2E2E2E2E2E2E2E2E2E2E2E2E2E2E2E2E2E2E2E2E2E2E2E2E2E2E2E2E2E2E2E2E2E2E2E2E2E2E2E2E2E2E2E2E2E2E2E2E2E2E2E2E2E2E2E2E2E2E2E2E2E2E2E2E2E2E2E2E2E2E2E2E2E2E2E2E2E2E2E2E2E2E2E2E2E2E2E2E2E2E2E2E2E2E2E2E2E2E2E2E2E2E2E2E2E2E2E2E2E2E2E2E2E2E2E2
310
E2E2E2E2E2E2E2E2E2E2E2E2E2E2E2E2E2E2E2E2E2E2E2E2E2E2E2E2E2E2E2E2E2E2E2E2E2E2E2E2E2E2E2E2E2E2E2E2E2E2E2E2E2E2E2E2E2E2E2E2E2E2E2E2E2E2E2E2E2E2E2E2E2E2E2E2E2E2E2E2E2E2E2E2E2E2E2E2E2E2E2E2E2E2E2E2E2E2E2E2E2E2E2E2E2E2E2E2E2E2E2E2E2E2E2E2E2E2E2E2E2E2E2E2E2E2E2
310
E2E2E2E2E2E2E2E2E2E2E2E2E2E2E2E2E2E2E2E2E2E2E2E2E2E2E2E2E2E2E2E2E2E2E2E2E2E2E2E2E2E2E2E2E2E2E2E2E2E2E2E2E2E2E2E2E2E2E2E2E2E2E2E2E2E2E2E2E2E2E2E2E2E2E2E2E2E2E2E2E2E2E2E2E2E2E2E2E2E2E2E2E2E2E2E2E2E2E2E2E2E2E2E2E2E2E2E2E2E2E2E2E2E2E2E2E2E2E2E2E2E2E2E2E2E2E2
310
E2E2E2E2E2E2E2E2E2E2E2E2E2E2E2E2E2E2E2E2E2E2E2E2E2E2E2E2E2E2E2E2E2E2E2E2E2E2E2E2E2E2E2E2E2E2E2E2E2E2E2E2E2E2E2E2E2E2E2E2E2E2E2E2E2E2E2E2E2E2E2E2E2E2E2E2E2E2E2E2E2E2E2E2E2E2E2E2E2E2E2E2E2E2E2E2E2E2E2E2E2E2E2E2E2E2E2E2E2E2E2E2E2E2E2E2E2E2E2E2E2E2E2E2E2E2E2
310
E2E2E2E2E2E2E2E2E2E2E2E2E2E2E2E2E2E2E2E2E2E2E2E2E2E2E2E2E2E2E2E2E2E2E2E2E2E2E2E2E2E2E2E2E2E2E2E2E2E2E2E2E2E2E2E2E2E2E2E2E2E2E2E2E2E2E2E2E2E2E2E2E2E2E2E2E2E2E2E2E2E2E2E2E2E2E2E2E2E2E2E2E2E2E2E2E2E2E2E2E2E2E2E2E2E2E2E2E2E2E2E2E2E2E2E2E2E2E2E2E2E2E2E2E2E2E2
310
E2E2E2E2E2E2E2E2E2E2E2E2E2E2E2E2E2E2E2E2E2E2E2E2E2E2E2E2E2E2E2E2E2E2E2E2E2E2E2E2E2E2E2E2E2E2E2E2E2E2E2E2E2E2E2E2E2E2E2E2E2E2E2E2E2E2E2E2E2E2E2E2E2E2E2E2E2E2E2E2E2E2E2E2E2E2E2E2E2E2E2E2E2E2E2E2E2E2E2E2E2E2E2E2E2E2E2E2E2E2E2E2E2E2E2E2E2E2E2E2E2E2E2E2E2E2E2
310
E2E2E2E2E2E2E2E2E2E2E2E2E2E2E2E2E2E2E2E2E2E2E2E2E2E2E2E2E2E2E2E2E2E2E2E2E2E2E2E2E2E2E2E2E2E2E2E2E2E2E2E2E2E2E2E2E2E2E2E2E2E2E2E2E2E2E2E2E2E2E2E2E2E2E2E2E2E2E2E2E2E2E2E2E2E2E2E2E2E2E2E2E2E2E2E2E2E2E2E2E2E2E2E2E2E2E2E2E2E2E2E2E2E2E2E2E2E2E2E2E2E2E2E2E2E2E2
310
E2E2E2E2E2E2E2E2E2E2E2E2E2E2E2E2E2E2E2E2E2E2E2E2E2E2E2E2E2E2E2E2E2E2E2E2E2E2E2E2E2E2E2E2E2E2E2E2E2E2E2E2E2E2E2E2E2E2E2E2E2E2E2E2E22D2D2D2D2D2D2D2D2D2D2D2D2D2D2D2D2D2D2D2D2D2D2D2D2D2D2D2D2D2D2D2D2D2D2D2D2D2D2D2D2D2D2D2D2D2D2D2D2D2D2D2D2D2D2D2D2D2D2D2D2D2D
310
2D2D2D2D2D2D2D2D2D2D2D2D2D2D2D2D2D2D2D2D2D2D2D2D2D2DE2E2E2E2E2E2E2E2E2E2E2E2E2E2E2E2E2E2E2E2E2E2E2E2E2E2E2E2E2E2E2E2E2E2E2E2E2E2E2E2E2E2E2E2E2E2E2E2E2E2E2E2E2E2E2E2E2E2E2E2E2E2E2E2E2E2E2E2E2E2E2E2E2E2E2E2E2E2E2E2E2E2E2E2E2E2E2E2E2E2E2E2E2E2E2E2E2E2E2E2E2
310
E2E2E2E2E2E2E2E2E2E2E2E2E2E2E2E2E2E2E2E2E2E2E2E2E2E2E2E2E2E2E2E2E2E2E2E2E2E2E2E2E2E2E2E2E2E2E2E2E2E2E2E2E2E2E2E2E2E2E2E2E2E2E2E2E2E2E22D2D2D2D2D2D2D2D2D2D2D2D2D2D2D2D2D2D2D2D2D2D2D2D2D2D2D2D2D2D2D2D2D2D2D2D2D2D2D2D2D2D2D2D2D2D2D2D2D2D2D2D2D2D2D2D2D2D2D2D
310
2D2D2D2D2D2D2D2D2D2D2D2D2D2D2D2D2D2D2D2D2D2D2D2D2D2D2D2DE2E2E2E2E2E2E2E2E2E2E2E2E2E2E2E2E2E2E2E2E2E2E2E2E2E2E2E2E2E2E2E2E2E2E2E2E2E2E2E2E2E2E2E2E2E2E2E2E2E2E2E2E2E2E2E2E2E2E2E2E2E2E2E2E2E2E2E2E2E2E2E2E2E2E2E2E2E2E2E2E2E2E2E2E2E2E2E2E2E2E2E2E2E2E2E2E2E2E2
310
E2E2E2E2E2E2E2E2E2E2E2E2E2E2E2E2E2E2E2E2E2E2E2E2E2E2E2E2E2E2E2E2E2E2E2E2E2E2E2E2E2E2E2E2E2E2E2E2E2E2E2E2E2E2E2E2E2E2E2E2E2E2E2E2E2E2E2E2E22D2DBEBEBEBEBEBEBEBEBEBEBEBEBEBEBEBEBEBEBEBEBEBEBEBEBEBEBEBEBEBEBEBEBEBEBEBEBEBEBEBEBEBEBEBEBEBEBEBEBEBEBEF5F5BEBEBE
310
BEF5F5F5F5F5F5BEBEBEBEBEF5F5F5BEF5F5F5F5F5F5F5F5F5F5BEBE2D2DE2E2E2E2E2E2E2E2E2E2E2E2E2E2E2E2E2E2E2E2E2E2E2E2E2E2E2E2E2E2E2E2E2E2E2E2E2E2E2E2E2E2E2E2E2E2E2E2E2E2E2E2E2E2E2E2E2E2E2E2E2E2E2E2E2E2E2E2E2E2E2E2E2E2E2E2E2E2E2E2E2E2E2E2E2E2E2E2E2E2E2E2E2E2E2E2E2
310
E2E2E2E2E2E2E2E2E2E2E2E2E2E2E2E2E2E2E2E2E2E2E2E2E2E2E2E2E2E2E2E2E2E2E2E2E2E2E2E2E2E2E2E2E2E2E2E2E2E2E2E2E2E2E2E2E2E2E2E2E2E2E2E2E2E2E2E2E2E2E22D2DBEE2E2E2E2E2E2E2E2E2E2E2E2E2E2E2E2E2E2E2E2E2E2E2E2E2E2E2E2E2E2E2E2E2E2E2E2E2E2E2E2E2E2E2E2E2E2E2E2E2BEE2E2E2
310
BEE2E2E2E2E2E2E2E2E2E2E2E2BEE2E2E2BEE2E2E2E2E2E2E2E2E2E2E2BE2D2DE2E2E2E2E2E2E2E2E2E2E2E2E2E2E2E2E2E2E2E2E2E2E2E2E2E2E2E2E2E2E2E2E2E2E2E2E2E2E2E2E2E2E2E2E2E2E2E2E2E2E2E2E2E2E2E2E2E2E2E2E2E2E2E2E2E2E2E2E2E2E2E2E2E2E2E2E2E2E2E2E2E2E2E2E2E2E2E2E2E2E2E2E2E2E2
310
E2E2E2E2E2E2E2E2E2E2E2E2E2E2E2E2E2E2E2E2E2E2E2E2E2E2E2E2E2E2E2E2E2E2E2E2E2E2E2E2E2E2E2E2E2E2E2E2E2E2E2E2E2E2E2E2E2E2E2E2E2E2E2E2E2E2E2E2E2E2E2E2E22D2DBEE2E2E2E2E2E2E2E2E2E2E2E2E2E2E2E2E2E2E2E2E2E2E2E2E2E2E2E2E2E2E2E2E2E2E2E2E2E2E2E2E2E2E2E2E2E2E2E2E2BEBE
310
BEBEBEBEBEBEBEBEBEBEBEBEBEBEBEBEBEBEBEBEBEBEBEBEBEBEBEBEBEBEBEBE2D2DE2E2E2E2E2E2E2E2E2E2E2E2E2E2E2E2E2E2E2E2E2E2E2E2E2E2E2E2E2E2E2E2E2E2E2E2E2E2E2E2E2E2E2E2E2E2E2E2E2E2E2E2E2E2E2E2E2E2E2E2E2E2E2E2E2E2E2E2E2E2E2E2E2E2E2E2E2E2E2E2E2E2E2E2E2E2E2E2E2E2E2E2E2
310
E2E2E2E2E2E2E2E2E2E2E2E2E2E2E2E2E2E2E2E2E2E2E2E2E2E2E2E2E2E2E2E2E2E2E2E2E2E2E2E2E2E2E2E2E2E2E2E2E2E2E2E2E2E2E2E2E2E2E2E2E2E2E2E2E2E2E2E2E2E2E2E2E2E2E22D2DBEE2E2E2E2E2E2E2E2E2E2E2E2E2E2E2E2E2E2E2E2E2E2E2E2E2E2E2E2E2E2E2E2E2E2E2E2E2E2E2E2E2E2E2E2E2E2E2E2E2
310
E2E2E2E2E2E2E2E2E2E2E2E2E2E2E2E2E2BEE2E2F5E2E2E2E2E2E2E2E2E2E2E2E2BE2D2DE2E2E2E2E2E2E2E2E2E2E2E2E2E2E2E2E2E2E2E2E2E2E2E2E2E2E2E2E2E2E2E2E2E2E2E2E2E2E2E2E2E2E2E2E2E2E2E2E2E2E2E2E2E2E2E2E2E2E2E2E2E2E2E2E2E2E2E2E2E2E2E2E2E2E2E2E2E2E2E2E2E2E2E2E2E2E2E2E2E2E2
310
E2E2E2E2E2E2E2E2E2E2E2E2E2E2E2E2E2E2E2E2E2E2E2E2E2E2E2E2E2E2E2E2E2E2E2E2E2E2E2E2E2E2E2E2E2E2E2E2E2E2E2E2E2E2E2E2E2E2E2E2E2E2E2E2E2E2E2E2E2E2E2E2E2E2E2E2E22D2DBEE2E2E2E2E2E2E2E2E2E2E2E2E2E2E2E2E2E2E2E2E2E2E2E2E2E2E2E2E2E2E2E2E2E2E2E2E2E2E2E2E2E2E2E2E2E2E2
310
E2E2E2E2E2E2E2E2E2E2E2E2E2E2E2E2E2E2E2BEE2F5F5F5F5F5F5F5F5F5F5F5F5E2E2BE2D2DE2E2E2E2E2E2E2E2E2E2E2E2E2E2E2E2E2E2E2E2E2E2E2E2E2E2E2E2E2E2E2E2E2E2E2E2E2E2E2E2E2E2E2E2E2E2E2E2E2E2E2E2E2E2E2E2E2E2E2E2E2E2E2E2E2E2E2E2E2E2E2E2E2E2E2E2E2E2E2E2E2E2E2E2E2E2E2E2E2
310
E2E2E2E2E2E2E2E2E2E2E2E2E2E2E2E2E2E2E2E2E2E2E2E2E2E2E2E2E2E2E2E2E2E2E2E2E2E2E2E2E2E2E2E2E2E2E2E2E2E2E2E2E2E2E2E2E2E2E2E2E2E2E2E2E2E2E2E2E2E2E2E2E2E2E2E2E2E2E22D2DBEE2E2E2E2E2E2E2E2E2E2E2E2E2E2E2E2E2E2E2E2E2E2E2E2E2E2E2E2E2E2E2E2E2E2E2E2E2E2E2E2E2E2E2E2E2
310
E2E2E2E2E2E2E2E2E2E2E2E2E2E2E2E2E2E2E2E2E2BEE2F5F5F5F5F5F5F5F5F5F5F5F5E2E2BE2D2DE2E2E2E2E2E2E2E2E2E2E2E2E2E2E2E2E2E2E2E2E2E2E2E2E2E2E2E2E2E2E2E2E2E2E2E2E2E2E2E2E2E2E2E2E2E2E2E2E2E2E2E2E2E2E2E2E2E2E2E2E2E2E2E2E2E2E2E2E2E2E2E2E2E2E2E2E2E2E2E2E2E2E2E2E2E2E2
310
E2E2E2E2E2E2E2E2E2E2E2E2E2E2E2E2E2E2E2E2E2E2E2E2E2E2E2E2E2E2E2E2E2E2E2E2E2E2E2E2E2E2E2E2E2E2E2E2E2E2E2E2E2E2E2E2E2E2E2E2E2E2E2E2E2E2E2E2E2E2E2E2E2E2E2E2E2E2E2E2E22D2DBEE2E2E2E2E2E2E2E2E2E2E2E2E2E2E2E2E2E2E2E2E2E2E2E2E2E2E2E2E2E2E2E2E2E2E2E2E2E2E2E2E2E2E2
310
F5F5F5F5E2E2E2E2E2E2E2E2E2E2E2E2E2E2E2E2E2E2E2BEE2F5F5F5F5F5F5F5F5F5F5F5F5F5E2BE2D2DE2E2E2E2E2E2E2E2E2E2E2E2E2E2E2E2E2E2E2E2E2E2E2E2E2E2E2E2E2E2E2E2E2E2E2E2E2E2E2E2E2E2E2E2E2E2E2E2E2E2E2E2E2E2E2E2E2E2E2E2E2E2E2E2E2E2E2E2E2E2E2E2E2E2E2E2E2E2E2E2E2E2E2E2E2
310
E2E2E2E2E2E2E2E2E2E2E2E2E2E2E2E2E2E2E2E2E2E2E2E2E2E2E2E2E2E2E2E2E2E2E2E2E2E2E2E2E2E2E2E2E2E2E2E2E2E2E2E2E2E2E2E2E2E2E2E2E2E2E2E2E2E2E2E2E2E2E2E2E2E2E2E2E2E2E2E2E2E2E22D2DBEE2E2E2E2E2E2E2E2E2E2E2E2E2E2E2E2E2E2E2E2E2E2E2E2E2E2E2E2E2E2E2E2E2E2E2E2E2E2E2E2E2
310
E2E2E2E2E2E2E2E2E2E2E2E2E2E2E2E2E2E2E2E2E2E2E2E2E2BEE2E2E2E2E2E2E2E2E2E2E2E2E2E2E2BE2D2DE2E2E2E2E2E2E2E2E2E2E2E2E2E2E2E2E2E2E2E2E2E2E2E2E2E2E2E2E2E2E2E2E2E2E2E2E2E2E2E2E2E2E2E2E2E2E2E2E2E2E2E2E2E2E2E2E2E2E2E2E2E2E2E2E2E2E2E2E2E2E2E2E2E2E2E2E2E2E2E2E2E2E2
310
E2E2E2E2E2E2E2E2E2E2E2E2E2E2E2E2E2E2E2E2E2E2E2E2E2E2E2E2E2E2E2E2E2E2E2E2E2E2E2E2E2E2E2E2E2E2E2E2E2E2E2E2E2E2E2E2E2E2E2E2E2E2E2E2E2E2E2E2E2E2E2E2E2E2E2E2E2E2E2E2E2E2E2E2E22D2DBEE2E2E2E2E2E2E2E2E2E2E2E2E2E2E2E2E2E2E2E2E2E2E2E2E2E2E2E2E2E2E2E2E2E2E2E2F5F5F5
310
F5F5F5F5F5F5F5F5F5F5F5F5F5F5F5E2E2E2E2E2E2E2E2E2E2E2E2BEBEBEBEBEBEBEF5BEBEF5BEBEF5BEBEBE2D2DE2E2E2E2E2E2E2E2E2E2E2E2E2E2E2E2E2E2E2E2E2E2E2E2E2E2E2E2E2E2E2E2E2E2E2E2E2E2E2E2E2E2E2E2E2E2E2E2E2E2E2E2E2E2E2E2E2E2E2E2E2E2E2E2E2E2E2E2E2E2E2E2E2E2E2E2E2E2E2E2E2
310
E2E2E2E2E2E2E2E2E2E2E2E2E2E2E2E2E2E2E2E2E2E2E2E2E2E2E2E2E2E2E2E2E2E2E2E2E2E2E2E2E2E2E2E2E2E2E2E2E2E2E2E2E2E2E2E2E2E2E2E2E2E2E2E2E2E2E2E2E2E2E2E2E2E2E2E2E2E2E2E2E2E2E2E2E2E2E22D2DBEE2E2E2E2E2E2E2E2E2E2E2E2E2E2E2E2E2E2E2E2E2E2E2E2E2E2E2E2E2E2E2E2E2E2E2E2F5
310
E2E2E2E2E2E2E2E2E2E2DCE2E2DCDCDCF5E2E2E2E2E2E2E2E2E2E2E2E2BEE2E2E2E2E2E2F5E2E2F5E2E2F5E2E2BE2D2DE2E2E2E2E2E2E2E2E2E2E2E2E2E2E2E2E2E2E2E2E2E2E2E2E2E2E2E2E2E2E2E2E2E2E2E2E2E2E2E2E2E2E2E2E2E2E2E2E2E2E2E2E2E2E2E2E2E2E2E2E2E2E2E2E2E2E2E2E2E2E2E2E2E2E2E2E2E2E2
310
E2E2E2E2E2E2E2E2E2E2E2E2E2E2E2E2E2E2E2E2E2E2E2E2E2E2E2E2E2E2E2E2E2E2E2E2E2E2E2E2E2E2E2E2E2E2E2E2E2E2E2E2E2E2E2E2E2E2E2E2E2E2E2E2E2E2E2E2E2E2E2E2E2E2E2E2E2E2E2E2E2E2E2E2E2E2E2E2E22D2DBEE2E2E2E2E2E2E2E2E2E2E2E2E2E2E2E2E2E2E2E2E2E2E2E2E2E2E2E2E2E2E2E2E2E2E2
310
E2F5E2E2E2E2E2E2E2DCDCDCDCDCDCDCDCE2F5E2E2E2E2E2E2E2E2E2E2E2E2F5F5F5F5F5F5F5F5F5F5F5F5F5F5F5F5F52D2DE2E2E2E2E2E2E2E2E2E2E2E2E2E2E2E2E2E2E2E2E2E2E2E2E2E2E2E2E2E2E2E2E2E2E2E2E2E2E2E2E2E2E2E2E2E2E2E2E2E2E2E2E2E2E2E2E2E2E2E2E2E2E2E2E2E2E2E2E2E2E2E2E2E2E2E2E2
310
E2E2E2E2E2E2E2E2E2E2E2E2E2E2E2E2E2E2E2E2E2E2E2E2E2E2E2E2E2E2E2E2E2E2E2E2E2E2E2E2E2E2E2E2E2E2E2E2E2E2E2E2E2E2E2E2E2E2E2E2E2E2E2E2E2E2E2E2E2E2E2E2E2E2E2E2E2E2E2E2E2E2E2E2E2E2E2E2E2E2E22D2DBEE2E2E2E2E2E2E2E2E2E2E2E2E2E2E2E2E2E2E2E2E2E2E2E2E2E2E2E2E2E2E2E2E2
310
E2E2E2F5E2E2E2E2E2DCDCDCDCDCDCDCDCDCDCE2F5E2E2E2E2E2E2E2E2E2E2E2E2BEE2E2E2E2E2E2F5E2E2F5E2E2F5E2E2BE2D2DE2E2E2E2E2E2E2E2E2E2E2E2E2E2E2E2E2E2E2E2E2E2E2E2E2E2E2E2E2E2E2E2E2E2E2E2E2E2E2E2E2E2E2E2E2E2E2E2E2E2E2E2E2E2E2E2E2E2E2E2E2E2E2E2E2E2E2E2E2E2E2E2E2E2E2
310
E2E2E2E2E2E2E2E2E2E2E2E2E2E2E2E2E2E2E2E2E2E2E2E2E2E2E2E2E2E2E2E2E2E2E2E2E2E2E2E2E2E2E2E2E2E2E2E2E2E2E2E2E2E2E2E2E2E2E2E2E2E2E2E2E2E2E2E2E2E2E2E2E2E2E2E2E2E2E2E2E2E2E2E2E2E2E2E2E2E2E2E2E22D2DBEE2E2E2E2E2E2E2E2E2E2E2E2E2E2E2E2E2E2E2E2E2E2E2E2E2E2E2E2E2E2E2
310
E2E2E2E2E2F5E2E2E2DCDCDCDCDCDCDCE2E2DCDCDCE2F5E2E2E2E2E2E2E2E2E2E2E2E2F5F5F5F5F5F5F5F5F5F5F5F5F5F5F5F5F52D2DE2E2E2E2E2E2E2E2E2E2E2E2E2E2E2E2E2E2E2E2E2E2E2E2E2E2E2E2E2E2E2E2E2E2E2E2E2E2E2E2E2E2E2E2E2E2E2E2E2E2E2E2E2E2E2E2E2E2E2E2E2E2E2E2E2E2E2E2E2E2E2E2E2
310
E2E2E2E2E2E2E2E2E2E2E2E2E2E2E2E2E2E2E2E2E2E2E2E2E2E2E2E2E2E2E2E2E2E2E2E2E2E2E2E2E2E2E2E2E2E2E2E2E2E2E2E2E2E2E2E2E2E2E2E2E2E2E2E2E2E2E2E2E2E2E2E2E2E2E2E2E2E2E2E2E2E2E2E2E2E2E2E2E2E2E2E2E2E2E22D2DBEE2E2E2E2E2E2E2E2E2E2E2E2E2E2E2E2E2E2E2E2E2E2E2E2E2E2E2E2E2
310
E2E2E2E2E2E2E2F5E2DCDCDCDCDCDCDCDCDCDCDCE2E2DCE2F5E2E2E2E2E2E2E2E2E2E2E2E2F5F5F5F5F5F5F5F5F5F5F5F5F5F5F5F5F52D2DE2E2E2E2E2E2E2E2E2E2E2E2E2E2E2E2E2E2E2E2E2E2E2E2E2E2E2E2E2E2E2E2E2E2E2E2E2E2E2E2E2E2E2E2E2E2E2E2E2E2E2E2E2E2E2E2E2E2E2E2E2E2E2E2E2E2E2E2E2E2E2
310
E2E2E2E2E2E2E2E2E2E2E2E2E2E2E2E2E2E2E2E2E2E2E2E2E2E2E2E2E2E2E2E2E2E2E2E2E2E2E2E2E2E2E2E2E2E2E2E2E2E2E2E2E2E2E2E2E2E2E2E2E2E2E2E2E2E2E2E2E2E2E2E2E2E2E2E2E2E2E2E2E2E2E2E2E2E2E2E2E2E2E2E2E2E2E2E2E22D2DBEE2E2E2E2E2E2E2E2E2E2E2E2E2E2E2E2E2E2E2E2E2E2E2E2E2E2E2
310
E2E2E2E2E2E2E2E2E2F5E2DCDCDCDCDCDCDCDCDCDCDCDCE2E2E2F5E2E2E2E2E2E2E2E2E2E2E2E2F5F5F5F5F5F5F5F5F5F5F5F5F5F5F5F5F52D2DE2E2E2E2E2E2E2E2E2E2E2E2E2E2E2E2E2E2E2E2E2E2E2E2E2E2E2E2E2E2E2E2E2E2E2E2E2E2E2E2E2E2E2E2E2E2E2E2E2E2E2E2E2E2E2E2E2E2E2E2E2E2E2E2E2E2E2E2E2
310
E2E2E2E2E2E2E2E2E2E2E2E2E2E2E2E2E2E2E2E2E2E2E2E2E2E2E2E2E2E2E2E2E2E2E2E2E2E2E2E2E2E2E2E2E2E2E2E2E2E2E2E2E2E2E2E2E2E2E2E2E2E2E2E2E2E2E2E2E2E2E2E2E2E2E2E2E2E2E2E2E2E2E2E2E2E2E2E2E2E2E2E2E2E2E2E2E2E2E22D2DBEE2E2E2E2E2E2E2E2E2E2E2E2E2E2E2E2E2E2E2E2E2E2E2E2E2
310
E2E2E2E2E2E2E2E2E2E2E2F5F5F5F5F5F5F5F5F5F5F5F5F5F5F5F5F5F5E2E2E2E2E2E2E2E2E2E2E2E2F5F5F5F5F5F5F5F5F5F5F5F5F5F5F5F5F52D2DE2E2E2E2E2E2E2E2E2E2E2E2E2E2E2E2E2E2E2E2E2E2E2E2E2E2E2E2E2E2E2E2E2E2E2E2E2E2E2E2E2E2E2E2E2E2E2E2E2E2E2E2E2E2E2E2E2E2E2E2E2E2E2E2E2E2E2
310
E2E2E2E2E2E2E2E2E2E2E2E2E2E2E2E2E2E2E2E2E2E2E2E2E2E2E2E2E2E2E2E2E2E2E2E2E2E2E2E2E2E2E2E2E2E2E2E2E2E2E2E2E2E2E2E2E2E2E2E2E2E2E2E2E2E2E2E2E2E2E2E2E2E2E2E2E2E2E2E2E2E2E2E2E2E2E2E2E2E2E2E2E2E2E2E2E2E2E2E2E22D2DBEE2E2E2E2E2E2E2E2E2E2E2E2E2E2E2E2E2E2E2E2E2E2E2
310
E2E2E2E2E2E2E2E2E2E2E2E2E2E2E2E2E2E2E2E2E2E2E2E2E2E2E2E2E2E2E2E2E2E2E2E2E2E2E2E2E2E2E2F5F5F5F5F5F5F5F5F5F5F5F5F5F5F5F5F52D2DE2E2E2E2E2E2E2E2E2E2E2E2E2E2E2E2E2E2E2E2E2E2E2E2E2E2E2E2E2E2E2E2E2E2E2E2E2E2E2E2E2E2E2E2E2E2E2E2E2E2E2E2E2E2E2E2E2E2E2E2E2E2E2E2E2
310
E2E2E2E2E2E2E2E2E2E2E2E2E2E2E2E2E2E2E2E2E2E2E2E2E2E2E2E2E2E2E2E2E2E2E2E2E2E2E2E2E2E2E2E2E2E2E2E2E2E2E2E2E2E2E2E2E2E2E2E2E2E2E2E2E2E2E2E2E2E2E2E2E2E2E2E2E2E2E2E2E2E2E2E2E2E2E2E2E2E2E2E2E2E2E2E2E2E2E2E2E2E2E22D2DBEE2E2E2E2E2E2E2E2E2E2E2E2E2E2E2E2E2E2E2E2E2
310
2D2DE2E2E2E2E2E2E2E2E2E2E2E2E2E2E2E2E2E2E2E2E2E2E2E2E2E2E2E2E2E2E2E2E2E2E2E2E2E2E2E2E2E2E2BEE2F5E2E2E2F5E2E2E2E2E2E2E2E2E2BE2D2DE2E2E2E2E2E2E2E2E2E2E2E2E2E2E2E2E2E2E2E2E2E2E2E2E2E2E2E2E2E2E2E2E2E2E2E2E2E2E2E2E2E2E2E2E2E2E2E2E2E2E2E2E2E2E2E2E2E2E2E2E2E2E2
310
E2E2E2E2E2E2E2E2E2E2E2E2E2E2E2E2E2E2E2E2E2E2E2E2E2E2E2E2E2E2E2E2E2E2E2E2E2E2E2E2E2E2E2E2E2E2E2E2E2E2E2E2E2E2E2E2E2E2E2E2E2E2E2E2E2E2E2E2E2E2E2E2E2E2E2E2E2E2E2E2E2E2E2E2E2E2E2E2E2E2E2E2E2E2E2E2E2E2E2E2E2E2E2E2E22D2DBEE2E2E2E2E2E2E2E2E2E2E2E2E2E2E2E2E2E2E2
310
E22DE2E2E2E2E2E2E2E2E2E2E2E2E2E2E2E2E2E2E2E2E2E2E2E2E2E2E2E2E2E2E2E2E2E2E2E2E2E2E2E2E2E2E2E2E2F5F5F5F5F5F5F5F5F5F5F5F5F5F5F5F5F52D2DE2E2E2E2E2E2E2E2E2E2E2E2E2E2E2E2E2E2E2E2E2E2E2E2E2E2E2E2E2E2E2E2E2E2E2E2E2E2E2E2E2E2E2E2E2E2E2E2E2E2E2E2E2E2E2E2E2E2E2E2E2
310
E2E2E2E2E2E2E2E2E2E2E2E2E2E2E2E2E2E2E2E2E2E2E2E2E2E2E2E2E2E2E2E2E2E2E2E2E2E2E2E2E2E2E2E2E2E2E2E2E2E2E2E2E2E2E2E2E2E2E2E2E2E2E2E2E2E2E2E2E2E2E2E2E2E2E2E2E2E2E2E2E2E2E2E2E2E2E2E2E2E2E2E2E2E2E2E2E2E2E2E2E2E2E2E2E2E2E22D2DBEE2E2E22D2D2D2D2DE2E2E2E2E2E2E2E2E2
310
E22D2D2D2DE2E2E2E2E2E2E2E2E22D2D2D2D2DE2E2E22D2D2D2D2D2D2D2D2D2D2D2D2D2D2D2D2D2DE2E2E2E2E2E2E2E2E2BEF5F5F5BEBEF5BEBEBEBEBEBEBEBEBEBE2D2DE2E2E2E2E2E2E2E2E2E2E2E2E2E2E2E2E2E2E2E2E2E2E2E2E2E2E2E2E2E2E2E2E2E2E2E2E2E2E2E2E2E2E2E2E2E2E2E2E2E2E2E2E2E2E2E2E2E2E2
310
E2E2E2E2E2E2E2E2E2E2E2E2E2E2E2E2E2E2E2E2E2E2E2E2E2E2E2E2E2E2E2E2E2E2E2E2E2E2E2E2E2E2E2E2E2E2E2E2E2E2E2E2E2E2E2E2E2E2E2E2E2E2E2E2E2E2E2E2E2E2E2E2E2E2E2E2E2E2E2E2E2E2E2E2E2E2E2E2E2E2E2E2E2E2E2E2E2E2E2E2E2E2E2E2E2E2E2E2E22D2DBEE2E2E2E2E22D2DE2E2E2E2E2E2E2E2
310
E2E2E2E22DE2E2E2E2E2E2E2E2E2E2E2E2E22DE2E2E2E2E2E2E2E22DE2E22DE2E22DE22DE2E22DE2E2E2E2E2E2E2E2E2E2E2E2F5F5F5F5F5F5F5F5F5F5F5F5F5F5F5F5F52D2DE2E2E2E2E2E2E2E2E2E2E2E2E2E2E2E2E2E2E2E2E2E2E2E2E2E2E2E2E2E2E2E2E2E2E2E2E2E2E2E2E2E2E2E2E2E2E2E2E2E2E2E2E2E2E2E2E2
310
E2E2E2E2E2E2E2E2E2E2E2E2E2E2E2E2E2E2E2E2E2E2E2E2E2E2E2E2E2E2E2E2E2E2E2E2E2E2E2E2E2E2E2E2E2E2E2E2E2E2E2E2E2E2E2E2E2E2E2E2E2E2E2E2E2E2E2E2E2E2E2E2E2E2E2E2E2E2E2E2E2E2E2E2E2E2E2E2E2E2E2E2E2E2E2E2E2E2E2E2E2E2E2E2E2E2E2E2E2E2E22D2DBEE2E2E2E2E22D28E2E2E2E2E2E2
310
E2E2E2E2E2E228E2E2E2E2E2E2E2E2E2E2E2E2E228E2E2E2E2E2E2E2E228E2E228E2E228E228E2E228E2E2E2E2E2E2E2E2E2E2E2E2F5F5F5F5F5F5F5F5F5F5F5F5F5F5F5F5F52D2DE2E2E2E2E2E2E2E2E2E2E2E2E2E2E2E2E2E2E2E2E2E2E2E2E2E2E2E2E2E2E2E2E2E2E2E2E2E2E2E2E2E2E2E2E2E2E2E2E2E2E2E2E2E2E2
310
E2E2E2E2E2E2E2E2E2E2E2E2E2E2E2E2E2E2E2E2E2E2E2E2E2E2E2E2E2E2E2E2E2E2E2E2E2E2E2E2E2E2E2E2E2E2E2E2E2E2E2E2E2E2E2E2E2E2E2E2E2E2E2E2E2E2E2E2E2E2E2E2E2E2E2E2E2E2E2E2E2E2E2E2E2E2E2E2E2E2E2E2E2E2E2E2E2E2E2E2E2E2E2E2E2E2E2E2E2E2E2E2E22D2DBEE2E2E2E2E2DC28E2E2E2E2
310
E2E2E2E2E2E2E2E2DCDCE2E2E2E2E2E2E2E2E2E2E2DCDCF5F5F5E2E2E2E2E228DCDC28DCDC28DC28DCDC28E2E2E2E2E2E2E2E2E2E2E2E2F5F5E2F5E2E2E2E2E2E2E2E2E2E2E2E2BE2D2DE2E2E2E2E2E2E2E2E2E2E2E2E2E2E2E2E2E2E2E2E2E2E2E2E2E2E2E2E2E2E2E2E2E2E2E2E2E2E2E2E2E2E2E2E2E2E2E2E2E2E2E2E2
310
E2E2E2E2E2E2E2E2E2E2E2E2E2E2E2E2E2E2E2E2E2E2E2E2E2E2E2E2E2E2E2E2E2E2E2E2E2E2E2E2E2E2E2E2E2E2E2E2E2E2E2E2E2E2E2E2E2E2E2E2E2E2E2E2E2E2E2E2E2E2E2E2E2E2E2E2E2E2E2E2E2E2E2E2E2E2E2E2E2E2E2E2E2E2E2E2E2E2E2E2E2E2E2E2E2E2E2E2E2E2E2E2E2E2E22D2DBEE2E2E2E2E2DCDCE2E2
310
E2E2E2E2E2E2E2E2E2E2DCDCE2E2E2E2E2E2E2E2E2E2E2DCDCE2F5E2E2E2E2E2E2DCE2E2E2E2E2E2E2E2E2E2DCE2E2E2E2E2E2E2E2E2E2E2E2F5F5F5F5F5F5F5F5F5F5F5F5F5F5F5F5F52D2DE2E2E2E2E2E2E2E2E2E2E2E2E2E2E2E2E2E2E2E2E2E2E2E2E2E2E2E2E2E2E2E2E2E2E2E2E2E2E2E2E2E2E2E2E2E2E2E2E2E2E2
310
E2E2E2E2E2E2E2E2E2E2E2E2E2E2E2E2E2E2E2E2E2E2E2E2E2E2E2E2E2E2E2E2E2E2E2E2E2E2E2E2E2E2E2E2E2E2E2E2E2E2E2E2E2E2E2E2E2E2E2E2E2E2E2E2E2E2E2E2E2E2E2E2E2E2E2E2E2E2E2E2E2E2E2E2E2E2E2E2E2E2E2E2E2E2E2E2E2E2E2E2E2E2E2E2E2E2E2E2E2E2E2E2E2E2E2E2E22D2DBEE2E2E2E2E2DCDC
310
E2E2E2E2E2E2E2E2E2E2E2F5DCDCE2E2E2E2E2E2E2E2E2E2E2DCDCE2F5E2E2E2E2E2E2DCE2E2E2E2E2E2E2E2E2E2DCE2E2E2E2E2E2E2E2E2E2E2E2F5F5F5F5F5F5F5F5F5F5F5F5F5F5F5F5F52D2DE2E2E2E2E2E2E2E2E2E2E2E2E2E2E2E2E2E2E2E2E2E2E2E2E2E2E2E2E2E2E2E2E2E2E2E2E2E2E2E2E2E2E2E2E2E2E2E2E2
310
E2E2E2E2E2E2E2E2E2E2E2E2E2E2E2E2E2E2E2E2E2E2E2E2E2E2E2E2E2E2E2E2E2E2E2E2E2E2E2E2E2E2E2E2E2E2E2E2E2E2E2E2E2E2E2E2E2E2E2E2E2E2E2E2E2E2E2E2E2E2E2E2E2E2E2E2E2E2E2E2E2E2E2E2E2E2E2E2E2E2E2E2E2E2E2E2E2E2E2E2E2E2E2E2E2E2E2E2E2E2E2E2E2E2E2E2E2E2E22D2DBEE2E2E2E2E2
310
DCDCE2E2E2E2E2E2E2E2E2E2F5F5DCDCF5E2E2E2E2E2E2E2E2E2E2DCDCE2F5E2E2E2E2E2E2DCE2E2E2E2E2E2E2E2E2E2DCE2E2E2E2E2E2E2E2E2E2E2E2BEF5F5F5F5F5F5F5F5F5F5F5F5F5F5F5F52D2DE2E2E2E2E2E2E2E2E2E2E2E2E2E2E2E2E2E2E2E2E2E2E2E2E2E2E2E2E2E2E2E2E2E2E2E2E2E2E2E2E2E2E2E2E2E2E2
310
E2E2E2E2E2E2E2E2E2E2E2E2E2E2E2E2E2E2E2E2E2E2E2E2E2E2E2E2E2E2E2E2E2E2E2E2E2E2E2E2E2E2E2E2E2E2E2E2E2E2E2E2E2E2E2E2E2E2E2E2E2E2E2E2E2E2E2E2E2E2E2E2E2E2E2E2E2E2E2E2E2E2E2E2E2E2E2E2E2E2E2E2E2E2E2E2E2E2E2E2E2E2E2E2E2E2E2E2E2E2E2E2E2E2E2E2E2E2E2E2E22D2DBEE2E2E2
310
E2E2DC28E2E2E2E2E2E2E2E2E2F5F5E2DCDCF5F5E2E2E2E2E2E2E2E2E228DCE2F5E2E2E2E2E2E228DCE2E2E2E2E2E2E2E2E2DCDCE2E2E2E2E2E2E2E2E2E2E2BEF5BEF5BEBEBEBEBEBEBEBEBEBEBEBEBE2D2DE2E2E2E2E2E2E2E2E2E2E2E2E2E2E2E2E2E2E2E2E2E2E2E2E2E2E2E2E2E2E2E2E2E2E2E2E2E2E2E2E2E2E2E2E2
310
E2E2E2E2E2E2E2E2E2E2E2E2E2E2E2E2E2E2E2E2E2E2E2E2E2E2E2E2E2E2E2E2E2E2E2E2E2E2E2E2E2E2E2E2E2E2E2E2E2E2E2E2E2E2E2E2E2E2E2E2E2E2E2E2E2E2E2E2E2E2E2E2E2E2E2E2E2E2E2E2E2E2E2E2E2E2E2E2E2E2E2E2E2E2E2E2E2E2E2E2E2E2E2E2E2E2E2E2E2E2E2E2E2E2E2E2E2E2E2E2E2E2E22D2DBEE2
310
E2E2E2E22828DCE2E2E2E2E2E2E2E2F5E2DC2828DCF5E2E2E2E2E2E2E2E2E22828E2F5E2E2E2E2E2E228DCE2E2E2E2E2E2E2E2E22828E2E2E2E2E2E2E2E2E2E2E2BEF5F5F5F5F5F5F5F5F5F5F5F5F5E2E2BE2D2DE2E2E2E2E2E2E2E2E2E2E2E2E2E2E2E2E2E2E2E2E2E2E2E2E2E2E2E2E2E2E2E2E2E2E2E2E2E2E2E2E2E2E2
310
E2E2E2E2E2E2E2E2E2E2E2E2E2E2E2E2E2E2E2E2E2E2E2E2E2E2E2E2E2E2E2E2E2E2E2E2E2E2E2E2E2E2E2E2E2E2E2E2E2E2E2E2E2E2E2E2E2E2E2E2E2E2E2E2E2E2E2E2E2E2E2E2E2E2E2E2E2E2E2E2E2E2E2E2E2E2E2E2E2E2E2E2E2E2E2E2E2E2E2E2E2E2E2E2E2E2E2E2E2E2E2E2E2E2E2E2E2E2E2E2E2E2E2E2E22D2D
310
BEE2E2E2E2E2DC28DCDCDCDCDCDCDCDCDCDCDC2828DC28DCDCDCDCDCDCDCDCDCDC2828F5F5F5E2E2E2E2E22828DCDCDCDCDCDCDCDCDC28DCE2E2E2E2E2E2E2E2E2E2E2F5F5F5F5F5F5F5F5F5F5F5F5F5F5F5F5F52D2DE2E2E2E2E2E2E2E2E2E2E2E2E2E2E2E2E2E2E2E2E2E2E2E2E2E2E2E2E2E2E2E2E2E2E2E2E2E2E2E2E2
310
E2E2E2E2E2E2E2E2E2E2E2E2E2E2E2E2E2E2E2E2E2E2E2E2E2E2E2E2E2E2E2E2E2E2E2E2E2E2E2E2E2E2E2E2E2E2E2E2E2E2E2E2E2E2E2E2E2E2E2E2E2E2E2E2E2E2E2E2E2E2E2E2E2E2E2E2E2E2E2E2E2E2E2E2E2E2E2E2E2E2E2E2E2E2E2E2E2E2E2E2E2E2E2E2E2E2E2E2E2E2E2E2E2E2E2E2E2E2E2E2E2E2E2E2E2E2E2
310
2D2DBEE2E2E2E2E2E2E2E2E2E2E2E2E2E2E2E2F5F5E2E2E2F5F5E2E2E2E2E2E2E2E2E2E2E2E2E2E2E2E2E2E2E2E2E2E2E2E2E2E2E2E2E2E2E2E2E2E2E2E2E2E2E2E2E2E2E2BEF5F5F5E2E2E2E2E2E2E2E2E2E2E2E2BE2D2DE2E2E2E2E2E2E2E2E2E2E2E2E2E2E2E2E2E2E2E2E2E2E2E2E2E2E2E2E2E2E2E2E2E2E2E2E2E2E2
310
E2E2E2E2E2E2E2E2E2E2E2E2E2E2E2E2E2E2E2E2E2E2E2E2E2E2E2E2E2E2E2E2E2E2E2E2E2E2E2E2E2E2E2E2E2E2E2E2E2E2E2E2E2E2E2E2E2E2E2E2E2E2E2E2E2E2E2E2E2E2E2E2E2E2E2E2E2E2E2E2E2E2E2E2E2E2E2E2E2E2E2E2E2E2E2E2E2E2E2E2E2E2E2E2E2E2E2E2E2E2E2E2E2E2E2E2E2E2E2E2E2E2E2E2E2E2E2
310
E2E22D2DBEE2E2E2E2E2E2E2E2E2E2E2E2E2E2E2E2E2F5F5F5F5F5F5E2E2E2E2E2E2E2E2E2E2E2E2E2E2E2E2E2E2E2E2E2E2E2E2E2E2E2E2E2E2E2E2E2E2E2E2E2E2E2E2E2E2E2BEBEBEBEBEBEBEBEBEBEBEBEBEBEBEBEBE2D2DE2E2E2E2E2E2E2E2E2E2E2E2E2E2E2E2E2E2E2E2E2E2E2E2E2E2E2E2E2E2E2E2E2E2E2E2E2
310
E2E2E2E2E2E2E2E2E2E2E2E2E2E2E2E2E2E2E2E2E2E2E2E2E2E2E2E2E2E2E2E2E2E2E2E2E2E2E2E2E2E2E2E2E2E2E2E2E2E2E2E2E2E2E2E2E2E2E2E2E2E2E2E2E2E2E2E2E2E2E2E2E2E2E2E2E2E2E2E2E2E2E2E2E2E2E2E2E2E2E2E2E2E2E2E2E2E2E2E2E2E2E2E2E2E2E2E2E2E2E2E2E2E2E2E2E2E2E2E2E2E2E2E2E2E2E2
310
E2E2E2E22D2DBEE2E2E2E2E2E2E2E2E2E2E2E2E2E2E2E2E2E2E2E2E2E2E2F5F5F5E2E2E2E2E2E2E2E2E2E2E2E2E2E2E2E2E2E2E2E2E2E2E2E2E2E2E2E2E2E2E2E2E2E2E2E2E2E2E2E2BEE2E2E2E2E2E2E2E2E2E2E2E2E2E2E2BE2D2DE2E2E2E2E2E2E2E2E2E2E2E2E2E2E2E2E2E2E2E2E2E2E2E2E2E2E2E2E2E2E2E2E2E2E2
310
E2E2E2E2E2E2E2E2E2E2E2E2E2E2E2E2E2E2E2E2E2E2E2E2E2E2E2E2E2E2E2E2E2E2E2E2E2E2E2E2E2E2E2E2E2E2E2E2E2E2E2E2E2E2E2E2E2E2E2E2E2E2E2E2E2E2E2E2E2E2E2E2E2E2E2E2E2E2E2E2E2E2E2E2E2E2E2E2E2E2E2E2E2E2E2E2E2E2E2E2E2E2E2E2E2E2E2E2E2E2E2E2E2E2E2E2E2E2E2E2E2E2E2E2E2E2E2
310
E2E2E2E2E2E22D2DBEE2E2E2E2E2E2E2E2E2E2E2E2E2E2E2E2E2E2E2E2E2E2E2E2E2E2E2E2E2E2E2E2E2E2E2E2E2E2E2E2E2E2E2E2E2E2E2E2E2E2E2E2E2E2E2E2E2E2E2E2E2E2E2E2E2E2BEE2E2E2E2E2E2E2E2E2E2E2E2E2E2E2BE2D2DE2E2E2E2E2E2E2E2E2E2E2E2E2E2E2E2E2E2E2E2E2E2E2E2E2E2E2E2E2E2E2E2E2
310
E2E2E2E2E2E2E2E2E2E2E2E2E2E2E2E2E2E2E2E2E2E2E2E2E2E2E2E2E2E2E2E2E2E2E2E2E2E2E2E2E2E2E2E2E2E2E2E2E2E2E2E2E2E2E2E2E2E2E2E2E2E2E2E2E2E2E2E2E2E2E2E2E2E2E2E2E2E2E2E2E2E2E2E2E2E2E2E2E2E2E2E2E2E2E2E2E2E2E2E2E2E2E2E2E2E2E2E2E2E2E2E2E2E2E2E2E2E2E2E2E2E2E2E2E2E2E2
310
E2E2E2E2E2E2E2E22D2DBEE2E2E2E2E2E2E2E2E2E2E2E2E2E2E2E2E2E2E2E2F5F5E2E2E2E2E2E2E2E2E2E2E2E2E2E2E2E2E2E2E2E2E2E2E2E2E2E2E2E2E2E2E2E2E2E2E2E2E2E2E2E2E2E2E2E2BEE2E2E2E2E2E2E2E2E2E2E2E2E2E2E2BE2D2DE2E2E2E2E2E2E2E2E2E2E2E2E2E2E2E2E2E2E2E2E2E2E2E2E2E2E2E2E2E2E2
310
E2E2E2E2E2E2E2E2E2E2E2E2E2E2E2E2E2E2E2E2E2E2E2E2E2E2E2E2E2E2E2E2E2E2E2E2E2E2E2E2E2E2E2E2E2E2E2E2E2E2E2E2E2E2E2E2E2E2E2E2E2E2E2E2E2E2E2E2E2E2E2E2E2E2E2E2E2E2E2E2E2E2E2E2E2E2E2E2E2E2E2E2E2E2E2E2E2E2E2E2E2E2E2E2E2E2E2E2E2E2E2E2E2E2E2E2E2E2E2E2E2E2E2E2E2E2E2
310
E2E2E2E2E2E2E2E2E2E22D2DBEE2E2E2E2E2E2E2E2E2E2E2E2E2E2E2E2E2E2E2E2F5E2E2E2E2E2E2E2E2E2E2E2E2E2E2E2E2E2E2E2E2E2E2E22D2D2D2D2DE2E2E2E2E2E2E2E2E2E2E2E2E2E2E2E2E2BEE2E2E2E2E2E2E2E2E2E2E2E2E2E2E2BE2D2DE2E2E2E2E2E2E2E2E2E2E2E2E2E2E2E2E2E2E2E2E2E2E2E2E2E2E2E2E2
310
E2E2E2E2E2E2E2E2E2E2E2E2E2E2E2E2E2E2E2E2E2E2E2E2E2E2E2E2E2E2E2E2E2E2E2E2E2E2E2E2E2E2E2E2E2E2E2E2E2E2E2E2E2E2E2E2E2E2E2E2E2E2E2E2E2E2E2E2E2E2E2E2E2E2E2E2E2E2E2E2E2E2E2E2E2E2E2E2E2E2E2E2E2E2E2E2E2E2E2E2E2E2E2E2E2E2E2E2E2E2E2E2E2E2E2E2E2E2E2E2E2E2E2E2E2E2E2
310
E2E2E2E2E2E2E2E2E2E2E2E22D2DBEE2E2E2E2E2F5F5F5F5F5F5F5F5F5F5F5F5F5F5F5F5F5F5F5F5F5F5F5F5F5F5F5F5F5E2E2E2E2E2E2E2E2E2E22D2D2D2DE2E2E2E2E2E2E2E2E2E2E2E2E2E2E2E2E2E2BEE2E2E2E2E2E2E2E2E2E2E2E2E2E2E2BE2D2DE2E2E2E2E2E2E2E2E2E2E2E2E2E2E2E2E2E2E2E2E2E2E2E2E2E2E2
310
E2E2E2E2E2E2E2E2E2E2E2E2E2E2E2E2E2E2E2E2E2E2E2E2E2E2E2E2E2E2E2E2E2E2E2E2E2E2E2E2E2E2E2E2E2E2E2E2E2E2E2E2E2E2E2E2E2E2E2E2E2E2E2E2E2E2E2E2E2E2E2E2E2E2E2E2E2E2E2E2E2E2E2E2E2E2E2E2E2E2E2E2E2E2E2E2E2E2E2E2E2E2E2E2E2E2E2E2E2E2E2E2E2E2E2E2E2E2E2E2E2E2E2E2E2E2E2
310
E2E2E2E2E2E2E2E2E2E2E2E2E2E22D2DBEE2E2E2E2E2F5E2E2E2E2E2E2E2E2E2E2E2E2E2F5E2E2E2E2E2E2E2E2E2E2E2E2E2F5E2E2E2E2E2E2E2E22D2D2DE2E2E22D2DE2E2E2E2E2E2E2E2E2E2E2E2E2E2E2E2BEBEBEBEBEBEE2E2E2E2E2E2E2E2E2E2BE2D2DE2E2E2E2E2E2E2E2E2E2E2E2E2E2E2E2E2E2E2E2E2E2E2E2E2
310
E2E2E2E2E2E2E2E2E2E2E2E2E2E2E2E2E2E2E2E2E2E2E2E2E2E2E2E2E2E2E2E2E2E2E2E2E2E2E2E2E2E2E2E2E2E2E2E2E2E2E2E2E2E2E2E2E2E2E2E2E2E2E2E2E2E2E2E2E2E2E2E2E2E2E2E2E2E2E2E2E2E2E2E2E2E2E2E2E2E2E2E2E2E2E2E2E2E2E2E2E2E2E2E2E2E2E2E2E2E2E2E2E2E2E2E2E2E2E2E2E2E2E2E2E2E2E2
310
E2E2E2E2E2E2E2E2E2E2E2E2E2E2E2E22D2DBEE2E2E2E2E2F5E2E2E2E2E2E2E2E2E2E2E2E2E2F5E2E2E2E2E2E2E2E2E2E2E2E2E2F5E2E2E2E2E2E2E22D2DE2E2E2E2E2E2E22D2DE2E2E2E2E2E2E2E2E2E2E2E2E2E2BEBEBEBEBEBEE2E2E2E2E2E2E2E2E2E2BE2D2DE2E2E2E2E2E2E2E2E2E2E2E2E2E2E2E2E2E2E2E2E2E2E2
310
E2E2E2E2E2E2E2E2E2E2E2E2E2E2E2E2E2E2E2E2E2E2E2E2E2E2E2E2E2E2E2E2E2E2E2E2E2E2E2E2E2E2E2E2E2E2E2E2E2E2E2E2E2E2E2E2E2E2E2E2E2E2E2E2E2E2E2E2E2E2E2E2E2E2E2E2E2E2E2E2E2E2E2E2E2E2E2E2E2E2E2E2E2E2E2E2E2E2E2E2E2E2E2E2E2E2E2E2E2E2E2E2E2E2E2E2E2E2E2E2E2E2E2E2E2E2E2
310
E2E2E2E2E2E2E2E2E2E2E2E2E2E2E2E2E2E22D2DBEE2E2E2E2E2F528DCDCDCDCDCDCDCDCDCDCDCDCF528DCDCDCDCDCDCDCDCDCDCDCDCF5F5F5E2E2E2E22D2D2D2D2D2D2D2D2D2DE22D2DE2E2E2E2E2E2E2E2E2E2E2E2E2F5F5F5F5F5F5F5F5F5F5F5F5F5F5F5F5F52D2DE2E2E2E2E2E2E2E2E2E2E2E2E2E2E2E2E2E2E2E2E2
310
E2E2E2E2E2E2E2E2E2E2E2E2E2E2E2E2E2E2E2E2E2E2E2E2E2E2E2E2E2E2E2E2E2E2E2E2E2E2E2E2E2E2E2E2E2E2E2E2E2E2E2E2E2E2E2E2E2E2E2E2E2E2E2E2E2E2E2E2E2E2E2E2E2E2E2E2E2E2E2E2E2E2E2E2E2E2E2E2E2E2E2E2E2E2E2E2E2E2E2E2E2E2E2E2E2E2E2E2E2E2E2E2E2E2E2E2E2E2E2E2E2E2E2E2E2E2E2
310
E2E2E2E2E2E2E2E2E2E2E2E2E2E2E2E2E2E2E2E22D2DBEE2E2E2E2E2DCDCDCDCDCDCDCDCDCDCDCDCDCDCDCDCDCDCDCDCDCDCDCDCDCDCDCDCDCE2F5E2E2E22D2DE22DE22DE2E22DE22DE2E22DE2E2E2E2E2E2E2E2E2E2E2E2E2BEF5F5F5E2E2E2E2E2E2E2E2E2E2E2E2BE2D2DE2E2E2E2E2E2E2E2E2E2E2E2E2E2E2E2E2E2E2
310
E2E2E2E2E2E2E2E2E2E2E2E2E2E2E2E2E2E2E2E2E2E2E2E2E2E2E2E2E2E2E2E2E2E2E2E2E2E2E2E2E2E2E2E2E2E2E2E2E2E2E2E2E2E2E2E2E2E2E2E2E2E2E2E2E2E2E2E2E2E2E2E2E2E2E2E2E2E2E2E2E2E2E2E2E2E2E2E2E2E2E2E2E2E2E2E2E2E2E2E2E2E2E2E2E2E2E2E2E2E2E2E2E2E2E2E2E2E2E2E2E2E2E2E2E2E2E2
310
E2E2E2E2E2E2E2E2E2E2E2E2E2E2E2E2E2E2E2E2E2E22D2DBEE2E2E2E2E2DCDCE2E2E2E2E2DCE2E2E2DCDCDCDCDCE2E2E2E2E2DCE2E2E2DCDCDCDCE2F5E2E2E22DE2E22DE22D2D2D2D2D2DE2E22DE2E2E2E2E2E2E2E2E2E2E2E2E2BEF5F5F5F5E2E2E2E2E2E2E2E2E2E2E2BE2D2DE2E2E2E2E2E2E2E2E2E2E2E2E2E2E2E2E2
310
E2E2E2E2E2E2E2E2E2E2E2E2E2E2E2E2E2E2E2E2E2E2E2E2E2E2E2E2E2E2E2E2E2E2E2E2E2E2E2E2E2E2E2E2E2E2E2E2E2E2E2E2E2E2E2E2E2E2E2E2E2E2E2E2E2E2E2E2E2E2E2E2E2E2E2E2E2E2E2E2E2E2E2E2E2E2E2E2E2E2E2E2E2E2E2E2E2E2E2E2E2E2E2E2E2E2E2E2E2E2E2E2E2E2E2E2E2E2E2E2E2E2E2E2E2E2E2
310
E2E2E2E2E2E2E2E2E2E2E2E2E2E2E2E2E2E2E2E2E2E2E2E22D2DBEE2E2E2E2E2DCDCE2E2E2E2E2DCE2E2E2E2DCDCDCDCE2E2E2E2E2DCE2E2E2DCDCDCDCE2F5E2E2E22D2D2D2D2D2D2D2D2D2D2DE22D2D2DE2E2E2E2E2E2E2E2E2E2E2E2BEF5F5F5F5F5F5E2E2E2E2E2E2E2F5E2BE2D2DE2E2E2E2E2E2E2E2E2E2E2E2E2E2E2
310
E2E2E2E2E2E2E2E2E2E2E2E2E2E2E2E2E2E2E2E2E2E2E2E2E2E2E2E2E2E2E2E2E2E2E2E2E2E2E2E2E2E2E2E2E2E2E2E2E2E2E2E2E2E2E2E2E2E2E2E2E2E2E2E2E2E2E2E2E2E2E2E2E2E2E2E2E2E2E2E2E2E2E2E2E2E2E2E2E2E2E2E2E2E2E2E2E2E2E2E2E2E2E2E2E2E2E2E2E2E2E2E2E2E2E2E2E2E2E2E2E2E2E2E2E2E2E2
310
E2E2E2E2E2E2E2E2E2E2E2E2E2E2E2E2E2E2E2E2E2E2E2E2E2E22D2DBEE2E2E2E2E2DCDCE2E2E2E2E2DCE2E2E2E2E2DCDC2DE2E2E2E2E2DCE2E2E2E2DCDCDCE2F5E2E2E22D2D2D2D2D2D2D2DE22D2D2D2DE22DE2E2E2E2E2E2E2E2E2E2E2E2BEF5F5F5F5F5F5F5E2E2E2E2E2E2E2E2BE2D2DE2E2E2E2E2E2E2E2E2E2E2E2E2
310
E2E2E2E2E2E2E2E2E2E2E2E2E2E2E2E2E2E2E2E2E2E2E2E2E2E2E2E2E2E2E2E2E2E2E2E2E2E2E2E2E2E2E2E2E2E2E2E2E2E2E2E2E2E2E2E2E2E2E2E2E2E2E2E2E2E2E2E2E2E2E2E2E2E2E2E2E2E2E2E2E2E2E2E2E2E2E2E2E2E2E2E2E2E2E2E2E2E2E2E2E2E2E2E2E2E2E2E2E2E2E2E2E2E2E2E2E2E2E2E2E2E2E2E2E2E2E2
310
E2E2E2E2E2E2E2E2E2E2E2E2E2E2E2E2E2E2E2E2E2E2E2E2E2E2E2E22D2DBEE2E2E2E2E2DCDC2D2D2D2D2DDCE2E2E2E2E2DCDCDC2D2D2D2D2DDCE2E2E2E2E2DCDCF5F5E2E2E22D2D2DE22D2D2D2D2D2DE2E22D2D2DE2E2E20FF5F5F5F50F0F0F0FBEF5F5F5F5E2E2E2E2E2E2E2E2E2F5E2BE2D2DE2E2E2E2E2E2E2E2E2E2E2
310
E2E2E2E2E2E2E2E2E2E2E2E2E2E2E2E2E2E2E2E2E2E2E2E2E2E2E2E2E2E2E2E2E2E2E2E2E2E2E2E2E2E2E2E2E2E2E2E2E2E2E2E2E2E2E2E2E2E2E2E2E2E2E2E2E2E2E2E2E2E2E2E2E2E2E2E2E2E2E2E2E2E2E2E2E2E2E2E2E2E2E2E2E2E2E2E2E2E2E2E2E2E2E2E2E2E2E2E2E2E2E2E2E2E2E2E2E2E2E2E2E2E2E2E2E2E2E2
310
E2E2E2E2E2E2E2E2E2E2E2E2E2E2E2E2E2E2E2E2E2E2E2E2E2E2E2E2E2E22D2DBEE2E2E2E2E2DCDCE2E2E2E2E2DCE2E2E2E2E2DCDCDCE2E2E2E2E2DCE2E2E2E2E2DCDCE2F5E2E2E22D2D2D2D2D2D2D2D2DE2E2E22D2D2DE2E2E2F5F5F5F5F5F5F5F5F5F5BEBEBEBEBEE2E2E2E2E2E2E2E2E2E2BE2D2DE2E2E2E2E2E2E2E2E2
310
E2E2E2E2E2E2E2E2E2E2E2E2E2E2E2E2E2E2E2E2E2E2E2E2E2E2E2E2E2E2E2E2E2E2E2E2E2E2E2E2E2E2E2E2E2E2E2E2E2E2E2E2E2E2E2E2E2E2E2E2E2E2E2E2E2E2E2E2E2E2E2E2E2E2E2E2E2E2E2E2E2E2E2E2E2E2E2E2E2E2E2E2E2E2E2E2E2E2E2E2E2E2E2E2E2E2E2E2E2E2E2E2E2E2E2E2E2E2E2E2E2E2E2E2E2E2E2
310
E2E2E2E2E2E2E2E2E2E2E2E2E2E2E2E2E2E2E2E2E2E2E2E2E2E2E2E2E2E2E2E22D2DBEE2E2E2E2E2DC2D2D2DE2E2E2DCE2E2E2E2E2DCDCDCE2E2E2E2E2DCE2E2E2E2E2DCDCE2F5E2E2E22D2DE2E2E22DE22D2DE22D2D2D2D2D2D2D2D0FE2E2E2E2E2E2E2E2BEBEBEBEBEBEE2E2E2E2E2E2E2E2E2E2BE2D2DE2E2E2E2E2E2E2
310
E2E2E2E2E2E2E2E2E2E2E2E2E2E2E2E2E2E2E2E2E2E2E2E2E2E2E2E2E2E2E2E2E2E2E2E2E2E2E2E2E2E2E2E2E2E2E2E2E2E2E2E2E2E2E2E2E2E2E2E2E2E2E2E2E2E2E2E2E2E2E2E2E2E2E2E2E2E2E2E2E2E2E2E2E2E2E2E2E2E2E2E2E2E2E2E2E2E2E2E2E2E2E2E2E2E2E2E2E2E2E2E2E2E2E2E2E2E2E2E2E2E2E2E2E2E2E2
310
E2E2E2E2E2E2E2E2E2E2E2E2E2E2E2E2E2E2E2E2E2E2E2E2E2E2E2E2E2E2E2E2E2E22D2DBEE2E2E2E22D2DDCDC2D2DE2E2DCE2E2E2E2E2DCDCDCDCE2E2E2E2DCE2E2E2E2E2DCDCE2F5E2E2E2E22DE2E2E2E2E22DE2E22D2D2D2D2D2D2DE2F5F5F5F5F5F5F5F5F5F5F5F5F5F5F5F5F5F5F5F5F5F5F5F5F5F52D2DE2E2E2E2E2
310
E2E2E2E2E2E2E2E2E2E2E2E2E2E2E2E2E2E2E2E2E2E2E2E2E2E2E2E2E2E2E2E2E2E2E2E2E2E2E2E2E2E2E2E2E2E2E2E2E2E2E2E2E2E2E2E2E2E2E2E2E2E2E2E2E2E2E2E2E2E2E2E2E2E2E2E2E2E2E2E2E2E2E2E2E2E2E2E2E2E2E2E2E2E2E2E2E2E2E2E2E2E2E2E2E2E2E2E2E2E2E2E2E2E2E2E2E2E2E2E2E2E2E2E2E2E2E2
310
E2E2E2E2E2E2E2E2E2E2E2E2E2E2E2E2E2E2E2E2E2E2E2E2E2E2E2E2E2E2E2E2E2E2E2E22D2DBEE2E2E2E22DDCDCDCDC2D2DE2DCE2E2E2E2E2DCDCDCDCDCE2E2E2DCE2E2E2E2E2DCDCE2F5E2E2E2E22D2DE2E2E2E22DE2E2E2E2E2E2E2E2E2E2F5F5F5F5F5F5F5F5F5F5F5F5F5F5E2E2E2E2E2E2E2F5F5F5E2BE2D2DE2E2E2
310
E2E2E2E2E2E2E2E2E2E2E2E2E2E2E2E2E2E2E2E2E2E2E2E2E2E2E2E2E2E2E2E2E2E2E2E2E2E2E2E2E2E2E2E2E2E2E2E2E2E2E2E2E2E2E2E2E2E2E2E2E2E2E2E2E2E2E2E2E2E2E2E2E2E2E2E2E2E2E2E2E2E2E2E2E2E2E2E2E2E2E2E2E2E2E2E2E2E2E2E2E2E2E2E2E2E2E2E2E2E2E2E2E2E2E2E2E2E2E2E2E2E2E2E2E2E2E2
310
E2E2E2E2E2E2E2E2E2E2E2E2E2E2E2E2E2E2E2E2E2E2E2E2E2E2E2E2E2E2E2E2E2E2E2E2E2E22D2DBEE2E2E2E22DDCDCDCDCDC2DE2DCE2E2E2E2E2DCDCDCDCDCDCE2E2DCE2E2E2E2E2DCDCE2F5E2E2E2E2E22D2D2DE2E2E2E22D2DE2E2E2E2E2E2E2F5F5F5F5F5F5F5F5F5F5E2E2E2E2E2E2E2E2E2E2E2E2E2E2E2BE2D2DE2
310
E2E2E2E2E2E2E2E2E2E2E2E2E2E2E2E2E2E2E2E2E2E2E2E2E2E2E2E2E2E2E2E2E2E2E2E2E2E2E2E2E2E2E2E2E2E2E2E2E2E2E2E2E2E2E2E2E2E2E2E2E2E2E2E2E2E2E2E2E2E2E2E2E2E2E2E2E2E2E2E2E2E2E2E2E2E2E2E2E2E2E2E2E2E2E2E2E2E2E2E2E2E2E2E2E2E2E2E2E2E2E2E2E2E2E2E2E2E2E2E2E2E2E2E2E2E2E2
310
E2E2E2E2E2E2E2E2E2E2E2E2E2E2E2E2E2E2E2E2E2E2E2E2E2E2E2E2E2E2E2E2E2E2E2E2E2E2E2E22D2DBEE2E2E2E22D28DCF5DC2D2DDCDCDCDCDCDCDCDCDCF528DCDCDCDCDCDCDCDCDC2828DCF5F5E2E2E2E2E2E2E22D2D2D2D2D2DE2E2E2E2E2E2E2E20FF5F5F5F5F5F5F5F5BEE2E2E2E2E2E2E2E2E2E2E2E2E2E2E2BE2D
310
2DE2E2E2E2E2E2E2E2E2E2E2E2E2E2E2E2E2E2E2E2E2E2E2E2E2E2E2E2E2E2E2E2E2E2E2E2E2E2E2E2E2E2E2E2E2E2E2E2E2E2E2E2E2E2E2E2E2E2E2E2E2E2E2E2E2E2E2E2E2E2E2E2E2E2E2E2E2E2E2E2E2E2E2E2E2E2E2E2E2E2E2E2E2E2E2E2E2E2E2E2E2E2E2E2E2E2E2E2E2E2E2E2E2E2E2E2E2E2E2E2E2E2E2E2E2E2
310
E2E2E2E2E2E2E2E2E2E2E2E2E2E2E2E2E2E2E2E2E2E2E2E2E2E2E2E2E2E2E2E2E2E2E2E2E2E2E2E2E2E22D2DBEE2E2E2E22D2DDCF52D2DE2E2E2E2E2E2E2DCDCDCF528F5E2E2E2E2E2E2E2E22828DCE2E2E2E2E2E2E2E2E2E2E2E2E2E2E2E2E2E2E2E2E2E2E20FF5F5F5F5F5F5F5F5BEE2E2E2E2E2E2E2E2E2E2E2E2E2E2E2
310
BE2D2DE2E2E2E2E2E2E2E2E2E2E2E2E2E2E2E2E2E2E2E2E2E2E2E2E2E2E2E2E2E2E2E2E2E2E2E2E2E2E2E2E2E2E2E2E2E2E2E2E2E2E2E2E2E2E2E2E2E2E2E2E2E2E2E2E2E2E2E2E2E2E2E2E2E2E2E2E2E2E2E2E2E2E2E2E2E2E2E2E2E2E2E2E2E2E2E2E2E2E2E2E2E2E2E2E2E2E2E2E2E2E2E2E2E2E2E2E2E2E2E2E2E2E2E2
310
E2E2E2E2E2E2E2E2E2E2E2E2E2E2E2E2E2E2E2E2E2E2E2E2E2E2E2E2E2E2E2E2E2E2E2E2E2E2E2E2E2E2E2E22D2DBEE2E2E2E2E22DF52D2DE2E2E2E2E2E2E2E2E2E2E2F5E2E22D2D2DE2E2E2E2E2E2E2E2E2E2E2E2E2E2E2E2E2E2E2E2E2E2E2E2E2E2E2E2E2E2E20FE2E2E2E2E2E2E2E2BEE2E2E2E2E2E2E2E2E2E2E2E2E2
310
E2E2BE2D2DE2E2E2E2E2E2E2E2E2E2E2E2E2E2E2E2E2E2E2E2E2E2E2E2E2E2E2E2E2E2E2E2E2E2E2E2E2E2E2E2E2E2E2E2E2E2E2E2E2E2E2E2E2E2E2E2E2E2E2E2E2E2E2E2E2E2E2E2E2E2E2E2E2E2E2E2E2E2E2E2E2E2E2E2E2E2E2E2E2E2E2E2E2E2E2E2E2E2E2E2E2E2E2E2E2E2E2E2E2E2E2E2E2E2E2E2E2E2E2E2E2E2
310
E2E2E2E2E2E2E2E2E2E2E2E2E2E2E2E2E2E2E2E2E2E2E2E2E2E2E2E2E2E2E2E2E2E2E2E2E2E2E2E2E2E2E2E2E2E22D2DBEE2E2E2E2E2E2F5E2E22D2D2D2DE2E2E2E2E2E2F5E2E2E2E2F5F5F5F5F5F5F5F5E2E2E2E2E2E2E2E2E2E2E2E2E2E2E2E2E2E2E2E2E2E2E2E2E20FF5F5F5F5F5F5F5F5BEBEBEBEBEBEE2E2E2E2E2E2
310
E2E2E2E2BE2D2DE2E2E2E2E2E2E2E2E2E2E2E2E2E2E2E2E2E2E2E2E2E2E2E2E2E2E2E2E2E2E2E2E2E2E2E2E2E2E2E2E2E2E2E2E2E2E2E2E2E2E2E2E2E2E2E2E2E2E2E2E2E2E2E2E2E2E2E2E2E2E2E2E2E2E2E2E2E2E2E2E2E2E2E2E2E2E2E2E2E2E2E2E2E2E2E2E2E2E2E2E2E2E2E2E2E2E2E2E2E2E2E2E2E2E2E2E2E2E2E2
310
E2E2E2E2E2E2E2E2E2E2E2E2E2E2E2E2E2E2E2E2E2E2E2E2E2E2E2E2E2E2E2E2E2E2E2E2E2E2E2E2E2E2E2E2E2E2E2E22D2DBEE2E2E2E2F5F5E2E2E2E2E2E2E2E2E2E2E2E2F5F5F5E2E2E2E2E2E2E2E2E2E2E2E2E2E2E2E2E2E2E2E2E2E2E2E2E2E2E2E2E2E2E2E2E2E2E2E20FF5F5F5F5F5F5F5F5BEBEBEBEBEBEBEBEBEBE
310
BEBEBEBEBEBEBE2D2DE2E2E2E2E2E2E2E2E2E2E2E2E2E2E2E2E2E2E2E2E2E2E2E2E2E2E2E2E2E2E2E2E2E2E2E2E2E2E2E2E2E2E2E2E2E2E2E2E2E2E2E2E2E2E2E2E2E2E2E2E2E2E2E2E2E2E2E2E2E2E2E2E2E2E2E2E2E2E2E2E2E2E2E2E2E2E2E2E2E2E2E2E2E2E2E2E2E2E2E2E2E2E2E2E2E2E2E2E2E2E2E2E2E2E2E2E2E2
310
E2E2E2E2E2E2E2E2E2E2E2E2E2E2E2E2E2E2E2E2E2E2E2E2E2E2E2E2E2E2E2E2E2E2E2E2E2E2E2E2E2E2E2E2E2E2E2E2E2E22D2DBEE2E2E2E2F5F5F5E2E2E2E2E2E2E2E2E2E2E2F5E2F5E2E2E2E2E2E2E2E2E2E2E2E2E2E2E2E2E2E2E2E2E2E2E2E2E2E2E2E2E2E2E2E2E2E2E2E20FF5F5F5F5F5F5F5F5F5F5F5F5F5F5F5F5
310
F5F5F5F5F5F5F5E2BE2D2DE2E2E2E2E2E2E2E2E2E2E2E2E2E2E2E2E2E2E2E2E2E2E2E2E2E2E2E2E2E2E2E2E2E2E2E2E2E2E2E2E2E2E2E2E2E2E2E2E2E2E2E2E2E2E2E2E2E2E2E2E2E2E2E2E2E2E2E2E2E2E2E2E2E2E2E2E2E2E2E2E2E2E2E2E2E2E2E2E2E2E2E2E2E2E2E2E2E2E2E2E2E2E2E2E2E2E2E2E2E2E2E2E2E2E2E2
310
E2E2E2E2E2E2E2E2E2E2E2E2E2E2E2E2E2E2E2E2E2E2E2E2E2E2E2E2E2E2E2E2E2E2E2E2E2E2E2E2E2E2E2E2E2E2E2E2E2E2E2E22D2DBEE2E2E2E2F5F5E2E2E2E2E2E2E2E2E2E2E2E2F5F5E2E2E2E2E2E2E2E2E2E2E2E2E2E2E2E2E2E2E2E2E2E2E2E2E2E2E2E2E2E2E2E2E2E2E2E2E22D2D2DF5F5F5F52D2DF5F5F5F5F5F5
310
F5F5F5F5F5F5F5F5F5E2BE2D2DE2E2E2E2E2E2E2E2E2E2E2E2E2E2E2E2E2E2E2E2E2E2E2E2E2E2E2E2E2E2E2E2E2E2E2E2E2E2E2E2E2E2E2E2E2E2E2E2E2E2E2E2E2E2E2E2E2E2E2E2E2E2E2E2E2E2E2E2E2E2E2E2E2E2E2E2E2E2E2E2E2E2E2E2E2E2E2E2E2E2E2E2E2E2E2E2E2E2E2E2E2E2E2E2E2E2E2E2E2E2E2E2E2E2
310
E2E2E2E2E2E2E2E2E2E2E2E2E2E2E2E2E2E2E2E2E2E2E2E2E2E2E2E2E2E2E2E2E2E2E2E2E2E2E2E2E2E2E2E2E2E2E2E2E2E2E2E2E2E22D2DBEE2E2E2E2E2E2E2E2E2E2E2E2E2E2E2E2E2E2E2E2E2E2E2E2E2E2E2E2E2E2E2E2E2E2E2E2E2E2E2E2E2E2E2E2E2E2E2E2E2E2E2E2E2E2E2E2E20FE2E22D2D2D2DE2E2BEE2E2E2
310
E2E2E2E2E2E2E2E2E2E2E2E2BE2D2DE2E2E2E2E2E2E2E2E2E2E2E2E2E2E2E2E2E2E2E2E2E2E2E2E2E2E2E2E2E2E2E2E2E2E2E2E2E2E2E2E2E2E2E2E2E2E2E2E2E2E2E2E2E2E2E2E2E2E2E2E2E2E2E2E2E2E2E2E2E2E2E2E2E2E2E2E2E2E2E2E2E2E2E2E2E2E2E2E2E2E2E2E2E2E2E2E2E2E2E2E2E2E2E2E2E2E2E2E2E2E2E2
310
E2E2E2E2E2E2E2E2E2E2E2E2E2E2E2E2E2E2E2E2E2E2E2E2E2E2E2E2E2E2E2E2E2E2E2E2E2E2E2E2E2E2E2E2E2E2E2E2E2E2E2E2E2E2E2E22D2DBEBEBEBEBEBEBEBEBEBEBEBEBEBEBEBEBEBEBEBEBEBEBEBEBEBEBEBEBEBEBEBEBEBEBEBEBEBEBEBEBEBEBEBEBEBEBEBEBEBEBEBEBEBEBEBEBEBEBEBEBEBEBEBEBEBEBEBEBE
310
BEBEBEBEBEBEBEBEBEBEBEBEBEBEBE2D2DE2E2E2E2E2E2E2E2E2E2E2E2E2E2E2E2E2E2E2E2E2E2E2E2E2E2E2E2E2E2E2E2E2E2E2E2E2E2E2E2E2E2E2E2E2E2E2E2E2E2E2E2E2E2E2E2E2E2E2E2E2E2E2E2E2E2E2E2E2E2E2E2E2E2E2E2E2E2E2E2E2E2E2E2E2E2E2E2E2E2E2E2E2E2E2E2E2E2E2E2E2E2E2E2E2E2E2E2E2E2
310
E2E2E2E2E2E2E2E2E2E2E2E2E2E2E2E2E2E2E2E2E2E2E2E2E2E2E2E2E2E2E2E2E2E2E2E2E2E2E2E2E2E2E2E2E2E2E2E2E2E2E2E2E2E2E2E2E2E22D2D2D2D2D2D2D2D2D2D2D2D2D2D2D2D2D2D2D2D2D2D2D2D2D2D2D2D2D2D2D2D2D2D2D2D2D2D2D2D2D2D2D2D2D2D2D2D2D2D2D2D2D2D2D2D2D2D2D2D2D2D2D2D2D2D2D2D2D
310
2D2D2D2D2D2D2D2D2D2D2D2D2D2D2D2D2D2D2DE2E2E2E2E2E2E2E2E2E2E2E2E2E2E2E2E2E2E2E2E2E2E2E2E2E2E2E2E2E2E2E2E2E2E2E2E2E2E2E2E2E2E2E2E2E2E2E2E2E2E2E2E2E2E2E2E2E2E2E2E2E2E2E2E2E2E2E2E2E2E2E2E2E2E2E2E2E2E2E2E2E2E2E2E2E2E2E2E2E2E2E2E2E2E2E2E2E2E2E2E2E2E2E2E2E2E2E2
310
E2E2E2E2E2E2E2E2E2E2E2E2E2E2E2E2E2E2E2E2E2E2E2E2E2E2E2E2E2E2E2E2E2E2E2E2E2E2E2E2E2E2E2E2E2E2E2E2E2E2E2E2E2E2E2E2E2E2E2E22D2D2D2D2D2D2D2D2D2D2D2D2D2D2D2D2D2D2D2D2D2D2D2D2D2D2D2D2D2D2D2D2D2D2D2D2D2D2D2D2D2D2D2D2D2D2D2D2D2D2D2D2D2D2D2D2D2D2D2D2D2D2D2D2D2D2D
310
2D2D2D2D2D2D2D2D2D2D2D2D2D2D2D2D2D2D2D2D2DE2E2E2E2E2E2E2E2E2E2E2E2E2E2E2E2E2E2E2E2E2E2E2E2E2E2E2E2E2E2E2E2E2E2E2E2E2E2E2E2E2E2E2E2E2E2E2E2E2E2E2E2E2E2E2E2E2E2E2E2E2E2E2E2E2E2E2E2E2E2E2E2E2E2E2E2E2E2E2E2E2E2E2E2E2E2E2E2E2E2E2E2E2E2E2E2E2E2E2E2E2E2E2E2E2E2
310
E2E2E2E2E2E2E2E2E2E2E2E2E2E2E2E2E2E2E2E2E2E2E2E2E2E2E2E2E2E2E2E2E2E2E2E2E2E2E2E2E2E2E2E2E2E2E2E2E2E2E2E2E2E2E2E2E2E2E2E2E2E2E2E2E2E2E2E2E2E2E2E2E2E2E2E2E2E2E2E2E2E2E2E2E2E2E2E2E2E2E2E2E2E2E2E2E2E2E2E2E2E2E2E2E2E2E2E2E2E2E2E2E2E2E2E2E2E2E2E2E2E2E2E2E2E2E2
310
E2E2E2E2E2E2E2E2E2E2E2E2E2E2E2E2E2E2E2E2E2E2E2E2E2E2E2E2E2E2E2E2E2E2E2E2E2E2E2E2E2E2E2E2E2E2E2E2E2E2E2E2E2E2E2E2E2E2E2E2E2E2E2E2E2E2E2E2E2E2E2E2E2E2E2E2E2E2E2E2E2E2E2E2E2E2E2E2E2E2E2E2E2E2E2E2E2E2E2E2E2E2E2E2E2E2E2E2E2E2E2E2E2E2E2E2E2E2E2E2E2E2E2E2E2E2E2
310
E2E2E2E2E2E2E2E2E2E2E2E2E2E2E2E2E2E2E2E2E2E2E2E2E2E2E2E2E2E2E2E2E2E2E2E2E2E2E2E2E2E2E2E2E2E2E2E2E2E2E2E2E2E2E2E2E2E2E2E2E2E2E2E2E2E2E2E2E2E2E2E2E2E2E2E2E2E2E2E2E2E2E2E2E2E2E2E2E2E2E2E2E2E2E2E2E2E2E2E2E2E2E2E2E2E2E2E2E2E2E2E2E2E2E2E2E2E2E2E2E2E2E2E2E2E2E2
310
E2E2E2E2E2E2E2E2E2E2E2E2E2E2E2E2E2E2E2E2E2E2E2E2E2E2E2E2E2E2E2E2E2E2E2E2E2E2E2E2E2E2E2E2E2E2E2E2E2E2E2E2E2E2E2E2E2E2E2E2E2E2E2E2E2E2E2E2E2E2E2E2E2E2E2E2E2E2E2E2E2E2E2E2E2E2E2E2E2E2E2E2E2E2E2E2E2E2E2E2E2E2E2E2E2E2E2E2E2E2E2E2E2E2E2E2E2E2E2E2E2E2E2E2E2E2E2
310
E2E2E2E2E2E2E2E2E2E2E2E2E2E2E2E2E2E2E2E2E2E2E2E2E2E2E2E2E2E2E2E2E2E2E2E2E2E2E2E2E2E2E2E2E2E2E2E2E2E2E2E2E2E2E2E2E2E2E2E2E2E2E2E2E2E2E2E2E2E2E2E2E2E2E2E2E2E2E2E2E2E2E2E2E2E2E2E2E2E2E2E2E2E2E2E2E2E2E2E2E2E2E2E2E2E2E2E2E2E2E2E2E2E2E2E2E2E2E2E2E2E2E2E2E2E2E2
310
E2E2E2E2E2E2E2E2E2E2E2E2E2E2E2E2E2E2E2E2E2E2E2E2E2E2E2E2E2E2E2E2E2E2E2E2E2E2E2E2E2E2E2E2E2E2E2E2E2E2E2E2E2E2E2E2E2E2E2E2E2E2E2E2E2E2E2E2E2E2E2E2E2E2E2E2E2E2E2E2E2E2E2E2E2E2E2E2E2E2E2E2E2E2E2E2E2E2E2E2E2E2E2E2E2E2E2E2E2E2E2E2E2E2E2E2E2E2E2E2E2E2E2E2E2E2E2
310
E2E2E2E2E2E2E2E2E2E2E2E2E2E2E2E2E2E2E2E2E2E2E2E2E2E2E2E2E2E2E2E2E2E2E2E2E2E2E2E2E2E2E2E2E2E2E2E2E2E2E2E2E2E2E2E2E2E2E2E2E2E2E2E2E2E2E2E2E2E2E2E2E2E2E2E2E2E2E2E2E2E2E2E2E2E2E2E2E2E2E2E2E2E2E2E2E2E2E2E2E2E2E2E2E2E2E2E2E2E2E2E2E2E2E2E2E2E2E2E2E2E2E2E2E2E2E2
310
E2E2E2E2E2E2E2E2E2E2E2E2E2E2E2E2E2E2E2E2E2E2E2E2E2E2E2E2E2E2E2E2E2E2E2E2E2E2E2E2E2E2E2E2E2E2E2E2E2E2E2E2E2E2E2E2E2E2E2E2E2E2E2E2E2E2E2E2E2E2E2E2E2E2E2E2E2E2E2E2E2E2E2E2E2E2E2E2E2E2E2E2E2E2E2E2E2E2E2E2E2E2E2E2E2E2E2E2E2E2E2E2E2E2E2E2E2E2E2E2E2E2E2E2E2E2E2
310
E2E2E2E2E2E2E2E2E2E2E2E2E2E2E2E2E2E2E2E2E2E2E2E2E2E2E2E2E2E2E2E2E2E2E2E2E2E2E2E2E2E2E2E2E2E2E2E2E2E2E2E2E2E2E2E2E2E2E2E2E2E2E2E2E2E2E2E2E2E2E2E2E2E2E2E2E2E2E2E2E2E2E2E2E2E2E2E2E2E2E2E2E2E2E2E2E2E2E2E2E2E2E2E2E2E2E2E2E2E2E2E2E2E2E2E2E2E2E2E2E2E2E2E2E2E2E2
310
E2E2E2E2E2E2E2E2E2E2E2E2E2E2E2E2E2E2E2E2E2E2E2E2E2E2E2E2E2E2E2E2E2E2E2E2E2E2E2E2E2E2E2E2E2E2E2E2E2E2E2E2E2E2E2E2E2E2E2E2E2E2E2E2E2E2E2E2E2E2E2E2E2E2E2E2E2E2E2E2E2E2E2E2E2E2E2E2E2E2E2E2E2E2E2E2E2E2E2E2E2E2E2E2E2E2E2E2E2E2E2E2E2E2E2E2E2E2E2E2E2E2E2E2E2E2E2
310
E2E2E2E2E2E2E2E2E2E2E2E2E2E2E2E2E2E2E2E2E2E2E2E2E2E2E2E2E2E2E2E2E2E2E2E2E2E2E2E2E2E2E2E2E2E2E2E2E2E2E2E2E2E2E2E2E2E2E2E2E2E2E2E2E2E2E2E2E2E2E2E2E2E2E2E2E2E2E2E2E2E2E2E2E2E2E2E2E2E2E2E2E2E2E2E2E2E2E2E2E2E2E2E2E2E2E2E2E2E2E2E2E2E2E2E2E2E2E2E2E2E2E2E2E2E2E2
310
E2E2E2E2E2E2E2E2E2E2E2E2E2E2E2E2E2E2E2E2E2E2E2E2E2E2E2E2E2E2E2E2E2E2E2E2E2E2E2E2E2E2E2E2E2E2E2E2E2E2E2E2E2E2E2E2E2E2E2E2E2E2E2E2E2E2E2E2E2E2E2E2E2E2E2E2E2E2E2E2E2E2E2E2E2E2E2E2E2E2E2E2E2E2E2E2E2E2E2E2E2E2E2E2E2E2E2E2E2E2E2E2E2E2E2E2E2E2E2E2E2E2E2E2E2E2E2
310
E2E2E2E2E2E2E2E2E2E2E2E2E2E2E2E2E2E2E2E2E2E2E2E2E2E2E2E2E2E2E2E2E2E2E2E2E2E2E2E2E2E2E2E2E2E2E2E2E2E2E2E2E2E2E2E2E2E2E2E2E2E2E2E2E2E2E2E2E2E2E2E2E2E2E2E2E2E2E2E2E2E2E2E2E2E2E2E2E2E2E2E2E2E2E2E2E2E2E2E2E2E2E2E2E2E2E2E2E2E2E2E2E2E2E2E2E2E2E2E2E2E2E2E2E2E2E2
310
E2E2E2E2E2E2E2E2E2E2E2E2E2E2E2E2E2E2E2E2E2E2E2E2E2E2E2E2E2E2E2E2E2E2E2E2E2E2E2E2E2E2E2E2E2E2E2E2E2E2E2E2E2E2E2E2E2E2E2E2E2E2E2E2E2E2E2E2E2E2E2E2E2E2E2E2E2E2E2E2E2E2E2E2E2E2E2E2E2E2E2E2E2E2E2E2E2E2E2E2E2E2E2E2E2E2E2E2E2E2E2E2E2E2E2E2E2E2E2E2E2E2E2E2E2E2E2
310
E2E2E2E2E2E2E2E2E2E2E2E2E2E2E2E2E2E2E2E2E2E2E2E2E2E2E2E2E2E2E2E2E2E2E2E2E2E2E2E2E2E2E2E2E2E2E2E2E2E2E2E2E2E2E2E2E2E2E2E2E2E2E2E2E2E2E2E2E2E2E2E2E2E2E2E2E2E2E2E2E2E2E2E2E2E2E2E2E2E2E2E2E2E2E2E2E2E2E2E2E2E2E2E2E2E2E2E2E2E2E2E2E2E2E2E2E2E2E2E2E2E2E2E2E2E2E2
310
E2E2E2E2E2E2E2E2E2E2E2E2E2E2E2E2E2E2E2E2E2E2E2E2E2E2E2E2E2E2E2E2E2E2E2E2E2E2E2E2E2E2E2E2E2E2E2E2E2E2E2E2E2E2E2E2E2E2E2E2E2E2E2E2E2E2E2E2E2E2E2E2E2E2E2E2E2E2E2E2E2E2E2E2E2E2E2E2E2E2E2E2E2E2E2E2E2E2E2E2E2E2E2E2E2E2E2E2E2E2E2E2E2E2E2E2E2E2E2E2E2E2E2E2E2E2E2
310
E2E2E2E2E2E2E2E2E2E2E2E2E2E2E2E2E2E2E2E2E2E2E2E2E2E2E2E2E2E2E2E2E2E2E2E2E2E2E2E2E2E2E2E2E2E2E2E2E2E2E2E2E2E2E2E2E2E2E2E2E2E2E2E2E2E2E2E2E2E2E2E2E2E2E2E2E2E2E2E2E2E2E2E2E2E2E2E2E2E2E2E2E2E2E2E2E2E2E2E2E2E2E2E2E2E2E2E2E2E2E2E2E2E2E2E2E2E2E2E2E2E2E2E2E2E2E2
310
E2E2E2E2E2E2E2E2E2E2E2E2E2E2E2E2E2E2E2E2E2E2E2E2E2E2E2E2E2E2E2E2E2E2E2E2E2E2E2E2E2E2E2E2E2E2E2E2E2E2E2E2E2E2E2E2E2E2E2E2E2E2E2E2E2E2E2E2E2E2E2E2E2E2E2E2E2E2E2E2E2E2E2E2E2E2E2E2E2E2E2E2E2E2E2E2E2E2E2E2E2E2E2E2E2E2E2E2E2E2E2E2E2E2E2E2E2E2E2E2E2E2E2E2E2E2E2
310
E2E2E2E2E2E2E2E2E2E2E2E2E2E2E2E2E2E2E2E2E2E2E2E2E2E2E2E2E2E2E2E2E2E2E2E2E2E2E2E2E2E2E2E2E2E2E2E2E2E2E2E2E2E2E2E2E2E2E2E2E2E2E2E2E2E2E2E2E2E2E2E2E2E2E2E2E2E2E2E2E2E2E2E2E2E2E2E2E2E2E2E2E2E2E2E2E2E2E2E2E2E2E2E2E2E2E2E2E2E2E2E2E2E2E2E2E2E2E2E2E2E2E2E2E2E2E2
310
E2E2E2E2E2E2E2E2E2E2E2E2E2E2E2E2E2E2E2E2E2E2E2E2E2E2E2E2E2E2E2E2E2E2E2E2E2E2E2E2E2E2E2E2E2E2E2E2E2E2E2E2E2E2E2E2E2E2E2E2E2E2E2E2E2E2E2E2E2E2E2E2E2E2E2E2E2E2E2E2E2E2E2E2E2E2E2E2E2E2E2E2E2E2E2E2E2E2E2E2E2E2E2E2E2E2E2E2E2E2E2E2E2E2E2E2E2E2E2E2E2E2E2E2E2E2E2
310
E2E2E2E2E2E2E2E2E2E2E2E2E2E2E2E2E2E2E2E2E2E2E2E2E2E2E2E2E2E2E2E2E2E2E2E2E2E2E2E2E2E2E2E2E2E2E2E2E2E2E2E2E2E2E2E2E2E2E2E2E2E2E2E2E2E2E2E2E2E2E2E2E2E2E2E2E2E2E2E2E2E2E2E2E2E2E2E2E2E2E2E2E2E2E2E2E2E2E2E2E2E2E2E2E2E2E2E2E2E2E2E2E2E2E2E2E2E2E2E2E2E2E2E2E2E2E2
310
E2E2E2E2E2E2E2E2E2E2E2E2E2E2E2E2E2E2E2E2E2E2E2E2E2E2E2E2E2E2E2E2E2E2E2E2E2E2E2E2E2E2E2E2E2E2E2E2E2E2E2E2E2E2E2E2E2E2E2E2E2E2E2E2E2E2E2E2E2E2E2E2E2E2E2E2E2E2E2E2E2E2E2E2E2E2E2E2E2E2E2E2E2E2E2E2E2E2E2E2E2E2E2E2E2E2E2E2E2E2E2E2E2E2E2E2E2E2E2E2E2E2E2E2E2E2E2
310
E2E2E2E2E2E2E2E2E2E2E2E2E2E2E2E2E2E2E2E2E2E2E2E2E2E2E2E2E2E2E2E2E2E2E2E2E2E2E2E2E2E2E2E2E2E2E2E2E2E2E2E2E2E2E2E2E2E2E2E2E2E2E2E2E2E2E2E2E2E2E2E2E2E2E2E2E2E2E2E2E2E2E2E2E2E2E2E2E2E2E2E2E2E2E2E2E2E2E2E2E2E2E2E2E2E2E2E2E2E2E2E2E2E2E2E2E2E2E2E2E2E2E2E2E2E2E2
310
E2E2E2E2E2E2E2E2E2E2E2E2E2E2E2E2E2E2E2E2E2E2E2E2E2E2E2E2E2E2E2E2E2E2E2E2E2E2E2E2E2E2E2E2E2E2E2E2E2E2E2E2E2E2E2E2E2E2E2E2E2E2E2E2E2E2E2E2E2E2E2E2E2E2E2E2E2E2E2E2E2E2E2E2E2E2E2E2E2E2E2E2E2E2E2E2E2E2E2E2E2E2E2E2E2E2E2E2E2E2E2E2E2E2E2E2E2E2E2E2E2E2E2E2E2E2E2
310
E2E2E2E2E2E2E2E2E2E2E2E2E2E2E2E2E2E2E2E2E2E2E2E2E2E2E2E2E2E2E2E2E2E2E2E2E2E2E2E2E2E2E2E2E2E2E2E2E2E2E2E2E2E2E2E2E2E2E2E2E2E2E2E2E2E2E2E2E2E2E2E2E2E2E2E2E2E2E2E2E2E2E2E2E2E2E2E2E2E2E2E2E2E2E2E2E2E2E2E2E2E2E2E2E2E2E2E2E2E2E2E2E2E2E2E2E2E2E2E2E2E2E2E2E2E2E2
310
E2E2E2E2E2E2E2E2E2E2E2E2E2E2E2E2E2E2E2E2E2E2E2E2E2E2E2E2E2E2E2E2E2E2E2E2E2E2E2E2E2E2E2E2E2E2E2E2E2E2E2E2E2E2E2E2E2E2E2E2E2E2E2E2E2E2E2E2E2E2E2E2E2E2E2E2E2E2E2E2E2E2E2E2E2E2E2E2E2E2E2E2E2E2E2E2E2E2E2E2E2E2E2E2E2E2E2E2E2E2E2E2E2E2E2E2E2E2E2E2E2E2E2E2E2E2E2
310
E2E2E2E2E2E2E2E2E2E2E2E2E2E2E2E2E2E2E2E2E2E2E2E2E2E2E2E2E2E2E2E2E2E2E2E2E2E2E2E2E2E2E2E2E2E2E2E2E2E2E2E2E2E2E2E2E2E2E2E2E2E2E2E2E2E2E2E2E2E2E2E2E2E2E2E2E2E2E2E2E2E2E2E2E2E2E2E2E2E2E2E2E2E2E2E2E2E2E2E2E2E2E2E2E2E2E2E2E2E2E2E2E2E2E2E2E2E2E2E2E2E2E2E2E2E2E2
310
E2E2E2E2E2E2E2E2E2E2E2E2E2E2E2E2E2E2E2E2E2E2E2E2E2E2E2E2E2E2E2E2E2E2E2E2E2E2E2E2E2E2E2E2E2E2E2E2E2E2E2E2E2E2E2E2E2E2E2E2E2E2E2E2E2E2E2E2E2E2E2E2E2E2E2E2E2E2E2E2E2E2E2E2E2E2E2E2E2E2E2E2E2E2E2E2E2E2E2E2E2E2E2E2E2E2E2E2E2E2E2E2E2E2E2E2E2E2E2E2E2E2E2E2E2E2E2
310
E2E2E2E2E2E2E2E2E2E2E2E2E2E2E2E2E2E2E2E2E2E2E2E2E2E2E2E2E2E2E2E2E2E2E2E2E2E2E2E2E2E2E2E2E2E2E2E2E2E2E2E2E2E2E2E2E2E2E2E2E2E2E2E2E2E2E2E2E2E2E2E2E2E2E2E2E2E2E2E2E2E2E2E2E2E2E2E2E2E2E2E2E2E2E2E2E2E2E2E2E2E2E2E2E2E2E2E2E2E2E2E2E2E2E2E2E2E2E2E2E2E2E2E2E2E2E2
310
E2E2E2E2E2E2E2E2E2E2E2E2E2E2E2E2E2E2E2E2E2E2E2E2E2E2E2E2E2E2E2E2E2E2E2E2E2E2E2E2E2E2E2E2E2E2E2E2E2E2E2E2E2E2E2E2E2E2E2E2E2E2E2E2E2E2E2E2E2E2E2E2E2E2E2E2E2E2E2E2E2E2E2E2E2E2E2E2E2E2E2E2E2E2E2E2E2E2E2E2E2E2E2E2E2E2E2E2E2E2E2E2E2E2E2E2E2E2E2E2E2E2E2E2E2E2E2
310
E2E2E2E2E2E2E2E2E2E2E2E2E2E2E2E2E2E2E2E2E2E2E2E2E2E2E2E2E2E2E2E2E2E2E2E2E2E2E2E2E2E2E2E2E2E2E2E2E2E2E2E2E2E2E2E2E2E2E2E2E2E2E2E2E2E2E2E2E2E2E2E2E2E2E2E2E2E2E2E2E2E2E2E2E2E2E2E2E2E2E2E2E2E2E2E2E2E2E2E2E2E2E2E2E2E2E2E2E2E2E2E2E2E2E2E2E2E2E2E2E2E2E2E2E2E2E2
310
E2E2E2E2E2E2E2E2E2E2E2E2E2E2E2E2E2E2E2E2E2E2E2E2E2E2E2E2E2E2E2E2E2E2E2E2E2E2E2E2E2E2E2E2E2E2E2E2E2E2E2E2E2E2E2E2E2E2E2E2E2E2E2E2E2E2E2E2E2E2E2E2E2E2E2E2E2E2E2E2E2E2E2E2E2E2E2E2E2E2E2E2E2E2E2E2E2E2E2E2E2E2E2E2E2E2E2E2E2E2E2E2E2E2E2E2E2E2E2E2E2E2E2E2E2E2E2
310
E2E2E2E2E2E2E2E2E2E2E2E2E2E2E2E2E2E2E2E2E2E2E2E2E2E2E2E2E2E2E2E2E2E2E2E2E2E2E2E2E2E2E2E2E2E2E2E2E2E2E2E2E2E2E2E2E2E2E2E2E2E2E2E2E2E2E2E2E2E2E2E2E2E2E2E2E2E2E2E2E2E2E2E2E2E2E2E2E2E2E2E2E2E2E2E2E2E2E2E2E2E2E2E2E2E2E2E2E2E2E2E2E2E2E2E2E2E2E2E2E2E2E2E2E2E2E2
310
E2E2E2E2E2E2E2E2E2E2E2E2E2E2E2E2E2E2E2E2E2E2E2E2E2E2E2E2E2E2E2E2E2E2E2E2E2E2E2E2E2E2E2E2E2E2E2E2E2E2E2E2E2E2E2E2E2E2E2E2E2E2E2E2E2E2E2E2E2E2E2E2E2E2E2E2E2E2E2E2E2E2E2E2E2E2E2E2E2E2E2E2E2E2E2E2E2E2E2E2E2E2E2E2E2E2E2E2E2E2E2E2E2E2E2E2E2E2E2E2E2E2E2E2E2E2E2
310
E2E2E2E2E2E2E2E2E2E2E2E2E2E2E2E2E2E2E2E2E2E2E2E2E2E2E2E2E2E2E2E2E2E2E2E2E2E2E2E2E2E2E2E2E2E2E2E2E2E2E2E2E2E2E2E2E2E2E2E2E2E2E2E2E2E2E2E2E2E2E2E2E2E2E2E2E2E2E2E2E2E2E2E2E2E2E2E2E2E2E2E2E2E2E2E2E2E2E2E2E2E2E2E2E2E2E2E2E2E2E2E2E2E2E2E2E2E2E2E2E2E2E2E2E2E2E2
310
E2E2E2E2E2E2E2E2E2E2E2E2E2E2E2E2E2E2E2E2E2E2E2E2E2E2E2E2E2E2E2E2E2E2E2E2E2E2E2E2E2E2E2E2E2E2E2E2E2E2E2E2E2E2E2E2E2E2E2E2E2E2E2E2E2E2E2E2E2E2E2E2E2E2E2E2E2E2E2E2E2E2E2E2E2E2E2E2E2E2E2E2E2E2E2E2E2E2E2E2E2E2E2E2E2E2E2E2E2E2E2E2E2E2E2E2E2E2E2E2E2E2E2E2E2E2E2
310
E2E2E2E2E2E2E2E2E2E2E2E2E2E2E2E2E2E2E2E2E2E2E2E2E2E2E2E2E2E2E2E2E2E2E2E2E2E2E2E2E2E2E2E2E2E2E2E2E2E2E2E2E2E2E2E2E2E2E2E2E2E2E2E2E2E2E2E2E2E2E2E2E2E2E2E2E2E2E2E2E2E2E2E2E2E2E2E2E2E2E2E2E2E2E2E2E2E2E2E2E2E2E2E2E2E2E2E2E2E2E2E2E2E2E2E2E2E2E2E2E2E2E2E2E2E2E2
310
E2E2E2E2E2E2E2E2E2E2E2E2E2E2E2E2E2E2E2E2E2E2E2E2E2E2E2E2E2E2E2E2E2E2E2E2E2E2E2E2E2E2E2E2E2E2E2E2E2E2E2E2E2E2E2E2E2E2E2E2E2E2E2E2E2E2E2E2E2E2E2E2E2E2E2E2E2E2E2E2E2E2E2E2E2E2E2E2E2E2E2E2E2E2E2E2E2E2E2E2E2E2E2E2E2E2E2E2E2E2E2E2E2E2E2E2E2E2E2E2E2E2E2E2E2E2E2
310
E2E2E2E2E2E2E2E2E2E2E2E2E2E2E2E2E2E2E2E2E2E2E2E2E2E2E2E2E2E2E2E2E2E2E2E2E2E2E2E2E2E2E2E2E2E2E2E2E2E2E2E2E2E2E2E2E2E2E2E2E2E2E2E2E2E2E2E2E2E2E2E2E2E2E2E2E2E2E2E2E2E2E2E2E2E2E2E2E2E2E2E2E2E2E2E2E2E2E2E2E2E2E2E2E2E2E2E2E2E2E2E2E2E2E2E2E2E2E2E2E2E2E2E2E2E2E2
310
E2E2E2E2E2E2E2E2E2E2E2E2E2E2E2E2E2E2E2E2E2E2E2E2E2E2E2E2E2E2E2E2E2E2E2E2E2E2E2E2E2E2E2E2E2E2E2E2E2E2E2E2E2E2E2E2E2E2E2E2E2E2E2E2E2E2E2E2E2E2E2E2E2E2E2E2E2E2E2E2E2E2E2E2E2E2E2E2E2E2E2E2E2E2E2E2E2E2E2E2E2E2E2E2E2E2E2E2E2E2E2E2E2E2E2E2E2E2E2E2E2E2E2E2E2E2E2
310
E2E2E2E2E2E2E2E2E2E2E2E2E2E2E2E2E2E2E2E2E2E2E2E2E2E2E2E2E2E2E2E2E2E2E2E2E2E2E2E2E2E2E2E2E2E2E2E2E2E2E2E2E2E2E2E2E2E2E2E2E2E2E2E2E2E2E2E2E2E2E2E2E2E2E2E2E2E2E2E2E2E2E2E2E2E2E2E2E2E2E2E2E2E2E2E2E2E2E2E2E2E2E2E2E2E2E2E2E2E2E2E2E2E2E2E2E2E2E2E2E2E2E2E2E2E2E2
310
E2E2E2E2E2E2E2E2E2E2E2E2E2E2E2E2E2E2E2E2E2E2E2E2E2E2E2E2E2E2E2E2E2E2E2E2E2E2E2E2E2E2E2E2E2E2E2E2E2E2E2E2E2E2E2E2E2E2E2E2E2E2E2E2E2E2E2E2E2E2E2E2E2E2E2E2E2E2E2E2E2E2E2E2E2E2E2E2E2E2E2E2E2E2E2E2E2E2E2E2E2E2E2E2E2E2E2E2E2E2E2E2E2E2E2E2E2E2E2E2E2E2E2E2E2E2E2
310
E2E2E2E2E2E2E2E2E2E2E2E2E2E2E2E2E2E2E2E2E2E2E2E2E2E2E2E2E2E2E2E2E2E2E2E2E2E2E2E2E2E2E2E2E2E2E2E2E2E2E2E2E2E2E2E2E2E2E2E2E2E2E2E2E2E2E2E2E2E2E2E2E2E2E2E2E2E2E2E2E2E2E2E2E2E2E2E2E2E2E2E2E2E2E2E2E2E2E2E2E2E2E2E2E2E2E2E2E2E2E2E2E2E2E2E2E2E2E2E2E2E2E2E2E2E2E2
310
E2E2E2E2E2E2E2E2E2E2E2E2E2E2E2E2E2E2E2E2E2E2E2E2E2E2E2E2E2E2E2E2E2E2E2E2E2E2E2E2E2E2E2E2E2E2E2E2E2E2E2E2E2E2E2E2E2E2E2E2E2E2E2E2E2E2E2E2E2E2E2E2E2E2E2E2E2E2E2E2E2E2E2E2E2E2E2E2E2E2E2E2E2E2E2E2E2E2E2E2E2E2E2E2E2E2E2E2E2E2E2E2E2E2E2E2E2E2E2E2E2E2E2E2E2E2E2
310
E2E2E2E2E2E2E2E2E2E2E2E2E2E2E2E2E2E2E2E2E2E2E2E2E2E2E2E2E2E2E2E2E2E2E2E2E2E2E2E2E2E2E2E2E2E2E2E2E2E2E2E2E2E2E2E2E2E2E2E2E2E2E2E2E2E2E2E2E2E2E2E2E2E2E2E2E2E2E2E2E2E2E2E2E2E2E2E2E2E2E2E2E2E2E2E2E2E2E2E2E2E2E2E2E2E2E2E2E2E2E2E2E2E2E2E2E2E2E2E2E2E2E2E2E2E2E2
310
E2E2E2E2E2E2E2E2E2E2E2E2E2E2E2E2E2E2E2E2E2E2E2E2E2E2E2E2E2E2E2E2E2E2E2E2E2E2E2E2E2E2E2E2E2E2E2E2E2E2E2E2E2E2E2E2E2E2E2E2E2E2E2E2E2E2E2E2E2E2E2E2E2E2E2E2E2E2E2E2E2E2E2E2E2E2E2E2E2E2E2E2E2E2E2E2E2E2E2E2E2E2E2E2E2E2E2E2E2E2E2E2E2E2E2E2E2E2E2E2E2E2E2E2E2E2E2
310
E2E2E2E2E2E2E2E2E2E2E2E2E2E2E2E2E2E2E2E2E2E2E2E2E2E2E2E2E2E2E2E2E2E2E2E2E2E2E2E2E2E2E2E2E2E2E2E2E2E2E2E2E2E2E2E2E2E2E2E2E2E2E2E2E2E2E2E2E2E2E2E2E2E2E2E2E2E2E2E2E2E2E2E2E2E2E2E2E2E2E2E2E2E2E2E2E2E2E2E2E2E2E2E2E2E2E2E2E2E2E2E2E2E2E2E2E2E2E2E2E2E2E2E2E2E2E2
310
E2E2E2E2E2E2E2E2E2E2E2E2E2E2E2E2E2E2E2E2E2E2E2E2E2E2E2E2E2E2E2E2E2E2E2E2E2E2E2E2E2E2E2E2E2E2E2E2E2E2E2E2E2E2E2E2E2E2E2E2E2E2E2E2E2E2E2E2E2E2E2E2E2E2E2E2E2E2E2E2E2E2E2E2E2E2E2E2E2E2E2E2E2E2E2E2E2E2E2E2E2E2E2E2E2E2E2E2E2E2E2E2E2E2E2E2E2E2E2E2E2E2E2E2E2E2E2
310
E2E2E2E2E2E2E2E2E2E2E2E2E2E2E2E2E2E2E2E2E2E2E2E2E2E2E2E2E2E2E2E2E2E2E2E2E2E2E2E2E2E2E2E2E2E2E2E2E2E2E2E2E2E2E2E2E2E2E2E2E2E2E2E2E2E2E2E2E2E2E2E2E2E2E2E2E2E2E2E2E2E2E2E2E2E2E2E2E2E2E2E2E2E2E2E2E2E2E2E2E2E2E2E2E2E2E2E2E2E2E2E2E2E2E2E2E2E2E2E2E2E2E2E2E2E2E2
310
E2E2E2E2E2E2E2E2E2E2E2E2E2E2E2E2E2E2E2E2E2E2E2E2E2E2E2E2E2E2E2E2E2E2E2E2E2E2E2E2E2E2E2E2E2E2E2E2E2E2E2E2E2E2E2E2E2E2E2E2E2E2E2E2E2E2E2E2E2E2E2E2E2E2E2E2E2E2E2E2E2E2E2E2E2E2E2E2E2E2E2E2E2E2E2E2E2E2E2E2E2E2E2E2E2E2E2E2E2E2E2E2E2E2E2E2E2E2E2E2E2E2E2E2E2E2E2
310
E2E2E2E2E2E2E2E2E2E2E2E2E2E2E2E2E2E2E2E2E2E2E2E2E2E2E2E2E2E2E2E2E2E2E2E2E2E2E2E2E2E2E2E2E2E2E2E2E2E2E2E2E2E2E2E2E2E2E2E2E2E2E2E2E2E2E2E2E2E2E2E2E2E2E2E2E2E2E2E2E2E2E2E2E2E2E2E2E2E2E2E2E2E2E2E2E2E2E2E2E2E2E2E2E2E2E2E2E2E2E2E2E2E2E2E2E2E2E2E2E2E2E2E2E2E2E2
310
E2E2E2E2E2E2E2E2E2E2E2E2E2E2E2E2E2E2E2E2E2E2E2E2E2E2E2E2E2E2E2E2E2E2E2E2E2E2E2E2E2E2E2E2E2E2E2E2E2E2E2E2E2E2E2E2E2E2E2E2E2E2E2E2E2E2E2E2E2E2E2E2E2E2E2E2E2E2E2E2E2E2E2E2E2E2E2E2E2E2E2E2E2E2E2E2E2E2E2E2E2E2E2E2E2E2E2E2E2E2E2E2E2E2E2E2E2E2E2E2E2E2E2E2E2E2E2
310
E2E2E2E2E2E2E2E2E2E2E2E2E2E2E2E2E2E2E2E2E2E2E2E2E2E2E2E2E2E2E2E2E2E2E2E2E2E2E2E2E2E2E2E2E2E2E2E2E2E2E2E2E2E2E2E2E2E2E2E2E2E2E2E2E2E2E2E2E2E2E2E2E2E2E2E2E2E2E2E2E2E2E2E2E2E2E2E2E2E2E2E2E2E2E2E2E2E2E2E2E2E2E2E2E2E2E2E2E2E2E2E2E2E2E2E2E2E2E2E2E2E2E2E2E2E2E2
310
E2E2E2E2E2E2E2E2E2E2E2E2E2E2E2E2E2E2E2E2E2E2E2E2E2E2E2E2E2E2E2E2E2E2E2E2E2E2E2E2E2E2E2E2E2E2E2E2E2E2E2E2E2E2E2E2E2E2E2E2E2E2E2E2E2E2E2E2E2E2E2E2E2E2E2E2E2E2E2E2E2E2E2E2E2E2E2E2E2E2E2E2E2E2E2E2E2E2E2E2E2E2E2E2E2E2E2E2E2E2E2E2E2E2E2E2E2E2E2E2E2E2E2E2E2E2E2
310
E2E2E2E2E2E2E2E2E2E2E2E2E2E2E2E2E2E2E2E2E2E2E2E2E2E2E2E2E2E2E2E2E2E2E2E2E2E2E2E2E2E2E2E2E2E2E2E2E2E2E2E2E2E2E2E2E2E2E2E2E2E2E2E2E2E2E2E2E2E2E2E2E2E2E2E2E2E2E2E2E2E2E2E2E2E2E2E2E2E2E2E2E2E2E2E2E2E2E2E2E2E2E2E2E2E2E2E2E2E2E2E2E2E2E2E2E2E2E2E2E2E2E2E2E2E2E2
310
E2E2E2E2E2E2E2E2E2E2E2E2E2E2E2E2E2E2E2E2E2E2E2E2E2E2E2E2E2E2E2E2E2E2E2E2E2E2E2E2E2E2E2E2E2E2E2E2E2E2E2E2E2E2E2E2E2E2E2E2E2E2E2E2E2E2E2E2E2E2E2E2E2E2E2E2E2E2E2E2E2E2E2E2E2E2E2E2E2E2E2E2E2E2E2E2E2E2E2E2E2E2E2E2E2E2E2E2E2E2E2E2E2E2E2E2E2E2E2E2E2E2E2E2E2E2E2
310
E2E2E2E2E2E2E2E2E2E2E2E2E2E2E2E2E2E2E2E2E2E2E2E2E2E2E2E2E2E2E2E2E2E2E2E2E2E2E2E2E2E2E2E2E2E2E2E2E2E2E2E2E2E2E2E2E2E2E2E2E2E2E2E2E2E2E2E2E2E2E2E2E2E2E2E2E2E2E2E2E2E2E2E2E2E2E2E2E2E2E2E2E2E2E2E2E2E2E2E2E2E2E2E2E2E2E2E2E2E2E2E2E2E2E2E2E2E2E2E2E2E2E2E2E2E2E2
310
E2E2E2E2E2E2E2E2E2E2E2E2E2E2E2E2E2E2E2E2E2E2E2E2E2E2E2E2E2E2E2E2E2E2E2E2E2E2E2E2E2E2E2E2E2E2E2E2E2E2E2E2E2E2E2E2E2E2E2E2E2E2E2E2E2E2E2E2E2E2E2E2E2E2E2E2E2E2E2E2E2E2E2E2E2E2E2E2E2E2E2E2E2E2E2E2E2E2E2E2E2E2E2E2E2E2E2E2E2E2E2E2E2E2E2E2E2E2E2E2E2E2E2E2E2E2E2
310
E2E2E2E2E2E2E2E2E2E2E2E2E2E2E2E2E2E2E2E2E2E2E2E2E2E2E2E2E2E2E2E2E2E2E2E2E2E2E2E2E2E2E2E2E2E2E2E2E2E2E2E2E2E2E2E2E2E2E2E2E2E2E2E2E2E2E2E2E2E2E2E2E2E2E2E2E2E2E2E2E2E2E2E2E2E2E2E2E2E2E2E2E2E2E2E2E2E2E2E2E2E2E2E2E2E2E2E2E2E2E2E2E2E2E2E2E2E2E2E2E2E2E2E2E2E2E2
310
E2E2E2E2E2E2E2E2E2E2E2E2E2E2E2E2E2E2E2E2E2E2E2E2E2E2E2E2E2E2E2E2E2E2E2E2E2E2E2E2E2E2E2E2E2E2E2E2E2E2E2E2E2E2E2E2E2E2E2E2E2E2E2E2E2E2E2E2E2E2E2E2E2E2E2E2E2E2E2E2E2E2E2E2E2E2E2E2E2E2E2E2E2E2E2E2E2E2E2E2E2E2E2E2E2E2E2E2E2E2E2E2E2E2E2E2E2E2E2E2E2E2E2E2E2E2E2
310
E2E2E2E2E2E2E2E2E2E2E2E2E2E2E2E2E2E2E2E2E2E2E2E2E2E2E2E2E2E2E2E2E2E2E2E2E2E2E2E2E2E2E2E2E2E2E2E2E2E2E2E2E2E2E2E2E2E2E2E2E2E2E2E2E2E2E2E2E2E2E2E2E2E2E2E2E2E2E2E2E2E2E2E2E2E2E2E2E2E2E2E2E2E2E2E2E2E2E2E2E2E2E2E2E2E2E2E2E2E2E2E2E2E2E2E2E2E2E2E2E2E2E2E2E2E2E2
310
E2E2E2E2E2E2E2E2E2E2E2E2E2E2E2E2E2E2E2E2E2E2E2E2E2E2E2E2E2E2E2E2E2E2E2E2E2E2E2E2E2E2E2E2E2E2E2E2E2E2E2E2E2E2E2E2E2E2E2E2E2E2E2E2E2E2E2E2E2E2E2E2E2E2E2E2E2E2E2E2E2E2E2E2E2E2E2E2E2E2E2E2E2E2E2E2E2E2E2E2E2E2E2E2E2E2E2E2E2E2E2E2E2E2E2E2E2E2E2E2E2E2E2E2E2E2E2
310
E2E2E2E2E2E2E2E2E2E2E2E2E2E2E2E2E2E2E2E2E2E2E2E2E2E2E2E2E2E2E2E2E2E2E2E2E2E2E2E2E2E2E2E2E2E2E2E2E2E2E2E2E2E2E2E2E2E2E2E2E2E2E2E2E2E2E2E2E2E2E2E2E2E2E2E2E2E2E2E2E2E2E2E2E2E2E2E2E2E2E2E2E2E2E2E2E2E2E2E2E2E2E2E2E2E2E2E2E2E2E2E2E2E2E2E2E2E2E2E2E2E2E2E2E2E2E2
310
E2E2E2E2E2E2E2E2E2E2E2E2E2E2E2E2E2E2E2E2E2E2E2E2E2E2E2E2E2E2E2E2E2E2E2E2E2E2E2E2E2E2E2E2E2E2E2E2E2E2E2E2E2E2E2E2E2E2E2E2E2E2E2E2E2E2E2E2E2E2E2E2E2E2E2E2E2E2E2E2E2E2E2E2E2E2E2E2E2E2E2E2E2E2E2E2E2E2E2E2E2E2E2E2E2E2E2E2E2E2E2E2E2E2E2E2E2E2E2E2E2E2E2E2E2E2E2
310
E2E2E2E2E2E2E2E2E2E2E2E2E2E2E2E2E2E2E2E2E2E2E2E2E2E2E2E2E2E2E2E2E2E2E2E2E2E2E2E2E2E2E2E2E2E2E2E2E2E2E2E2E2E2E2E2E2E2E2E2E2E2E2E2E2E2E2E2E2E2E2E2E2E2E2E2E2E2E2E2E2E2E2E2E2E2E2E2E2E2E2E2E2E2E2E2E2E2E2E2E2E2E2E2E2E2E2E2E2E2E2E2E2E2E2E2E2E2E2E2E2E2E2E2E2E2E2
310
E2E2E2E2E2E2E2E2E2E2E2E2E2E2E2E2E2E2E2E2E2E2E2E2E2E2E2E2E2E2E2E2E2E2E2E2E2E2E2E2E2E2E2E2E2E2E2E2E2E2E2E2E2E2E2E2E2E2E2E2E2E2E2E2E2E2E2E2E2E2E2E2E2E2E2E2E2E2E2E2E2E2E2E2E2E2E2E2E2E2E2E2E2E2E2E2E2E2E2E2E2E2E2E2E2E2E2E2E2E2E2E2E2E2E2E2E2E2E2E2E2E2E2E2E2E2E2
310
E2E2E2E2E2E2E2E2E2E2E2E2E2E2E2E2E2E2E2E2E2E2E2E2E2E2E2E2E2E2E2E2E2E2E2E2E2E2E2E2E2E2E2E2E2E2E2E2E2E2E2E2E2E2E2E2E2E2E2E2E2E2E2E2E2E2E2E2E2E2E2E2E2E2E2E2E2E2E2E2E2E2E2E2E2E2E2E2E2E2E2E2E2E2E2E2E2E2E2E2E2E2E2E2E2E2E2E2E2E2E2E2E2E2E2E2E2E2E2E2E2E2E2E2E2E2E2
310
E2E2E2E2E2E2E2E2E2E2E2E2E2E2E2E2E2E2E2E2E2E2E2E2E2E2E2E2E2E2E2E2E2E2E2E2E2E2E2E2E2E2E2E2E2E2E2E2E2E2E2E2E2E2E2E2E2E2E2E2E2E2E2E2E2E2E2E2E2E2E2E2E2E2E2E2E2E2E2E2E2E2E2E2E2E2E2E2E2E2E2E2E2E2E2E2E2E2E2E2E2E2E2E2E2E2E2E2E2E2E2E2E2E2E2E2E2E2E2E2E2E2E2E2E2E2E2
310
E2E2E2E2E2E2E2E2E2E2E2E2E2E2E2E2E2E2E2E2E2E2E2E2E2E2E2E2E2E2E2E2E2E2E2E2E2E2E2E2E2E2E2E2E2E2E2E2E2E2E2E2E2E2E2E2E2E2E2E2E2E2E2E2E2E2E2E2E2E2E2E2E2E2E2E2E2E2E2E2E2E2E2E2E2E2E2E2E2E2E2E2E2E2E2E2E2E2E2E2E2E2E2E2E2E2E2E2E2E2E2E2E2E2E2E2E2E2E2E2E2E2E2E2E2E2E2
310
E2E2E2E2E2E2E2E2E2E2E2E2E2E2E2E2E2E2E2E2E2E2E2E2E2E2E2E2E2E2E2E2E2E2E2E2E2E2E2E2E2E2E2E2E2E2E2E2E2E2E2E2E2E2E2E2E2E2E2E2E2E2E2E2E2E2E2E2E2E2E2E2E2E2E2E2E2E2E2E2E2E2E2E2E2E2E2E2E2E2E2E2E2E2E2E2E2E2E2E2E2E2E2E2E2E2E2E2E2E2E2E2E2E2E2E2E2E2E2E2E2E2E2E2E2E2E2
310
E2E2E2E2E2E2E2E2E2E2E2E2E2E2E2E2E2E2E2E2E2E2E2E2E2E2E2E2E2E2E2E2E2E2E2E2E2E2E2E2E2E2E2E2E2E2E2E2E2E2E2E2E2E2E2E2E2E2E2E2E2E2E2E2E2E2E2E2E2E2E2E2E2E2E2E2E2E2E2E2E2E2E2E2E2E2E2E2E2E2E2E2E2E2E2E2E2E2E2E2E2E2E2E2E2E2E2E2E2E2E2E2E2E2E2E2E2E2E2E2E2E2E2E2E2E2E2
310
E2E2E2E2E2E2E2E2E2E2E2E2E2E2E2E2E2E2E2E2E2E2E2E2E2E2E2E2E2E2E2E2E2E2E2E2E2E2E2E2E2E2E2E2E2E2E2E2E2E2E2E2E2E2E2E2E2E2E2E2E2E2E2E2E2E2E2E2E2E2E2E2E2E2E2E2E2E2E2E2E2E2E2E2E2E2E2E2E2E2E2E2E2E2E2E2E2E2E2E2E2E2E2E2E2E2E2E2E2E2E2E2E2E2E2E2E2E2E2E2E2E2E2E2E2E2E2
310
E2E2E2E2E2E2E2E2E2E2E2E2E2E2E2E2E2E2E2E2E2E2E2E2E2E2E2E2E2E2E2E2E2E2E2E2E2E2E2E2E2E2E2E2E2E2E2E2E2E2E2E2E2E2E2E2E2E2E2E2E2E2E2E2E2E2E2E2E2E2E2E2E2E2E2E2E2E2E2E2E2E2E2E2E2E2E2E2E2E2E2E2E2E2E2E2E2E2E2E2E2E2E2E2E2E2E2E2E2E2E2E2E2E2E2E2E2E2E2E2E2E2E2E2E2E2E2
310
E2E2E2E2E2E2E2E2E2E2E2E2E2E2E2E2E2E2E2E2E2E2E2E2E2E2E2E2E2E2E2E2E2E2E2E2E2E2E2E2E2E2E2E2E2E2E2E2E2E2E2E2E2E2E2E2E2E2E2E2E2E2E2E2E2E2E2E2E2E2E2E2E2E2E2E2E2E2E2E2E2E2E2E2E2E2E2E2E2E2E2E2E2E2E2E2E2E2E2E2E2E2E2E2E2E2E2E2E2E2E2E2E2E2E2E2E2E2E2E2E2E2E2E2E2E2E2
310
E2E2E2E2E2E2E2E2E2E2E2E2E2E2E2E2E2E2E2E2E2E2E2E2E2E2E2E2E2E2E2E2E2E2E2E2E2E2E2E2E2E2E2E2E2E2E2E2E2E2E2E2E2E2E2E2E2E2E2E2E2E2E2E2E2E2E2E2E2E2E2E2E2E2E2E2E2E2E2E2E2E2E2E2E2E2E2E2E2E2E2E2E2E2E2E2E2E2E2E2E2E2E2E2E2E2E2E2E2E2E2E2E2E2E2E2E2E2E2E2E2E2E2E2E2E2E2
310
E2E2E2E2E2E2E2E2E2E2E2E2E2E2E2E2E2E2E2E2E2E2E2E2E2E2E2E2E2E2E2E2E2E2E2E2E2E2E2E2E2E2E2E2E2E2E2E2E2E2E2E2E2E2E2E2E2E2E2E2E2E2E2E2E2E2E2E2E2E2E2E2E2E2E2E2E2E2E2E2E2E2E2E2E2E2E2E2E2E2E2E2E2E2E2E2E2E2E2E2E2E2E2E2E2E2E2E2E2E2E2E2E2E2E2E2E2E2E2E2E2E2E2E2E2E2E2
310
E2E2E2E2E2E2E2E2E2E2E2E2E2E2E2E2E2E2E2E2E2E2E2E2E2E2E2E2E2E2E2E2E2E2E2E2E2E2E2E2E2E2E2E2E2E2E2E2E2E2E2E2E2E2E2E2E2E2E2E2E2E2E2E2E2E2E2E2E2E2E2E2E2E2E2E2E2E2E2E2E2E2E2E2E2E2E2E2E2E2E2E2E2E2E2E2E2E2E2E2E2E2E2E2E2E2E2E2E2E2E2E2E2E2E2E2E2E2E2E2E2E2E2E2E2E2E2
310
E2E2E2E2E2E2E2E2E2E2E2E2E2E2E2E2E2E2E2E2E2E2E2E2E2E2E2E2E2E2E2E2E2E2E2E2E2E2E2E2E2E2E2E2E2E2E2E2E2E2E2E2E2E2E2E2E2E2E2E2E2E2E2E2E2E2E2E2E2E2E2E2E2E2E2E2E2E2E2E2E2E2E2E2E2E2E2E2E2E2E2E2E2E2E2E2E2E2E2E2E2E2E2E2E2E2E2E2E2E2E2E2E2E2E2E2E2E2E2E2E2E2E2E2E2E2E2
310
E2E2E2E2E2E2E2E2E2E2E2E2E2E2E2E2E2E2E2E2E2E2E2E2E2E2E2E2E2E2E2E2E2E2E2E2E2E2E2E2E2E2E2E2E2E2E2E2E2E2E2E2E2E2E2E2E2E2E2E2E2E2E2E2E2E2E2E2E2E2E2E2E2E2E2E2E2E2E2E2E2E2E2E2E2E2E2E2E2E2E2E2E2E2E2E2E2E2E2E2E2E2E2E2E2E2E2E2E2E2E2E2E2E2E2E2E2E2E2E2E2E2E2E2E2E2E2
310
E2E2E2E2E2E2E2E2E2E2E2E2E2E2E2E2E2E2E2E2E2E2E2E2E2E2E2E2E2E2E2E2E2E2E2E2E2E2E2E2E2E2E2E2E2E2E2E2E2E2E2E2E2E2E2E2E2E2E2E2E2E2E2E2E2E2E2E2E2E2E2E2E2E2E2E2E2E2E2E2E2E2E2E2E2E2E2E2E2E2E2E2E2E2E2E2E2E2E2E2E2E2E2E2E2E2E2E2E2E2E2E2E2E2E2E2E2E2E2E2E2E2E2E2E2E2E2
310
E2E2E2E2E2E2E2E2E2E2E2E2E2E2E2E2E2E2E2E2E2E2E2E2E2E2E2E2E2E2E2E2E2E2E2E2E2E2E2E2E2E2E2E2E2E2E2E2E2E2E2E2E2E2E2E2E2E2E2E2E2E2E2E2E2E2E2E2E2E2E2E2E2E2E2E2E2E2E2E2E2E2E2E2E2E2E2E2E2E2E2E2E2E2E2E2E2E2E2E2E2E2E2E2E2E2E2E2E2E2E2E2E2E2E2E2E2E2E2E2E2E2E2E2E2E2E2
310
E2E2E2E2E2E2E2E2E2E2E2E2E2E2E2E2E2E2E2E2E2E2E2E2E2E2E2E2E2E2E2E2E2E2E2E2E2E2E2E2E2E2E2E2E2E2E2E2E2E2E2E2E2E2E2E2E2E2E2E2E2E2E2E2E2E2E2E2E2E2E2E2E2E2E2E2E2E2E2E2E2E2E2E2E2E2E2E2E2E2E2E2E2E2E2E2E2E2E2E2E2E2E2E2E2E2E2E2E2E2E2E2E2E2E2E2E2E2E2E2E2E2E2E2E2E2E2
310
E2E2E2E2E2E2E2E2E2E2E2E2E2E2E2E2E2E2E2E2E2E2E2E2E2E2E2E2E2E2E2E2E2E2E2E2E2E2E2E2E2E2E2E2E2E2E2E2E2E2E2E2E2E2E2E2E2E2E2E2E2E2E2E2E2E2E2E2E2E2E2E2E2E2E2E2E2E2E2E2E2E2E2E2E2E2E2E2E2E2E2E2E2E2E2E2E2E2E2E2E2E2E2E2E2E2E2E2E2E2E2E2E2E2E2E2E2E2E2E2E2E2E2E2E2E2E2
310
E2E2E2E2E2E2E2E2E2E2E2E2E2E2E2E2E2E2E2E2E2E2E2E2E2E2E2E2E2E2E2E2E2E2E2E2E2E2E2E2E2E2E2E2E2E2E2E2E2E2E2E2E2E2E2E2E2E2E2E2E2E2E2E2E2E2E2E2E2E2E2E2E2E2E2E2E2E2E2E2E2E2E2E2E2E2E2E2E2E2E2E2E2E2E2E2E2E2E2E2E2E2E2E2E2E2E2E2E2E2E2E2E2E2E2E2E2E2E2E2E2E2E2E2E2E2E2
310
E2E2E2E2E2E2E2E2E2E2E2E2E2E2E2E2E2E2E2E2E2E2E2E2E2E2E2E2E2E2E2E2E2E2E2E2E2E2E2E2E2E2E2E2E2E2E2E2E2E2E2E2E2E2E2E2E2E2E2E2E2E2E2E2E2E2E2E2E2E2E2E2E2E2E2E2E2E2E2E2E2E2E2E2E2E2E2E2E2E2E2E2E2E2E2E2E2E2E2E2E2E2E2E2E2E2E2E2E2E2E2E2E2E2E2E2E2E2E2E2E2E2E2E2E2E2E2
310
E2E2E2E2E2E2E2E2E2E2E2E2E2E2E2E2E2E2E2E2E2E2E2E2E2E2E2E2E2E2E2E2E2E2E2E2E2E2E2E2E2E2E2E2E2E2E2E2E2E2E2E2E2E2E2E2E2E2E2E2E2E2E2E2E2E2E2E2E2E2E2E2E2E2E2E2E2E2E2E2E2E2E2E2E2E2E2E2E2E2E2E2E2E2E2E2E2E2E2E2E2E2E2E2E2E2E2E2E2E2E2E2E2E2E2E2E2E2E2E2E2E2E2E2E2E2E2
310
E2E2E2E2E2E2E2E2E2E2E2E2E2E2E2E2E2E2E2E2E2E2E2E2E2E2E2E2E2E2E2E2E2E2E2E2E2E2E2E2E2E2E2E2E2E2E2E2E2E2E2E2E2E2E2E2E2E2E2E2E2E2E2E2E2E2E2E2E2E2E2E2E2E2E2E2E2E2E2E2E2E2E2E2E2E2E2E2E2E2E2E2E2E2E2E2E2E2E2E2E2E2E2E2E2E2E2E2E2E2E2E2E2E2E2E2E2E2E2E2E2E2E2E2E2E2E2
310
E2E2E2E2E2E2E2E2E2E2E2E2E2E2E2E2E2E2E2E2E2E2E2E2E2E2E2E2E2E2E2E2E2E2E2E2E2E2E2E2E2E2E2E2E2E2E2E2E2E2E2E2E2E2E2E2E2E2E2E2E2E2E2E2E2E2E2E2E2E2E2E2E2E2E2E2E2E2E2E2E2E2E2E2E2E2E2E2E2E2E2E2E2E2E2E2E2E2E2E2E2E2E2E2E2E2E2E2E2E2E2E2E2E2E2E2E2E2E2E2E2E2E2E2E2E2E2
310
E2E2E2E2E2E2E2E2E2E2E2E2E2E2E2E2E2E2E2E2E2E2E2E2E2E2E2E2E2E2E2E2E2E2E2E2E2E2E2E2E2E2E2E2E2E2E2E2E2E2E2E2E2E2E2E2E2E2E2E2E2E2E2E2E2E2E2E2E2E2E2E2E2E2E2E2E2E2E2E2E2E2E2E2E2E2E2E2E2E2E2E2E2E2E2E2E2E2E2E2E2E2E2E2E2E2E2E2E2E2E2E2E2E2E2E2E2E2E2E2E2E2E2E2E2E2E2
310
E2E2E2E2E2E2E2E2E2E2E2E2E2E2E2E2E2E2E2E2E2E2E2E2E2E2E2E2E2E2E2E2E2E2E2E2E2E2E2E2E2E2E2E2E2E2E2E2E2E2E2E2E2E2E2E2E2E2E2E2E2E2E2E2E2E2E2E2E2E2E2E2E2E2E2E2E2E2E2E2E2E2E2E2E2E2E2E2E2E2E2E2E2E2E2E2E2E2E2E2E2E2E2E2E2E2E2E2E2E2E2E2E2E2E2E2E2E2E2E2E2E2E2E2E2E2E2
310
E2E2E2E2E2E2E2E2E2E2E2E2E2E2E2E2E2E2E2E2E2E2E2E2E2E2E2E2E2E2E2E2E2E2E2E2E2E2E2E2E2E2E2E2E2E2E2E2E2E2E2E2E2E2E2E2E2E2E2E2E2E2E2E2E2E2E2E2E2E2E2E2E2E2E2E2E2E2E2E2E2E2E2E2E2E2E2E2E2E2E2E2E2E2E2E2E2E2E2E2E2E2E2E2E2E2E2E2E2E2E2E2E2E2E2E2E2E2E2E2E2E2E2E2E2E2E2
310
E2E2E2E2E2E2E2E2E2E2E2E2E2E2E2E2E2E2E2E2E2E2E2E2E2E2E2E2E2E2E2E2E2E2E2E2E2E2E2E2E2E2E2E2E2E2E2E2E2E2E2E2E2E2E2E2E2E2E2E2E2E2E2E2E2E2E2E2E2E2E2E2E2E2E2E2E2E2E2E2E2E2E2E2E2E2E2E2E2E2E2E2E2E2E2E2E2E2E2E2E2E2E2E2E2E2E2E2E2E2E2E2E2E2E2E2E2E2E2E2E2E2E2E2E2E2E2
310
E2E2E2E2E2E2E2E2E2E2E2E2E2E2E2E2E2E2E2E2E2E2E2E2E2E2E2E2E2E2E2E2E2E2E2E2E2E2E2E2E2E2E2E2E2E2E2E2E2E2E2E2E2E2E2E2E2E2E2E2E2E2E2E2E2E2E2E2E2E2E2E2E2E2E2E2E2E2E2E2E2E2E2E2E2E2E2E2E2E2E2E2E2E2E2E2E2E2E2E2E2E2E2E2E2E2E2E2E2E2E2E2E2E2E2E2E2E2E2E2E2E2E2E2E2E2E2
310
E2E2E2E2E2E2E2E2E2E2E2E2E2E2E2E2E2E2E2E2E2E2E2E2E2E2E2E2E2E2E2E2E2E2E2E2E2E2E2E2E2E2E2E2E2E2E2E2E2E2E2E2E2E2E2E2E2E2E2E2E2E2E2E2E2E2E2E2E2E2E2E2E2E2E2E2E2E2E2E2E2E2E2E2E2E2E2E2E2E2E2E2E2E2E2E2E2E2E2E2E2E2E2E2E2E2E2E2E2E2E2E2E2E2E2E2E2E2E2E2E2E2E2E2E2E2E2
310
E2E2E2E2E2E2E2E2E2E2E2E2E2E2E2E2E2E2E2E2E2E2E2E2E2E2E2E2E2E2E2E2E2E2E2E2E2E2E2E2E2E2E2E2E2E2E2E2E2E2E2E2E2E2E2E2E2E2E2E2E2E2E2E2E2E2E2E2E2E2E2E2E2E2E2E2E2E2E2E2E2E2E2E2E2E2E2E2E2E2E2E2E2E2E2E2E2E2E2E2E2E2E2E2E2E2E2E2E2E2E2E2E2E2E2E2E2E2E2E2E2E2E2E2E2E2E2
310
E2E2E2E2E2E2E2E2E2E2E2E2E2E2E2E2E2E2E2E2E2E2E2E2E2E2E2E2E2E2E2E2E2E2E2E2E2E2E2E2E2E2E2E2E2E2E2E2E2E2E2E2E2E2E2E2E2E2E2E2E2E2E2E2E2E2E2E2E2E2E2E2E2E2E2E2E2E2E2E2E2E2E2E2E2E2E2E2E2E2E2E2E2E2E2E2E2E2E2E2E2E2E2E2E2E2E2E2E2E2E2E2E2E2E2E2E2E2E2E2E2E2E2E2E2E2E2
310
E2E2E2E2E2E2E2E2E2E2E2E2E2E2E2E2E2E2E2E2E2E2E2E2E2E2E2E2E2E2E2E2E2E2E2E2E2E2E2E2E2E2E2E2E2E2E2E2E2E2E2E2E2E2E2E2E2E2E2E2E2E2E2E2E2E2E2E2E2E2E2E2E2E2E2E2E2E2E2E2E2E2E2E2E2E2E2E2E2E2E2E2E2E2E2E2E2E2E2E2E2E2E2E2E2E2E2E2E2E2E2E2E2E2E2E2E2E2E2E2E2E2E2E2E2E2E2
310
E2E2E2E2E2E2E2E2E2E2E2E2E2E2E2E2E2E2E2E2E2E2E2E2E2E2E2E2E2E2E2E2E2E2E2E2E2E2E2E2E2E2E2E2E2E2E2E2E2E2E2E2E2E2E2E2E2E2E2E2E2E2E2E2E2E2E2E2E2E2E2E2E2E2E2E2E2E2E2E2E2E2E2E2E2E2E2E2E2E2E2E2E2E2E2E2E2E2E2E2E2E2E2E2E2E2E2E2E2E2E2E2E2E2E2E2E2E2E2E2E2E2E2E2E2E2E2
310
E2E2E2E2E2E2E2E2E2E2E2E2E2E2E2E2E2E2E2E2E2E2E2E2E2E2E2E2E2E2E2E2E2E2E2E2E2E2E2E2E2E2E2E2E2E2E2E2E2E2E2E2E2E2E2E2E2E2E2E2E2E2E2E2E2E2E2E2E2E2E2E2E2E2E2E2E2E2E2E2E2E2E2E2E2E2E2E2E2E2E2E2E2E2E2E2E2E2E2E2E2E2E2E2E2E2E2E2E2E2E2E2E2E2E2E2E2E2E2E2E2E2E2E2E2E2E2
310
E2E2E2E2E2E2E2E2E2E2E2E2E2E2E2E2E2E2E2E2E2E2E2E2E2E2E2E2E2E2E2E2E2E2E2E2E2E2E2E2E2E2E2E2E2E2E2E2E2E2E2E2E2E2E2E2E2E2E2E2E2E2E2E2E2E2E2E2E2E2E2E2E2E2E2E2E2E2E2E2E2E2E2E2E2E2E2E2E2E2E2E2E2E2E2E2E2E2E2E2E2E2E2E2E2E2E2E2E2E2E2E2E2E2E2E2E2E2E2E2E2E2E2E2E2E2E2
310
E2E2E2E2E2E2E2E2E2E2E2E2E2E2E2E2E2E2E2E2E2E2E2E2E2E2E2E2E2E2E2E2E2E2E2E2E2E2E2E2E2E2E2E2E2E2E2E2E2E2E2E2E2E2E2E2E2E2E2E2E2E2E2E2E2E2E2E2E2E2E2E2E2E2E2E2E2E2E2E2E2E2E2E2E2E2E2E2E2E2E2E2E2E2E2E2E2E2E2E2E2E2E2E2E2E2E2E2E2E2E2E2E2E2E2E2E2E2E2E2E2E2E2E2E2E2E2
310
E2E2E2E2E2E2E2E2E2E2E2E2E2E2E2E2E2E2E2E2E2E2E2E2E2E2E2E2E2E2E2E2E2E2E2E2E2E2E2E2E2E2E2E2E2E2E2E2E2E2E2E2E2E2E2E2E2E2E2E2E2E2E2E2E2E2E2E2E2E2E2E2E2E2E2E2E2E2E2E2E2E2E2E2E2E2E2E2E2E2E2E2E2E2E2E2E2E2E2E2E2E2E2E2E2E2E2E2E2E2E2E2E2E2E2E2E2E2E2E2E2E2E2E2E2E2E2
310
E2E2E2E2E2E2E2E2E2E2E2E2E2E2E2E2E2E2E2E2E2E2E2E2E2E2E2E2E2E2E2E2E2E2E2E2E2E2E2E2E2E2E2E2E2E2E2E2E2E2E2E2E2E2E2E2E2E2E2E2E2E2E2E2E2E2E2E2E2E2E2E2E2E2E2E2E2E2E2E2E2E2E2E2E2E2E2E2E2E2E2E2E2E2E2E2E2E2E2E2E2E2E2E2E2E2E2E2E2E2E2E2E2E2E2E2E2E2E2E2E2E2E2E2E2E2E2
310
E2E2E2E2E2E2E2E2E2E2E2E2E2E2E2E2E2E2E2E2E2E2E2E2E2E2E2E2E2E2E2E2E2E2E2E2E2E2E2E2E2E2E2E2E2E2E2E2E2E2E2E2E2E2E2E2E2E2E2E2E2E2E2E2E2E2E2E2E2E2E2E2E2E2E2E2E2E2E2E2E2E2E2E2E2E2E2E2E2E2E2E2E2E2E2E2E2E2E2E2E2E2E2E2E2E2E2E2E2E2E2E2E2E2E2E2E2E2E2E2E2E2E2E2E2E2E2
310
E2E2E2E2E2E2E2E2E2E2E2E2E2E2E2E2E2E2E2E2E2E2E2E2E2E2E2E2E2E2E2E2E2E2E2E2E2E2E2E2E2E2E2E2E2E2E2E2E2E2E2E2E2E2E2E2E2E2E2E2E2E2E2E2E2E2E2E2E2E2E2E2E2E2E2E2E2E2E2E2E2E2E2E2E2E2E2E2E2E2E2E2E2E2E2E2E2E2E2E2E2E2E2E2E2E2E2E2E2E2E2E2E2E2E2E2E2E2E2E2E2E2E2E2E2E2E2
310
E2E2E2E2E2E2E2E2E2E2E2E2E2E2E2E2E2E2E2E2E2E2E2E2E2E2E2E2E2E2E2E2E2E2E2E2E2E2E2E2E2E2E2E2E2E2E2E2E2E2E2E2E2E2E2E2E2E2E2E2E2E2E2E2E2E2E2E2E2E2E2E2E2E2E2E2E2E2E2E2E2E2E2E2E2E2E2E2E2E2E2E2E2E2E2E2E2E2E2E2E2E2E2E2E2E2E2E2E2E2E2E2E2E2E2E2E2E2E2E2E2E2E2E2E2E2E2
310
E2E2E2E2E2E2E2E2E2E2E2E2E2E2E2E2E2E2E2E2E2E2E2E2E2E2E2E2E2E2E2E2E2E2E2E2E2E2E2E2E2E2E2E2E2E2E2E2E2E2E2E2E2E2E2E2E2E2E2E2E2E2E2E2E2E2E2E2E2E2E2E2E2E2E2E2E2E2E2E2E2E2E2E2E2E2E2E2E2E2E2E2E2E2E2E2E2E2E2E2E2E2E2E2E2E2E2E2E2E2E2E2E2E2E2E2E2E2E2E2E2E2E2E2E2E2E2
310
E2E2E2E2E2E2E2E2E2E2E2E2E2E2E2E2E2E2E2E2E2E2E2E2E2E2E2E2E2E2E2E2E2E2E2E2E2E2E2E2E2E2E2E2E2E2E2E2E2E2E2E2E2E2E2E2E2E2E2E2E2E2E2E2E2E2E2E2E2E2E2E2E2E2E2E2E2E2E2E2E2E2E2E2E2E2E2E2E2E2E2E2E2E2E2E2E2E2E2E2E2E2E2E2E2E2E2E2E2E2E2E2E2E2E2E2E2E2E2E2E2E2E2E2E2E2E2
310
E2E2E2E2E2E2E2E2E2E2E2E2E2E2E2E2E2E2E2E2E2E2E2E2E2E2E2E2E2E2E2E2E2E2E2E2E2E2E2E2E2E2E2E2E2E2E2E2E2E2E2E2E2E2E2E2E2E2E2E2E2E2E2E2E2E2E2E2E2E2E2E2E2E2E2E2E2E2E2E2E2E2E2E2E2E2E2E2E2E2E2E2E2E2E2E2E2E2E2E2E2E2E2E2E2E2E2E2E2E2E2E2E2E2E2E2E2E2E2E2E2E2E2E2E2E2E2
310
E2E2E2E2E2E2E2E2E2E2E2E2E2E2E2E2E2E2E2E2E2E2E2E2E2E2E2E2E2E2E2E2E2E2E2E2E2E2E2E2E2E2E2E2E2E2E2E2E2E2E2E2E2E2E2E2E2E2E2E2E2E2E2E2E2E2E2E2E2E2E2E2E2E2E2E2E2E2E2E2E2E2E2E2E2E2E2E2E2E2E2E2E2E2E2E2E2E2E2E2E2E2E2E2E2E2E2E2E2E2E2E2E2E2E2E2E2E2E2E2E2E2E2E2E2E2E2
310
E2E2E2E2E2E2E2E2E2E2E2E2E2E2E2E2E2E2E2E2E2E2E2E2E2E2E2E2E2E2E2E2E2E2E2E2E2E2E2E2E2E2E2E2E2E2E2E2E2E2E2E2E2E2E2E2E2E2E2E2E2E2E2E2E2E2E2E2E2E2E2E2E2E2E2E2E2E2E2E2E2E2E2E2E2E2E2E2E2E2E2E2E2E2E2E2E2E2E2E2E2E2E2E2E2E2E2E2E2E2E2E2E2E2E2E2E2E2E2E2E2E2E2E2E2E2E2
310
E2E2E2E2E2E2E2E2E2E2E2E2E2E2E2E2E2E2E2E2E2E2E2E2E2E2E2E2E2E2E2E2E2E2E2E2E2E2E2E2E2E2E2E2E2E2E2E2E2E2E2E2E2E2E2E2E2E2E2E2E2E2E2E2E2E2E2E2E2E2E2E2E2E2E2E2E2E2E2E2E2E2E2E2E2E2E2E2E2E2E2E2E2E2E2E2E2E2E2E2E2E2E2E2E2E2E2E2E2E2E2E2E2E2E2E2E2E2E2E2E2E2E2E2E2E2E2
310
E2E2E2E2E2E2E2E2E2E2E2E2E2E2E2E2E2E2E2E2E2E2E2E2E2E2E2E2E2E2E2E2E2E2E2E2E2E2E2E2E2E2E2E2E2E2E2E2E2E2E2E2E2E2E2E2E2E2E2E2E2E2E2E2E2E2E2E2E2E2E2E2E2E2E2E2E2E2E2E2E2E2E2E2E2E2E2E2E2E2E2E2E2E2E2E2E2E2E2E2E2E2E2E2E2E2E2E2E2E2E2E2E2E2E2E2E2E2E2E2E2E2E2E2E2E2E2
310
E2E2E2E2E2E2E2E2E2E2E2E2E2E2E2E2E2E2E2E2E2E2E2E2E2E2E2E2E2E2E2E2E2E2E2E2E2E2E2E2E2E2E2E2E2E2E2E2E2E2E2E2E2E2E2E2E2E2E2E2E2E2E2E2E2E2E2E2E2E2E2E2E2E2E2E2E2E2E2E2E2E2E2E2E2E2E2E2E2E2E2E2E2E2E2E2E2E2E2E2E2E2E2E2E2E2E2E2E2E2E2E2E2E2E2E2E2E2E2E2E2E2E2E2E2E2E2
310
E2E2E2E2E2E2E2E2E2E2E2E2E2E2E2E2E2E2E2E2E2E2E2E2E2E2E2E2E2E2E2E2E2E2E2E2E2E2E2E2E2E2E2E2E2E2E2E2E2E2E2E2E2E2E2E2E2E2E2E2E2E2E2E2E2E2E2E2E2E2E2E2E2E2E2E2E2E2E2E2E2E2E2E2E2E2E2E2E2E2E2E2E2E2E2E2E2E2E2E2E2E2E2E2E2E2E2E2E2E2E2E2E2E2E2E2E2E2E2E2E2E2E2E2E2E2E2
310
E2E2E2E2E2E2E2E2E2E2E2E2E2E2E2E2E2E2E2E2E2E2E2E2E2E2E2E2E2E2E2E2E2E2E2E2E2E2E2E2E2E2E2E2E2E2E2E2E2E2E2E2E2E2E2E2E2E2E2E2E2E2E2E2E2E2E2E2E2E2E2E2E2E2E2E2E2E2E2E2E2E2E2E2E2E2E2E2E2E2E2E2E2E2E2E2E2E2E2E2E2E2E2E2E2E2E2E2E2E2E2E2E2E2E2E2E2E2E2E2E2E2E2E2E2E2E2
310
E2E2E2E2E2E2E2E2E2E2E2E2E2E2E2E2E2E2E2E2E2E2E2E2E2E2E2E2E2E2E2E2E2E2E2E2E2E2E2E2E2E2E2E2E2E2E2E2E2E2E2E2E2E2E2E2E2E2E2E2E2E2E2E2E2E2E2E2E2E2E2E2E2E2E2E2E2E2E2E2E2E2E2E2E2E2E2E2E2E2E2E2E2E2E2E2E2E2E2E2E2E2E2E2E2E2E2E2E2E2E2E2E2E2E2E2E2E2E2E2E2E2E2E2E2E2E2
310
E2E2E2E2E2E2E2E2E2E2E2E2E2E2E2E2E2E2E2E2E2E2E2E2E2E2E2E2E2E2E2E2E2E2E2E2E2E2E2E2E2E2E2E2E2E2E2E2E2E2E2E2E2E2E2E2E2E2E2E2E2E2E2E2E2E2E2E2E2E2E2E2E2E2E2E2E2E2E2E2E2E2E2E2E2E2E2E2E2E2E2E2E2E2E2E2E2E2E2E2E2E2E2E2E2E2E2E2E2E2E2E2E2E2E2E2E2E2E2E2E2E2E2E2E2E2E2
310
E2E2E2E2E2E2E2E2E2E2E2E2E2E2E2E2E2E2E2E2E2E2E2E2E2E2E2E2E2E2E2E2E2E2E2E2E2E2E2E2E2E2E2E2E2E2E2E2E2E2E2E2E2E2E2E2E2E2E2E2E2E2E2E2E2E2E2E2E2E2E2E2E2E2E2E2E2E2E2E2E2E2E2E2E2E2E2E2E2E2E2E2E2E2E2E2E2E2E2E2E2E2E2E2E2E2E2E2E2E2E2E2E2E2E2E2E2E2E2E2E2E2E2E2E2E2E2
310
E2E2E2E2E2E2E2E2E2E2E2E2E2E2E2E2E2E2E2E2E2E2E2E2E2E2E2E2E2E2E2E2E2E2E2E2E2E2E2E2E2E2E2E2E2E2E2E2E2E2E2E2E2E2E2E2E2E2E2E2E2E2E2E2E2E2E2E2E2E2E2E2E2E2E2E2E2E2E2E2E2E2E2E2E2E2E2E2E2E2E2E2E2E2E2E2E2E2E2E2E2E2E2E2E2E2E2E2E2E2E2E2E2E2E2E2E2E2E2E2E2E2E2E2E2E2E2
310
E2E2E2E2E2E2E2E2E2E2E2E2E2E2E2E2E2E2E2E2E2E2E2E2E2E2E2E2E2E2E2E2E2E2E2E2E2E2E2E2E2E2E2E2E2E2E2E2E2E2E2E2E2E2E2E2E2E2E2E2E2E2E2E2E2E2E2E2E2E2E2E2E2E2E2E2E2E2E2E2E2E2E2E2E2E2E2E2E2E2E2E2E2E2E2E2E2E2E2E2E2E2E2E2E2E2E2E2E2E2E2E2E2E2E2E2E2E2E2E2E2E2E2E2E2E2E2
310
E2E2E2E2E2E2E2E2E2E2E2E2E2E2E2E2E2E2E2E2E2E2E2E2E2E2E2E2E2E2E2E2E2E2E2E2E2E2E2E2E2E2E2E2E2E2E2E2E2E2E2E2E2E2E2E2E2E2E2E2E2E2E2E2E2E2E2E2E2E2E2E2E2E2E2E2E2E2E2E2E2E2E2E2E2E2E2E2E2E2E2E2E2E2E2E2E2E2E2E2E2E2E2E2E2E2E2E2E2E2E2E2E2E2E2E2E2E2E2E2E2E2E2E2E2E2E2
310
E2E2E2E2E2E2E2E2E2E2E2E2E2E2E2E2E2E2E2E2E2E2E2E2E2E2E2E2E2E2E2E2E2E2E2E2E2E2E2E2E2E2E2E2E2E2E2E2E2E2E2E2E2E2E2E2E2E2E2E2E2E2E2E2E2E2E2E2E2E2E2E2E2E2E2E2E2E2E2E2E2E2E2E2E2E2E2E2E2E2E2E2E2E2E2E2E2E2E2E2E2E2E2E2E2E2E2E2E2E2E2E2E2E2E2E2E2E2E2E2E2E2E2E2E2E2E2
310
E2E2E2E2E2E2E2E2E2E2E2E2E2E2E2E2E2E2E2E2E2E2E2E2E2E2E2E2E2E2E2E2E2E2E2E2E2E2E2E2E2E2E2E2E2E2E2E2E2E2E2E2E2E2E2E2E2E2E2E2E2E2E2E2E2E2E2E2E2E2E2E2E2E2E2E2E2E2E2E2E2E2E2E2E2E2E2E2E2E2E2E2E2E2E2E2E2E2E2E2E2E2E2E2E2E2E2E2E2E2E2E2E2E2E2E2E2E2E2E2E2E2E2E2E2E2E2
310
E2E2E2E2E2E2E2E2E2E2E2E2E2E2E2E2E2E2E2E2E2E2E2E2E2E2E2E2E2E2E2E2E2E2E2E2E2E2E2E2E2E2E2E2E2E2E2E2E2E2E2E2E2E2E2E2E2E2E2E2E2E2E2E2E2E2E2E2E2E2E2E2E2E2E2E2E2E2E2E2E2E2E2E2
  0
ENDSEC
  0
EOF
