  0
SECTION
  2
HEADER
  9
$ACADVER
  1
AC1015
  9
$ACADMAINTVER
 70
     6
  9
$DWGCODEPAGE
  3
ANSI_932
  9
$INSBASE
 10
0.0
 20
0.0
 30
0.0
  9
$EXTMIN
 10
1254.320068881125
 20
1366.734486693646
 30
0.0
  9
$EXTMAX
 10
3906.253773767027
 20
3202.353037455734
 30
0.0
  9
$LIMMIN
 10
824.3897891136139
 20
822.2994139197622
  9
$LIMMAX
 10
5024.389789113614
 20
3792.299413919762
  9
$ORTHOMODE
 70
     0
  9
$REGENMODE
 70
     1
  9
$FILLMODE
 70
     1
  9
$QTEXTMODE
 70
     0
  9
$MIRRTEXT
 70
     1
  9
$LTSCALE
 40
3.0
  9
$ATTMODE
 70
     1
  9
$TEXTSIZE
 40
3.0
  9
$TRACEWID
 40
1.0
  9
$TEXTSTYLE
  7
Standard
  9
$CLAYER
  8
01注記寸法
  9
$CELTYPE
  6
ByLayer
  9
$CECOLOR
 62
   256
  9
$CELTSCALE
 40
1.0
  9
$DISPSILH
 70
     0
  9
$DIMSCALE
 40
10.0
  9
$DIMASZ
 40
3.0
  9
$DIMEXO
 40
1.5
  9
$DIMDLI
 40
10.0
  9
$DIMRND
 40
0.0
  9
$DIMDLE
 40
0.0
  9
$DIMEXE
 40
1.0
  9
$DIMTP
 40
0.0
  9
$DIMTM
 40
0.0
  9
$DIMTXT
 40
3.0
  9
$DIMCEN
 40
1.5
  9
$DIMTSZ
 40
0.0
  9
$DIMTOL
 70
     0
  9
$DIMLIM
 70
     0
  9
$DIMTIH
 70
     0
  9
$DIMTOH
 70
     0
  9
$DIMSE1
 70
     0
  9
$DIMSE2
 70
     0
  9
$DIMTAD
 70
     1
  9
$DIMZIN
 70
     8
  9
$DIMBLK
  1
Open
  9
$DIMASO
 70
     1
  9
$DIMSHO
 70
     1
  9
$DIMPOST
  1

  9
$DIMAPOST
  1

  9
$DIMALT
 70
     0
  9
$DIMALTD
 70
     3
  9
$DIMALTF
 40
0.03937007874016
  9
$DIMLFAC
 40
1.0
  9
$DIMTOFL
 70
     1
  9
$DIMTVP
 40
0.0
  9
$DIMTIX
 70
     0
  9
$DIMSOXD
 70
     0
  9
$DIMSAH
 70
     0
  9
$DIMBLK1
  1

  9
$DIMBLK2
  1

  9
$DIMSTYLE
  2
NEMY-10
  9
$DIMCLRD
 70
     0
  9
$DIMCLRE
 70
     0
  9
$DIMCLRT
 70
     0
  9
$DIMTFAC
 40
1.0
  9
$DIMGAP
 40
1.0
  9
$DIMJUST
 70
     0
  9
$DIMSD1
 70
     0
  9
$DIMSD2
 70
     0
  9
$DIMTOLJ
 70
     0
  9
$DIMTZIN
 70
     8
  9
$DIMALTZ
 70
     0
  9
$DIMALTTZ
 70
     0
  9
$DIMUPT
 70
     0
  9
$DIMDEC
 70
     1
  9
$DIMTDEC
 70
     1
  9
$DIMALTU
 70
     2
  9
$DIMALTTD
 70
     3
  9
$DIMTXSTY
  7
Standard
  9
$DIMAUNIT
 70
     0
  9
$DIMADEC
 70
     0
  9
$DIMALTRND
 40
0.0
  9
$DIMAZIN
 70
     0
  9
$DIMDSEP
 70
    46
  9
$DIMATFIT
 70
     3
  9
$DIMFRAC
 70
     0
  9
$DIMLDRBLK
  1
Open
  9
$DIMLUNIT
 70
     2
  9
$DIMLWD
 70
    -2
  9
$DIMLWE
 70
    -2
  9
$DIMTMOVE
 70
     0
  9
$LUNITS
 70
     2
  9
$LUPREC
 70
     4
  9
$SKETCHINC
 40
1.0
  9
$FILLETRAD
 40
2.5
  9
$AUNITS
 70
     0
  9
$AUPREC
 70
     0
  9
$MENU
  1
.
  9
$ELEVATION
 40
0.0
  9
$PELEVATION
 40
0.0
  9
$THICKNESS
 40
0.0
  9
$LIMCHECK
 70
     0
  9
$CHAMFERA
 40
10.0
  9
$CHAMFERB
 40
10.0
  9
$CHAMFERC
 40
20.0
  9
$CHAMFERD
 40
0.0
  9
$SKPOLY
 70
     0
  9
$TDCREATE
 40
2455859.405048461
  9
$TDUCREATE
 40
2455859.030048461
  9
$TDUPDATE
 40
2458970.691695127
  9
$TDUUPDATE
 40
2458970.316695127
  9
$TDINDWG
 40
0.5892184722
  9
$TDUSRTIMER
 40
0.0008904514
  9
$USRTIMER
 70
     1
  9
$ANGBASE
 50
0.0
  9
$ANGDIR
 70
     0
  9
$PDMODE
 70
     0
  9
$PDSIZE
 40
0.0
  9
$PLINEWID
 40
0.0
  9
$SPLFRAME
 70
     0
  9
$SPLINETYPE
 70
     6
  9
$SPLINESEGS
 70
     8
  9
$HANDSEED
  5
110A8
  9
$SURFTAB1
 70
     6
  9
$SURFTAB2
 70
     6
  9
$SURFTYPE
 70
     6
  9
$SURFU
 70
     6
  9
$SURFV
 70
     6
  9
$UCSBASE
  2

  9
$UCSNAME
  2

  9
$UCSORG
 10
0.0
 20
0.0
 30
0.0
  9
$UCSXDIR
 10
1.0
 20
0.0
 30
0.0
  9
$UCSYDIR
 10
0.0
 20
1.0
 30
0.0
  9
$UCSORTHOREF
  2

  9
$UCSORTHOVIEW
 70
     0
  9
$UCSORGTOP
 10
0.0
 20
0.0
 30
0.0
  9
$UCSORGBOTTOM
 10
0.0
 20
0.0
 30
0.0
  9
$UCSORGLEFT
 10
0.0
 20
0.0
 30
0.0
  9
$UCSORGRIGHT
 10
0.0
 20
0.0
 30
0.0
  9
$UCSORGFRONT
 10
0.0
 20
0.0
 30
0.0
  9
$UCSORGBACK
 10
0.0
 20
0.0
 30
0.0
  9
$PUCSBASE
  2

  9
$PUCSNAME
  2

  9
$PUCSORG
 10
0.0
 20
0.0
 30
0.0
  9
$PUCSXDIR
 10
1.0
 20
0.0
 30
0.0
  9
$PUCSYDIR
 10
0.0
 20
1.0
 30
0.0
  9
$PUCSORTHOREF
  2

  9
$PUCSORTHOVIEW
 70
     0
  9
$PUCSORGTOP
 10
0.0
 20
0.0
 30
0.0
  9
$PUCSORGBOTTOM
 10
0.0
 20
0.0
 30
0.0
  9
$PUCSORGLEFT
 10
0.0
 20
0.0
 30
0.0
  9
$PUCSORGRIGHT
 10
0.0
 20
0.0
 30
0.0
  9
$PUCSORGFRONT
 10
0.0
 20
0.0
 30
0.0
  9
$PUCSORGBACK
 10
0.0
 20
0.0
 30
0.0
  9
$USERI1
 70
     0
  9
$USERI2
 70
     0
  9
$USERI3
 70
     0
  9
$USERI4
 70
     0
  9
$USERI5
 70
     0
  9
$USERR1
 40
0.0
  9
$USERR2
 40
0.0
  9
$USERR3
 40
0.0
  9
$USERR4
 40
0.0
  9
$USERR5
 40
0.0
  9
$WORLDVIEW
 70
     1
  9
$SHADEDGE
 70
     3
  9
$SHADEDIF
 70
    70
  9
$TILEMODE
 70
     1
  9
$MAXACTVP
 70
    64
  9
$PINSBASE
 10
0.0
 20
0.0
 30
0.0
  9
$PLIMCHECK
 70
     0
  9
$PEXTMIN
 10
1.000000000000000E+20
 20
1.000000000000000E+20
 30
1.000000000000000E+20
  9
$PEXTMAX
 10
-1.000000000000000E+20
 20
-1.000000000000000E+20
 30
-1.000000000000000E+20
  9
$PLIMMIN
 10
0.0
 20
0.0
  9
$PLIMMAX
 10
0.0
 20
0.0
  9
$UNITMODE
 70
     0
  9
$VISRETAIN
 70
     1
  9
$PLINEGEN
 70
     0
  9
$PSLTSCALE
 70
     1
  9
$TREEDEPTH
 70
  3020
  9
$CMLSTYLE
  2
Standard
  9
$CMLJUST
 70
     0
  9
$CMLSCALE
 40
20.0
  9
$PROXYGRAPHICS
 70
     1
  9
$MEASUREMENT
 70
     1
  9
$CELWEIGHT
370
    -1
  9
$ENDCAPS
280
     0
  9
$JOINSTYLE
280
     0
  9
$LWDISPLAY
290
     0
  9
$INSUNITS
 70
     4
  9
$HYPERLINKBASE
  1

  9
$STYLESHEET
  1
monochrome.ctb
  9
$XEDIT
290
     1
  9
$CEPSNTYPE
380
     0
  9
$PSTYLEMODE
290
     1
  9
$FINGERPRINTGUID
  2
{FDEAD578-A652-11D2-9A35-0060089B3A3F}
  9
$VERSIONGUID
  2
{FF53CD4B-1AF9-4F2F-ABC0-CA7DF949A403}
  9
$EXTNAMES
290
     1
  9
$PSVPSCALE
 40
0.0
  9
$OLESTARTUP
290
     0
  0
ENDSEC
  0
SECTION
  2
CLASSES
  0
CLASS
  1
ACDBDICTIONARYWDFLT
  2
AcDbDictionaryWithDefault
  3
ObjectDBX Classes
 90
        0
280
     0
281
     0
  0
CLASS
  1
ACDBPLACEHOLDER
  2
AcDbPlaceHolder
  3
ObjectDBX Classes
 90
        0
280
     0
281
     0
  0
CLASS
  1
LAYOUT
  2
AcDbLayout
  3
ObjectDBX Classes
 90
        0
280
     0
281
     0
  0
CLASS
  1
DICTIONARYVAR
  2
AcDbDictionaryVar
  3
ObjectDBX Classes
 90
        0
280
     0
281
     0
  0
CLASS
  1
SCALE
  2
AcDbScale
  3
ObjectDBX Classes
 90
     1153
280
     0
281
     0
  0
CLASS
  1
MATERIAL
  2
AcDbMaterial
  3
ObjectDBX Classes
 90
     1153
280
     0
281
     0
  0
CLASS
  1
VISUALSTYLE
  2
AcDbVisualStyle
  3
ObjectDBX Classes
 90
     4095
280
     0
281
     0
  0
CLASS
  1
TABLESTYLE
  2
AcDbTableStyle
  3
ObjectDBX Classes
 90
     4095
280
     0
281
     0
  0
CLASS
  1
RASTERVARIABLES
  2
AcDbRasterVariables
  3
ISM
 90
        0
280
     0
281
     0
  0
CLASS
  1
AEC_VARS_DWG_SETUP
  2
AecDbVarsDwgSetup
  3
AecBase60
 90
      129
280
     0
281
     0
  0
CLASS
  1
AEC_DISP_REP_2D_SECTION
  2
AecDbDispRep2dSection
  3
AecBase60
 90
      129
280
     0
281
     0
  0
CLASS
  1
AEC_DISP_PROPS_2D_SECTION
  2
AecDbDispProps2dSection
  3
AecBase60
 90
      129
280
     0
281
     0
  0
CLASS
  1
AEC_DISP_REP_CLIP_VOLUME_MODEL
  2
AecDbDispRepClipVolModel
  3
AecBase60
 90
      129
280
     0
281
     0
  0
CLASS
  1
AEC_DISP_PROPS_CLIP_VOLUME
  2
AecDbDispPropsClipVol
  3
AecBase60
 90
      129
280
     0
281
     0
  0
CLASS
  1
AEC_DISP_REP_CLIP_VOLUME_PLAN
  2
AecDbDispRepClipVolPlan
  3
AecBase60
 90
      129
280
     0
281
     0
  0
CLASS
  1
AEC_DISP_REP_CLIP_VOLUME_RESULT
  2
AecDbDispRepClipVolResult
  3
AecBase60
 90
      129
280
     0
281
     0
  0
CLASS
  1
AEC_DISP_REP_CLIP_VOLUME_RESULT_SUBDIV
  2
AecDbDispRepClipVolResSubDiv
  3
AecBase60
 90
      129
280
     0
281
     0
  0
CLASS
  1
AEC_DISP_PROPS_CLIP_VOLUME_RESULT
  2
AecDbDispPropsClipVolResSubDiv
  3
AecBase60
 90
      129
280
     0
281
     0
  0
CLASS
  1
AEC_DISP_REP_DISPLAYTHEME
  2
AecDbDispRepDisplayTheme
  3
AecBase60
 90
      129
280
     0
281
     0
  0
CLASS
  1
AEC_DISP_PROPS_DISPLAYTHEME
  2
AecDbDispPropsDisplayTheme
  3
AecBase60
 90
      129
280
     0
281
     0
  0
CLASS
  1
AEC_DISP_REP_ENT_REF
  2
AecDbDispRepEntRef
  3
AecBase60
 90
      129
280
     0
281
     0
  0
CLASS
  1
AEC_DISP_PROPS_ENT_REF
  2
AecDbDispPropsEntRef
  3
AecBase60
 90
      129
280
     0
281
     0
  0
CLASS
  1
AEC_DISP_REP_LAYOUT_CURVE
  2
AecDbDispRepLayoutCurve
  3
AecBase60
 90
      129
280
     0
281
     0
  0
CLASS
  1
AEC_DISP_PROPS_LAYOUT_CURVE
  2
AecDbDispPropsLayoutCurve
  3
AecBase60
 90
      129
280
     0
281
     0
  0
CLASS
  1
AEC_DISP_REP_LAYOUT_GRID2D
  2
AecDbDispRepLayoutGrid2d
  3
AecBase60
 90
      129
280
     0
281
     0
  0
CLASS
  1
AEC_DISP_PROPS_LAYOUT_GRID2D
  2
AecDbDispPropsLayoutGrid2d
  3
AecBase60
 90
      129
280
     0
281
     0
  0
CLASS
  1
AEC_DISP_REP_LAYOUT_GRID3D
  2
AecDbDispRepLayoutGrid3d
  3
AecBase60
 90
      129
280
     0
281
     0
  0
CLASS
  1
AEC_DISP_PROPS_LAYOUT_GRID3D
  2
AecDbDispPropsLayoutGrid3d
  3
AecBase60
 90
      129
280
     0
281
     0
  0
CLASS
  1
AEC_DISP_REP_MASKBLOCK_REF
  2
AecDbDispRepMaskBlockRef
  3
AecBase60
 90
      129
280
     0
281
     0
  0
CLASS
  1
AEC_DISP_PROPS_MASKBLOCK
  2
AecDbDispPropsMaskBlock
  3
AecBase60
 90
      129
280
     0
281
     0
  0
CLASS
  1
AEC_DISP_REP_MASKBLOCK_REF_RCP
  2
AecDbDispRepMaskBlockRefRcp
  3
AecArchBase60
 90
      129
280
     0
281
     0
  0
CLASS
  1
AEC_DISP_REP_MASS_ELEM_MODEL
  2
AecDbDispRepMassElemModel
  3
AecBase60
 90
      129
280
     0
281
     0
  0
CLASS
  1
AEC_DISP_PROPS_MASS_ELEM_MODEL
  2
AecDbDispPropsMassElem
  3
AecBase60
 90
      129
280
     0
281
     0
  0
CLASS
  1
AEC_DISP_REP_MASS_ELEM_SCHEM
  2
AecDbDispRepMassElemSchem
  3
AecBase60
 90
      129
280
     0
281
     0
  0
CLASS
  1
AEC_DISPREPAECDBDISPREPMASSELEMPLAN50
  2
AecDbDispRepMassElemPlan50
  3
AecArchDACHBase60
 90
      129
280
     0
281
     0
  0
CLASS
  1
AEC_DISPROPSMASSELEMPLANCOMMON
  2
AecDbDispPropsMassElemPlanCommon
  3
AecArchDACHBase60
 90
      129
280
     0
281
     0
  0
CLASS
  1
AEC_DISPREPAECDBDISPREPMASSELEMPLAN100
  2
AecDbDispRepMassElemPlan100
  3
AecArchDACHBase60
 90
      129
280
     0
281
     0
  0
CLASS
  1
AEC_DISP_REP_MASS_ELEM_RCP
  2
AecDbDispRepMassElemRcp
  3
AecArchBase60
 90
      129
280
     0
281
     0
  0
CLASS
  1
AEC_DISP_REP_MASS_GROUP_MODEL
  2
AecDbDispRepMassGroupModel
  3
AecBase60
 90
      129
280
     0
281
     0
  0
CLASS
  1
AEC_DISP_PROPS_MASS_GROUP
  2
AecDbDispPropsMassGroup
  3
AecBase60
 90
      129
280
     0
281
     0
  0
CLASS
  1
AEC_DISP_REP_MASS_GROUP_PLAN
  2
AecDbDispRepMassGroupPlan
  3
AecBase60
 90
      129
280
     0
281
     0
  0
CLASS
  1
AEC_DISPREPAECDBDISPREPMASSGROUPPLAN50
  2
AecDbDispRepMassGroupPlan50
  3
AecArchDACHBase60
 90
      129
280
     0
281
     0
  0
CLASS
  1
AEC_DISPROPSMASSGROUPPLANCOMMON
  2
AecDbDispPropsMassGroupPlanCommon
  3
AecArchDACHBase60
 90
      129
280
     0
281
     0
  0
CLASS
  1
AEC_DISPREPAECDBDISPREPMASSGROUPPLAN100
  2
AecDbDispRepMassGroupPlan100
  3
AecArchDACHBase60
 90
      129
280
     0
281
     0
  0
CLASS
  1
AEC_DISP_REP_MASS_GROUP_RCP
  2
AecDbDispRepMassGroupRcp
  3
AecArchBase60
 90
      129
280
     0
281
     0
  0
CLASS
  1
AEC_DISP_REP_MVBLOCK_REF
  2
AecDbDispRepMvBlockRef
  3
AecBase60
 90
      129
280
     0
281
     0
  0
CLASS
  1
AEC_DISP_REP_MVBLOCK_REF_MODEL
  2
AecDbDispRepMvBlockRefModel
  3
AecBase60
 90
      129
280
     0
281
     0
  0
CLASS
  1
AEC_AECDBDISPREPMVBLOCKREFPLAN100
  2
AecDbDispRepMvBlockRefPlan100
  3
AecBase60
 90
      129
280
     0
281
     0
  0
CLASS
  1
AEC_AECDBDISPREPMVBLOCKREFPLAN50
  2
AecDbDispRepMvBlockRefPlan50
  3
AecBase60
 90
      129
280
     0
281
     0
  0
CLASS
  1
AEC_DISP_REP_POLYGON_MODEL
  2
AecDbDispRepPolygonModel
  3
AecBase60
 90
      129
280
     0
281
     0
  0
CLASS
  1
AEC_DISP_PROPS_POLYGON_MODEL
  2
AecDbDispPropsPolygonModel
  3
AecBase60
 90
      129
280
     0
281
     0
  0
CLASS
  1
AEC_DISP_REP_POLYGON_TRUECOLOUR
  2
AecDbDispRepPolygonTrueColour
  3
AecBase60
 90
      129
280
     0
281
     0
  0
CLASS
  1
AEC_DISP_PROPS_POLYGON_TRUECOLOUR
  2
AecDbDispPropsPolygonTrueColour
  3
AecBase60
 90
      129
280
     0
281
     0
  0
CLASS
  1
AEC_DISP_REP_SLICE
  2
AecDbDispRepSlice
  3
AecBase60
 90
      129
280
     0
281
     0
  0
CLASS
  1
AEC_DISP_PROPS_SLICE
  2
AecDbDispPropsSlice
  3
AecBase60
 90
      129
280
     0
281
     0
  0
CLASS
  1
AEC_DISP_REP_ANCHOR
  2
AecDbDispRepAnchor
  3
AecBase60
 90
      129
280
     0
281
     0
  0
CLASS
  1
AEC_DISP_REP_ANCHOR_ENT_TO_NODE
  2
AecDbDispRepAnchorEntToNode
  3
AecBase60
 90
      129
280
     0
281
     0
  0
CLASS
  1
AEC_DISP_PROPS_ENT
  2
AecDbDispPropsEnt
  3
AecBase60
 90
      129
280
     0
281
     0
  0
CLASS
  1
AEC_DISP_REP_MATERIAL
  2
AecDbDispRepMaterial
  3
AecBase60
 90
      129
280
     0
281
     0
  0
CLASS
  1
AEC_DISP_PROPS_MATERIAL
  2
AecDbDispPropsMaterial
  3
AecBase60
 90
      129
280
     0
281
     0
  0
CLASS
  1
AEC_DISP_REP_EDITINPLACEPROFILE
  2
AecDbDispRepEditInPlaceProfile
  3
AecBase60
 90
      129
280
     0
281
     0
  0
CLASS
  1
AEC_DISP_PROPS_EDITINPLACEPROFILE_MODEL
  2
AecDbDispPropsEditInPlaceProfile
  3
AecBase60
 90
      129
280
     0
281
     0
  0
CLASS
  1
SUN
  2
AcDbSun
  3
SCENEOE
 90
     1153
280
     0
281
     0
  0
CLASS
  1
MLEADERSTYLE
  2
AcDbMLeaderStyle
  3
ACDB_MLEADERSTYLE_CLASS
 90
     4095
280
     0
281
     0
  0
ENDSEC
  0
SECTION
  2
TABLES
  0
TABLE
  2
VPORT
  5
8
330
0
100
AcDbSymbolTable
 70
     1
  0
VPORT
  5
A2A1
330
8
100
AcDbSymbolTableRecord
100
AcDbViewportTableRecord
  2
*Active
 70
     0
 10
0.0
 20
0.0
 11
1.0
 21
1.0
 12
2474.429524291047
 22
2292.166021440376
 13
0.0
 23
0.0
 14
10.0
 24
10.0
 15
10.0
 25
10.0
 16
0.0
 26
0.0
 36
1.0
 17
0.0
 27
0.0
 37
0.0
 40
2310.573912009123
 41
1.479876160990712
 42
50.0
 43
0.0
 44
0.0
 50
0.0
 51
0.0
 71
    16
 72
   100
 73
     1
 74
     2
 75
     0
 76
     0
 77
     0
 78
     0
281
     0
 65
     1
110
0.0
120
0.0
130
0.0
111
1.0
121
0.0
131
0.0
112
0.0
122
1.0
132
0.0
 79
     0
146
0.0
  0
ENDTAB
  0
TABLE
  2
LTYPE
  5
5
330
0
100
AcDbSymbolTable
 70
     1
  0
LTYPE
  5
14
330
5
100
AcDbSymbolTableRecord
100
AcDbLinetypeTableRecord
  2
ByBlock
 70
     0
  3

 72
    65
 73
     0
 40
0.0
  0
LTYPE
  5
15
330
5
100
AcDbSymbolTableRecord
100
AcDbLinetypeTableRecord
  2
ByLayer
 70
     0
  3

 72
    65
 73
     0
 40
0.0
  0
LTYPE
  5
16
330
5
100
AcDbSymbolTableRecord
100
AcDbLinetypeTableRecord
  2
Continuous
 70
     0
  3
Solid line
 72
    65
 73
     0
 40
0.0
  0
ENDTAB
  0
TABLE
  2
LAYER
  5
2
102
{ACAD_XDICTIONARY
360
7A6F
102
}
330
0
100
AcDbSymbolTable
 70
     3
  0
LAYER
  5
10
330
2
100
AcDbSymbolTableRecord
100
AcDbLayerTableRecord
  2
0
 70
     0
 62
     7
  6
Continuous
370
    -3
390
F
  0
LAYER
  5
45
330
2
100
AcDbSymbolTableRecord
100
AcDbLayerTableRecord
  2
01注記寸法
 70
     0
 62
     7
  6
Continuous
370
     9
390
F
  0
LAYER
  5
82BC
330
2
100
AcDbSymbolTableRecord
100
AcDbLayerTableRecord
  2
02製品
 70
     0
 62
     2
  6
Continuous
370
    15
390
F
  0
ENDTAB
  0
TABLE
  2
STYLE
  5
3
330
0
100
AcDbSymbolTable
 70
     1
  0
STYLE
  5
11
330
3
100
AcDbSymbolTableRecord
100
AcDbTextStyleTableRecord
  2
Standard
 70
     0
 40
0.0
 41
1.0
 50
0.0
 71
     0
 42
3.0
  3
MS Gothic.ttf
  4

1001
ACAD
1000
MS Gothic
1071
    32817
  0
ENDTAB
  0
TABLE
  2
VIEW
  5
6
330
0
100
AcDbSymbolTable
 70
     0
  0
ENDTAB
  0
TABLE
  2
UCS
  5
7
330
0
100
AcDbSymbolTable
 70
     0
  0
ENDTAB
  0
TABLE
  2
APPID
  5
9
330
0
100
AcDbSymbolTable
 70
    11
  0
APPID
  5
12
330
9
100
AcDbSymbolTableRecord
100
AcDbRegAppTableRecord
  2
ACAD
 70
     0
  0
APPID
  5
6A9E
330
9
100
AcDbSymbolTableRecord
100
AcDbRegAppTableRecord
  2
ACAD_DSTYLE_DIMRADIAL_EXTENSION
 70
     0
  0
APPID
  5
742C
330
9
100
AcDbSymbolTableRecord
100
AcDbRegAppTableRecord
  2
ACAD_PSEXT
 70
     0
  0
APPID
  5
742D
330
9
100
AcDbSymbolTableRecord
100
AcDbRegAppTableRecord
  2
ACAD_DSTYLE_DIMJAG
 70
     0
  0
APPID
  5
742E
330
9
100
AcDbSymbolTableRecord
100
AcDbRegAppTableRecord
  2
ACAD_DSTYLE_DIMTALN
 70
     0
  0
APPID
  5
8254
330
9
100
AcDbSymbolTableRecord
100
AcDbRegAppTableRecord
  2
AECBASE
 70
     0
  0
APPID
  5
8255
330
9
100
AcDbSymbolTableRecord
100
AcDbRegAppTableRecord
  2
AEC_2DSECTION_XDATA
 70
     0
  0
APPID
  5
8256
330
9
100
AcDbSymbolTableRecord
100
AcDbRegAppTableRecord
  2
AEC_MASSGROUP_XDADA
 70
     0
  0
APPID
  5
B68C
330
9
100
AcDbSymbolTableRecord
100
AcDbRegAppTableRecord
  2
ACAD_NAV_VCDISPLAY
 70
     0
  0
APPID
  5
E10F
330
9
100
AcDbSymbolTableRecord
100
AcDbRegAppTableRecord
  2
PLOTTRANSPARENCY
 70
     0
  0
APPID
  5
10A1C
330
9
100
AcDbSymbolTableRecord
100
AcDbRegAppTableRecord
  2
PE_URL
 70
     0
  0
ENDTAB
  0
TABLE
  2
DIMSTYLE
  5
A
330
0
100
AcDbSymbolTable
 70
     1
100
AcDbDimStyleTable
  0
DIMSTYLE
105
4DD3
102
{ACAD_REACTORS
102
}
330
A
100
AcDbSymbolTableRecord
100
AcDbDimStyleTableRecord
  2
NEMY-10
 70
     0
 40
10.0
 41
3.0
 42
1.5
 43
10.0
 44
1.0
 73
     0
 74
     0
 77
     1
 78
     8
140
3.0
141
1.5
143
0.03937007874016
147
1.0
171
     3
172
     1
178
     0
271
     1
272
     1
274
     3
283
     0
284
     8
340
11
341
8F
342
8F
  0
ENDTAB
  0
TABLE
  2
BLOCK_RECORD
  5
1
330
0
100
AcDbSymbolTable
 70
     2
  0
BLOCK_RECORD
  5
1F
330
1
100
AcDbSymbolTableRecord
100
AcDbBlockTableRecord
  2
*Model_Space
340
22
  0
BLOCK_RECORD
  5
1B
330
1
100
AcDbSymbolTableRecord
100
AcDbBlockTableRecord
  2
*Paper_Space
340
1E
  0
BLOCK_RECORD
  5
23
330
1
100
AcDbSymbolTableRecord
100
AcDbBlockTableRecord
  2
*Paper_Space0
340
26
  0
BLOCK_RECORD
  5
8F
330
1
100
AcDbSymbolTableRecord
100
AcDbBlockTableRecord
  2
_Open
340
0
102
{BLKREFS
331
10F24
331
10F25
331
10F30
331
10F31
331
10F3C
331
10F3D
331
10F48
331
10F49
331
10F54
331
10F55
331
10F60
331
10F61
102
}
  0
ENDTAB
  0
ENDSEC
  0
SECTION
  2
BLOCKS
  0
BLOCK
  5
20
330
1F
100
AcDbEntity
  8
0
100
AcDbBlockBegin
  2
*Model_Space
 70
     0
 10
0.0
 20
0.0
 30
0.0
  3
*Model_Space
  1

  0
ENDBLK
  5
21
330
1F
100
AcDbEntity
  8
0
100
AcDbBlockEnd
  0
BLOCK
  5
1C
330
1B
100
AcDbEntity
 67
     1
  8
0
100
AcDbBlockBegin
  2
*Paper_Space
 70
     0
 10
0.0
 20
0.0
 30
0.0
  3
*Paper_Space
  1

  0
ENDBLK
  5
1D
330
1B
100
AcDbEntity
 67
     1
  8
0
100
AcDbBlockEnd
  0
BLOCK
  5
24
330
23
100
AcDbEntity
  8
0
100
AcDbBlockBegin
  2
*Paper_Space0
 70
     0
 10
0.0
 20
0.0
 30
0.0
  3
*Paper_Space0
  1

  0
ENDBLK
  5
25
330
23
100
AcDbEntity
  8
0
100
AcDbBlockEnd
  0
BLOCK
  5
93
330
8F
100
AcDbEntity
  8
0
100
AcDbBlockBegin
  2
_Open
 70
     0
 10
0.0
 20
0.0
 30
0.0
  3
_Open
  1

  0
LINE
  5
90
330
8F
100
AcDbEntity
  8
01注記寸法
 62
     0
370
    -2
100
AcDbLine
 10
-1.0
 20
0.1666666666666667
 30
0.0
 11
0.0
 21
0.0
 31
0.0
  0
LINE
  5
91
330
8F
100
AcDbEntity
  8
01注記寸法
 62
     0
370
    -2
100
AcDbLine
 10
-1.0
 20
-0.1666666666666667
 30
0.0
 11
0.0
 21
0.0
 31
0.0
  0
LINE
  5
92
330
8F
100
AcDbEntity
  8
01注記寸法
 62
     0
370
    -2
100
AcDbLine
 10
0.0
 20
0.0
 30
0.0
 11
-1.0
 21
0.0
 31
0.0
  0
ENDBLK
  5
94
330
8F
100
AcDbEntity
  8
0
100
AcDbBlockEnd
  0
ENDSEC
  0
SECTION
  2
ENTITIES
  0
LINE
  5
10D0E
330
1F
100
AcDbEntity
  8
02製品
  6
Continuous
100
AcDbLine
 10
1310.920118539188
 20
1421.734493846203
 30
0.0
 11
1345.92011496291
 21
1421.734493846203
 31
0.0
  0
LINE
  5
10D0F
330
1F
100
AcDbEntity
  8
02製品
  6
Continuous
100
AcDbLine
 10
2428.920095412586
 20
1421.734493846203
 30
0.0
 11
2463.920091836308
 21
1421.734493846203
 31
0.0
  0
ARC
  5
10D10
330
1F
100
AcDbEntity
  8
02製品
  6
Continuous
100
AcDbCircle
 10
1290.420105187747
 20
1494.734500630695
 30
0.0
 40
5.0
100
AcDbArc
 50
180.0
 51
0.0
  0
LINE
  5
10D11
330
1F
100
AcDbEntity
  8
02製品
  6
Continuous
100
AcDbLine
 10
1295.420109479282
 20
1496.229511374737
 30
0.0
 11
1295.420109479282
 21
1494.734507674481
 31
0.0
  0
ARC
  5
10D12
330
1F
100
AcDbEntity
  8
02製品
  6
Continuous
100
AcDbCircle
 10
1290.420105187747
 20
1497.234500630695
 30
0.0
 40
5.1
100
AcDbArc
 50
348.6351230329718
 51
11.36487696703922
  0
LINE
  5
10D13
330
1F
100
AcDbEntity
  8
02製品
  6
Continuous
100
AcDbLine
 10
1295.420109479282
 20
1499.734502906109
 30
0.0
 11
1295.420109479282
 21
1498.239499205853
 31
0.0
  0
ARC
  5
10D14
330
1F
100
AcDbEntity
  8
02製品
  6
Continuous
100
AcDbCircle
 10
1290.420105187747
 20
1499.734500630695
 30
0.0
 40
5.0
100
AcDbArc
 50
0.0
 51
180.0
  0
LINE
  5
10D15
330
1F
100
AcDbEntity
  8
02製品
  6
Continuous
100
AcDbLine
 10
1285.420119016025
 20
1499.734502906109
 30
0.0
 11
1285.420119016025
 21
1498.239499205853
 31
0.0
  0
ARC
  5
10D16
330
1F
100
AcDbEntity
  8
02製品
  6
Continuous
100
AcDbCircle
 10
1290.420105187747
 20
1497.234500630695
 30
0.0
 40
5.1
100
AcDbArc
 50
168.6351230329608
 51
191.3648769670282
  0
LINE
  5
10D17
330
1F
100
AcDbEntity
  8
02製品
  6
Continuous
100
AcDbLine
 10
1285.420119016025
 20
1496.229511374737
 30
0.0
 11
1285.420119016025
 21
1494.734507674481
 31
0.0
  0
ARC
  5
10D18
330
1F
100
AcDbEntity
  8
02製品
  6
Continuous
100
AcDbCircle
 10
1301.920105187747
 20
1369.734500630695
 30
0.0
 40
3.000000000000114
100
AcDbArc
 50
270.0
 51
0.0
  0
LINE
  5
10D19
330
1F
100
AcDbEntity
  8
02製品
  6
Continuous
100
AcDbLine
 10
1301.920115201328
 20
1366.734486693646
 30
0.0
 11
1265.420108287189
 21
1366.734486693646
 31
0.0
  0
LINE
  5
10D1A
330
1F
100
AcDbEntity
  8
02製品
  6
Continuous
100
AcDbLine
 10
1265.420108287189
 20
1512.23449098518
 30
0.0
 11
1304.920106379841
 21
1512.23449098518
 31
0.0
  0
LINE
  5
10D1B
330
1F
100
AcDbEntity
  8
02製品
  6
Continuous
100
AcDbLine
 10
1304.920106379841
 20
1512.23449098518
 30
0.0
 11
1345.92011496291
 21
1447.234493369366
 31
0.0
  0
LINE
  5
10D1C
330
1F
100
AcDbEntity
  8
02製品
  6
Continuous
100
AcDbLine
 10
1310.920118539188
 20
1423.234504336621
 30
0.0
 11
1307.920097558353
 21
1423.234504336621
 31
0.0
  0
ARC
  5
10D1D
330
1F
100
AcDbEntity
  8
02製品
  6
Continuous
100
AcDbCircle
 10
1307.920105187747
 20
1420.234500630695
 30
0.0
 40
3.000000000000114
100
AcDbArc
 50
90.0
 51
180.0
  0
LINE
  5
10D1E
330
1F
100
AcDbEntity
  8
02製品
  6
Continuous
100
AcDbLine
 10
1304.920106379841
 20
1420.234513158108
 30
0.0
 11
1304.920106379841
 21
1369.734507674481
 31
0.0
  0
LINE
  5
10D1F
330
1F
100
AcDbEntity
  8
02製品
  6
Continuous
100
AcDbLine
 10
1288.920103757236
 20
1375.23452627113
 30
0.0
 11
1287.262707202289
 21
1375.23452627113
 31
0.0
  0
ARC
  5
10D20
330
1F
100
AcDbEntity
  8
02製品
  6
Continuous
100
AcDbCircle
 10
1288.920105187747
 20
1378.734500630695
 30
0.0
 40
3.500000000000085
100
AcDbArc
 50
270.0
 51
90.0
  0
LINE
  5
10D21
330
1F
100
AcDbEntity
  8
02製品
  6
Continuous
100
AcDbLine
 10
1288.920103757236
 20
1382.234495753552
 30
0.0
 11
1287.262707202289
 21
1382.234495753552
 31
0.0
  0
ARC
  5
10D22
330
1F
100
AcDbEntity
  8
02製品
  6
Continuous
100
AcDbCircle
 10
1286.420105187747
 20
1378.734500630695
 30
0.0
 40
3.599999999999968
100
AcDbArc
 50
76.46379726261816
 51
103.5362027373748
  0
LINE
  5
10D23
330
1F
100
AcDbEntity
  8
02製品
  6
Continuous
100
AcDbLine
 10
1285.577505080555
 20
1382.234495753552
 30
0.0
 11
1283.920108525608
 21
1382.234495753552
 31
0.0
  0
ARC
  5
10D24
330
1F
100
AcDbEntity
  8
02製品
  6
Continuous
100
AcDbCircle
 10
1283.920105187747
 20
1378.734500630695
 30
0.0
 40
3.500000000000085
100
AcDbArc
 50
90.0
 51
270.0
  0
LINE
  5
10D25
330
1F
100
AcDbEntity
  8
02製品
  6
Continuous
100
AcDbLine
 10
1285.577505080555
 20
1375.23452627113
 30
0.0
 11
1283.920108525608
 21
1375.23452627113
 31
0.0
  0
ARC
  5
10D26
330
1F
100
AcDbEntity
  8
02製品
  6
Continuous
100
AcDbCircle
 10
1286.420105187747
 20
1378.734500630695
 30
0.0
 40
3.600000000000106
100
AcDbArc
 50
256.4637972626252
 51
283.5362027373819
  0
LINE
  5
10D27
330
1F
100
AcDbEntity
  8
02製品
  6
Continuous
100
AcDbLine
 10
1288.920103757236
 20
1395.234507197644
 30
0.0
 11
1287.262707202289
 21
1395.234507197644
 31
0.0
  0
ARC
  5
10D28
330
1F
100
AcDbEntity
  8
02製品
  6
Continuous
100
AcDbCircle
 10
1288.920105187747
 20
1398.734500630695
 30
0.0
 40
3.500000000000085
100
AcDbArc
 50
270.0
 51
90.0
  0
LINE
  5
10D29
330
1F
100
AcDbEntity
  8
02製品
  6
Continuous
100
AcDbLine
 10
1288.920103757236
 20
1402.234476680066
 30
0.0
 11
1287.262707202289
 21
1402.234476680066
 31
0.0
  0
ARC
  5
10D2A
330
1F
100
AcDbEntity
  8
02製品
  6
Continuous
100
AcDbCircle
 10
1286.420105187747
 20
1398.734500630695
 30
0.0
 40
3.599999999999968
100
AcDbArc
 50
76.46379726261816
 51
103.5362027373748
  0
LINE
  5
10D2B
330
1F
100
AcDbEntity
  8
02製品
  6
Continuous
100
AcDbLine
 10
1285.577505080555
 20
1402.234476680066
 30
0.0
 11
1283.920108525608
 21
1402.234476680066
 31
0.0
  0
ARC
  5
10D2C
330
1F
100
AcDbEntity
  8
02製品
  6
Continuous
100
AcDbCircle
 10
1283.920105187747
 20
1398.734500630695
 30
0.0
 40
3.500000000000085
100
AcDbArc
 50
90.0
 51
270.0
  0
LINE
  5
10D2D
330
1F
100
AcDbEntity
  8
02製品
  6
Continuous
100
AcDbLine
 10
1285.577505080555
 20
1395.234507197644
 30
0.0
 11
1283.920108525608
 21
1395.234507197644
 31
0.0
  0
ARC
  5
10D2E
330
1F
100
AcDbEntity
  8
02製品
  6
Continuous
100
AcDbCircle
 10
1286.420105187747
 20
1398.734500630695
 30
0.0
 40
3.600000000000106
100
AcDbArc
 50
256.4637972626252
 51
283.5362027373819
  0
LINE
  5
10D2F
330
1F
100
AcDbEntity
  8
02製品
  6
Continuous
100
AcDbLine
 10
1345.92011496291
 20
1447.234493369366
 30
0.0
 11
1345.92011496291
 21
1423.234504336621
 31
0.0
  0
LINE
  5
10D30
330
1F
100
AcDbEntity
  8
02製品
  6
Continuous
100
AcDbLine
 10
1310.920118539188
 20
1423.234504336621
 30
0.0
 11
1310.920118539188
 21
1421.734493846203
 31
0.0
  0
LINE
  5
10D31
330
1F
100
AcDbEntity
  8
02製品
  6
Continuous
100
AcDbLine
 10
1345.92011496291
 20
1421.734493846203
 30
0.0
 11
1345.92011496291
 21
1423.234504336621
 31
0.0
  0
LINE
  5
10D32
330
1F
100
AcDbEntity
  8
02製品
  6
Continuous
100
AcDbLine
 10
1263.920097796772
 20
1512.23449098518
 30
0.0
 11
1263.920097796772
 21
1366.734486693646
 31
0.0
  0
LINE
  5
10D33
330
1F
100
AcDbEntity
  8
02製品
  6
Continuous
100
AcDbLine
 10
1265.420108287189
 20
1512.23449098518
 30
0.0
 11
1263.920097796772
 21
1512.23449098518
 31
0.0
  0
LINE
  5
10D34
330
1F
100
AcDbEntity
  8
02製品
  6
Continuous
100
AcDbLine
 10
1263.920097796772
 20
1366.734486693646
 30
0.0
 11
1265.420108287189
 21
1366.734486693646
 31
0.0
  0
ARC
  5
10D35
330
1F
100
AcDbEntity
  8
02製品
  6
Continuous
100
AcDbCircle
 10
2484.420105187748
 20
1497.234500630695
 30
0.0
 40
5.1
100
AcDbArc
 50
348.6351230329663
 51
11.36487696703371
  0
LINE
  5
10D36
330
1F
100
AcDbEntity
  8
02製品
  6
Continuous
100
AcDbLine
 10
2489.42009135947
 20
1499.734502906109
 30
0.0
 11
2489.42009135947
 21
1498.239499205853
 31
0.0
  0
ARC
  5
10D37
330
1F
100
AcDbEntity
  8
02製品
  6
Continuous
100
AcDbCircle
 10
2484.420105187748
 20
1499.734500630695
 30
0.0
 40
5.0
100
AcDbArc
 50
0.0
 51
180.0
  0
LINE
  5
10D38
330
1F
100
AcDbEntity
  8
02製品
  6
Continuous
100
AcDbLine
 10
2479.420100896214
 20
1499.734502906109
 30
0.0
 11
2479.420100896214
 21
1498.239499205853
 31
0.0
  0
ARC
  5
10D39
330
1F
100
AcDbEntity
  8
02製品
  6
Continuous
100
AcDbCircle
 10
2484.420105187748
 20
1497.234500630695
 30
0.0
 40
5.1
100
AcDbArc
 50
168.6351230329663
 51
191.3648769670337
  0
LINE
  5
10D3A
330
1F
100
AcDbEntity
  8
02製品
  6
Continuous
100
AcDbLine
 10
2479.420100896214
 20
1496.229511374737
 30
0.0
 11
2479.420100896214
 21
1494.734507674481
 31
0.0
  0
ARC
  5
10D3B
330
1F
100
AcDbEntity
  8
02製品
  6
Continuous
100
AcDbCircle
 10
2484.420105187748
 20
1494.734500630695
 30
0.0
 40
5.0
100
AcDbArc
 50
180.0
 51
0.0
  0
LINE
  5
10D3C
330
1F
100
AcDbEntity
  8
02製品
  6
Continuous
100
AcDbLine
 10
2489.42009135947
 20
1496.229511374737
 30
0.0
 11
2489.42009135947
 21
1494.734507674481
 31
0.0
  0
ARC
  5
10D3D
330
1F
100
AcDbEntity
  8
02製品
  6
Continuous
100
AcDbCircle
 10
2466.920105187748
 20
1420.234500630695
 30
0.0
 40
3.000000000000114
100
AcDbArc
 50
0.0
 51
90.0
  0
LINE
  5
10D3E
330
1F
100
AcDbEntity
  8
02製品
  6
Continuous
100
AcDbLine
 10
2463.920091836308
 20
1423.234504336621
 30
0.0
 11
2466.920112817143
 21
1423.234504336621
 31
0.0
  0
LINE
  5
10D3F
330
1F
100
AcDbEntity
  8
02製品
  6
Continuous
100
AcDbLine
 10
2428.920095412586
 20
1447.234493369366
 30
0.0
 11
2428.920095412586
 21
1423.234504336621
 31
0.0
  0
LINE
  5
10D40
330
1F
100
AcDbEntity
  8
02製品
  6
Continuous
100
AcDbLine
 10
2469.920103995655
 20
1512.23449098518
 30
0.0
 11
2428.920095412586
 21
1447.234493369366
 31
0.0
  0
LINE
  5
10D41
330
1F
100
AcDbEntity
  8
02製品
  6
Continuous
100
AcDbLine
 10
2472.920095174168
 20
1366.734486693646
 30
0.0
 11
2509.420102088307
 21
1366.734486693646
 31
0.0
  0
ARC
  5
10D42
330
1F
100
AcDbEntity
  8
02製品
  6
Continuous
100
AcDbCircle
 10
2472.920105187748
 20
1369.734500630695
 30
0.0
 40
3.000000000000682
100
AcDbArc
 50
180.0
 51
270.0
  0
LINE
  5
10D43
330
1F
100
AcDbEntity
  8
02製品
  6
Continuous
100
AcDbLine
 10
2469.920103995655
 20
1420.234513158108
 30
0.0
 11
2469.920103995655
 21
1369.734507674481
 31
0.0
  0
LINE
  5
10D44
330
1F
100
AcDbEntity
  8
02製品
  6
Continuous
100
AcDbLine
 10
2489.262705294941
 20
1375.23452627113
 30
0.0
 11
2490.920101849888
 21
1375.23452627113
 31
0.0
  0
ARC
  5
10D45
330
1F
100
AcDbEntity
  8
02製品
  6
Continuous
100
AcDbCircle
 10
2490.920105187748
 20
1378.734500630695
 30
0.0
 40
3.500000000000085
100
AcDbArc
 50
270.0
 51
90.0
  0
LINE
  5
10D46
330
1F
100
AcDbEntity
  8
02製品
  6
Continuous
100
AcDbLine
 10
2489.262705294941
 20
1382.234495753552
 30
0.0
 11
2490.920101849888
 21
1382.234495753552
 31
0.0
  0
ARC
  5
10D47
330
1F
100
AcDbEntity
  8
02製品
  6
Continuous
100
AcDbCircle
 10
2488.420105187748
 20
1378.734500630695
 30
0.0
 40
3.599999999999902
100
AcDbArc
 50
76.46379726261816
 51
103.5362027373819
  0
LINE
  5
10D48
330
1F
100
AcDbEntity
  8
02製品
  6
Continuous
100
AcDbLine
 10
2485.92010661826
 20
1382.234495753552
 30
0.0
 11
2487.577503173206
 21
1382.234495753552
 31
0.0
  0
ARC
  5
10D49
330
1F
100
AcDbEntity
  8
02製品
  6
Continuous
100
AcDbCircle
 10
2485.920105187748
 20
1378.734500630695
 30
0.0
 40
3.500000000000085
100
AcDbArc
 50
90.0
 51
270.0
  0
LINE
  5
10D4A
330
1F
100
AcDbEntity
  8
02製品
  6
Continuous
100
AcDbLine
 10
2485.92010661826
 20
1375.23452627113
 30
0.0
 11
2487.577503173206
 21
1375.23452627113
 31
0.0
  0
ARC
  5
10D4B
330
1F
100
AcDbEntity
  8
02製品
  6
Continuous
100
AcDbCircle
 10
2488.420105187748
 20
1378.734500630695
 30
0.0
 40
3.60000000000004
100
AcDbArc
 50
256.4637972626181
 51
283.5362027373819
  0
LINE
  5
10D4C
330
1F
100
AcDbEntity
  8
02製品
  6
Continuous
100
AcDbLine
 10
2489.262705294941
 20
1395.234507197644
 30
0.0
 11
2490.920101849888
 21
1395.234507197644
 31
0.0
  0
ARC
  5
10D4D
330
1F
100
AcDbEntity
  8
02製品
  6
Continuous
100
AcDbCircle
 10
2490.920105187748
 20
1398.734500630695
 30
0.0
 40
3.500000000000085
100
AcDbArc
 50
270.0
 51
90.0
  0
LINE
  5
10D4E
330
1F
100
AcDbEntity
  8
02製品
  6
Continuous
100
AcDbLine
 10
2489.262705294941
 20
1402.234476680066
 30
0.0
 11
2490.920101849888
 21
1402.234476680066
 31
0.0
  0
ARC
  5
10D4F
330
1F
100
AcDbEntity
  8
02製品
  6
Continuous
100
AcDbCircle
 10
2488.420105187748
 20
1398.734500630695
 30
0.0
 40
3.599999999999902
100
AcDbArc
 50
76.46379726261816
 51
103.5362027373819
  0
LINE
  5
10D50
330
1F
100
AcDbEntity
  8
02製品
  6
Continuous
100
AcDbLine
 10
2485.92010661826
 20
1402.234476680066
 30
0.0
 11
2487.577503173206
 21
1402.234476680066
 31
0.0
  0
ARC
  5
10D51
330
1F
100
AcDbEntity
  8
02製品
  6
Continuous
100
AcDbCircle
 10
2485.920105187748
 20
1398.734500630695
 30
0.0
 40
3.500000000000085
100
AcDbArc
 50
90.0
 51
270.0
  0
LINE
  5
10D52
330
1F
100
AcDbEntity
  8
02製品
  6
Continuous
100
AcDbLine
 10
2485.92010661826
 20
1395.234507197644
 30
0.0
 11
2487.577503173206
 21
1395.234507197644
 31
0.0
  0
ARC
  5
10D53
330
1F
100
AcDbEntity
  8
02製品
  6
Continuous
100
AcDbCircle
 10
2488.420105187748
 20
1398.734500630695
 30
0.0
 40
3.60000000000004
100
AcDbArc
 50
256.4637972626181
 51
283.5362027373819
  0
LINE
  5
10D54
330
1F
100
AcDbEntity
  8
02製品
  6
Continuous
100
AcDbLine
 10
2509.420102088307
 20
1512.23449098518
 30
0.0
 11
2469.920103995655
 21
1512.23449098518
 31
0.0
  0
LINE
  5
10D55
330
1F
100
AcDbEntity
  8
02製品
  6
Continuous
100
AcDbLine
 10
2510.920112578724
 20
1512.23449098518
 30
0.0
 11
2510.920112578724
 21
1366.734486693646
 31
0.0
  0
LINE
  5
10D56
330
1F
100
AcDbEntity
  8
02製品
  6
Continuous
100
AcDbLine
 10
2510.920112578724
 20
1366.734486693646
 30
0.0
 11
2509.420102088307
 21
1366.734486693646
 31
0.0
  0
LINE
  5
10D57
330
1F
100
AcDbEntity
  8
02製品
  6
Continuous
100
AcDbLine
 10
2509.420102088307
 20
1512.23449098518
 30
0.0
 11
2510.920112578724
 21
1512.23449098518
 31
0.0
  0
LINE
  5
10D58
330
1F
100
AcDbEntity
  8
02製品
  6
Continuous
100
AcDbLine
 10
2428.920095412586
 20
1421.734493846203
 30
0.0
 11
2428.920095412586
 21
1423.234504336621
 31
0.0
  0
LINE
  5
10D59
330
1F
100
AcDbEntity
  8
02製品
  6
Continuous
100
AcDbLine
 10
2463.920091836308
 20
1423.234504336621
 30
0.0
 11
2463.920091836308
 21
1421.734493846203
 31
0.0
  0
LINE
  5
10D5A
330
1F
100
AcDbEntity
  8
02製品
  6
Continuous
100
AcDbLine
 10
1265.420108287189
 20
1512.23449098518
 30
0.0
 11
1265.420108287189
 21
1792.234507078435
 31
0.0
  0
LINE
  5
10D5B
330
1F
100
AcDbEntity
  8
02製品
  6
Continuous
100
AcDbLine
 10
1268.420099465702
 20
1792.234507078435
 30
0.0
 11
1265.420108287189
 21
1792.234507078435
 31
0.0
  0
LINE
  5
10D5C
330
1F
100
AcDbEntity
  8
02製品
  6
Continuous
100
AcDbLine
 10
1268.420099465702
 20
1792.234507078435
 30
0.0
 11
1268.420099465702
 21
1797.234502310063
 31
0.0
  0
CIRCLE
  5
10D5D
330
1F
100
AcDbEntity
  8
02製品
  6
Continuous
100
AcDbCircle
 10
1290.420105187747
 20
1497.234500630695
 30
0.0
 40
5.0
  0
LINE
  5
10D5E
330
1F
100
AcDbEntity
  8
02製品
  6
Continuous
100
AcDbLine
 10
1305.420099942539
 20
1511.441808814312
 30
0.0
 11
1305.420099942539
 21
1801.234502965714
 31
0.0
  0
LINE
  5
10D5F
330
1F
100
AcDbEntity
  8
02製品
  6
Continuous
100
AcDbLine
 10
1265.420108287189
 20
1792.234507078435
 30
0.0
 11
1265.420108287189
 21
1797.234502310063
 31
0.0
  0
LINE
  5
10D60
330
1F
100
AcDbEntity
  8
02製品
  6
Continuous
100
AcDbLine
 10
2506.420110909794
 20
1792.234507078435
 30
0.0
 11
2509.420102088307
 21
1792.234507078435
 31
0.0
  0
LINE
  5
10D61
330
1F
100
AcDbEntity
  8
02製品
  6
Continuous
100
AcDbLine
 10
2509.420102088307
 20
1512.23449098518
 30
0.0
 11
2509.420102088307
 21
1792.234507078435
 31
0.0
  0
LINE
  5
10D62
330
1F
100
AcDbEntity
  8
02製品
  6
Continuous
100
AcDbLine
 10
2469.420110432957
 20
1511.441808814312
 30
0.0
 11
2469.420110432957
 21
1801.234502965714
 31
0.0
  0
LINE
  5
10D63
330
1F
100
AcDbEntity
  8
02製品
  6
Continuous
100
AcDbLine
 10
2506.420110909794
 20
1792.234507078435
 30
0.0
 11
2506.420110909794
 21
1797.234502310063
 31
0.0
  0
CIRCLE
  5
10D64
330
1F
100
AcDbEntity
  8
02製品
  6
Continuous
100
AcDbCircle
 10
2484.420105187748
 20
1497.234500630695
 30
0.0
 40
5.0
  0
LINE
  5
10D65
330
1F
100
AcDbEntity
  8
02製品
  6
Continuous
100
AcDbLine
 10
2509.420102088307
 20
1792.234507078435
 30
0.0
 11
2509.420102088307
 21
1797.234502310063
 31
0.0
  0
LINE
  5
10D66
330
1F
100
AcDbEntity
  8
02製品
  6
Continuous
100
AcDbLine
 10
1411.420106141422
 20
1907.234500782694
 30
0.0
 11
1301.420091836307
 21
1797.234502310063
 31
0.0
  0
LINE
  5
10D67
330
1F
100
AcDbEntity
  8
02製品
  6
Continuous
100
AcDbLine
 10
1301.420091836307
 20
1797.234502310063
 30
0.0
 11
1264.620094745014
 21
1797.234502310063
 31
0.0
  0
LINE
  5
10D68
330
1F
100
AcDbEntity
  8
02製品
  6
Continuous
100
AcDbLine
 10
1411.420106141422
 20
1947.234500819947
 30
0.0
 11
1264.620094745014
 21
1947.234500819947
 31
0.0
  0
LINE
  5
10D69
330
1F
100
AcDbEntity
  8
02製品
  6
Continuous
100
AcDbLine
 10
1411.420106141422
 20
1947.234500819947
 30
0.0
 11
1411.420106141422
 21
1907.234500782694
 31
0.0
  0
CIRCLE
  5
10D6A
330
1F
100
AcDbEntity
  8
02製品
  6
Continuous
100
AcDbCircle
 10
1295.420105187747
 20
1927.234500630695
 30
0.0
 40
5.0
  0
CIRCLE
  5
10D6B
330
1F
100
AcDbEntity
  8
02製品
  6
Continuous
100
AcDbCircle
 10
1390.420105187747
 20
1927.234500630695
 30
0.0
 40
5.0
  0
CIRCLE
  5
10D6C
330
1F
100
AcDbEntity
  8
02製品
  6
Continuous
100
AcDbCircle
 10
1290.420105187747
 20
1877.234500630695
 30
0.0
 40
5.0
  0
CIRCLE
  5
10D6D
330
1F
100
AcDbEntity
  8
02製品
  6
Continuous
100
AcDbCircle
 10
1290.420105187747
 20
1817.234500630695
 30
0.0
 40
5.0
  0
LINE
  5
10D6E
330
1F
100
AcDbEntity
  8
02製品
  6
Continuous
100
AcDbLine
 10
1261.420100180958
 20
1947.234500819947
 30
0.0
 11
1261.420100180958
 21
1797.234502310063
 31
0.0
  0
LINE
  5
10D6F
330
1F
100
AcDbEntity
  8
02製品
  6
Continuous
100
AcDbLine
 10
1264.620094745014
 20
1797.234502310063
 30
0.0
 11
1261.420100180958
 21
1797.234502310063
 31
0.0
  0
LINE
  5
10D70
330
1F
100
AcDbEntity
  8
02製品
  6
Continuous
100
AcDbLine
 10
1264.620094745014
 20
1947.234500819947
 30
0.0
 11
1261.420100180958
 21
1947.234500819947
 31
0.0
  0
LINE
  5
10D71
330
1F
100
AcDbEntity
  8
02製品
  6
Continuous
100
AcDbLine
 10
2513.420110194538
 20
1947.234500819947
 30
0.0
 11
2513.420110194538
 21
1797.234502310063
 31
0.0
  0
LINE
  5
10D72
330
1F
100
AcDbEntity
  8
02製品
  6
Continuous
100
AcDbLine
 10
2510.220115630482
 20
1797.234502310063
 30
0.0
 11
2513.420110194538
 21
1797.234502310063
 31
0.0
  0
LINE
  5
10D73
330
1F
100
AcDbEntity
  8
02製品
  6
Continuous
100
AcDbLine
 10
2510.220115630482
 20
1947.234500819947
 30
0.0
 11
2513.420110194538
 21
1947.234500819947
 31
0.0
  0
LINE
  5
10D74
330
1F
100
AcDbEntity
  8
02製品
  6
Continuous
100
AcDbLine
 10
2363.420104234074
 20
1907.234500782694
 30
0.0
 11
2473.420118539188
 21
1797.234502310063
 31
0.0
  0
LINE
  5
10D75
330
1F
100
AcDbEntity
  8
02製品
  6
Continuous
100
AcDbLine
 10
2363.420104234074
 20
1947.234500819947
 30
0.0
 11
2363.420104234074
 21
1907.234500782694
 31
0.0
  0
CIRCLE
  5
10D76
330
1F
100
AcDbEntity
  8
02製品
  6
Continuous
100
AcDbCircle
 10
2479.420105187748
 20
1927.234500630695
 30
0.0
 40
5.0
  0
CIRCLE
  5
10D77
330
1F
100
AcDbEntity
  8
02製品
  6
Continuous
100
AcDbCircle
 10
2384.420105187748
 20
1927.234500630695
 30
0.0
 40
5.000000000000568
  0
CIRCLE
  5
10D78
330
1F
100
AcDbEntity
  8
02製品
  6
Continuous
100
AcDbCircle
 10
2484.420105187748
 20
1877.234500630695
 30
0.0
 40
5.0
  0
CIRCLE
  5
10D79
330
1F
100
AcDbEntity
  8
02製品
  6
Continuous
100
AcDbCircle
 10
2484.420105187748
 20
1817.234500630695
 30
0.0
 40
5.0
  0
LINE
  5
10D7A
330
1F
100
AcDbEntity
  8
02製品
  6
Continuous
100
AcDbLine
 10
2473.420118539188
 20
1797.234502310063
 30
0.0
 11
2510.220115630482
 21
1797.234502310063
 31
0.0
  0
LINE
  5
10D7B
330
1F
100
AcDbEntity
  8
02製品
  6
Continuous
100
AcDbLine
 10
2363.420104234074
 20
1947.234500819947
 30
0.0
 11
2510.220115630482
 21
1947.234500819947
 31
0.0
  0
LINE
  5
10D7C
330
1F
100
AcDbEntity
  8
02製品
  6
Continuous
100
AcDbLine
 10
2363.420104234074
 20
1947.234500819947
 30
0.0
 11
1411.420106141422
 21
1947.234500819947
 31
0.0
  0
LINE
  5
10D7D
330
1F
100
AcDbEntity
  8
02製品
  6
Continuous
100
AcDbLine
 10
2363.420104234074
 20
1907.234500782694
 30
0.0
 11
1411.420106141422
 21
1907.234500782694
 31
0.0
  0
LINE
  5
10D7E
330
1F
100
AcDbEntity
  8
02製品
  6
Continuous
100
AcDbLine
 10
3814.653739606171
 20
1421.734493846203
 30
0.0
 11
3849.653736029893
 21
1421.734493846203
 31
0.0
  0
LINE
  5
10D7F
330
1F
100
AcDbEntity
  8
02製品
  6
Continuous
100
AcDbLine
 10
3174.653753911286
 20
1421.734493846203
 30
0.0
 11
3209.653750335007
 21
1421.734493846203
 31
0.0
  0
LINE
  5
10D80
330
1F
100
AcDbEntity
  8
02製品
  6
Continuous
100
AcDbLine
 10
3814.653739606171
 20
1423.234504336621
 30
0.0
 11
3814.653739606171
 21
1421.734493846203
 31
0.0
  0
LINE
  5
10D81
330
1F
100
AcDbEntity
  8
02製品
  6
Continuous
100
AcDbLine
 10
3849.653736029893
 20
1421.734493846203
 30
0.0
 11
3849.653736029893
 21
1423.234504336621
 31
0.0
  0
LINE
  5
10D82
330
1F
100
AcDbEntity
  8
02製品
  6
Continuous
100
AcDbLine
 10
3865.153745089798
 20
1481.229525679852
 30
0.0
 11
3865.153745089798
 21
1479.734492177273
 31
0.0
  0
ARC
  5
10D83
330
1F
100
AcDbEntity
  8
02製品
  6
Continuous
100
AcDbCircle
 10
3870.153744027385
 20
1479.734500630695
 30
0.0
 40
5.0
100
AcDbArc
 50
179.9999999999583
 51
0.0000000000416882
  0
LINE
  5
10D84
330
1F
100
AcDbEntity
  8
02製品
  6
Continuous
100
AcDbLine
 10
3875.153735553056
 20
1481.229525679852
 30
0.0
 11
3875.153735553056
 21
1479.734492177273
 31
0.0
  0
ARC
  5
10D85
330
1F
100
AcDbEntity
  8
02製品
  6
Continuous
100
AcDbCircle
 10
3870.153744027385
 20
1482.234500630695
 30
0.0
 40
5.100000000000028
100
AcDbArc
 50
348.6351230329663
 51
11.36487696703371
  0
LINE
  5
10D86
330
1F
100
AcDbEntity
  8
02製品
  6
Continuous
100
AcDbLine
 10
3875.153735553056
 20
1484.734487408902
 30
0.0
 11
3875.153735553056
 21
1483.239483708645
 31
0.0
  0
ARC
  5
10D87
330
1F
100
AcDbEntity
  8
02製品
  6
Continuous
100
AcDbCircle
 10
3870.153744027385
 20
1484.734500630695
 30
0.0
 40
5.0
100
AcDbArc
 50
0.0000000000416882
 51
179.9999999999583
  0
LINE
  5
10D88
330
1F
100
AcDbEntity
  8
02製品
  6
Continuous
100
AcDbLine
 10
3865.153745089798
 20
1484.734487408902
 30
0.0
 11
3865.153745089798
 21
1483.239483708645
 31
0.0
  0
ARC
  5
10D89
330
1F
100
AcDbEntity
  8
02製品
  6
Continuous
100
AcDbCircle
 10
3870.153744027385
 20
1482.234500630695
 30
0.0
 40
5.1
100
AcDbArc
 50
168.6351230329663
 51
191.3648769670337
  0
ARC
  5
10D8A
330
1F
100
AcDbEntity
  8
02製品
  6
Continuous
100
AcDbCircle
 10
3889.653744027385
 20
1369.734500630695
 30
0.0
 40
3.000000000000114
100
AcDbArc
 50
179.9999999999653
 51
270.0
  0
LINE
  5
10D8B
330
1F
100
AcDbEntity
  8
02製品
  6
Continuous
100
AcDbLine
 10
3886.653736506729
 20
1369.734507674481
 30
0.0
 11
3886.653736506729
 21
1420.234513158108
 31
0.0
  0
ARC
  5
10D8C
330
1F
100
AcDbEntity
  8
02製品
  6
Continuous
100
AcDbCircle
 10
3883.653744027386
 20
1420.234500630695
 30
0.0
 40
2.999999999999972
100
AcDbArc
 50
0.0000000000434252
 51
90.0
  0
LINE
  5
10D8D
330
1F
100
AcDbEntity
  8
02製品
  6
Continuous
100
AcDbLine
 10
3849.653736029893
 20
1423.234504336621
 30
0.0
 11
3883.653745328218
 21
1423.234504336621
 31
0.0
  0
LINE
  5
10D8E
330
1F
100
AcDbEntity
  8
02製品
  6
Continuous
100
AcDbLine
 10
3814.653739606171
 20
1447.234493369366
 30
0.0
 11
3814.653739606171
 21
1423.234504336621
 31
0.0
  0
LINE
  5
10D8F
330
1F
100
AcDbEntity
  8
02製品
  6
Continuous
100
AcDbLine
 10
3855.653748189241
 20
1512.23449098518
 30
0.0
 11
3895.153746281892
 21
1512.23449098518
 31
0.0
  0
LINE
  5
10D90
330
1F
100
AcDbEntity
  8
02製品
  6
Continuous
100
AcDbLine
 10
3889.653757487565
 20
1366.734486693646
 30
0.0
 11
3895.153746281892
 21
1366.734486693646
 31
0.0
  0
LINE
  5
10D91
330
1F
100
AcDbEntity
  8
02製品
  6
Continuous
100
AcDbLine
 10
3855.653748189241
 20
1512.23449098518
 30
0.0
 11
3814.653739606171
 21
1447.234493369366
 31
0.0
  0
LINE
  5
10D92
330
1F
100
AcDbEntity
  8
02製品
  6
Continuous
100
AcDbLine
 10
3896.653756772309
 20
1366.734486693646
 30
0.0
 11
3896.653756772309
 21
1512.23449098518
 31
0.0
  0
LINE
  5
10D93
330
1F
100
AcDbEntity
  8
02製品
  6
Continuous
100
AcDbLine
 10
3895.153746281892
 20
1366.734486693646
 30
0.0
 11
3896.653756772309
 21
1366.734486693646
 31
0.0
  0
LINE
  5
10D94
330
1F
100
AcDbEntity
  8
02製品
  6
Continuous
100
AcDbLine
 10
3896.653756772309
 20
1512.23449098518
 30
0.0
 11
3895.153746281892
 21
1512.23449098518
 31
0.0
  0
LINE
  5
10D95
330
1F
100
AcDbEntity
  8
02製品
  6
Continuous
100
AcDbLine
 10
3209.653750335007
 20
1423.234504336621
 30
0.0
 11
3209.653750335007
 21
1421.734493846203
 31
0.0
  0
LINE
  5
10D96
330
1F
100
AcDbEntity
  8
02製品
  6
Continuous
100
AcDbLine
 10
3174.653753911286
 20
1421.734493846203
 30
0.0
 11
3174.653753911286
 21
1423.234504336621
 31
0.0
  0
LINE
  5
10D97
330
1F
100
AcDbEntity
  8
02製品
  6
Continuous
100
AcDbLine
 10
3159.15374485138
 20
1484.734487408902
 30
0.0
 11
3159.15374485138
 21
1483.239483708645
 31
0.0
  0
ARC
  5
10D98
330
1F
100
AcDbEntity
  8
02製品
  6
Continuous
100
AcDbCircle
 10
3154.153744027015
 20
1484.734500630695
 30
0.0
 40
5.0
100
AcDbArc
 50
0.0
 51
180.0
  0
LINE
  5
10D99
330
1F
100
AcDbEntity
  8
02製品
  6
Continuous
100
AcDbLine
 10
3149.153754388123
 20
1484.734487408902
 30
0.0
 11
3149.153754388123
 21
1483.239483708645
 31
0.0
  0
ARC
  5
10D9A
330
1F
100
AcDbEntity
  8
02製品
  6
Continuous
100
AcDbCircle
 10
3154.153744027015
 20
1482.234500630695
 30
0.0
 40
5.100000000000028
100
AcDbArc
 50
168.6351230329613
 51
191.3648769670337
  0
LINE
  5
10D9B
330
1F
100
AcDbEntity
  8
02製品
  6
Continuous
100
AcDbLine
 10
3149.153754388123
 20
1481.229525679852
 30
0.0
 11
3149.153754388123
 21
1479.734492177273
 31
0.0
  0
ARC
  5
10D9C
330
1F
100
AcDbEntity
  8
02製品
  6
Continuous
100
AcDbCircle
 10
3154.153744027015
 20
1479.734500630695
 30
0.0
 40
5.0
100
AcDbArc
 50
180.0
 51
0.0
  0
LINE
  5
10D9D
330
1F
100
AcDbEntity
  8
02製品
  6
Continuous
100
AcDbLine
 10
3159.15374485138
 20
1481.229525679852
 30
0.0
 11
3159.15374485138
 21
1479.734492177273
 31
0.0
  0
ARC
  5
10D9E
330
1F
100
AcDbEntity
  8
02製品
  6
Continuous
100
AcDbCircle
 10
3154.153744027015
 20
1482.234500630695
 30
0.0
 40
5.1
100
AcDbArc
 50
348.6351230329713
 51
11.36487696703872
  0
LINE
  5
10D9F
330
1F
100
AcDbEntity
  8
02製品
  6
Continuous
100
AcDbLine
 10
3168.653741751938
 20
1512.23449098518
 30
0.0
 11
3129.153743659287
 21
1512.23449098518
 31
0.0
  0
LINE
  5
10DA0
330
1F
100
AcDbEntity
  8
02製品
  6
Continuous
100
AcDbLine
 10
3209.653750335007
 20
1447.234493369366
 30
0.0
 11
3209.653750335007
 21
1423.234504336621
 31
0.0
  0
LINE
  5
10DA1
330
1F
100
AcDbEntity
  8
02製品
  6
Continuous
100
AcDbLine
 10
3174.653753911286
 20
1423.234504336621
 30
0.0
 11
3140.653744612961
 21
1423.234504336621
 31
0.0
  0
ARC
  5
10DA2
330
1F
100
AcDbEntity
  8
02製品
  6
Continuous
100
AcDbCircle
 10
3140.653744027015
 20
1420.234500630695
 30
0.0
 40
2.999999999999972
100
AcDbArc
 50
90.0
 51
180.0
  0
LINE
  5
10DA3
330
1F
100
AcDbEntity
  8
02製品
  6
Continuous
100
AcDbLine
 10
3137.653753434449
 20
1369.734507674481
 30
0.0
 11
3137.653753434449
 21
1420.234513158108
 31
0.0
  0
ARC
  5
10DA4
330
1F
100
AcDbEntity
  8
02製品
  6
Continuous
100
AcDbCircle
 10
3134.653744027015
 20
1369.734500630695
 30
0.0
 40
3.000000000000114
100
AcDbArc
 50
270.0
 51
0.0
  0
LINE
  5
10DA5
330
1F
100
AcDbEntity
  8
02製品
  6
Continuous
100
AcDbLine
 10
3134.653732453614
 20
1366.734486693646
 30
0.0
 11
3129.153743659287
 21
1366.734486693646
 31
0.0
  0
LINE
  5
10DA6
330
1F
100
AcDbEntity
  8
02製品
  6
Continuous
100
AcDbLine
 10
3168.653741751938
 20
1512.23449098518
 30
0.0
 11
3209.653750335007
 21
1447.234493369366
 31
0.0
  0
LINE
  5
10DA7
330
1F
100
AcDbEntity
  8
02製品
  6
Continuous
100
AcDbLine
 10
3127.65373316887
 20
1366.734486693646
 30
0.0
 11
3127.65373316887
 21
1512.23449098518
 31
0.0
  0
LINE
  5
10DA8
330
1F
100
AcDbEntity
  8
02製品
  6
Continuous
100
AcDbLine
 10
3129.153743659287
 20
1366.734486693646
 30
0.0
 11
3127.65373316887
 21
1366.734486693646
 31
0.0
  0
LINE
  5
10DA9
330
1F
100
AcDbEntity
  8
02製品
  6
Continuous
100
AcDbLine
 10
3127.65373316887
 20
1512.23449098518
 30
0.0
 11
3129.153743659287
 21
1512.23449098518
 31
0.0
  0
LINE
  5
10DAA
330
1F
100
AcDbEntity
  8
02製品
  6
Continuous
100
AcDbLine
 10
3895.153746281892
 20
1792.234507078434
 30
0.0
 11
3892.153755103379
 21
1792.234507078434
 31
0.0
  0
LINE
  5
10DAB
330
1F
100
AcDbEntity
  8
02製品
  6
Continuous
100
AcDbLine
 10
3895.153746281892
 20
1512.23449098518
 30
0.0
 11
3895.153746281892
 21
1792.234507078434
 31
0.0
  0
LINE
  5
10DAC
330
1F
100
AcDbEntity
  8
02製品
  6
Continuous
100
AcDbLine
 10
3892.153755103379
 20
1792.234507078434
 30
0.0
 11
3892.153755103379
 21
1797.234502310063
 31
0.0
  0
CIRCLE
  5
10DAD
330
1F
100
AcDbEntity
  8
02製品
  6
Continuous
100
AcDbCircle
 10
3870.153744027385
 20
1482.234500630695
 30
0.0
 40
5.0
  0
LINE
  5
10DAE
330
1F
100
AcDbEntity
  8
02製品
  6
Continuous
100
AcDbLine
 10
3855.153754626542
 20
1511.441808814312
 30
0.0
 11
3855.153754626542
 21
1797.234502310063
 31
0.0
  0
LINE
  5
10DAF
330
1F
100
AcDbEntity
  8
02製品
  6
Continuous
100
AcDbLine
 10
3895.153746281892
 20
1792.234507078434
 30
0.0
 11
3895.153746281892
 21
1797.234502310063
 31
0.0
  0
LINE
  5
10DB0
330
1F
100
AcDbEntity
  8
02製品
  6
Continuous
100
AcDbLine
 10
3129.153743659287
 20
1512.23449098518
 30
0.0
 11
3129.153743659287
 21
1792.234507078434
 31
0.0
  0
LINE
  5
10DB1
330
1F
100
AcDbEntity
  8
02製品
  6
Continuous
100
AcDbLine
 10
3129.153743659287
 20
1792.234507078434
 30
0.0
 11
3132.1537348378
 21
1792.234507078434
 31
0.0
  0
LINE
  5
10DB2
330
1F
100
AcDbEntity
  8
02製品
  6
Continuous
100
AcDbLine
 10
3132.1537348378
 20
1792.234507078434
 30
0.0
 11
3132.1537348378
 21
1797.234502310063
 31
0.0
  0
CIRCLE
  5
10DB3
330
1F
100
AcDbEntity
  8
02製品
  6
Continuous
100
AcDbCircle
 10
3154.153744027015
 20
1482.234500630695
 30
0.0
 40
5.0
  0
LINE
  5
10DB4
330
1F
100
AcDbEntity
  8
02製品
  6
Continuous
100
AcDbLine
 10
3169.153735314637
 20
1511.441808814312
 30
0.0
 11
3169.153735314637
 21
1797.234502310063
 31
0.0
  0
LINE
  5
10DB5
330
1F
100
AcDbEntity
  8
02製品
  6
Continuous
100
AcDbLine
 10
3129.153743659287
 20
1792.234507078434
 30
0.0
 11
3129.153743659287
 21
1797.234502310063
 31
0.0
  0
LINE
  5
10DB6
330
1F
100
AcDbEntity
  8
02製品
  6
Continuous
100
AcDbLine
 10
3849.153742467195
 20
1947.234500819946
 30
0.0
 11
3849.153742467195
 21
1797.234502310063
 31
0.0
  0
ARC
  5
10DB7
330
1F
100
AcDbEntity
  8
02製品
  6
Continuous
100
AcDbCircle
 10
3869.153744027255
 20
1927.234500630695
 30
0.0
 40
5.0
100
AcDbArc
 50
270.0
 51
90.0
  0
LINE
  5
10DB8
330
1F
100
AcDbEntity
  8
02製品
  6
Continuous
100
AcDbLine
 10
3865.158722077638
 20
1932.2345002239
 30
0.0
 11
3869.153753196031
 21
1932.2345002239
 31
0.0
  0
ARC
  5
10DB9
330
1F
100
AcDbEntity
  8
02製品
  6
Continuous
100
AcDbCircle
 10
3864.153744027255
 20
1927.234500630695
 30
0.0
 40
5.1
100
AcDbArc
 50
78.63512303296129
 51
101.3648769670287
  0
LINE
  5
10DBA
330
1F
100
AcDbEntity
  8
02製品
  6
Continuous
100
AcDbLine
 10
3859.153732930451
 20
1932.2345002239
 30
0.0
 11
3863.148764048844
 21
1932.2345002239
 31
0.0
  0
ARC
  5
10DBB
330
1F
100
AcDbEntity
  8
02製品
  6
Continuous
100
AcDbCircle
 10
3859.153744027255
 20
1927.234500630695
 30
0.0
 40
5.0
100
AcDbArc
 50
90.0
 51
270.0
  0
LINE
  5
10DBC
330
1F
100
AcDbEntity
  8
02製品
  6
Continuous
100
AcDbLine
 10
3863.148764048844
 20
1922.234500680248
 30
0.0
 11
3859.153732930451
 21
1922.234500680248
 31
0.0
  0
ARC
  5
10DBD
330
1F
100
AcDbEntity
  8
02製品
  6
Continuous
100
AcDbCircle
 10
3864.153744027255
 20
1927.234500630695
 30
0.0
 40
5.1
100
AcDbArc
 50
258.6351230329713
 51
281.3648769670387
  0
LINE
  5
10DBE
330
1F
100
AcDbEntity
  8
02製品
  6
Continuous
100
AcDbLine
 10
3869.153753196031
 20
1922.234500680248
 30
0.0
 11
3865.158722077638
 21
1922.234500680248
 31
0.0
  0
CIRCLE
  5
10DBF
330
1F
100
AcDbEntity
  8
02製品
  6
Continuous
100
AcDbCircle
 10
3870.153744027255
 20
1817.234500630695
 30
0.0
 40
5.0
  0
CIRCLE
  5
10DC0
330
1F
100
AcDbEntity
  8
02製品
  6
Continuous
100
AcDbCircle
 10
3870.153744027255
 20
1877.234500630695
 30
0.0
 40
5.0
  0
LINE
  5
10DC1
330
1F
100
AcDbEntity
  8
02製品
  6
Continuous
100
AcDbLine
 10
3895.953730021745
 20
1797.234502310063
 30
0.0
 11
3849.153742467195
 21
1797.234502310063
 31
0.0
  0
LINE
  5
10DC2
330
1F
100
AcDbEntity
  8
02製品
  6
Continuous
100
AcDbLine
 10
3895.953730021745
 20
1947.234500819946
 30
0.0
 11
3849.153742467195
 21
1947.234500819946
 31
0.0
  0
LINE
  5
10DC3
330
1F
100
AcDbEntity
  8
02製品
  6
Continuous
100
AcDbLine
 10
3899.153754388124
 20
1947.234500819946
 30
0.0
 11
3899.153754388124
 21
1797.234502310063
 31
0.0
  0
LINE
  5
10DC4
330
1F
100
AcDbEntity
  8
02製品
  6
Continuous
100
AcDbLine
 10
3899.153754388124
 20
1797.234502310063
 30
0.0
 11
3895.953730021745
 21
1797.234502310063
 31
0.0
  0
LINE
  5
10DC5
330
1F
100
AcDbEntity
  8
02製品
  6
Continuous
100
AcDbLine
 10
3899.153754388124
 20
1947.234500819946
 30
0.0
 11
3895.953730021745
 21
1947.234500819946
 31
0.0
  0
ARC
  5
10DC6
330
1F
100
AcDbEntity
  8
02製品
  6
Continuous
100
AcDbCircle
 10
3160.153744027014
 20
1927.234500630695
 30
0.0
 40
5.1
100
AcDbArc
 50
258.6351230329713
 51
281.3648769670387
  0
LINE
  5
10DC7
330
1F
100
AcDbEntity
  8
02製品
  6
Continuous
100
AcDbLine
 10
3161.158725892335
 20
1922.234500680248
 30
0.0
 11
3165.153757010728
 21
1922.234500680248
 31
0.0
  0
ARC
  5
10DC8
330
1F
100
AcDbEntity
  8
02製品
  6
Continuous
100
AcDbCircle
 10
3165.153744027014
 20
1927.234500630695
 30
0.0
 40
5.0
100
AcDbArc
 50
270.0
 51
90.0
  0
LINE
  5
10DC9
330
1F
100
AcDbEntity
  8
02製品
  6
Continuous
100
AcDbLine
 10
3165.153757010728
 20
1932.2345002239
 30
0.0
 11
3161.158725892335
 21
1932.2345002239
 31
0.0
  0
ARC
  5
10DCA
330
1F
100
AcDbEntity
  8
02製品
  6
Continuous
100
AcDbCircle
 10
3160.153744027014
 20
1927.234500630695
 30
0.0
 40
5.1
100
AcDbArc
 50
78.63512303296129
 51
101.3648769670287
  0
LINE
  5
10DCB
330
1F
100
AcDbEntity
  8
02製品
  6
Continuous
100
AcDbLine
 10
3159.148767863541
 20
1932.2345002239
 30
0.0
 11
3155.153736745148
 21
1932.2345002239
 31
0.0
  0
ARC
  5
10DCC
330
1F
100
AcDbEntity
  8
02製品
  6
Continuous
100
AcDbCircle
 10
3155.153744027014
 20
1927.234500630695
 30
0.0
 40
5.0
100
AcDbArc
 50
90.0
 51
270.0
  0
LINE
  5
10DCD
330
1F
100
AcDbEntity
  8
02製品
  6
Continuous
100
AcDbLine
 10
3155.153736745148
 20
1922.234500680248
 30
0.0
 11
3159.148767863541
 21
1922.234500680248
 31
0.0
  0
CIRCLE
  5
10DCE
330
1F
100
AcDbEntity
  8
02製品
  6
Continuous
100
AcDbCircle
 10
3154.153744027015
 20
1817.234500630695
 30
0.0
 40
5.0
  0
CIRCLE
  5
10DCF
330
1F
100
AcDbEntity
  8
02製品
  6
Continuous
100
AcDbCircle
 10
3154.153744027015
 20
1877.234500630695
 30
0.0
 40
5.0
  0
LINE
  5
10DD0
330
1F
100
AcDbEntity
  8
02製品
  6
Continuous
100
AcDbLine
 10
3175.153747473984
 20
1947.234500819946
 30
0.0
 11
3175.153747473984
 21
1797.234502310063
 31
0.0
  0
LINE
  5
10DD1
330
1F
100
AcDbEntity
  8
02製品
  6
Continuous
100
AcDbLine
 10
3128.353730117112
 20
1797.234502310063
 30
0.0
 11
3175.153747473984
 21
1797.234502310063
 31
0.0
  0
LINE
  5
10DD2
330
1F
100
AcDbEntity
  8
02製品
  6
Continuous
100
AcDbLine
 10
3128.353730117112
 20
1947.234500819946
 30
0.0
 11
3175.153747473984
 21
1947.234500819946
 31
0.0
  0
LINE
  5
10DD3
330
1F
100
AcDbEntity
  8
02製品
  6
Continuous
100
AcDbLine
 10
3125.153735553055
 20
1947.234500819946
 30
0.0
 11
3125.153735553055
 21
1797.234502310063
 31
0.0
  0
LINE
  5
10DD4
330
1F
100
AcDbEntity
  8
02製品
  6
Continuous
100
AcDbLine
 10
3125.153735553055
 20
1797.234502310063
 30
0.0
 11
3128.353730117112
 21
1797.234502310063
 31
0.0
  0
LINE
  5
10DD5
330
1F
100
AcDbEntity
  8
02製品
  6
Continuous
100
AcDbLine
 10
3125.153735553055
 20
1947.234500819946
 30
0.0
 11
3128.353730117112
 21
1947.234500819946
 31
0.0
  0
LINE
  5
10DD6
330
1F
100
AcDbEntity
  8
02製品
  6
Continuous
100
AcDbLine
 10
3849.153742467195
 20
1947.234500819946
 30
0.0
 11
3175.153747473984
 21
1947.234500819946
 31
0.0
  0
CIRCLE
  5
10DD7
330
1F
100
AcDbEntity
  8
02製品
  6
Continuous
100
AcDbCircle
 10
3159.153744027015
 20
1927.234500630695
 30
0.0
 40
5.0
  0
CIRCLE
  5
10DD8
330
1F
100
AcDbEntity
  8
02製品
  6
Continuous
100
AcDbCircle
 10
3865.153744027014
 20
1927.234500630695
 30
0.0
 40
5.0
  0
LINE
  5
10DD9
330
1F
100
AcDbEntity
  8
02製品
  6
Continuous
100
AcDbLine
 10
3849.153742467195
 20
1907.234500782694
 30
0.0
 11
3175.153747473984
 21
1907.234500782694
 31
0.0
  0
LINE
  5
10DDA
330
1F
100
AcDbEntity
  8
02製品
  6
Continuous
100
AcDbLine
 10
1265.42010828719
 20
2471.85302481955
 30
0.0
 11
1264.620094745014
 21
2471.85302481955
 31
0.0
  0
LINE
  5
10DDB
330
1F
100
AcDbEntity
  8
02製品
  6
Continuous
100
AcDbLine
 10
1304.920106379841
 20
2432.353026726899
 30
0.0
 11
1304.920106379841
 21
2431.553013184723
 31
0.0
  0
LINE
  5
10DDC
330
1F
100
AcDbEntity
  8
02製品
  6
Continuous
100
AcDbLine
 10
1265.42010828719
 20
2512.853033402619
 30
0.0
 11
1263.920097796772
 21
2512.853033402619
 31
0.0
  0
LINE
  5
10DDD
330
1F
100
AcDbEntity
  8
02製品
  6
Continuous
100
AcDbLine
 10
1263.920097796772
 20
2478.353030541595
 30
0.0
 11
1263.920097796772
 21
2512.853033402619
 31
0.0
  0
LINE
  5
10DDE
330
1F
100
AcDbEntity
  8
02製品
  6
Continuous
100
AcDbLine
 10
1345.92011496291
 20
2432.353026726899
 30
0.0
 11
1345.92011496291
 21
2431.553013184723
 31
0.0
  0
LINE
  5
10DDF
330
1F
100
AcDbEntity
  8
02製品
  6
Continuous
100
AcDbLine
 10
2509.420102088307
 20
3158.853031256851
 30
0.0
 11
2510.220115630482
 21
3158.853031256851
 31
0.0
  0
LINE
  5
10DE0
330
1F
100
AcDbEntity
  8
02製品
  6
Continuous
100
AcDbLine
 10
2469.920103995655
 20
3198.353029349502
 30
0.0
 11
2469.920103995655
 21
3199.153013089355
 31
0.0
  0
LINE
  5
10DE1
330
1F
100
AcDbEntity
  8
02製品
  6
Continuous
100
AcDbLine
 10
2428.920095412586
 20
3198.353029349502
 30
0.0
 11
2428.920095412586
 21
3199.153013089355
 31
0.0
  0
LINE
  5
10DE2
330
1F
100
AcDbEntity
  8
02製品
  6
Continuous
100
AcDbLine
 10
2509.420102088307
 20
3117.853022673782
 30
0.0
 11
2510.920112578724
 21
3117.853022673782
 31
0.0
  0
LINE
  5
10DE3
330
1F
100
AcDbEntity
  8
02製品
  6
Continuous
100
AcDbLine
 10
2510.920112578724
 20
3152.353025534805
 30
0.0
 11
2510.920112578724
 21
3117.853022673782
 31
0.0
  0
LINE
  5
10DE4
330
1F
100
AcDbEntity
  8
02製品
  6
Continuous
100
AcDbLine
 10
1304.920106379841
 20
3198.353029349502
 30
0.0
 11
1304.920106379841
 21
3199.153013089355
 31
0.0
  0
LINE
  5
10DE5
330
1F
100
AcDbEntity
  8
02製品
  6
Continuous
100
AcDbLine
 10
1265.42010828719
 20
3158.853031256851
 30
0.0
 11
1264.620094745014
 21
3158.853031256851
 31
0.0
  0
LINE
  5
10DE6
330
1F
100
AcDbEntity
  8
02製品
  6
Continuous
100
AcDbLine
 10
1345.92011496291
 20
3198.353029349502
 30
0.0
 11
1345.92011496291
 21
3199.153013089355
 31
0.0
  0
LINE
  5
10DE7
330
1F
100
AcDbEntity
  8
02製品
  6
Continuous
100
AcDbLine
 10
1265.42010828719
 20
3117.853022673782
 30
0.0
 11
1263.920097796772
 21
3117.853022673782
 31
0.0
  0
LINE
  5
10DE8
330
1F
100
AcDbEntity
  8
02製品
  6
Continuous
100
AcDbLine
 10
1263.920097796772
 20
3152.353025534805
 30
0.0
 11
1263.920097796772
 21
3117.853022673782
 31
0.0
  0
LINE
  5
10DE9
330
1F
100
AcDbEntity
  8
02製品
  6
Continuous
100
AcDbLine
 10
2469.920103995655
 20
2432.353026726899
 30
0.0
 11
2469.920103995655
 21
2431.553013184723
 31
0.0
  0
LINE
  5
10DEA
330
1F
100
AcDbEntity
  8
02製品
  6
Continuous
100
AcDbLine
 10
2509.420102088307
 20
2471.85302481955
 30
0.0
 11
2510.220115630482
 21
2471.85302481955
 31
0.0
  0
LINE
  5
10DEB
330
1F
100
AcDbEntity
  8
02製品
  6
Continuous
100
AcDbLine
 10
2509.420102088307
 20
2512.853033402619
 30
0.0
 11
2510.920112578724
 21
2512.853033402619
 31
0.0
  0
LINE
  5
10DEC
330
1F
100
AcDbEntity
  8
02製品
  6
Continuous
100
AcDbLine
 10
2510.920112578724
 20
2478.353030541595
 30
0.0
 11
2510.920112578724
 21
2512.853033402619
 31
0.0
  0
LINE
  5
10DED
330
1F
100
AcDbEntity
  8
02製品
  6
Continuous
100
AcDbLine
 10
2428.920095412586
 20
2432.353026726899
 30
0.0
 11
2428.920095412586
 21
2431.553013184723
 31
0.0
  0
LINE
  5
10DEE
330
1F
100
AcDbEntity
  8
02製品
  6
Continuous
100
AcDbLine
 10
1268.420099465702
 20
2432.353026726899
 30
0.0
 11
1265.42010828719
 21
2432.353026726899
 31
0.0
  0
LINE
  5
10DEF
330
1F
100
AcDbEntity
  8
02製品
  6
Continuous
100
AcDbLine
 10
1265.42010828719
 20
2432.353026726899
 30
0.0
 11
1265.42010828719
 21
2435.353017905411
 31
0.0
  0
LINE
  5
10DF0
330
1F
100
AcDbEntity
  8
02製品
  6
Continuous
100
AcDbLine
 10
2509.420102088307
 20
3198.353029349502
 30
0.0
 11
2509.420102088307
 21
3195.353038170991
 31
0.0
  0
LINE
  5
10DF1
330
1F
100
AcDbEntity
  8
02製品
  6
Continuous
100
AcDbLine
 10
2506.420110909794
 20
3198.353029349502
 30
0.0
 11
2509.420102088307
 21
3198.353029349502
 31
0.0
  0
LINE
  5
10DF2
330
1F
100
AcDbEntity
  8
02製品
  6
Continuous
100
AcDbLine
 10
1265.42010828719
 20
3198.353029349502
 30
0.0
 11
1265.42010828719
 21
3195.353038170991
 31
0.0
  0
LINE
  5
10DF3
330
1F
100
AcDbEntity
  8
02製品
  6
Continuous
100
AcDbLine
 10
1268.420099465702
 20
3198.353029349502
 30
0.0
 11
1265.42010828719
 21
3198.353029349502
 31
0.0
  0
LINE
  5
10DF4
330
1F
100
AcDbEntity
  8
02製品
  6
Continuous
100
AcDbLine
 10
2506.420110909794
 20
2432.353026726899
 30
0.0
 11
2509.420102088307
 21
2432.353026726899
 31
0.0
  0
LINE
  5
10DF5
330
1F
100
AcDbEntity
  8
02製品
  6
Continuous
100
AcDbLine
 10
2509.420102088307
 20
2432.353026726899
 30
0.0
 11
2509.420102088307
 21
2435.353017905411
 31
0.0
  0
LINE
  5
10DF6
330
1F
100
AcDbEntity
  8
02製品
  6
Continuous
100
AcDbLine
 10
2513.420110194538
 20
3199.153013089355
 30
0.0
 11
2513.420110194538
 21
3152.353025534805
 31
0.0
  0
LINE
  5
10DF7
330
1F
100
AcDbEntity
  8
02製品
  6
Continuous
100
AcDbLine
 10
2513.420110194538
 20
3152.353025534805
 30
0.0
 11
2510.220115630482
 21
3152.353025534805
 31
0.0
  0
LINE
  5
10DF8
330
1F
100
AcDbEntity
  8
02製品
  6
Continuous
100
AcDbLine
 10
2510.220115630482
 20
3152.353025534805
 30
0.0
 11
2510.220115630482
 21
3198.086358168778
 31
0.0
  0
ARC
  5
10DF9
330
1F
100
AcDbEntity
  8
02製品
  6
Continuous
100
AcDbCircle
 10
2509.153438520725
 20
3198.0863604282
 30
0.0
 40
1.066666666666833
100
AcDbArc
 50
0.0
 51
90.0
  0
LINE
  5
10DFA
330
1F
100
AcDbEntity
  8
02製品
  6
Continuous
100
AcDbLine
 10
2509.153430907582
 20
3199.153013089355
 30
0.0
 11
2363.420104234074
 21
3199.153013089355
 31
0.0
  0
LINE
  5
10DFB
330
1F
100
AcDbEntity
  8
02製品
  6
Continuous
100
AcDbLine
 10
2363.420104234074
 20
3199.153013089355
 30
0.0
 11
2363.420104234074
 21
3202.353037455734
 31
0.0
  0
ARC
  5
10DFC
330
1F
100
AcDbEntity
  8
02製品
  6
Continuous
100
AcDbCircle
 10
2510.220105187392
 20
3199.153027094867
 30
0.0
 40
3.199999999999932
100
AcDbArc
 50
0.0
 51
90.0
  0
LINE
  5
10DFD
330
1F
100
AcDbEntity
  8
02製品
  6
Continuous
100
AcDbLine
 10
2363.420104234074
 20
3202.353037455734
 30
0.0
 11
2510.220115630482
 21
3202.353037455734
 31
0.0
  0
ARC
  5
10DFE
330
1F
100
AcDbEntity
  8
02製品
  6
Continuous
100
AcDbCircle
 10
1265.686771854414
 20
2432.619693761293
 30
0.0
 40
1.066666666666833
100
AcDbArc
 50
180.0
 51
270.0
  0
LINE
  5
10DFF
330
1F
100
AcDbEntity
  8
02製品
  6
Continuous
100
AcDbLine
 10
1265.686779467915
 20
2431.553013184723
 30
0.0
 11
1411.420106141422
 21
2431.553013184723
 31
0.0
  0
LINE
  5
10E00
330
1F
100
AcDbEntity
  8
02製品
  6
Continuous
100
AcDbLine
 10
1411.420106141422
 20
2431.553013184723
 30
0.0
 11
1411.420106141422
 21
2428.353018620667
 31
0.0
  0
LINE
  5
10E01
330
1F
100
AcDbEntity
  8
02製品
  6
Continuous
100
AcDbLine
 10
1411.420106141422
 20
2428.353018620667
 30
0.0
 11
1264.620094745014
 21
2428.353018620667
 31
0.0
  0
ARC
  5
10E02
330
1F
100
AcDbEntity
  8
02製品
  6
Continuous
100
AcDbCircle
 10
1264.620105187747
 20
2431.553027094626
 30
0.0
 40
3.199999999999932
100
AcDbArc
 50
180.0
 51
270.0
  0
LINE
  5
10E03
330
1F
100
AcDbEntity
  8
02製品
  6
Continuous
100
AcDbLine
 10
1264.620094745014
 20
2478.353030541595
 30
0.0
 11
1264.620094745014
 21
2432.619697907623
 31
0.0
  0
LINE
  5
10E04
330
1F
100
AcDbEntity
  8
02製品
  6
Continuous
100
AcDbLine
 10
1261.420100180958
 20
2478.353030541595
 30
0.0
 11
1264.620094745014
 21
2478.353030541595
 31
0.0
  0
LINE
  5
10E05
330
1F
100
AcDbEntity
  8
02製品
  6
Continuous
100
AcDbLine
 10
1261.420100180958
 20
2431.553013184723
 30
0.0
 11
1261.420100180958
 21
2478.353030541595
 31
0.0
  0
LINE
  5
10E06
330
1F
100
AcDbEntity
  8
02製品
  6
Continuous
100
AcDbLine
 10
1411.420106141422
 20
3199.153013089355
 30
0.0
 11
1411.420106141422
 21
3202.353037455734
 31
0.0
  0
LINE
  5
10E07
330
1F
100
AcDbEntity
  8
02製品
  6
Continuous
100
AcDbLine
 10
1265.686779467915
 20
3199.153013089355
 30
0.0
 11
1411.420106141422
 21
3199.153013089355
 31
0.0
  0
ARC
  5
10E08
330
1F
100
AcDbEntity
  8
02製品
  6
Continuous
100
AcDbCircle
 10
1265.686771854414
 20
3198.086360427959
 30
0.0
 40
1.066666666667118
100
AcDbArc
 50
90.0
 51
180.0
  0
LINE
  5
10E09
330
1F
100
AcDbEntity
  8
02製品
  6
Continuous
100
AcDbLine
 10
1264.620094745014
 20
3152.353025534805
 30
0.0
 11
1264.620094745014
 21
3198.086358168778
 31
0.0
  0
LINE
  5
10E0A
330
1F
100
AcDbEntity
  8
02製品
  6
Continuous
100
AcDbLine
 10
1261.420100180958
 20
3152.353025534805
 30
0.0
 11
1264.620094745014
 21
3152.353025534805
 31
0.0
  0
LINE
  5
10E0B
330
1F
100
AcDbEntity
  8
02製品
  6
Continuous
100
AcDbLine
 10
1261.420100180958
 20
3199.153013089355
 30
0.0
 11
1261.420100180958
 21
3152.353025534805
 31
0.0
  0
ARC
  5
10E0C
330
1F
100
AcDbEntity
  8
02製品
  6
Continuous
100
AcDbCircle
 10
1264.620105187747
 20
3199.153027094626
 30
0.0
 40
3.199999999999648
100
AcDbArc
 50
90.0
 51
180.0
  0
LINE
  5
10E0D
330
1F
100
AcDbEntity
  8
02製品
  6
Continuous
100
AcDbLine
 10
1411.420106141422
 20
3202.353037455734
 30
0.0
 11
1264.620094745014
 21
3202.353037455734
 31
0.0
  0
LINE
  5
10E0E
330
1F
100
AcDbEntity
  8
02製品
  6
Continuous
100
AcDbLine
 10
2363.420104234074
 20
2428.353018620667
 30
0.0
 11
2510.220115630482
 21
2428.353018620667
 31
0.0
  0
LINE
  5
10E0F
330
1F
100
AcDbEntity
  8
02製品
  6
Continuous
100
AcDbLine
 10
2363.420104234074
 20
2431.553013184723
 30
0.0
 11
2363.420104234074
 21
2428.353018620667
 31
0.0
  0
LINE
  5
10E10
330
1F
100
AcDbEntity
  8
02製品
  6
Continuous
100
AcDbLine
 10
2509.153430907582
 20
2431.553013184723
 30
0.0
 11
2363.420104234074
 21
2431.553013184723
 31
0.0
  0
ARC
  5
10E11
330
1F
100
AcDbEntity
  8
02製品
  6
Continuous
100
AcDbCircle
 10
2509.153438521082
 20
2432.619693761292
 30
0.0
 40
1.066666666666833
100
AcDbArc
 50
270.0
 51
0.0
  0
ARC
  5
10E12
330
1F
100
AcDbEntity
  8
02製品
  6
Continuous
100
AcDbCircle
 10
2510.220105187748
 20
2431.553027094626
 30
0.0
 40
3.199999999999932
100
AcDbArc
 50
270.0
 51
0.0
  0
LINE
  5
10E13
330
1F
100
AcDbEntity
  8
02製品
  6
Continuous
100
AcDbLine
 10
2510.220115630482
 20
2478.353030541595
 30
0.0
 11
2510.220115630482
 21
2432.619697907623
 31
0.0
  0
LINE
  5
10E14
330
1F
100
AcDbEntity
  8
02製品
  6
Continuous
100
AcDbLine
 10
2513.420110194538
 20
2478.353030541595
 30
0.0
 11
2510.220115630482
 21
2478.353030541595
 31
0.0
  0
LINE
  5
10E15
330
1F
100
AcDbEntity
  8
02製品
  6
Continuous
100
AcDbLine
 10
2513.420110194538
 20
2431.553013184723
 30
0.0
 11
2513.420110194538
 21
2478.353030541595
 31
0.0
  0
LINE
  5
10E16
330
1F
100
AcDbEntity
  8
02製品
  6
Continuous
100
AcDbLine
 10
2509.420102088307
 20
2472.353018382249
 30
0.0
 11
2469.420110432957
 21
2472.353018382249
 31
0.0
  0
LINE
  5
10E17
330
1F
100
AcDbEntity
  8
02製品
  6
Continuous
100
AcDbLine
 10
2469.420110432957
 20
3158.353037694153
 30
0.0
 11
2469.420110432957
 21
2472.353018382249
 31
0.0
  0
LINE
  5
10E18
330
1F
100
AcDbEntity
  8
02製品
  6
Continuous
100
AcDbLine
 10
2469.420110432957
 20
3158.353037694153
 30
0.0
 11
2509.420102088307
 21
3158.353037694153
 31
0.0
  0
LINE
  5
10E19
330
1F
100
AcDbEntity
  8
02製品
  6
Continuous
100
AcDbLine
 10
2509.420102088307
 20
3158.353037694153
 30
0.0
 11
2509.420102088307
 21
2472.353018382249
 31
0.0
  0
LINE
  5
10E1A
330
1F
100
AcDbEntity
  8
02製品
  6
Continuous
100
AcDbLine
 10
1265.42010828719
 20
3158.353037694153
 30
0.0
 11
1305.420099942539
 21
3158.353037694153
 31
0.0
  0
LINE
  5
10E1B
330
1F
100
AcDbEntity
  8
02製品
  6
Continuous
100
AcDbLine
 10
1305.420099942539
 20
2472.353018382249
 30
0.0
 11
1305.420099942539
 21
3158.353037694153
 31
0.0
  0
LINE
  5
10E1C
330
1F
100
AcDbEntity
  8
02製品
  6
Continuous
100
AcDbLine
 10
1305.420099942539
 20
2472.353018382249
 30
0.0
 11
1265.42010828719
 21
2472.353018382249
 31
0.0
  0
LINE
  5
10E1D
330
1F
100
AcDbEntity
  8
02製品
  6
Continuous
100
AcDbLine
 10
1265.42010828719
 20
2472.353018382249
 30
0.0
 11
1265.42010828719
 21
3158.353037694153
 31
0.0
  0
LINE
  5
10E1E
330
1F
100
AcDbEntity
  8
02製品
  6
Continuous
100
AcDbLine
 10
2509.420102088307
 20
2472.353018382249
 30
0.0
 11
1265.42010828719
 21
2472.353018382249
 31
0.0
  0
LINE
  5
10E1F
330
1F
100
AcDbEntity
  8
02製品
  6
Continuous
100
AcDbLine
 10
2506.420110909794
 20
2432.353026726899
 30
0.0
 11
2509.420102088307
 21
2435.353017905411
 31
0.0
  0
LINE
  5
10E20
330
1F
100
AcDbEntity
  8
02製品
  6
Continuous
100
AcDbLine
 10
2506.420110909794
 20
2432.353026726899
 30
0.0
 11
1268.420099465702
 21
2432.353026726899
 31
0.0
  0
LINE
  5
10E21
330
1F
100
AcDbEntity
  8
02製品
  6
Continuous
100
AcDbLine
 10
1265.42010828719
 20
2435.353017905411
 30
0.0
 11
1268.420099465702
 21
2432.353026726899
 31
0.0
  0
LINE
  5
10E22
330
1F
100
AcDbEntity
  8
02製品
  6
Continuous
100
AcDbLine
 10
2509.420102088307
 20
2435.353017905411
 30
0.0
 11
2509.420102088307
 21
2472.353018382249
 31
0.0
  0
LINE
  5
10E23
330
1F
100
AcDbEntity
  8
02製品
  6
Continuous
100
AcDbLine
 10
1265.42010828719
 20
2435.353017905411
 30
0.0
 11
1265.42010828719
 21
2472.353018382249
 31
0.0
  0
LINE
  5
10E24
330
1F
100
AcDbEntity
  8
02製品
  6
Continuous
100
AcDbLine
 10
1265.42010828719
 20
3158.353037694153
 30
0.0
 11
2509.420102088307
 21
3158.353037694153
 31
0.0
  0
LINE
  5
10E25
330
1F
100
AcDbEntity
  8
02製品
  6
Continuous
100
AcDbLine
 10
1265.42010828719
 20
3195.353038170991
 30
0.0
 11
1265.42010828719
 21
3158.353037694153
 31
0.0
  0
LINE
  5
10E26
330
1F
100
AcDbEntity
  8
02製品
  6
Continuous
100
AcDbLine
 10
1268.420099465702
 20
3198.353029349502
 30
0.0
 11
1265.42010828719
 21
3195.353038170991
 31
0.0
  0
LINE
  5
10E27
330
1F
100
AcDbEntity
  8
02製品
  6
Continuous
100
AcDbLine
 10
1268.420099465702
 20
3198.353029349502
 30
0.0
 11
2506.420110909794
 21
3198.353029349502
 31
0.0
  0
LINE
  5
10E28
330
1F
100
AcDbEntity
  8
02製品
  6
Continuous
100
AcDbLine
 10
2509.420102088307
 20
3195.353038170991
 30
0.0
 11
2509.420102088307
 21
3158.353037694153
 31
0.0
  0
LINE
  5
10E29
330
1F
100
AcDbEntity
  8
02製品
  6
Continuous
100
AcDbLine
 10
2509.420102088307
 20
3195.353038170991
 30
0.0
 11
2506.420110909794
 21
3198.353029349502
 31
0.0
  0
LINE
  5
10E4D
330
1F
100
AcDbEntity
  8
02製品
  6
ByBlock
100
AcDbLine
 10
3118.749771033555
 20
1809.728963369636
 30
0.0
 11
3123.553741370471
 21
1809.728963369636
 31
0.0
  0
LINE
  5
10E4E
330
1F
100
AcDbEntity
  8
02製品
  6
ByBlock
100
AcDbLine
 10
3123.553741370471
 20
1918.734502310065
 30
0.0
 11
3125.153747473986
 21
1918.734502310065
 31
0.0
  0
LINE
  5
10E4F
330
1F
100
AcDbEntity
  8
02製品
  6
ByBlock
100
AcDbLine
 10
3123.553741370471
 20
1935.734502310065
 30
0.0
 11
3125.153747473986
 21
1935.734502310065
 31
0.0
  0
LINE
  5
10E50
330
1F
100
AcDbEntity
  8
02製品
  6
ByBlock
100
AcDbLine
 10
3125.153747473986
 20
1935.734502310065
 30
0.0
 11
3125.153747473986
 21
1918.734502310065
 31
0.0
  0
LINE
  5
10E51
330
1F
100
AcDbEntity
  8
02製品
  6
ByBlock
100
AcDbLine
 10
3123.553741370471
 20
1935.734502310065
 30
0.0
 11
3123.553741370471
 21
1918.734502310065
 31
0.0
  0
LINE
  5
10E52
330
1F
100
AcDbEntity
  8
02製品
  6
ByBlock
100
AcDbLine
 10
3123.553741370471
 20
1868.734502310066
 30
0.0
 11
3125.153747473986
 21
1868.734502310066
 31
0.0
  0
LINE
  5
10E53
330
1F
100
AcDbEntity
  8
02製品
  6
ByBlock
100
AcDbLine
 10
3123.553741370471
 20
1885.734502310066
 30
0.0
 11
3125.153747473986
 21
1885.734502310066
 31
0.0
  0
LINE
  5
10E54
330
1F
100
AcDbEntity
  8
02製品
  6
ByBlock
100
AcDbLine
 10
3125.153747473986
 20
1885.734502310066
 30
0.0
 11
3125.153747473986
 21
1868.734502310066
 31
0.0
  0
LINE
  5
10E55
330
1F
100
AcDbEntity
  8
02製品
  6
ByBlock
100
AcDbLine
 10
3123.553741370471
 20
1885.734502310066
 30
0.0
 11
3123.553741370471
 21
1868.734502310066
 31
0.0
  0
LINE
  5
10E56
330
1F
100
AcDbEntity
  8
02製品
  6
ByBlock
100
AcDbLine
 10
3123.553741370471
 20
1808.734502310066
 30
0.0
 11
3125.153747473986
 21
1808.734502310066
 31
0.0
  0
LINE
  5
10E57
330
1F
100
AcDbEntity
  8
02製品
  6
ByBlock
100
AcDbLine
 10
3123.553741370471
 20
1825.734502310066
 30
0.0
 11
3125.153747473986
 21
1825.734502310066
 31
0.0
  0
LINE
  5
10E58
330
1F
100
AcDbEntity
  8
02製品
  6
ByBlock
100
AcDbLine
 10
3125.153747473986
 20
1825.734502310066
 30
0.0
 11
3125.153747473986
 21
1808.734502310066
 31
0.0
  0
LINE
  5
10E59
330
1F
100
AcDbEntity
  8
02製品
  6
ByBlock
100
AcDbLine
 10
3123.553741370471
 20
1825.734502310066
 30
0.0
 11
3123.553741370471
 21
1808.734502310066
 31
0.0
  0
LINE
  5
10E5A
330
1F
100
AcDbEntity
  8
02製品
  6
ByBlock
100
AcDbLine
 10
3118.655639563829
 20
1923.481755728034
 30
0.0
 11
3123.553741370471
 21
1923.481755728034
 31
0.0
  0
LINE
  5
10E5B
330
1F
100
AcDbEntity
  8
02製品
  6
ByBlock
100
AcDbLine
 10
3118.053741370469
 20
1933.534520620612
 30
0.0
 11
3118.053741370469
 21
1920.934514517096
 31
0.0
  0
LINE
  5
10E5C
330
1F
100
AcDbEntity
  8
02製品
  6
ByBlock
100
AcDbLine
 10
3118.053716174153
 20
1920.934548742027
 30
0.0
 11
3118.655617403919
 21
1923.481802861376
 31
0.0
  0
ARC
  5
10E5D
330
1F
100
AcDbEntity
  8
02製品
  6
ByBlock
100
AcDbCircle
 10
3130.053741370471
 20
1927.234502310066
 30
0.0
 40
12.0
100
AcDbArc
 50
161.775980450235
 51
198.2237823143833
  0
LINE
  5
10E5E
330
1F
100
AcDbEntity
  8
02製品
  6
ByBlock
100
AcDbLine
 10
3118.053717402847
 20
1920.934533002219
 30
0.0
 11
3118.749738961632
 21
1919.728988166049
 31
0.0
  0
LINE
  5
10E5F
330
1F
100
AcDbEntity
  8
02製品
  6
ByBlock
100
AcDbLine
 10
3118.749771033555
 20
1919.728963369635
 30
0.0
 11
3123.553741370471
 21
1919.728963369635
 31
0.0
  0
LINE
  5
10E60
330
1F
100
AcDbEntity
  8
02製品
  6
ByBlock
100
AcDbLine
 10
3118.65565482262
 20
1930.987309927253
 30
0.0
 11
3123.553741370471
 21
1930.987309927253
 31
0.0
  0
LINE
  5
10E61
330
1F
100
AcDbEntity
  8
02製品
  6
ByBlock
100
AcDbLine
 10
3118.749771033555
 20
1934.740071768073
 30
0.0
 11
3123.553741370471
 21
1934.740071768073
 31
0.0
  0
LINE
  5
10E62
330
1F
100
AcDbEntity
  8
02製品
  6
ByBlock
100
AcDbLine
 10
3118.655643133419
 20
1930.987333582375
 30
0.0
 11
3118.053727709276
 21
1933.534552989601
 31
0.0
  0
LINE
  5
10E63
330
1F
100
AcDbEntity
  8
02製品
  6
ByBlock
100
AcDbLine
 10
3118.749760157046
 20
1934.740127552223
 30
0.0
 11
3118.053730790052
 21
1933.534569191839
 31
0.0
  0
LINE
  5
10E64
330
1F
100
AcDbEntity
  8
02製品
  6
ByBlock
100
AcDbLine
 10
3118.655639563829
 20
1873.481755728035
 30
0.0
 11
3123.553741370471
 21
1873.481755728035
 31
0.0
  0
LINE
  5
10E65
330
1F
100
AcDbEntity
  8
02製品
  6
ByBlock
100
AcDbLine
 10
3118.053741370469
 20
1883.534520620613
 30
0.0
 11
3118.053741370469
 21
1870.934514517097
 31
0.0
  0
LINE
  5
10E66
330
1F
100
AcDbEntity
  8
02製品
  6
ByBlock
100
AcDbLine
 10
3118.053716174153
 20
1870.934548742028
 30
0.0
 11
3118.655617403919
 21
1873.481802861378
 31
0.0
  0
ARC
  5
10E67
330
1F
100
AcDbEntity
  8
02製品
  6
ByBlock
100
AcDbCircle
 10
3130.053741370471
 20
1877.234502310067
 30
0.0
 40
12.0
100
AcDbArc
 50
161.775980450235
 51
198.2237823143833
  0
LINE
  5
10E68
330
1F
100
AcDbEntity
  8
02製品
  6
ByBlock
100
AcDbLine
 10
3118.053717402847
 20
1870.934533002221
 30
0.0
 11
3118.749738961632
 21
1869.72898816605
 31
0.0
  0
LINE
  5
10E69
330
1F
100
AcDbEntity
  8
02製品
  6
ByBlock
100
AcDbLine
 10
3118.749771033555
 20
1869.728963369636
 30
0.0
 11
3123.553741370471
 21
1869.728963369636
 31
0.0
  0
LINE
  5
10E6A
330
1F
100
AcDbEntity
  8
02製品
  6
ByBlock
100
AcDbLine
 10
3118.65565482262
 20
1880.987309927254
 30
0.0
 11
3123.553741370471
 21
1880.987309927254
 31
0.0
  0
LINE
  5
10E6B
330
1F
100
AcDbEntity
  8
02製品
  6
ByBlock
100
AcDbLine
 10
3118.749771033555
 20
1884.740071768073
 30
0.0
 11
3123.553741370471
 21
1884.740071768073
 31
0.0
  0
LINE
  5
10E6C
330
1F
100
AcDbEntity
  8
02製品
  6
ByBlock
100
AcDbLine
 10
3118.655643133419
 20
1880.987333582375
 30
0.0
 11
3118.053727709276
 21
1883.534552989602
 31
0.0
  0
LINE
  5
10E6D
330
1F
100
AcDbEntity
  8
02製品
  6
ByBlock
100
AcDbLine
 10
3118.749760157046
 20
1884.740127552224
 30
0.0
 11
3118.053730790052
 21
1883.53456919184
 31
0.0
  0
LINE
  5
10E6E
330
1F
100
AcDbEntity
  8
02製品
  6
ByBlock
100
AcDbLine
 10
3118.655639563829
 20
1813.481755728035
 30
0.0
 11
3123.553741370471
 21
1813.481755728035
 31
0.0
  0
LINE
  5
10E6F
330
1F
100
AcDbEntity
  8
02製品
  6
ByBlock
100
AcDbLine
 10
3118.053741370469
 20
1823.534520620613
 30
0.0
 11
3118.053741370469
 21
1810.934514517097
 31
0.0
  0
LINE
  5
10E70
330
1F
100
AcDbEntity
  8
02製品
  6
ByBlock
100
AcDbLine
 10
3118.053716174153
 20
1810.934548742028
 30
0.0
 11
3118.655617403919
 21
1813.481802861378
 31
0.0
  0
ARC
  5
10E71
330
1F
100
AcDbEntity
  8
02製品
  6
ByBlock
100
AcDbCircle
 10
3130.053741370471
 20
1817.234502310067
 30
0.0
 40
12.0
100
AcDbArc
 50
161.775980450235
 51
198.2237823143813
  0
LINE
  5
10E72
330
1F
100
AcDbEntity
  8
02製品
  6
ByBlock
100
AcDbLine
 10
3118.053717402847
 20
1810.934533002221
 30
0.0
 11
3118.749738961632
 21
1809.72898816605
 31
0.0
  0
LINE
  5
10E73
330
1F
100
AcDbEntity
  8
02製品
  6
ByBlock
100
AcDbLine
 10
3118.65565482262
 20
1820.987309927254
 30
0.0
 11
3123.553741370471
 21
1820.987309927254
 31
0.0
  0
LINE
  5
10E74
330
1F
100
AcDbEntity
  8
02製品
  6
ByBlock
100
AcDbLine
 10
3118.749771033555
 20
1824.740071768073
 30
0.0
 11
3123.553741370471
 21
1824.740071768073
 31
0.0
  0
LINE
  5
10E75
330
1F
100
AcDbEntity
  8
02製品
  6
ByBlock
100
AcDbLine
 10
3118.655643133419
 20
1820.987333582375
 30
0.0
 11
3118.053727709276
 21
1823.534552989602
 31
0.0
  0
LINE
  5
10E76
330
1F
100
AcDbEntity
  8
02製品
  6
ByBlock
100
AcDbLine
 10
3118.749760157046
 20
1824.740127552224
 30
0.0
 11
3118.053730790052
 21
1823.53456919184
 31
0.0
  0
LINE
  5
10E77
330
1F
100
AcDbEntity
  8
02製品
  6
ByBlock
100
AcDbLine
 10
3900.753748570708
 20
1918.734502310065
 30
0.0
 11
3899.153742467194
 21
1918.734502310065
 31
0.0
  0
LINE
  5
10E78
330
1F
100
AcDbEntity
  8
02製品
  6
ByBlock
100
AcDbLine
 10
3900.753748570708
 20
1935.734502310065
 30
0.0
 11
3899.153742467194
 21
1935.734502310065
 31
0.0
  0
LINE
  5
10E79
330
1F
100
AcDbEntity
  8
02製品
  6
ByBlock
100
AcDbLine
 10
3899.153742467194
 20
1935.734502310065
 30
0.0
 11
3899.153742467194
 21
1918.734502310065
 31
0.0
  0
LINE
  5
10E7A
330
1F
100
AcDbEntity
  8
02製品
  6
ByBlock
100
AcDbLine
 10
3900.753748570708
 20
1935.734502310065
 30
0.0
 11
3900.753748570708
 21
1918.734502310065
 31
0.0
  0
LINE
  5
10E7B
330
1F
100
AcDbEntity
  8
02製品
  6
ByBlock
100
AcDbLine
 10
3900.753748570708
 20
1808.734502310066
 30
0.0
 11
3899.153742467194
 21
1808.734502310066
 31
0.0
  0
LINE
  5
10E7C
330
1F
100
AcDbEntity
  8
02製品
  6
ByBlock
100
AcDbLine
 10
3900.753748570708
 20
1825.734502310066
 30
0.0
 11
3899.153742467194
 21
1825.734502310066
 31
0.0
  0
LINE
  5
10E7D
330
1F
100
AcDbEntity
  8
02製品
  6
ByBlock
100
AcDbLine
 10
3899.153742467194
 20
1825.734502310066
 30
0.0
 11
3899.153742467194
 21
1808.734502310066
 31
0.0
  0
LINE
  5
10E7E
330
1F
100
AcDbEntity
  8
02製品
  6
ByBlock
100
AcDbLine
 10
3900.753748570708
 20
1825.734502310066
 30
0.0
 11
3900.753748570708
 21
1808.734502310066
 31
0.0
  0
LINE
  5
10E7F
330
1F
100
AcDbEntity
  8
02製品
  6
ByBlock
100
AcDbLine
 10
3900.753748570708
 20
1868.734502310066
 30
0.0
 11
3899.153742467194
 21
1868.734502310066
 31
0.0
  0
LINE
  5
10E80
330
1F
100
AcDbEntity
  8
02製品
  6
ByBlock
100
AcDbLine
 10
3900.753748570708
 20
1885.734502310066
 30
0.0
 11
3899.153742467194
 21
1885.734502310066
 31
0.0
  0
LINE
  5
10E81
330
1F
100
AcDbEntity
  8
02製品
  6
ByBlock
100
AcDbLine
 10
3899.153742467194
 20
1885.734502310066
 30
0.0
 11
3899.153742467194
 21
1868.734502310066
 31
0.0
  0
LINE
  5
10E82
330
1F
100
AcDbEntity
  8
02製品
  6
ByBlock
100
AcDbLine
 10
3900.753748570708
 20
1885.734502310066
 30
0.0
 11
3900.753748570708
 21
1868.734502310066
 31
0.0
  0
LINE
  5
10E83
330
1F
100
AcDbEntity
  8
02製品
  6
ByBlock
100
AcDbLine
 10
3905.557729784133
 20
1934.740127552223
 30
0.0
 11
3906.253759151128
 21
1933.534569191839
 31
0.0
  0
LINE
  5
10E84
330
1F
100
AcDbEntity
  8
02製品
  6
ByBlock
100
AcDbLine
 10
3905.651846807761
 20
1930.987333582375
 30
0.0
 11
3906.253762231903
 21
1933.534552989601
 31
0.0
  0
LINE
  5
10E85
330
1F
100
AcDbEntity
  8
02製品
  6
ByBlock
100
AcDbLine
 10
3905.557718907624
 20
1934.740071768073
 30
0.0
 11
3900.753748570708
 21
1934.740071768073
 31
0.0
  0
LINE
  5
10E86
330
1F
100
AcDbEntity
  8
02製品
  6
ByBlock
100
AcDbLine
 10
3905.651835118559
 20
1930.987309927253
 30
0.0
 11
3900.753748570708
 21
1930.987309927253
 31
0.0
  0
LINE
  5
10E87
330
1F
100
AcDbEntity
  8
02製品
  6
ByBlock
100
AcDbLine
 10
3905.557718907624
 20
1919.728963369635
 30
0.0
 11
3900.753748570708
 21
1919.728963369635
 31
0.0
  0
LINE
  5
10E88
330
1F
100
AcDbEntity
  8
02製品
  6
ByBlock
100
AcDbLine
 10
3906.253772538332
 20
1920.93453300222
 30
0.0
 11
3905.557750979547
 21
1919.728988166049
 31
0.0
  0
ARC
  5
10E89
330
1F
100
AcDbEntity
  8
02製品
  6
ByBlock
100
AcDbCircle
 10
3894.253748570708
 20
1927.234502310066
 30
0.0
 40
12.0
100
AcDbArc
 50
341.7762176856166
 51
18.22401954976297
  0
LINE
  5
10E8A
330
1F
100
AcDbEntity
  8
02製品
  6
ByBlock
100
AcDbLine
 10
3906.253773767027
 20
1920.934548742027
 30
0.0
 11
3905.65187253726
 21
1923.481802861376
 31
0.0
  0
LINE
  5
10E8B
330
1F
100
AcDbEntity
  8
02製品
  6
ByBlock
100
AcDbLine
 10
3906.25374857071
 20
1933.534520620612
 30
0.0
 11
3906.25374857071
 21
1920.934514517096
 31
0.0
  0
LINE
  5
10E8C
330
1F
100
AcDbEntity
  8
02製品
  6
ByBlock
100
AcDbLine
 10
3905.651850377351
 20
1923.481755728034
 30
0.0
 11
3900.753748570708
 21
1923.481755728034
 31
0.0
  0
LINE
  5
10E8D
330
1F
100
AcDbEntity
  8
02製品
  6
ByBlock
100
AcDbLine
 10
3905.557729784133
 20
1824.740127552224
 30
0.0
 11
3906.253759151128
 21
1823.53456919184
 31
0.0
  0
LINE
  5
10E8E
330
1F
100
AcDbEntity
  8
02製品
  6
ByBlock
100
AcDbLine
 10
3905.651846807761
 20
1820.987333582376
 30
0.0
 11
3906.253762231903
 21
1823.534552989602
 31
0.0
  0
LINE
  5
10E8F
330
1F
100
AcDbEntity
  8
02製品
  6
ByBlock
100
AcDbLine
 10
3905.557718907624
 20
1824.740071768073
 30
0.0
 11
3900.753748570708
 21
1824.740071768073
 31
0.0
  0
LINE
  5
10E90
330
1F
100
AcDbEntity
  8
02製品
  6
ByBlock
100
AcDbLine
 10
3905.651835118559
 20
1820.987309927254
 30
0.0
 11
3900.753748570708
 21
1820.987309927254
 31
0.0
  0
LINE
  5
10E91
330
1F
100
AcDbEntity
  8
02製品
  6
ByBlock
100
AcDbLine
 10
3905.557718907624
 20
1809.728963369636
 30
0.0
 11
3900.753748570708
 21
1809.728963369636
 31
0.0
  0
LINE
  5
10E92
330
1F
100
AcDbEntity
  8
02製品
  6
ByBlock
100
AcDbLine
 10
3906.253772538332
 20
1810.934533002221
 30
0.0
 11
3905.557750979547
 21
1809.72898816605
 31
0.0
  0
ARC
  5
10E93
330
1F
100
AcDbEntity
  8
02製品
  6
ByBlock
100
AcDbCircle
 10
3894.253748570708
 20
1817.234502310067
 30
0.0
 40
12.0
100
AcDbArc
 50
341.7762176856166
 51
18.22401954976023
  0
LINE
  5
10E94
330
1F
100
AcDbEntity
  8
02製品
  6
ByBlock
100
AcDbLine
 10
3906.253773767027
 20
1810.934548742029
 30
0.0
 11
3905.65187253726
 21
1813.481802861378
 31
0.0
  0
LINE
  5
10E95
330
1F
100
AcDbEntity
  8
02製品
  6
ByBlock
100
AcDbLine
 10
3906.25374857071
 20
1823.534520620613
 30
0.0
 11
3906.25374857071
 21
1810.934514517097
 31
0.0
  0
LINE
  5
10E96
330
1F
100
AcDbEntity
  8
02製品
  6
ByBlock
100
AcDbLine
 10
3905.651850377351
 20
1813.481755728036
 30
0.0
 11
3900.753748570708
 21
1813.481755728036
 31
0.0
  0
LINE
  5
10E97
330
1F
100
AcDbEntity
  8
02製品
  6
ByBlock
100
AcDbLine
 10
3905.557729784133
 20
1884.740127552224
 30
0.0
 11
3906.253759151128
 21
1883.53456919184
 31
0.0
  0
LINE
  5
10E98
330
1F
100
AcDbEntity
  8
02製品
  6
ByBlock
100
AcDbLine
 10
3905.651846807761
 20
1880.987333582376
 30
0.0
 11
3906.253762231903
 21
1883.534552989602
 31
0.0
  0
LINE
  5
10E99
330
1F
100
AcDbEntity
  8
02製品
  6
ByBlock
100
AcDbLine
 10
3905.557718907624
 20
1884.740071768073
 30
0.0
 11
3900.753748570708
 21
1884.740071768073
 31
0.0
  0
LINE
  5
10E9A
330
1F
100
AcDbEntity
  8
02製品
  6
ByBlock
100
AcDbLine
 10
3905.651835118559
 20
1880.987309927254
 30
0.0
 11
3900.753748570708
 21
1880.987309927254
 31
0.0
  0
LINE
  5
10E9B
330
1F
100
AcDbEntity
  8
02製品
  6
ByBlock
100
AcDbLine
 10
3905.557718907624
 20
1869.728963369636
 30
0.0
 11
3900.753748570708
 21
1869.728963369636
 31
0.0
  0
LINE
  5
10E9C
330
1F
100
AcDbEntity
  8
02製品
  6
ByBlock
100
AcDbLine
 10
3906.253772538332
 20
1870.934533002221
 30
0.0
 11
3905.557750979547
 21
1869.72898816605
 31
0.0
  0
ARC
  5
10E9D
330
1F
100
AcDbEntity
  8
02製品
  6
ByBlock
100
AcDbCircle
 10
3894.253748570708
 20
1877.234502310067
 30
0.0
 40
12.0
100
AcDbArc
 50
341.7762176856166
 51
18.22401954976023
  0
LINE
  5
10E9E
330
1F
100
AcDbEntity
  8
02製品
  6
ByBlock
100
AcDbLine
 10
3906.253773767027
 20
1870.934548742029
 30
0.0
 11
3905.65187253726
 21
1873.481802861378
 31
0.0
  0
LINE
  5
10E9F
330
1F
100
AcDbEntity
  8
02製品
  6
ByBlock
100
AcDbLine
 10
3906.25374857071
 20
1883.534520620613
 30
0.0
 11
3906.25374857071
 21
1870.934514517097
 31
0.0
  0
LINE
  5
10EA0
330
1F
100
AcDbEntity
  8
02製品
  6
ByBlock
100
AcDbLine
 10
3905.651850377351
 20
1873.481755728036
 30
0.0
 11
3900.753748570708
 21
1873.481755728036
 31
0.0
  0
LINE
  5
10EAA
330
1F
100
AcDbEntity
  8
02製品
  6
ByBlock
100
AcDbLine
 10
2515.020116298053
 20
1808.73450081995
 30
0.0
 11
2513.420110194538
 21
1808.73450081995
 31
0.0
  0
LINE
  5
10EAB
330
1F
100
AcDbEntity
  8
02製品
  6
ByBlock
100
AcDbLine
 10
2515.020116298053
 20
1825.73450081995
 30
0.0
 11
2513.420110194538
 21
1825.73450081995
 31
0.0
  0
LINE
  5
10EAC
330
1F
100
AcDbEntity
  8
02製品
  6
ByBlock
100
AcDbLine
 10
2513.420110194538
 20
1825.73450081995
 30
0.0
 11
2513.420110194538
 21
1808.73450081995
 31
0.0
  0
LINE
  5
10EAD
330
1F
100
AcDbEntity
  8
02製品
  6
ByBlock
100
AcDbLine
 10
2515.020116298053
 20
1825.73450081995
 30
0.0
 11
2515.020116298053
 21
1808.73450081995
 31
0.0
  0
LINE
  5
10EAE
330
1F
100
AcDbEntity
  8
02製品
  6
ByBlock
100
AcDbLine
 10
2519.824097511477
 20
1824.740126062109
 30
0.0
 11
2520.520126878472
 21
1823.534567701724
 31
0.0
  0
LINE
  5
10EAF
330
1F
100
AcDbEntity
  8
02製品
  6
ByBlock
100
AcDbLine
 10
2519.918214535105
 20
1820.98733209226
 30
0.0
 11
2520.520129959247
 21
1823.534551499486
 31
0.0
  0
LINE
  5
10EB0
330
1F
100
AcDbEntity
  8
02製品
  6
ByBlock
100
AcDbLine
 10
2519.824086634969
 20
1824.740070277957
 30
0.0
 11
2515.020116298053
 21
1824.740070277957
 31
0.0
  0
LINE
  5
10EB1
330
1F
100
AcDbEntity
  8
02製品
  6
ByBlock
100
AcDbLine
 10
2519.918202845904
 20
1820.987308437138
 30
0.0
 11
2515.020116298053
 21
1820.987308437138
 31
0.0
  0
LINE
  5
10EB2
330
1F
100
AcDbEntity
  8
02製品
  6
ByBlock
100
AcDbLine
 10
2519.824086634969
 20
1809.728961879521
 30
0.0
 11
2515.020116298053
 21
1809.728961879521
 31
0.0
  0
LINE
  5
10EB3
330
1F
100
AcDbEntity
  8
02製品
  6
ByBlock
100
AcDbLine
 10
2520.520140265676
 20
1810.934531512105
 30
0.0
 11
2519.824118706891
 21
1809.728986675934
 31
0.0
  0
ARC
  5
10EB4
330
1F
100
AcDbEntity
  8
02製品
  6
ByBlock
100
AcDbCircle
 10
2508.520116298052
 20
1817.234500819951
 30
0.0
 40
12.0
100
AcDbArc
 50
341.7762176856166
 51
18.22401954976504
  0
LINE
  5
10EB5
330
1F
100
AcDbEntity
  8
02製品
  6
ByBlock
100
AcDbLine
 10
2520.520141494371
 20
1810.934547251913
 30
0.0
 11
2519.918240264604
 21
1813.481801371262
 31
0.0
  0
LINE
  5
10EB6
330
1F
100
AcDbEntity
  8
02製品
  6
ByBlock
100
AcDbLine
 10
2520.520116298055
 20
1823.534519130496
 30
0.0
 11
2520.520116298055
 21
1810.934513026981
 31
0.0
  0
LINE
  5
10EB7
330
1F
100
AcDbEntity
  8
02製品
  6
ByBlock
100
AcDbLine
 10
2519.918218104695
 20
1813.48175423792
 30
0.0
 11
2515.020116298053
 21
1813.48175423792
 31
0.0
  0
LINE
  5
10EB8
330
1F
100
AcDbEntity
  8
02製品
  6
ByBlock
100
AcDbLine
 10
2515.020116298053
 20
1868.73450081995
 30
0.0
 11
2513.420110194538
 21
1868.73450081995
 31
0.0
  0
LINE
  5
10EB9
330
1F
100
AcDbEntity
  8
02製品
  6
ByBlock
100
AcDbLine
 10
2515.020116298053
 20
1885.73450081995
 30
0.0
 11
2513.420110194538
 21
1885.73450081995
 31
0.0
  0
LINE
  5
10EBA
330
1F
100
AcDbEntity
  8
02製品
  6
ByBlock
100
AcDbLine
 10
2513.420110194538
 20
1885.73450081995
 30
0.0
 11
2513.420110194538
 21
1868.73450081995
 31
0.0
  0
LINE
  5
10EBB
330
1F
100
AcDbEntity
  8
02製品
  6
ByBlock
100
AcDbLine
 10
2515.020116298053
 20
1885.73450081995
 30
0.0
 11
2515.020116298053
 21
1868.73450081995
 31
0.0
  0
LINE
  5
10EBC
330
1F
100
AcDbEntity
  8
02製品
  6
ByBlock
100
AcDbLine
 10
2519.824097511477
 20
1884.740126062109
 30
0.0
 11
2520.520126878472
 21
1883.534567701724
 31
0.0
  0
LINE
  5
10EBD
330
1F
100
AcDbEntity
  8
02製品
  6
ByBlock
100
AcDbLine
 10
2519.918214535105
 20
1880.98733209226
 30
0.0
 11
2520.520129959247
 21
1883.534551499486
 31
0.0
  0
LINE
  5
10EBE
330
1F
100
AcDbEntity
  8
02製品
  6
ByBlock
100
AcDbLine
 10
2519.824086634969
 20
1884.740070277957
 30
0.0
 11
2515.020116298053
 21
1884.740070277957
 31
0.0
  0
LINE
  5
10EBF
330
1F
100
AcDbEntity
  8
02製品
  6
ByBlock
100
AcDbLine
 10
2519.918202845904
 20
1880.987308437138
 30
0.0
 11
2515.020116298053
 21
1880.987308437138
 31
0.0
  0
LINE
  5
10EC0
330
1F
100
AcDbEntity
  8
02製品
  6
ByBlock
100
AcDbLine
 10
2519.824086634969
 20
1869.728961879521
 30
0.0
 11
2515.020116298053
 21
1869.728961879521
 31
0.0
  0
LINE
  5
10EC1
330
1F
100
AcDbEntity
  8
02製品
  6
ByBlock
100
AcDbLine
 10
2520.520140265676
 20
1870.934531512105
 30
0.0
 11
2519.824118706891
 21
1869.728986675934
 31
0.0
  0
ARC
  5
10EC2
330
1F
100
AcDbEntity
  8
02製品
  6
ByBlock
100
AcDbCircle
 10
2508.520116298052
 20
1877.234500819951
 30
0.0
 40
12.0
100
AcDbArc
 50
341.7762176856166
 51
18.22401954976504
  0
LINE
  5
10EC3
330
1F
100
AcDbEntity
  8
02製品
  6
ByBlock
100
AcDbLine
 10
2520.520141494371
 20
1870.934547251913
 30
0.0
 11
2519.918240264604
 21
1873.481801371262
 31
0.0
  0
LINE
  5
10EC4
330
1F
100
AcDbEntity
  8
02製品
  6
ByBlock
100
AcDbLine
 10
2520.520116298055
 20
1883.534519130496
 30
0.0
 11
2520.520116298055
 21
1870.934513026981
 31
0.0
  0
LINE
  5
10EC5
330
1F
100
AcDbEntity
  8
02製品
  6
ByBlock
100
AcDbLine
 10
2519.918218104695
 20
1873.48175423792
 30
0.0
 11
2515.020116298053
 21
1873.48175423792
 31
0.0
  0
LINE
  5
10EC6
330
1F
100
AcDbEntity
  8
02製品
  6
ByBlock
100
AcDbLine
 10
2515.020116298053
 20
1918.734500819949
 30
0.0
 11
2513.420110194538
 21
1918.734500819949
 31
0.0
  0
LINE
  5
10EC7
330
1F
100
AcDbEntity
  8
02製品
  6
ByBlock
100
AcDbLine
 10
2515.020116298053
 20
1935.734500819949
 30
0.0
 11
2513.420110194538
 21
1935.734500819949
 31
0.0
  0
LINE
  5
10EC8
330
1F
100
AcDbEntity
  8
02製品
  6
ByBlock
100
AcDbLine
 10
2513.420110194538
 20
1935.734500819949
 30
0.0
 11
2513.420110194538
 21
1918.734500819949
 31
0.0
  0
LINE
  5
10EC9
330
1F
100
AcDbEntity
  8
02製品
  6
ByBlock
100
AcDbLine
 10
2515.020116298053
 20
1935.734500819949
 30
0.0
 11
2515.020116298053
 21
1918.734500819949
 31
0.0
  0
LINE
  5
10ECA
330
1F
100
AcDbEntity
  8
02製品
  6
ByBlock
100
AcDbLine
 10
2519.824086634969
 20
1919.728961879519
 30
0.0
 11
2515.020116298053
 21
1919.728961879519
 31
0.0
  0
LINE
  5
10ECB
330
1F
100
AcDbEntity
  8
02製品
  6
ByBlock
100
AcDbLine
 10
2520.520116298055
 20
1933.534519130495
 30
0.0
 11
2520.520116298055
 21
1920.93451302698
 31
0.0
  0
LINE
  5
10ECC
330
1F
100
AcDbEntity
  8
02製品
  6
ByBlock
100
AcDbLine
 10
2520.520141494371
 20
1920.934547251911
 30
0.0
 11
2519.918240264604
 21
1923.481801371261
 31
0.0
  0
ARC
  5
10ECD
330
1F
100
AcDbEntity
  8
02製品
  6
ByBlock
100
AcDbCircle
 10
2508.520116298052
 20
1927.23450081995
 30
0.0
 40
12.0
100
AcDbArc
 50
341.7762176856166
 51
18.22401954976504
  0
LINE
  5
10ECE
330
1F
100
AcDbEntity
  8
02製品
  6
ByBlock
100
AcDbLine
 10
2520.520140265676
 20
1920.934531512104
 30
0.0
 11
2519.824118706891
 21
1919.728986675933
 31
0.0
  0
LINE
  5
10ECF
330
1F
100
AcDbEntity
  8
02製品
  6
ByBlock
100
AcDbLine
 10
2519.918218104695
 20
1923.481754237918
 30
0.0
 11
2515.020116298053
 21
1923.481754237918
 31
0.0
  0
LINE
  5
10ED0
330
1F
100
AcDbEntity
  8
02製品
  6
ByBlock
100
AcDbLine
 10
2519.918202845904
 20
1930.987308437137
 30
0.0
 11
2515.020116298053
 21
1930.987308437137
 31
0.0
  0
LINE
  5
10ED1
330
1F
100
AcDbEntity
  8
02製品
  6
ByBlock
100
AcDbLine
 10
2519.824086634969
 20
1934.740070277956
 30
0.0
 11
2515.020116298053
 21
1934.740070277956
 31
0.0
  0
LINE
  5
10ED2
330
1F
100
AcDbEntity
  8
02製品
  6
ByBlock
100
AcDbLine
 10
2519.918214535105
 20
1930.987332092258
 30
0.0
 11
2520.520129959247
 21
1933.534551499485
 31
0.0
  0
LINE
  5
10ED3
330
1F
100
AcDbEntity
  8
02製品
  6
ByBlock
100
AcDbLine
 10
2519.824097511477
 20
1934.740126062107
 30
0.0
 11
2520.520126878472
 21
1933.534567701723
 31
0.0
  0
LINE
  5
10ED4
330
1F
100
AcDbEntity
  8
02製品
  6
ByBlock
100
AcDbLine
 10
1259.820094077443
 20
1918.734500819949
 30
0.0
 11
1261.420100180958
 21
1918.734500819949
 31
0.0
  0
LINE
  5
10ED5
330
1F
100
AcDbEntity
  8
02製品
  6
ByBlock
100
AcDbLine
 10
1259.820094077443
 20
1935.734500819949
 30
0.0
 11
1261.420100180958
 21
1935.734500819949
 31
0.0
  0
LINE
  5
10ED6
330
1F
100
AcDbEntity
  8
02製品
  6
ByBlock
100
AcDbLine
 10
1261.420100180958
 20
1935.734500819949
 30
0.0
 11
1261.420100180958
 21
1918.734500819949
 31
0.0
  0
LINE
  5
10ED7
330
1F
100
AcDbEntity
  8
02製品
  6
ByBlock
100
AcDbLine
 10
1259.820094077443
 20
1935.734500819949
 30
0.0
 11
1259.820094077443
 21
1918.734500819949
 31
0.0
  0
LINE
  5
10ED8
330
1F
100
AcDbEntity
  8
02製品
  6
ByBlock
100
AcDbLine
 10
1255.016112864018
 20
1934.740126062107
 30
0.0
 11
1254.320083497024
 21
1933.534567701723
 31
0.0
  0
LINE
  5
10ED9
330
1F
100
AcDbEntity
  8
02製品
  6
ByBlock
100
AcDbLine
 10
1254.921995840391
 20
1930.987332092258
 30
0.0
 11
1254.320080416248
 21
1933.534551499485
 31
0.0
  0
LINE
  5
10EDA
330
1F
100
AcDbEntity
  8
02製品
  6
ByBlock
100
AcDbLine
 10
1255.016123740527
 20
1934.740070277956
 30
0.0
 11
1259.820094077443
 21
1934.740070277956
 31
0.0
  0
LINE
  5
10EDB
330
1F
100
AcDbEntity
  8
02製品
  6
ByBlock
100
AcDbLine
 10
1254.922007529592
 20
1930.987308437137
 30
0.0
 11
1259.820094077443
 21
1930.987308437137
 31
0.0
  0
LINE
  5
10EDC
330
1F
100
AcDbEntity
  8
02製品
  6
ByBlock
100
AcDbLine
 10
1259.820094077443
 20
1808.73450081995
 30
0.0
 11
1261.420100180958
 21
1808.73450081995
 31
0.0
  0
LINE
  5
10EDD
330
1F
100
AcDbEntity
  8
02製品
  6
ByBlock
100
AcDbLine
 10
1259.820094077443
 20
1825.73450081995
 30
0.0
 11
1261.420100180958
 21
1825.73450081995
 31
0.0
  0
LINE
  5
10EDE
330
1F
100
AcDbEntity
  8
02製品
  6
ByBlock
100
AcDbLine
 10
1261.420100180958
 20
1825.73450081995
 30
0.0
 11
1261.420100180958
 21
1808.73450081995
 31
0.0
  0
LINE
  5
10EDF
330
1F
100
AcDbEntity
  8
02製品
  6
ByBlock
100
AcDbLine
 10
1259.820094077443
 20
1825.73450081995
 30
0.0
 11
1259.820094077443
 21
1808.73450081995
 31
0.0
  0
LINE
  5
10EE0
330
1F
100
AcDbEntity
  8
02製品
  6
ByBlock
100
AcDbLine
 10
1259.820094077443
 20
1868.73450081995
 30
0.0
 11
1261.420100180958
 21
1868.73450081995
 31
0.0
  0
LINE
  5
10EE1
330
1F
100
AcDbEntity
  8
02製品
  6
ByBlock
100
AcDbLine
 10
1259.820094077443
 20
1885.73450081995
 30
0.0
 11
1261.420100180958
 21
1885.73450081995
 31
0.0
  0
LINE
  5
10EE2
330
1F
100
AcDbEntity
  8
02製品
  6
ByBlock
100
AcDbLine
 10
1261.420100180958
 20
1885.73450081995
 30
0.0
 11
1261.420100180958
 21
1868.73450081995
 31
0.0
  0
LINE
  5
10EE3
330
1F
100
AcDbEntity
  8
02製品
  6
ByBlock
100
AcDbLine
 10
1259.820094077443
 20
1885.73450081995
 30
0.0
 11
1259.820094077443
 21
1868.73450081995
 31
0.0
  0
LINE
  5
10EE4
330
1F
100
AcDbEntity
  8
02製品
  6
ByBlock
100
AcDbLine
 10
1255.016123740527
 20
1919.728961879519
 30
0.0
 11
1259.820094077443
 21
1919.728961879519
 31
0.0
  0
LINE
  5
10EE5
330
1F
100
AcDbEntity
  8
02製品
  6
ByBlock
100
AcDbLine
 10
1254.320070109819
 20
1920.934531512104
 30
0.0
 11
1255.016091668605
 21
1919.728986675933
 31
0.0
  0
ARC
  5
10EE6
330
1F
100
AcDbEntity
  8
02製品
  6
ByBlock
100
AcDbCircle
 10
1266.320094077444
 20
1927.23450081995
 30
0.0
 40
12.0
100
AcDbArc
 50
161.775980450235
 51
198.2237823143833
  0
LINE
  5
10EE7
330
1F
100
AcDbEntity
  8
02製品
  6
ByBlock
100
AcDbLine
 10
1254.320068881125
 20
1920.934547251911
 30
0.0
 11
1254.921970110892
 21
1923.481801371261
 31
0.0
  0
LINE
  5
10EE8
330
1F
100
AcDbEntity
  8
02製品
  6
ByBlock
100
AcDbLine
 10
1254.320094077441
 20
1933.534519130495
 30
0.0
 11
1254.320094077441
 21
1920.93451302698
 31
0.0
  0
LINE
  5
10EE9
330
1F
100
AcDbEntity
  8
02製品
  6
ByBlock
100
AcDbLine
 10
1254.921992270801
 20
1923.481754237918
 30
0.0
 11
1259.820094077443
 21
1923.481754237918
 31
0.0
  0
LINE
  5
10EEA
330
1F
100
AcDbEntity
  8
02製品
  6
ByBlock
100
AcDbLine
 10
1255.016112864018
 20
1824.740126062109
 30
0.0
 11
1254.320083497024
 21
1823.534567701724
 31
0.0
  0
LINE
  5
10EEB
330
1F
100
AcDbEntity
  8
02製品
  6
ByBlock
100
AcDbLine
 10
1254.921995840391
 20
1820.98733209226
 30
0.0
 11
1254.320080416248
 21
1823.534551499486
 31
0.0
  0
LINE
  5
10EEC
330
1F
100
AcDbEntity
  8
02製品
  6
ByBlock
100
AcDbLine
 10
1255.016123740527
 20
1824.740070277957
 30
0.0
 11
1259.820094077443
 21
1824.740070277957
 31
0.0
  0
LINE
  5
10EED
330
1F
100
AcDbEntity
  8
02製品
  6
ByBlock
100
AcDbLine
 10
1254.922007529592
 20
1820.987308437138
 30
0.0
 11
1259.820094077443
 21
1820.987308437138
 31
0.0
  0
LINE
  5
10EEE
330
1F
100
AcDbEntity
  8
02製品
  6
ByBlock
100
AcDbLine
 10
1255.016123740527
 20
1809.728961879521
 30
0.0
 11
1259.820094077443
 21
1809.728961879521
 31
0.0
  0
LINE
  5
10EEF
330
1F
100
AcDbEntity
  8
02製品
  6
ByBlock
100
AcDbLine
 10
1254.320070109819
 20
1810.934531512105
 30
0.0
 11
1255.016091668605
 21
1809.728986675934
 31
0.0
  0
ARC
  5
10EF0
330
1F
100
AcDbEntity
  8
02製品
  6
ByBlock
100
AcDbCircle
 10
1266.320094077444
 20
1817.234500819951
 30
0.0
 40
12.0
100
AcDbArc
 50
161.775980450235
 51
198.2237823143833
  0
LINE
  5
10EF1
330
1F
100
AcDbEntity
  8
02製品
  6
ByBlock
100
AcDbLine
 10
1254.320068881125
 20
1810.934547251913
 30
0.0
 11
1254.921970110892
 21
1813.481801371262
 31
0.0
  0
LINE
  5
10EF2
330
1F
100
AcDbEntity
  8
02製品
  6
ByBlock
100
AcDbLine
 10
1254.320094077441
 20
1823.534519130496
 30
0.0
 11
1254.320094077441
 21
1810.934513026981
 31
0.0
  0
LINE
  5
10EF3
330
1F
100
AcDbEntity
  8
02製品
  6
ByBlock
100
AcDbLine
 10
1254.921992270801
 20
1813.48175423792
 30
0.0
 11
1259.820094077443
 21
1813.48175423792
 31
0.0
  0
LINE
  5
10EF4
330
1F
100
AcDbEntity
  8
02製品
  6
ByBlock
100
AcDbLine
 10
1255.016112864018
 20
1884.740126062109
 30
0.0
 11
1254.320083497024
 21
1883.534567701724
 31
0.0
  0
LINE
  5
10EF5
330
1F
100
AcDbEntity
  8
02製品
  6
ByBlock
100
AcDbLine
 10
1254.921995840391
 20
1880.98733209226
 30
0.0
 11
1254.320080416248
 21
1883.534551499486
 31
0.0
  0
LINE
  5
10EF6
330
1F
100
AcDbEntity
  8
02製品
  6
ByBlock
100
AcDbLine
 10
1255.016123740527
 20
1884.740070277957
 30
0.0
 11
1259.820094077443
 21
1884.740070277957
 31
0.0
  0
LINE
  5
10EF7
330
1F
100
AcDbEntity
  8
02製品
  6
ByBlock
100
AcDbLine
 10
1254.922007529592
 20
1880.987308437138
 30
0.0
 11
1259.820094077443
 21
1880.987308437138
 31
0.0
  0
LINE
  5
10EF8
330
1F
100
AcDbEntity
  8
02製品
  6
ByBlock
100
AcDbLine
 10
1255.016123740527
 20
1869.728961879521
 30
0.0
 11
1259.820094077443
 21
1869.728961879521
 31
0.0
  0
LINE
  5
10EF9
330
1F
100
AcDbEntity
  8
02製品
  6
ByBlock
100
AcDbLine
 10
1254.320070109819
 20
1870.934531512105
 30
0.0
 11
1255.016091668605
 21
1869.728986675934
 31
0.0
  0
ARC
  5
10EFA
330
1F
100
AcDbEntity
  8
02製品
  6
ByBlock
100
AcDbCircle
 10
1266.320094077444
 20
1877.234500819951
 30
0.0
 40
12.0
100
AcDbArc
 50
161.775980450235
 51
198.2237823143833
  0
LINE
  5
10EFB
330
1F
100
AcDbEntity
  8
02製品
  6
ByBlock
100
AcDbLine
 10
1254.320068881125
 20
1870.934547251913
 30
0.0
 11
1254.921970110892
 21
1873.481801371262
 31
0.0
  0
LINE
  5
10EFC
330
1F
100
AcDbEntity
  8
02製品
  6
ByBlock
100
AcDbLine
 10
1254.320094077441
 20
1883.534519130496
 30
0.0
 11
1254.320094077441
 21
1870.934513026981
 31
0.0
  0
LINE
  5
10EFD
330
1F
100
AcDbEntity
  8
02製品
  6
ByBlock
100
AcDbLine
 10
1254.921992270801
 20
1873.48175423792
 30
0.0
 11
1259.820094077443
 21
1873.48175423792
 31
0.0
  0
LINE
  5
10F0C
330
1F
100
AcDbEntity
  8
02製品
  6
Continuous
100
AcDbLine
 10
1872.4201302217
 20
2472.353018382249
 30
0.0
 11
1872.4201302217
 21
3158.353037694153
 31
0.0
  0
LINE
  5
10F0D
330
1F
100
AcDbEntity
  8
02製品
  6
Continuous
100
AcDbLine
 10
1902.420123963212
 20
2472.353018382249
 30
0.0
 11
1902.420123963212
 21
3158.353037694153
 31
0.0
  0
LINE
  5
10F9D
330
1F
100
AcDbEntity
  8
02製品
100
AcDbLine
 10
1348.940099942536
 20
2472.353018382249
 30
0.0
 11
1305.420099942539
 21
2569.889018382256
 31
0.0
  0
LINE
  5
10F9E
330
1F
100
AcDbEntity
  8
02製品
100
AcDbLine
 10
1305.420099942539
 20
2472.353018382249
 30
0.0
 11
1348.940099942543
 21
2569.889018382256
 31
0.0
  0
LINE
  5
10F9F
330
1F
100
AcDbEntity
  8
02製品
100
AcDbLine
 10
1305.420099942539
 20
2537.377018382253
 30
0.0
 11
1334.433433275875
 21
2602.401018382244
 31
0.0
  0
LINE
  5
10FA0
330
1F
100
AcDbEntity
  8
02製品
100
AcDbLine
 10
1305.420099942539
 20
2504.865018382251
 30
0.0
 11
1341.686766609209
 21
2586.14501838225
 31
0.0
  0
LINE
  5
10FA1
330
1F
100
AcDbEntity
  8
02製品
100
AcDbLine
 10
1363.446766609204
 20
2472.353018382249
 30
0.0
 11
1305.420099942539
 21
2602.401018382258
 31
0.0
  0
LINE
  5
10FA2
330
1F
100
AcDbEntity
  8
02製品
100
AcDbLine
 10
1377.953433275872
 20
2472.353018382249
 30
0.0
 11
1305.420099942539
 21
2634.913018382261
 31
0.0
  0
LINE
  5
10FA3
330
1F
100
AcDbEntity
  8
02製品
100
AcDbLine
 10
1334.433433275868
 20
2472.353018382249
 30
0.0
 11
1305.420099942539
 21
2537.377018382253
 31
0.0
  0
LINE
  5
10FA4
330
1F
100
AcDbEntity
  8
02製品
100
AcDbLine
 10
1319.9267666092
 20
2472.353018382249
 30
0.0
 11
1305.420099942539
 21
2504.865018382266
 31
0.0
  0
LINE
  5
10FA5
330
1F
100
AcDbEntity
  8
02製品
100
AcDbLine
 10
1377.953433275872
 20
2472.353018382249
 30
0.0
 11
1385.206766609206
 21
2488.609018382243
 31
0.0
  0
LINE
  5
10FA6
330
1F
100
AcDbEntity
  8
02製品
100
AcDbLine
 10
1363.446766609204
 20
2472.353018382249
 30
0.0
 11
1377.953433275872
 21
2504.865018382251
 31
0.0
  0
LINE
  5
10FA7
330
1F
100
AcDbEntity
  8
02製品
100
AcDbLine
 10
1348.940099942543
 20
2472.353018382249
 30
0.0
 11
1370.700099942538
 21
2521.12101838226
 31
0.0
  0
LINE
  5
10FA8
330
1F
100
AcDbEntity
  8
02製品
100
AcDbLine
 10
1319.926766609207
 20
2472.353018382249
 30
0.0
 11
1356.193433275877
 21
2553.633018382247
 31
0.0
  0
LINE
  5
10FA9
330
1F
100
AcDbEntity
  8
02製品
100
AcDbLine
 10
1334.433433275875
 20
2472.353018382249
 30
0.0
 11
1363.446766609204
 21
2537.377018382253
 31
0.0
  0
LINE
  5
10FAA
330
1F
100
AcDbEntity
  8
02製品
100
AcDbLine
 10
1305.420099942539
 20
2569.889018382256
 30
0.0
 11
1327.180099942541
 21
2618.657018382252
 31
0.0
  0
LINE
  5
10FAB
330
1F
100
AcDbEntity
  8
02製品
100
AcDbLine
 10
1305.420099942539
 20
2602.401018382244
 30
0.0
 11
1319.926766609207
 21
2634.913018382246
 31
0.0
  0
LINE
  5
10FAC
330
1F
100
AcDbEntity
  8
02製品
100
AcDbLine
 10
1305.420099942539
 20
2634.913018382246
 30
0.0
 11
1312.673433275873
 21
2651.169018382255
 31
0.0
  0
LINE
  5
10FAF
330
1F
100
AcDbEntity
  8
02製品
100
AcDbLine
 10
1894.673460425799
 20
2698.655419375656
 30
0.0
 11
1836.646793759153
 21
2828.70341937562
 31
0.0
  0
LINE
  5
10FB0
330
1F
100
AcDbEntity
  8
02製品
100
AcDbLine
 10
1836.646793759148
 20
2796.191419375618
 30
0.0
 11
1894.673460425833
 21
2926.239419375657
 31
0.0
  0
LINE
  5
10FB1
330
1F
100
AcDbEntity
  8
02製品
100
AcDbLine
 10
1843.900127092479
 20
2779.935419375622
 30
0.0
 11
1901.926793759164
 21
2909.983419375661
 31
0.0
  0
LINE
  5
10FB2
330
1F
100
AcDbEntity
  8
02製品
100
AcDbLine
 10
1851.153460425809
 20
2763.679419375626
 30
0.0
 11
1909.180127092495
 21
2893.727419375666
 31
0.0
  0
LINE
  5
10FB3
330
1F
100
AcDbEntity
  8
02製品
100
AcDbLine
 10
1858.406793759139
 20
2747.42341937563
 30
0.0
 11
1916.433460425825
 21
2877.47141937567
 31
0.0
  0
LINE
  5
10FB4
330
1F
100
AcDbEntity
  8
02製品
100
AcDbLine
 10
1865.66012709247
 20
2731.167419375633
 30
0.0
 11
1923.686793759156
 21
2861.215419375675
 31
0.0
  0
LINE
  5
10FB5
330
1F
100
AcDbEntity
  8
02製品
100
AcDbLine
 10
1872.9134604258
 20
2714.911419375638
 30
0.0
 11
1930.940127092487
 21
2844.959419375679
 31
0.0
  0
LINE
  5
10FB6
330
1F
100
AcDbEntity
  8
02製品
100
AcDbLine
 10
1880.166793759131
 20
2698.655419375642
 30
0.0
 11
1938.193460425817
 21
2828.703419375684
 31
0.0
  0
LINE
  5
10FB7
330
1F
100
AcDbEntity
  8
02製品
100
AcDbLine
 10
1901.926793759134
 20
2714.91141937566
 30
0.0
 11
1843.900127092488
 21
2844.959419375627
 31
0.0
  0
LINE
  5
10FB8
330
1F
100
AcDbEntity
  8
02製品
100
AcDbLine
 10
1909.18012709247
 20
2731.167419375665
 30
0.0
 11
1851.153460425823
 21
2861.215419375632
 31
0.0
  0
LINE
  5
10FB9
330
1F
100
AcDbEntity
  8
02製品
100
AcDbLine
 10
1916.433460425806
 20
2747.423419375669
 30
0.0
 11
1858.406793759158
 21
2877.471419375639
 31
0.0
  0
LINE
  5
10FBA
330
1F
100
AcDbEntity
  8
02製品
100
AcDbLine
 10
1923.686793759141
 20
2763.679419375674
 30
0.0
 11
1865.660127092493
 21
2893.727419375646
 31
0.0
  0
LINE
  5
10FBB
330
1F
100
AcDbEntity
  8
02製品
100
AcDbLine
 10
1930.940127092477
 20
2779.935419375679
 30
0.0
 11
1872.913460425827
 21
2909.983419375651
 31
0.0
  0
LINE
  5
10FBC
330
1F
100
AcDbEntity
  8
02製品
100
AcDbLine
 10
1938.193460425812
 20
2796.191419375684
 30
0.0
 11
1880.166793759162
 21
2926.239419375657
 31
0.0
  0
LINE
  5
10FBD
330
1F
100
AcDbEntity
  8
02製品
100
AcDbLine
 10
2396.886777099619
 20
3158.353037694153
 30
0.0
 11
2389.633443766285
 21
3142.097037694145
 31
0.0
  0
LINE
  5
10FBE
330
1F
100
AcDbEntity
  8
02製品
100
AcDbLine
 10
2425.900110432951
 20
3158.353037694153
 30
0.0
 11
2404.140110432953
 21
3109.585037694157
 31
0.0
  0
LINE
  5
10FBF
330
1F
100
AcDbEntity
  8
02製品
100
AcDbLine
 10
2411.393443766287
 20
3158.353037694153
 30
0.0
 11
2396.886777099619
 21
3125.841037694151
 31
0.0
  0
LINE
  5
10FC0
330
1F
100
AcDbEntity
  8
02製品
100
AcDbLine
 10
2440.406777099623
 20
3158.353037694153
 30
0.0
 11
2469.420110432955
 21
3093.329037694149
 31
0.0
  0
LINE
  5
10FC1
330
1F
100
AcDbEntity
  8
02製品
100
AcDbLine
 10
2454.913443766291
 20
3158.353037694153
 30
0.0
 11
2469.420110432955
 21
3125.841037694151
 31
0.0
  0
LINE
  5
10FC2
330
1F
100
AcDbEntity
  8
02製品
100
AcDbLine
 10
2396.886777099626
 20
3158.353037694153
 30
0.0
 11
2469.420110432955
 21
2995.793037694156
 31
0.0
  0
LINE
  5
10FC3
330
1F
100
AcDbEntity
  8
02製品
100
AcDbLine
 10
2411.393443766294
 20
3158.353037694153
 30
0.0
 11
2469.420110432955
 21
3028.305037694144
 31
0.0
  0
LINE
  5
10FC4
330
1F
100
AcDbEntity
  8
02製品
100
AcDbLine
 10
2454.913443766291
 20
3158.353037694153
 30
0.0
 11
2418.646777099621
 21
3077.073037694155
 31
0.0
  0
LINE
  5
10FC5
330
1F
100
AcDbEntity
  8
02製品
100
AcDbLine
 10
2469.420110432955
 20
3158.353037694153
 30
0.0
 11
2425.900110432951
 21
3060.817037694146
 31
0.0
  0
LINE
  5
10FC6
330
1F
100
AcDbEntity
  8
02製品
100
AcDbLine
 10
2425.900110432955
 20
3158.353037694153
 30
0.0
 11
2469.420110432955
 21
3060.817037694146
 31
0.0
  0
LINE
  5
10FC7
330
1F
100
AcDbEntity
  8
02製品
100
AcDbLine
 10
2440.406777099619
 20
3158.353037694153
 30
0.0
 11
2411.393443766287
 21
3093.329037694149
 31
0.0
  0
LINE
  5
10FC8
330
1F
100
AcDbEntity
  8
02製品
100
AcDbLine
 10
2469.420110432955
 20
2995.793037694156
 30
0.0
 11
2462.166777099618
 21
2979.537037694162
 31
0.0
  0
LINE
  5
10FC9
330
1F
100
AcDbEntity
  8
02製品
100
AcDbLine
 10
2469.420110432955
 20
3093.329037694163
 30
0.0
 11
2440.406777099619
 21
3028.305037694158
 31
0.0
  0
LINE
  5
10FCA
330
1F
100
AcDbEntity
  8
02製品
100
AcDbLine
 10
2469.420110432955
 20
3125.841037694151
 30
0.0
 11
2433.153443766285
 21
3044.561037694152
 31
0.0
  0
LINE
  5
10FCB
330
1F
100
AcDbEntity
  8
02製品
100
AcDbLine
 10
2469.420110432955
 20
3060.817037694146
 30
0.0
 11
2447.66011043295
 21
3012.04903769415
 31
0.0
  0
LINE
  5
10FCC
330
1F
100
AcDbEntity
  8
02製品
100
AcDbLine
 10
2469.420110432955
 20
3028.305037694158
 30
0.0
 11
2454.913443766291
 21
2995.793037694156
 31
0.0
  0
ENDSEC
  0
SECTION
  2
OBJECTS
  0
DICTIONARY
  5
C
330
0
100
AcDbDictionary
281
     1
  3
ACAD_DETAILVIEWSTYLE
350
C55E
  3
ACAD_GROUP
350
D
  3
ACAD_IMAGE_VARS
350
6A88
  3
ACAD_LAYOUT
350
1A
  3
ACAD_MLINESTYLE
350
17
  3
ACAD_PLOTSETTINGS
350
19
  3
ACAD_PLOTSTYLENAME
350
E
  3
ACAD_SCALELIST
350
6A4E
  3
ACAD_SECTIONVIEWSTYLE
350
C55F
  3
AcadDim
350
813A
  3
AcDbVariableDictionary
350
79E
  3
AEC_DISP_REPS
350
8259
  3
AEC_DISPLAY_PROPS_DEFAULTS
350
825B
  3
AEC_VARS
350
8257
  3
APPDATA
350
6A87
  3
DWGPROPS
350
110A7
  0
DICTIONARY
  5
7A6F
330
2
100
AcDbDictionary
280
     1
281
     1
  3
ACAD_LAYERFILTERS
360
A22F
  3
ACAD_LAYERSTATES
360
7A70
  3
ACLYDICTIONARY
360
9C30
  0
DICTIONARY
  5
C55E
102
{ACAD_REACTORS
330
C
102
}
330
C
100
AcDbDictionary
281
     1
  0
DICTIONARY
  5
D
102
{ACAD_REACTORS
330
C
102
}
330
C
100
AcDbDictionary
281
     1
  0
RASTERVARIABLES
  5
6A88
102
{ACAD_REACTORS
330
C
102
}
330
C
100
AcDbRasterVariables
 90
        0
 70
     1
 71
     1
 72
     1
  0
DICTIONARY
  5
1A
102
{ACAD_REACTORS
330
C
102
}
330
C
100
AcDbDictionary
281
     1
  3
Layout1
350
1E
  3
Layout2
350
26
  3
Model
350
22
  0
DICTIONARY
  5
17
102
{ACAD_REACTORS
330
C
102
}
330
C
100
AcDbDictionary
281
     1
  3
Standard
350
18
  0
DICTIONARY
  5
19
102
{ACAD_REACTORS
330
C
102
}
330
C
100
AcDbDictionary
281
     1
  0
ACDBDICTIONARYWDFLT
  5
E
102
{ACAD_REACTORS
330
C
102
}
330
C
100
AcDbDictionary
281
     1
  3
Normal
350
F
100
AcDbDictionaryWithDefault
340
F
  0
DICTIONARY
  5
6A4E
102
{ACAD_REACTORS
330
C
102
}
330
C
100
AcDbDictionary
281
     1
  3
A0
350
6A4F
  3
A1
350
6A50
  3
A2
350
6A51
  3
A3
350
6A52
  3
A4
350
6A53
  3
A5
350
6A54
  3
A6
350
6A55
  3
A7
350
6A56
  3
A8
350
6A57
  3
A9
350
6A58
  3
B0
350
6A59
  3
B1
350
6A5A
  3
B2
350
6A5B
  3
B3
350
6A5C
  3
B4
350
6A5D
  3
B5
350
6A5E
  3
B6
350
6A5F
  3
B7
350
6A60
  3
B8
350
6A61
  3
B9
350
6A62
  3
C0
350
6A63
  3
C1
350
6A64
  3
C2
350
6A65
  3
C3
350
6A66
  3
C4
350
6A67
  3
C5
350
6A68
  3
C6
350
6A69
  3
C7
350
6A6A
  3
C8
350
6A6B
  3
C9
350
6A6C
  3
D0
350
6A6D
  3
D1
350
6A6E
  3
D2
350
6A6F
  0
DICTIONARY
  5
C55F
102
{ACAD_REACTORS
330
C
102
}
330
C
100
AcDbDictionary
281
     1
  0
XRECORD
  5
813A
102
{ACAD_REACTORS
330
C
102
}
330
C
100
AcDbXrecord
280
     1
340
0
 72
     0
 71
     0
 70
     0
 69
     0
 68
     1
 67
     3
 66
     0
 65
     0
 64
     0
 63
     3
 62
     1
 61
     0
 60
     0
 40
0.0
  0
DICTIONARY
  5
79E
102
{ACAD_REACTORS
330
C
102
}
330
C
100
AcDbDictionary
281
     1
  3
DIMASSOC
350
79F
  3
SORTENTS
350
264F
  0
DICTIONARY
  5
8259
102
{ACAD_REACTORS
330
C
102
}
330
C
100
AcDbDictionary
281
     1
  3
AecDbDispRep2dSection
350
825A
  3
AecDbDispRepAnchor
350
8294
  3
AecDbDispRepAnchorEntToNode
350
8295
  3
AecDbDispRepClipVolModel
350
8261
  3
AecDbDispRepClipVolPlan
350
8263
  3
AecDbDispRepClipVolResSubDiv
350
8266
  3
AecDbDispRepClipVolResult
350
8265
  3
AecDbDispRepDisplayTheme
350
8268
  3
AecDbDispRepEditInPlaceProfile
350
8299
  3
AecDbDispRepEntRef
350
826A
  3
AecDbDispRepLayoutCurve
350
826C
  3
AecDbDispRepLayoutGrid2d
350
826E
  3
AecDbDispRepLayoutGrid3d
350
8270
  3
AecDbDispRepMaskBlockRef
350
8272
  3
AecDbDispRepMaskBlockRefRcp
350
8274
  3
AecDbDispRepMassElemModel
350
8276
  3
AecDbDispRepMassElemPlan100
350
827C
  3
AecDbDispRepMassElemPlan50
350
827A
  3
AecDbDispRepMassElemRcp
350
827E
  3
AecDbDispRepMassElemSchem
350
8278
  3
AecDbDispRepMassGroupModel
350
8280
  3
AecDbDispRepMassGroupPlan
350
8282
  3
AecDbDispRepMassGroupPlan100
350
8286
  3
AecDbDispRepMassGroupPlan50
350
8284
  3
AecDbDispRepMassGroupRcp
350
8288
  3
AecDbDispRepMaterial
350
8297
  3
AecDbDispRepMvBlockRef
350
828A
  3
AecDbDispRepMvBlockRefModel
350
828B
  3
AecDbDispRepMvBlockRefPlan100
350
828C
  3
AecDbDispRepMvBlockRefPlan50
350
828D
  3
AecDbDispRepPolygonModel
350
828E
  3
AecDbDispRepPolygonTrueColour
350
8290
  3
AecDbDispRepSlice
350
8292
  0
DICTIONARY
  5
825B
102
{ACAD_REACTORS
330
C
102
}
330
C
100
AcDbDictionary
281
     1
  3
*A1
350
825C
  3
*A10
350
827D
  3
*A11
350
827F
  3
*A12
350
8296
  3
*A13
350
8281
  3
*A14
350
8285
  3
*A15
350
8262
  3
*A16
350
8287
  3
*A17
350
8289
  3
*A18
350
828F
  3
*A19
350
8291
  3
*A2
350
826D
  3
*A20
350
8293
  3
*A21
350
8298
  3
*A22
350
8273
  3
*A23
350
829A
  3
*A24
350
8264
  3
*A25
350
8267
  3
*A26
350
8269
  3
*A27
350
826B
  3
*A3
350
826F
  3
*A4
350
8283
  3
*A5
350
8271
  3
*A6
350
8275
  3
*A7
350
8277
  3
*A8
350
8279
  3
*A9
350
827B
  0
DICTIONARY
  5
8257
102
{ACAD_REACTORS
330
C
102
}
330
C
100
AcDbDictionary
281
     1
  3
AEC_VARS_DWG_SETUP
350
8258
  0
DICTIONARY
  5
6A87
102
{ACAD_REACTORS
330
C
102
}
330
C
100
AcDbDictionary
281
     1
  0
XRECORD
  5
110A7
102
{ACAD_REACTORS
330
C
102
}
330
C
100
AcDbXrecord
280
     1
  1
DWGPROPS COOKIE
  2

  3

  4

  6

  7

  8
Sales
  9

300
=
301
=
302
=
303
=
304
=
305
=
306
=
307
=
308
=
309
=
 40
0.0
 41
2455859.030048461
 42
2458970.316695127
  1

 90
        0
  0
DICTIONARY
  5
A22F
102
{ACAD_REACTORS
330
7A6F
102
}
330
7A6F
100
AcDbDictionary
280
     1
281
     1
  0
DICTIONARY
  5
7A70
102
{ACAD_REACTORS
330
7A6F
102
}
330
7A6F
100
AcDbDictionary
281
     1
  0
DICTIONARY
  5
9C30
102
{ACAD_REACTORS
330
7A6F
102
}
330
7A6F
100
AcDbDictionary
281
     1
1001
ACAD
1000
<All
  0
LAYOUT
  5
1E
102
{ACAD_REACTORS
330
1A
102
}
330
1A
100
AcDbPlotSettings
  1

  2

  4

  6

 40
0.0
 41
0.0
 42
0.0
 43
0.0
 44
0.0
 45
0.0
 46
0.0
 47
0.0
 48
0.0
 49
0.0
140
0.0
141
0.0
142
1.0
143
1.0
 70
   688
 72
     0
 73
     0
 74
     5
  7
monochrome.ctb
 75
    16
147
1.0
148
0.0
149
0.0
100
AcDbLayout
  1
Layout1
 70
     1
 71
     1
 10
0.0
 20
0.0
 11
420.0
 21
297.0
 12
0.0
 22
0.0
 32
0.0
 14
1.000000000000000E+20
 24
1.000000000000000E+20
 34
1.000000000000000E+20
 15
-1.000000000000000E+20
 25
-1.000000000000000E+20
 35
-1.000000000000000E+20
146
0.0
 13
0.0
 23
0.0
 33
0.0
 16
1.0
 26
0.0
 36
0.0
 17
0.0
 27
1.0
 37
0.0
 76
     0
330
1B
  0
LAYOUT
  5
26
102
{ACAD_REACTORS
330
1A
102
}
330
1A
100
AcDbPlotSettings
  1

  2

  4

  6

 40
0.0
 41
0.0
 42
0.0
 43
0.0
 44
0.0
 45
0.0
 46
0.0
 47
0.0
 48
0.0
 49
0.0
140
0.0
141
0.0
142
1.0
143
1.0
 70
   688
 72
     0
 73
     0
 74
     5
  7
monochrome.ctb
 75
    16
147
1.0
148
0.0
149
0.0
100
AcDbLayout
  1
Layout2
 70
     1
 71
     2
 10
0.0
 20
0.0
 11
12.0
 21
9.0
 12
0.0
 22
0.0
 32
0.0
 14
0.0
 24
0.0
 34
0.0
 15
0.0
 25
0.0
 35
0.0
146
0.0
 13
0.0
 23
0.0
 33
0.0
 16
1.0
 26
0.0
 36
0.0
 17
0.0
 27
1.0
 37
0.0
 76
     0
330
23
  0
LAYOUT
  5
22
102
{ACAD_REACTORS
330
1A
102
}
330
1A
100
AcDbPlotSettings
  1

  2
DocuWorks PDF Creator
  4
A4
  6

 40
0.0
 41
0.0
 42
0.0
 43
0.0
 44
210.0
 45
297.0
 46
-0.0000000000000142
 47
0.0151515151515227
 48
-90.0
 49
-90.0
140
329.9999999999998
141
207.0
142
1.0
143
14.14285714285714
 70
 11956
 72
     1
 73
     1
 74
     2
  7
monochrome.ctb
 75
     0
147
0.0707070707070707
148
-4721.097235404524
149
-3094.868117709938
100
AcDbLayout
  1
Model
 70
     1
 71
     0
 10
824.3897891136139
 20
822.2994139197622
 11
5024.389789113614
 21
3792.299413919762
 12
0.0
 22
0.0
 32
0.0
 14
1254.320068881125
 24
1366.734486693646
 34
0.0
 15
3906.253773767027
 25
3202.353037455734
 35
0.0
146
0.0
 13
0.0
 23
0.0
 33
0.0
 16
1.0
 26
0.0
 36
0.0
 17
0.0
 27
1.0
 37
0.0
 76
     0
330
1F
331
A2A1
1001
PLOTTRANSPARENCY
1071
        0
  0
MLINESTYLE
  5
18
102
{ACAD_REACTORS
330
17
102
}
330
17
100
AcDbMlineStyle
  2
STANDARD
 70
     0
  3

 62
   256
 51
90.0
 52
90.0
 71
     2
 49
0.5
 62
   256
  6
BYLAYER
 49
-0.5
 62
   256
  6
BYLAYER
  0
ACDBPLACEHOLDER
  5
F
102
{ACAD_REACTORS
330
E
102
}
330
E
  0
SCALE
  5
6A4F
102
{ACAD_REACTORS
330
6A4E
102
}
330
6A4E
100
AcDbScale
 70
     0
300
1:1
140
1.0
141
1.0
290
     1
  0
SCALE
  5
6A50
102
{ACAD_REACTORS
330
6A4E
102
}
330
6A4E
100
AcDbScale
 70
     0
300
1:2
140
1.0
141
2.0
290
     0
  0
SCALE
  5
6A51
102
{ACAD_REACTORS
330
6A4E
102
}
330
6A4E
100
AcDbScale
 70
     0
300
1:4
140
1.0
141
4.0
290
     0
  0
SCALE
  5
6A52
102
{ACAD_REACTORS
330
6A4E
102
}
330
6A4E
100
AcDbScale
 70
     0
300
1:5
140
1.0
141
5.0
290
     0
  0
SCALE
  5
6A53
102
{ACAD_REACTORS
330
6A4E
102
}
330
6A4E
100
AcDbScale
 70
     0
300
1:8
140
1.0
141
8.0
290
     0
  0
SCALE
  5
6A54
102
{ACAD_REACTORS
330
6A4E
102
}
330
6A4E
100
AcDbScale
 70
     0
300
1:10
140
1.0
141
10.0
290
     0
  0
SCALE
  5
6A55
102
{ACAD_REACTORS
330
6A4E
102
}
330
6A4E
100
AcDbScale
 70
     0
300
1:16
140
1.0
141
16.0
290
     0
  0
SCALE
  5
6A56
102
{ACAD_REACTORS
330
6A4E
102
}
330
6A4E
100
AcDbScale
 70
     0
300
1:20
140
1.0
141
20.0
290
     0
  0
SCALE
  5
6A57
102
{ACAD_REACTORS
330
6A4E
102
}
330
6A4E
100
AcDbScale
 70
     0
300
1:30
140
1.0
141
30.0
290
     0
  0
SCALE
  5
6A58
102
{ACAD_REACTORS
330
6A4E
102
}
330
6A4E
100
AcDbScale
 70
     0
300
1:40
140
1.0
141
40.0
290
     0
  0
SCALE
  5
6A59
102
{ACAD_REACTORS
330
6A4E
102
}
330
6A4E
100
AcDbScale
 70
     0
300
1:50
140
1.0
141
50.0
290
     0
  0
SCALE
  5
6A5A
102
{ACAD_REACTORS
330
6A4E
102
}
330
6A4E
100
AcDbScale
 70
     0
300
1:100
140
1.0
141
100.0
290
     0
  0
SCALE
  5
6A5B
102
{ACAD_REACTORS
330
6A4E
102
}
330
6A4E
100
AcDbScale
 70
     0
300
2:1
140
2.0
141
1.0
290
     0
  0
SCALE
  5
6A5C
102
{ACAD_REACTORS
330
6A4E
102
}
330
6A4E
100
AcDbScale
 70
     0
300
4:1
140
4.0
141
1.0
290
     0
  0
SCALE
  5
6A5D
102
{ACAD_REACTORS
330
6A4E
102
}
330
6A4E
100
AcDbScale
 70
     0
300
8:1
140
8.0
141
1.0
290
     0
  0
SCALE
  5
6A5E
102
{ACAD_REACTORS
330
6A4E
102
}
330
6A4E
100
AcDbScale
 70
     0
300
10:1
140
10.0
141
1.0
290
     0
  0
SCALE
  5
6A5F
102
{ACAD_REACTORS
330
6A4E
102
}
330
6A4E
100
AcDbScale
 70
     0
300
100:1
140
100.0
141
1.0
290
     0
  0
SCALE
  5
6A60
102
{ACAD_REACTORS
330
6A4E
102
}
330
6A4E
100
AcDbScale
 70
     0
300
1/128" = 1'-0"
140
0.0078125
141
12.0
290
     0
  0
SCALE
  5
6A61
102
{ACAD_REACTORS
330
6A4E
102
}
330
6A4E
100
AcDbScale
 70
     0
300
1/64" = 1'-0"
140
0.015625
141
12.0
290
     0
  0
SCALE
  5
6A62
102
{ACAD_REACTORS
330
6A4E
102
}
330
6A4E
100
AcDbScale
 70
     0
300
1/32" = 1'-0"
140
0.03125
141
12.0
290
     0
  0
SCALE
  5
6A63
102
{ACAD_REACTORS
330
6A4E
102
}
330
6A4E
100
AcDbScale
 70
     0
300
1/16" = 1'-0"
140
0.0625
141
12.0
290
     0
  0
SCALE
  5
6A64
102
{ACAD_REACTORS
330
6A4E
102
}
330
6A4E
100
AcDbScale
 70
     0
300
3/32" = 1'-0"
140
0.09375
141
12.0
290
     0
  0
SCALE
  5
6A65
102
{ACAD_REACTORS
330
6A4E
102
}
330
6A4E
100
AcDbScale
 70
     0
300
1/8" = 1'-0"
140
0.125
141
12.0
290
     0
  0
SCALE
  5
6A66
102
{ACAD_REACTORS
330
6A4E
102
}
330
6A4E
100
AcDbScale
 70
     0
300
3/16" = 1'-0"
140
0.1875
141
12.0
290
     0
  0
SCALE
  5
6A67
102
{ACAD_REACTORS
330
6A4E
102
}
330
6A4E
100
AcDbScale
 70
     0
300
1/4" = 1'-0"
140
0.25
141
12.0
290
     0
  0
SCALE
  5
6A68
102
{ACAD_REACTORS
330
6A4E
102
}
330
6A4E
100
AcDbScale
 70
     0
300
3/8" = 1'-0"
140
0.375
141
12.0
290
     0
  0
SCALE
  5
6A69
102
{ACAD_REACTORS
330
6A4E
102
}
330
6A4E
100
AcDbScale
 70
     0
300
1/2" = 1'-0"
140
0.5
141
12.0
290
     0
  0
SCALE
  5
6A6A
102
{ACAD_REACTORS
330
6A4E
102
}
330
6A4E
100
AcDbScale
 70
     0
300
3/4" = 1'-0"
140
0.75
141
12.0
290
     0
  0
SCALE
  5
6A6B
102
{ACAD_REACTORS
330
6A4E
102
}
330
6A4E
100
AcDbScale
 70
     0
300
1" = 1'-0"
140
1.0
141
12.0
290
     0
  0
SCALE
  5
6A6C
102
{ACAD_REACTORS
330
6A4E
102
}
330
6A4E
100
AcDbScale
 70
     0
300
1-1/2" = 1'-0"
140
1.5
141
12.0
290
     0
  0
SCALE
  5
6A6D
102
{ACAD_REACTORS
330
6A4E
102
}
330
6A4E
100
AcDbScale
 70
     0
300
3" = 1'-0"
140
3.0
141
12.0
290
     0
  0
SCALE
  5
6A6E
102
{ACAD_REACTORS
330
6A4E
102
}
330
6A4E
100
AcDbScale
 70
     0
300
6" = 1'-0"
140
6.0
141
12.0
290
     0
  0
SCALE
  5
6A6F
102
{ACAD_REACTORS
330
6A4E
102
}
330
6A4E
100
AcDbScale
 70
     0
300
1'-0" = 1'-0"
140
12.0
141
12.0
290
     0
  0
DICTIONARYVAR
  5
79F
102
{ACAD_REACTORS
330
79E
102
}
330
79E
100
DictionaryVariables
280
     0
  1
1
  0
DICTIONARYVAR
  5
264F
102
{ACAD_REACTORS
330
79E
102
}
330
79E
100
DictionaryVariables
280
     0
  1
96
  0
ACAD_PROXY_OBJECT
  5
8258
102
{ACAD_REACTORS
330
8257
102
}
330
8257
100
AcDbProxyObject
 90
      499
 91
      509
 95
   262177
 70
     0
 93
     1864
310
5434D15054000541505428FC812095550000000000000B08000000000000008200000000000001807E8F2048F205000200001204000000000000581F8000000000000B0807EC3FA6DEBC0E99F8000000000001C07FE8FCC029594224E2D20CA600E2005C008C00E8005C008321803A80170023003A00170020898006200640
310
06001202DA008C2080248020801000140019001A801B00100021803780360037803900148010001000100010002080220019001A801B0021082008600820088008200A4008600900087A08032803180260030803C803280390029803A003200170032003B80338049C09
330
0
 94
        0
  0
ENDSEC
  0
EOF
