  0
SECTION
  2
HEADER
  9
$ACADVER
  1
AC1015
  9
$ACADMAINTVER
 70
     6
  9
$DWGCODEPAGE
  3
ANSI_932
  9
$INSBASE
 10
0.0
 20
0.0
 30
0.0
  9
$EXTMIN
 10
10528.15836169363
 20
15869.36746284068
 30
0.0
  9
$EXTMAX
 10
12947.90190716147
 20
17644.12443044029
 30
0.0
  9
$LIMMIN
 10
10013.47136339573
 20
15257.67456349717
  9
$LIMMAX
 10
14213.47136339573
 20
18227.67456349717
  9
$ORTHOMODE
 70
     0
  9
$REGENMODE
 70
     1
  9
$FILLMODE
 70
     1
  9
$QTEXTMODE
 70
     0
  9
$MIRRTEXT
 70
     1
  9
$LTSCALE
 40
3.0
  9
$ATTMODE
 70
     1
  9
$TEXTSIZE
 40
3.0
  9
$TRACEWID
 40
1.0
  9
$TEXTSTYLE
  7
Standard
  9
$CLAYER
  8
01注記寸法
  9
$CELTYPE
  6
ByLayer
  9
$CECOLOR
 62
   256
  9
$CELTSCALE
 40
1.0
  9
$DISPSILH
 70
     0
  9
$DIMSCALE
 40
10.0
  9
$DIMASZ
 40
3.0
  9
$DIMEXO
 40
1.5
  9
$DIMDLI
 40
10.0
  9
$DIMRND
 40
0.0
  9
$DIMDLE
 40
0.0
  9
$DIMEXE
 40
1.0
  9
$DIMTP
 40
0.0
  9
$DIMTM
 40
0.0
  9
$DIMTXT
 40
3.0
  9
$DIMCEN
 40
1.5
  9
$DIMTSZ
 40
0.0
  9
$DIMTOL
 70
     0
  9
$DIMLIM
 70
     0
  9
$DIMTIH
 70
     0
  9
$DIMTOH
 70
     0
  9
$DIMSE1
 70
     0
  9
$DIMSE2
 70
     0
  9
$DIMTAD
 70
     1
  9
$DIMZIN
 70
     8
  9
$DIMBLK
  1
Open
  9
$DIMASO
 70
     1
  9
$DIMSHO
 70
     1
  9
$DIMPOST
  1

  9
$DIMAPOST
  1

  9
$DIMALT
 70
     0
  9
$DIMALTD
 70
     3
  9
$DIMALTF
 40
0.03937007874016
  9
$DIMLFAC
 40
1.0
  9
$DIMTOFL
 70
     1
  9
$DIMTVP
 40
0.0
  9
$DIMTIX
 70
     0
  9
$DIMSOXD
 70
     0
  9
$DIMSAH
 70
     0
  9
$DIMBLK1
  1

  9
$DIMBLK2
  1

  9
$DIMSTYLE
  2
NEMY-10
  9
$DIMCLRD
 70
     0
  9
$DIMCLRE
 70
     0
  9
$DIMCLRT
 70
     0
  9
$DIMTFAC
 40
1.0
  9
$DIMGAP
 40
1.0
  9
$DIMJUST
 70
     0
  9
$DIMSD1
 70
     0
  9
$DIMSD2
 70
     0
  9
$DIMTOLJ
 70
     0
  9
$DIMTZIN
 70
     8
  9
$DIMALTZ
 70
     0
  9
$DIMALTTZ
 70
     0
  9
$DIMUPT
 70
     0
  9
$DIMDEC
 70
     1
  9
$DIMTDEC
 70
     1
  9
$DIMALTU
 70
     2
  9
$DIMALTTD
 70
     3
  9
$DIMTXSTY
  7
Standard
  9
$DIMAUNIT
 70
     0
  9
$DIMADEC
 70
     0
  9
$DIMALTRND
 40
0.0
  9
$DIMAZIN
 70
     0
  9
$DIMDSEP
 70
    46
  9
$DIMATFIT
 70
     3
  9
$DIMFRAC
 70
     0
  9
$DIMLDRBLK
  1
Open
  9
$DIMLUNIT
 70
     2
  9
$DIMLWD
 70
    -2
  9
$DIMLWE
 70
    -2
  9
$DIMTMOVE
 70
     0
  9
$LUNITS
 70
     2
  9
$LUPREC
 70
     4
  9
$SKETCHINC
 40
1.0
  9
$FILLETRAD
 40
0.0
  9
$AUNITS
 70
     0
  9
$AUPREC
 70
     0
  9
$MENU
  1
.
  9
$ELEVATION
 40
0.0
  9
$PELEVATION
 40
0.0
  9
$THICKNESS
 40
0.0
  9
$LIMCHECK
 70
     0
  9
$CHAMFERA
 40
10.0
  9
$CHAMFERB
 40
10.0
  9
$CHAMFERC
 40
20.0
  9
$CHAMFERD
 40
0.0
  9
$SKPOLY
 70
     0
  9
$TDCREATE
 40
2455859.405048461
  9
$TDUCREATE
 40
2455859.030048461
  9
$TDUPDATE
 40
2458970.695904583
  9
$TDUUPDATE
 40
2458970.320904583
  9
$TDINDWG
 40
2.0148625
  9
$TDUSRTIMER
 40
0.0006852662
  9
$USRTIMER
 70
     1
  9
$ANGBASE
 50
0.0
  9
$ANGDIR
 70
     0
  9
$PDMODE
 70
     0
  9
$PDSIZE
 40
0.0
  9
$PLINEWID
 40
0.0
  9
$SPLFRAME
 70
     0
  9
$SPLINETYPE
 70
     6
  9
$SPLINESEGS
 70
     8
  9
$HANDSEED
  5
1A9B2
  9
$SURFTAB1
 70
     6
  9
$SURFTAB2
 70
     6
  9
$SURFTYPE
 70
     6
  9
$SURFU
 70
     6
  9
$SURFV
 70
     6
  9
$UCSBASE
  2

  9
$UCSNAME
  2

  9
$UCSORG
 10
0.0
 20
0.0
 30
0.0
  9
$UCSXDIR
 10
1.0
 20
0.0
 30
0.0
  9
$UCSYDIR
 10
0.0
 20
1.0
 30
0.0
  9
$UCSORTHOREF
  2

  9
$UCSORTHOVIEW
 70
     0
  9
$UCSORGTOP
 10
0.0
 20
0.0
 30
0.0
  9
$UCSORGBOTTOM
 10
0.0
 20
0.0
 30
0.0
  9
$UCSORGLEFT
 10
0.0
 20
0.0
 30
0.0
  9
$UCSORGRIGHT
 10
0.0
 20
0.0
 30
0.0
  9
$UCSORGFRONT
 10
0.0
 20
0.0
 30
0.0
  9
$UCSORGBACK
 10
0.0
 20
0.0
 30
0.0
  9
$PUCSBASE
  2

  9
$PUCSNAME
  2

  9
$PUCSORG
 10
0.0
 20
0.0
 30
0.0
  9
$PUCSXDIR
 10
1.0
 20
0.0
 30
0.0
  9
$PUCSYDIR
 10
0.0
 20
1.0
 30
0.0
  9
$PUCSORTHOREF
  2

  9
$PUCSORTHOVIEW
 70
     0
  9
$PUCSORGTOP
 10
0.0
 20
0.0
 30
0.0
  9
$PUCSORGBOTTOM
 10
0.0
 20
0.0
 30
0.0
  9
$PUCSORGLEFT
 10
0.0
 20
0.0
 30
0.0
  9
$PUCSORGRIGHT
 10
0.0
 20
0.0
 30
0.0
  9
$PUCSORGFRONT
 10
0.0
 20
0.0
 30
0.0
  9
$PUCSORGBACK
 10
0.0
 20
0.0
 30
0.0
  9
$USERI1
 70
     0
  9
$USERI2
 70
     0
  9
$USERI3
 70
     0
  9
$USERI4
 70
     0
  9
$USERI5
 70
     0
  9
$USERR1
 40
0.0
  9
$USERR2
 40
0.0
  9
$USERR3
 40
0.0
  9
$USERR4
 40
0.0
  9
$USERR5
 40
0.0
  9
$WORLDVIEW
 70
     1
  9
$SHADEDGE
 70
     3
  9
$SHADEDIF
 70
    70
  9
$TILEMODE
 70
     1
  9
$MAXACTVP
 70
    64
  9
$PINSBASE
 10
0.0
 20
0.0
 30
0.0
  9
$PLIMCHECK
 70
     0
  9
$PEXTMIN
 10
1.000000000000000E+20
 20
1.000000000000000E+20
 30
1.000000000000000E+20
  9
$PEXTMAX
 10
-1.000000000000000E+20
 20
-1.000000000000000E+20
 30
-1.000000000000000E+20
  9
$PLIMMIN
 10
0.0
 20
0.0
  9
$PLIMMAX
 10
0.0
 20
0.0
  9
$UNITMODE
 70
     0
  9
$VISRETAIN
 70
     1
  9
$PLINEGEN
 70
     0
  9
$PSLTSCALE
 70
     1
  9
$TREEDEPTH
 70
  3020
  9
$CMLSTYLE
  2
Standard
  9
$CMLJUST
 70
     0
  9
$CMLSCALE
 40
20.0
  9
$PROXYGRAPHICS
 70
     1
  9
$MEASUREMENT
 70
     1
  9
$CELWEIGHT
370
    -1
  9
$ENDCAPS
280
     0
  9
$JOINSTYLE
280
     0
  9
$LWDISPLAY
290
     0
  9
$INSUNITS
 70
     4
  9
$HYPERLINKBASE
  1

  9
$STYLESHEET
  1
monochrome.ctb
  9
$XEDIT
290
     1
  9
$CEPSNTYPE
380
     0
  9
$PSTYLEMODE
290
     1
  9
$FINGERPRINTGUID
  2
{FDEAD578-A652-11D2-9A35-0060089B3A3F}
  9
$VERSIONGUID
  2
{FF53CD4B-1AF9-4F2F-ABC0-CA7DF949A403}
  9
$EXTNAMES
290
     1
  9
$PSVPSCALE
 40
0.0
  9
$OLESTARTUP
290
     0
  0
ENDSEC
  0
SECTION
  2
CLASSES
  0
CLASS
  1
ACDBDICTIONARYWDFLT
  2
AcDbDictionaryWithDefault
  3
ObjectDBX Classes
 90
        0
280
     0
281
     0
  0
CLASS
  1
ACDBPLACEHOLDER
  2
AcDbPlaceHolder
  3
ObjectDBX Classes
 90
        0
280
     0
281
     0
  0
CLASS
  1
LAYOUT
  2
AcDbLayout
  3
ObjectDBX Classes
 90
        0
280
     0
281
     0
  0
CLASS
  1
DICTIONARYVAR
  2
AcDbDictionaryVar
  3
ObjectDBX Classes
 90
        0
280
     0
281
     0
  0
CLASS
  1
SCALE
  2
AcDbScale
  3
ObjectDBX Classes
 90
     1153
280
     0
281
     0
  0
CLASS
  1
MATERIAL
  2
AcDbMaterial
  3
ObjectDBX Classes
 90
     1153
280
     0
281
     0
  0
CLASS
  1
VISUALSTYLE
  2
AcDbVisualStyle
  3
ObjectDBX Classes
 90
     4095
280
     0
281
     0
  0
CLASS
  1
TABLESTYLE
  2
AcDbTableStyle
  3
ObjectDBX Classes
 90
     4095
280
     0
281
     0
  0
CLASS
  1
RASTERVARIABLES
  2
AcDbRasterVariables
  3
ISM
 90
        0
280
     0
281
     0
  0
CLASS
  1
AEC_VARS_DWG_SETUP
  2
AecDbVarsDwgSetup
  3
AecBase60
 90
      129
280
     0
281
     0
  0
CLASS
  1
AEC_DISP_REP_2D_SECTION
  2
AecDbDispRep2dSection
  3
AecBase60
 90
      129
280
     0
281
     0
  0
CLASS
  1
AEC_DISP_PROPS_2D_SECTION
  2
AecDbDispProps2dSection
  3
AecBase60
 90
      129
280
     0
281
     0
  0
CLASS
  1
AEC_DISP_REP_CLIP_VOLUME_MODEL
  2
AecDbDispRepClipVolModel
  3
AecBase60
 90
      129
280
     0
281
     0
  0
CLASS
  1
AEC_DISP_PROPS_CLIP_VOLUME
  2
AecDbDispPropsClipVol
  3
AecBase60
 90
      129
280
     0
281
     0
  0
CLASS
  1
AEC_DISP_REP_CLIP_VOLUME_PLAN
  2
AecDbDispRepClipVolPlan
  3
AecBase60
 90
      129
280
     0
281
     0
  0
CLASS
  1
AEC_DISP_REP_CLIP_VOLUME_RESULT
  2
AecDbDispRepClipVolResult
  3
AecBase60
 90
      129
280
     0
281
     0
  0
CLASS
  1
AEC_DISP_REP_CLIP_VOLUME_RESULT_SUBDIV
  2
AecDbDispRepClipVolResSubDiv
  3
AecBase60
 90
      129
280
     0
281
     0
  0
CLASS
  1
AEC_DISP_PROPS_CLIP_VOLUME_RESULT
  2
AecDbDispPropsClipVolResSubDiv
  3
AecBase60
 90
      129
280
     0
281
     0
  0
CLASS
  1
AEC_DISP_REP_DISPLAYTHEME
  2
AecDbDispRepDisplayTheme
  3
AecBase60
 90
      129
280
     0
281
     0
  0
CLASS
  1
AEC_DISP_PROPS_DISPLAYTHEME
  2
AecDbDispPropsDisplayTheme
  3
AecBase60
 90
      129
280
     0
281
     0
  0
CLASS
  1
AEC_DISP_REP_ENT_REF
  2
AecDbDispRepEntRef
  3
AecBase60
 90
      129
280
     0
281
     0
  0
CLASS
  1
AEC_DISP_PROPS_ENT_REF
  2
AecDbDispPropsEntRef
  3
AecBase60
 90
      129
280
     0
281
     0
  0
CLASS
  1
AEC_DISP_REP_LAYOUT_CURVE
  2
AecDbDispRepLayoutCurve
  3
AecBase60
 90
      129
280
     0
281
     0
  0
CLASS
  1
AEC_DISP_PROPS_LAYOUT_CURVE
  2
AecDbDispPropsLayoutCurve
  3
AecBase60
 90
      129
280
     0
281
     0
  0
CLASS
  1
AEC_DISP_REP_LAYOUT_GRID2D
  2
AecDbDispRepLayoutGrid2d
  3
AecBase60
 90
      129
280
     0
281
     0
  0
CLASS
  1
AEC_DISP_PROPS_LAYOUT_GRID2D
  2
AecDbDispPropsLayoutGrid2d
  3
AecBase60
 90
      129
280
     0
281
     0
  0
CLASS
  1
AEC_DISP_REP_LAYOUT_GRID3D
  2
AecDbDispRepLayoutGrid3d
  3
AecBase60
 90
      129
280
     0
281
     0
  0
CLASS
  1
AEC_DISP_PROPS_LAYOUT_GRID3D
  2
AecDbDispPropsLayoutGrid3d
  3
AecBase60
 90
      129
280
     0
281
     0
  0
CLASS
  1
AEC_DISP_REP_MASKBLOCK_REF
  2
AecDbDispRepMaskBlockRef
  3
AecBase60
 90
      129
280
     0
281
     0
  0
CLASS
  1
AEC_DISP_PROPS_MASKBLOCK
  2
AecDbDispPropsMaskBlock
  3
AecBase60
 90
      129
280
     0
281
     0
  0
CLASS
  1
AEC_DISP_REP_MASKBLOCK_REF_RCP
  2
AecDbDispRepMaskBlockRefRcp
  3
AecArchBase60
 90
      129
280
     0
281
     0
  0
CLASS
  1
AEC_DISP_REP_MASS_ELEM_MODEL
  2
AecDbDispRepMassElemModel
  3
AecBase60
 90
      129
280
     0
281
     0
  0
CLASS
  1
AEC_DISP_PROPS_MASS_ELEM_MODEL
  2
AecDbDispPropsMassElem
  3
AecBase60
 90
      129
280
     0
281
     0
  0
CLASS
  1
AEC_DISP_REP_MASS_ELEM_SCHEM
  2
AecDbDispRepMassElemSchem
  3
AecBase60
 90
      129
280
     0
281
     0
  0
CLASS
  1
AEC_DISPREPAECDBDISPREPMASSELEMPLAN50
  2
AecDbDispRepMassElemPlan50
  3
AecArchDACHBase60
 90
      129
280
     0
281
     0
  0
CLASS
  1
AEC_DISPROPSMASSELEMPLANCOMMON
  2
AecDbDispPropsMassElemPlanCommon
  3
AecArchDACHBase60
 90
      129
280
     0
281
     0
  0
CLASS
  1
AEC_DISPREPAECDBDISPREPMASSELEMPLAN100
  2
AecDbDispRepMassElemPlan100
  3
AecArchDACHBase60
 90
      129
280
     0
281
     0
  0
CLASS
  1
AEC_DISP_REP_MASS_ELEM_RCP
  2
AecDbDispRepMassElemRcp
  3
AecArchBase60
 90
      129
280
     0
281
     0
  0
CLASS
  1
AEC_DISP_REP_MASS_GROUP_MODEL
  2
AecDbDispRepMassGroupModel
  3
AecBase60
 90
      129
280
     0
281
     0
  0
CLASS
  1
AEC_DISP_PROPS_MASS_GROUP
  2
AecDbDispPropsMassGroup
  3
AecBase60
 90
      129
280
     0
281
     0
  0
CLASS
  1
AEC_DISP_REP_MASS_GROUP_PLAN
  2
AecDbDispRepMassGroupPlan
  3
AecBase60
 90
      129
280
     0
281
     0
  0
CLASS
  1
AEC_DISPREPAECDBDISPREPMASSGROUPPLAN50
  2
AecDbDispRepMassGroupPlan50
  3
AecArchDACHBase60
 90
      129
280
     0
281
     0
  0
CLASS
  1
AEC_DISPROPSMASSGROUPPLANCOMMON
  2
AecDbDispPropsMassGroupPlanCommon
  3
AecArchDACHBase60
 90
      129
280
     0
281
     0
  0
CLASS
  1
AEC_DISPREPAECDBDISPREPMASSGROUPPLAN100
  2
AecDbDispRepMassGroupPlan100
  3
AecArchDACHBase60
 90
      129
280
     0
281
     0
  0
CLASS
  1
AEC_DISP_REP_MASS_GROUP_RCP
  2
AecDbDispRepMassGroupRcp
  3
AecArchBase60
 90
      129
280
     0
281
     0
  0
CLASS
  1
AEC_DISP_REP_MVBLOCK_REF
  2
AecDbDispRepMvBlockRef
  3
AecBase60
 90
      129
280
     0
281
     0
  0
CLASS
  1
AEC_DISP_REP_MVBLOCK_REF_MODEL
  2
AecDbDispRepMvBlockRefModel
  3
AecBase60
 90
      129
280
     0
281
     0
  0
CLASS
  1
AEC_AECDBDISPREPMVBLOCKREFPLAN100
  2
AecDbDispRepMvBlockRefPlan100
  3
AecBase60
 90
      129
280
     0
281
     0
  0
CLASS
  1
AEC_AECDBDISPREPMVBLOCKREFPLAN50
  2
AecDbDispRepMvBlockRefPlan50
  3
AecBase60
 90
      129
280
     0
281
     0
  0
CLASS
  1
AEC_DISP_REP_POLYGON_MODEL
  2
AecDbDispRepPolygonModel
  3
AecBase60
 90
      129
280
     0
281
     0
  0
CLASS
  1
AEC_DISP_PROPS_POLYGON_MODEL
  2
AecDbDispPropsPolygonModel
  3
AecBase60
 90
      129
280
     0
281
     0
  0
CLASS
  1
AEC_DISP_REP_POLYGON_TRUECOLOUR
  2
AecDbDispRepPolygonTrueColour
  3
AecBase60
 90
      129
280
     0
281
     0
  0
CLASS
  1
AEC_DISP_PROPS_POLYGON_TRUECOLOUR
  2
AecDbDispPropsPolygonTrueColour
  3
AecBase60
 90
      129
280
     0
281
     0
  0
CLASS
  1
AEC_DISP_REP_SLICE
  2
AecDbDispRepSlice
  3
AecBase60
 90
      129
280
     0
281
     0
  0
CLASS
  1
AEC_DISP_PROPS_SLICE
  2
AecDbDispPropsSlice
  3
AecBase60
 90
      129
280
     0
281
     0
  0
CLASS
  1
AEC_DISP_REP_ANCHOR
  2
AecDbDispRepAnchor
  3
AecBase60
 90
      129
280
     0
281
     0
  0
CLASS
  1
AEC_DISP_REP_ANCHOR_ENT_TO_NODE
  2
AecDbDispRepAnchorEntToNode
  3
AecBase60
 90
      129
280
     0
281
     0
  0
CLASS
  1
AEC_DISP_PROPS_ENT
  2
AecDbDispPropsEnt
  3
AecBase60
 90
      129
280
     0
281
     0
  0
CLASS
  1
AEC_DISP_REP_MATERIAL
  2
AecDbDispRepMaterial
  3
AecBase60
 90
      129
280
     0
281
     0
  0
CLASS
  1
AEC_DISP_PROPS_MATERIAL
  2
AecDbDispPropsMaterial
  3
AecBase60
 90
      129
280
     0
281
     0
  0
CLASS
  1
AEC_DISP_REP_EDITINPLACEPROFILE
  2
AecDbDispRepEditInPlaceProfile
  3
AecBase60
 90
      129
280
     0
281
     0
  0
CLASS
  1
AEC_DISP_PROPS_EDITINPLACEPROFILE_MODEL
  2
AecDbDispPropsEditInPlaceProfile
  3
AecBase60
 90
      129
280
     0
281
     0
  0
CLASS
  1
SUN
  2
AcDbSun
  3
SCENEOE
 90
     1153
280
     0
281
     0
  0
CLASS
  1
SORTENTSTABLE
  2
AcDbSortentsTable
  3
ObjectDBX Classes
 90
        0
280
     0
281
     0
  0
CLASS
  1
MLEADERSTYLE
  2
AcDbMLeaderStyle
  3
ACDB_MLEADERSTYLE_CLASS
 90
     4095
280
     0
281
     0
  0
ENDSEC
  0
SECTION
  2
TABLES
  0
TABLE
  2
VPORT
  5
8
330
0
100
AcDbSymbolTable
 70
     1
  0
VPORT
  5
A2A1
330
8
100
AcDbSymbolTableRecord
100
AcDbViewportTableRecord
  2
*Active
 70
     0
 10
0.0
 20
0.0
 11
1.0
 21
1.0
 12
9839.357126029756
 22
15869.19022033236
 13
0.0
 23
0.0
 14
10.0
 24
10.0
 15
10.0
 25
10.0
 16
0.0
 26
0.0
 36
1.0
 17
1964.929891105101
 27
911.4954656945774
 37
0.0
 40
2581.920132286466
 41
1.479876160990712
 42
50.0
 43
0.0
 44
0.0
 50
0.0
 51
0.0
 71
    16
 72
   100
 73
     1
 74
     2
 75
     0
 76
     0
 77
     0
 78
     0
281
     0
 65
     1
110
0.0
120
0.0
130
0.0
111
1.0
121
0.0
131
0.0
112
0.0
122
1.0
132
0.0
 79
     0
146
0.0
  0
ENDTAB
  0
TABLE
  2
LTYPE
  5
5
330
0
100
AcDbSymbolTable
 70
     2
  0
LTYPE
  5
14
330
5
100
AcDbSymbolTableRecord
100
AcDbLinetypeTableRecord
  2
ByBlock
 70
     0
  3

 72
    65
 73
     0
 40
0.0
  0
LTYPE
  5
15
330
5
100
AcDbSymbolTableRecord
100
AcDbLinetypeTableRecord
  2
ByLayer
 70
     0
  3
Solid line
 72
    65
 73
     0
 40
0.0
  0
LTYPE
  5
16
330
5
100
AcDbSymbolTableRecord
100
AcDbLinetypeTableRecord
  2
Continuous
 70
     0
  3
Solid line
 72
    65
 73
     0
 40
0.0
  0
LTYPE
  5
18C2C
330
5
100
AcDbSymbolTableRecord
100
AcDbLinetypeTableRecord
  2
CENTERX2
 70
     0
  3
Center (2x) ________  __  ________  __  _____
 72
    65
 73
     4
 40
20.32
 49
12.7
 74
     0
 49
-2.54
 74
     0
 49
2.54
 74
     0
 49
-2.54
 74
     0
  0
ENDTAB
  0
TABLE
  2
LAYER
  5
2
102
{ACAD_XDICTIONARY
360
7A6F
102
}
330
0
100
AcDbSymbolTable
 70
     3
  0
LAYER
  5
10
330
2
100
AcDbSymbolTableRecord
100
AcDbLayerTableRecord
  2
0
 70
     0
 62
     7
  6
Continuous
370
    -3
390
F
  0
LAYER
  5
45
330
2
100
AcDbSymbolTableRecord
100
AcDbLayerTableRecord
  2
01注記寸法
 70
     0
 62
     7
  6
Continuous
370
     9
390
F
  0
LAYER
  5
82BC
330
2
100
AcDbSymbolTableRecord
100
AcDbLayerTableRecord
  2
02製品
 70
     0
 62
     2
  6
Continuous
370
    15
390
F
  0
ENDTAB
  0
TABLE
  2
STYLE
  5
3
330
0
100
AcDbSymbolTable
 70
     1
  0
STYLE
  5
11
330
3
100
AcDbSymbolTableRecord
100
AcDbTextStyleTableRecord
  2
Standard
 70
     0
 40
0.0
 41
1.0
 50
0.0
 71
     0
 42
3.0
  3
MS Gothic.ttf
  4

1001
ACAD
1000
MS Gothic
1071
    32817
  0
ENDTAB
  0
TABLE
  2
VIEW
  5
6
330
0
100
AcDbSymbolTable
 70
     0
  0
ENDTAB
  0
TABLE
  2
UCS
  5
7
330
0
100
AcDbSymbolTable
 70
     0
  0
ENDTAB
  0
TABLE
  2
APPID
  5
9
330
0
100
AcDbSymbolTable
 70
    13
  0
APPID
  5
12
330
9
100
AcDbSymbolTableRecord
100
AcDbRegAppTableRecord
  2
ACAD
 70
     0
  0
APPID
  5
6A9E
330
9
100
AcDbSymbolTableRecord
100
AcDbRegAppTableRecord
  2
ACAD_DSTYLE_DIMRADIAL_EXTENSION
 70
     0
  0
APPID
  5
742C
330
9
100
AcDbSymbolTableRecord
100
AcDbRegAppTableRecord
  2
ACAD_PSEXT
 70
     0
  0
APPID
  5
742D
330
9
100
AcDbSymbolTableRecord
100
AcDbRegAppTableRecord
  2
ACAD_DSTYLE_DIMJAG
 70
     0
  0
APPID
  5
742E
330
9
100
AcDbSymbolTableRecord
100
AcDbRegAppTableRecord
  2
ACAD_DSTYLE_DIMTALN
 70
     0
  0
APPID
  5
8254
330
9
100
AcDbSymbolTableRecord
100
AcDbRegAppTableRecord
  2
AECBASE
 70
     0
  0
APPID
  5
8255
330
9
100
AcDbSymbolTableRecord
100
AcDbRegAppTableRecord
  2
AEC_2DSECTION_XDATA
 70
     0
  0
APPID
  5
8256
330
9
100
AcDbSymbolTableRecord
100
AcDbRegAppTableRecord
  2
AEC_MASSGROUP_XDADA
 70
     0
  0
APPID
  5
B0E5
330
9
100
AcDbSymbolTableRecord
100
AcDbRegAppTableRecord
  2
PE_DIMMEASUREMENT
 70
     0
  0
APPID
  5
147E0
330
9
100
AcDbSymbolTableRecord
100
AcDbRegAppTableRecord
  2
AcAecLayerStandard
 70
     0
  0
APPID
  5
15094
330
9
100
AcDbSymbolTableRecord
100
AcDbRegAppTableRecord
  2
PLOTTRANSPARENCY
 70
     0
  0
APPID
  5
185A3
330
9
100
AcDbSymbolTableRecord
100
AcDbRegAppTableRecord
  2
PE_URL
 70
     0
  0
APPID
  5
1870F
330
9
100
AcDbSymbolTableRecord
100
AcDbRegAppTableRecord
  2
AcadAnnotative
 70
     0
  0
ENDTAB
  0
TABLE
  2
DIMSTYLE
  5
A
330
0
100
AcDbSymbolTable
 70
     1
100
AcDbDimStyleTable
  0
DIMSTYLE
105
4DD3
102
{ACAD_REACTORS
330
14016
330
14023
330
14030
102
}
330
A
100
AcDbSymbolTableRecord
100
AcDbDimStyleTableRecord
  2
NEMY-10
 70
     0
 40
10.0
 41
3.0
 42
1.5
 43
10.0
 44
1.0
 73
     0
 74
     0
 77
     1
 78
     8
140
3.0
141
1.5
143
0.03937007874016
147
1.0
171
     3
172
     1
178
     0
271
     1
272
     1
274
     3
283
     0
284
     8
340
11
341
8F
342
8F
  0
ENDTAB
  0
TABLE
  2
BLOCK_RECORD
  5
1
330
0
100
AcDbSymbolTable
 70
     4
  0
BLOCK_RECORD
  5
1F
102
{ACAD_XDICTIONARY
360
CBD6
102
}
330
1
100
AcDbSymbolTableRecord
100
AcDbBlockTableRecord
  2
*Model_Space
340
22
  0
BLOCK_RECORD
  5
1B
330
1
100
AcDbSymbolTableRecord
100
AcDbBlockTableRecord
  2
*Paper_Space
340
1E
  0
BLOCK_RECORD
  5
23
330
1
100
AcDbSymbolTableRecord
100
AcDbBlockTableRecord
  2
*Paper_Space0
340
26
  0
BLOCK_RECORD
  5
8F
330
1
100
AcDbSymbolTableRecord
100
AcDbBlockTableRecord
  2
_Open
340
0
102
{BLKREFS
331
1401C
331
1401D
331
14029
331
1402A
331
14036
331
14037
331
141AC
331
141AD
331
141B2
331
141B3
331
141B8
331
141B9
331
141BE
331
141BF
331
141C4
331
141C5
331
141CA
331
141CB
331
141D0
331
141D1
331
141D6
331
141D7
331
14596
331
14597
331
145A3
331
145A4
331
145B0
331
145B1
331
145BD
331
145BE
331
145CA
331
145CB
331
145D7
331
145D8
331
145E4
331
145E5
331
145F1
331
145F2
331
14600
331
14601
331
1478E
331
1478F
331
14794
331
14795
331
1479A
331
1479B
331
147A0
331
147A1
331
147A6
331
147A7
331
147AC
331
147AD
331
147B2
331
147B3
331
147B8
331
147B9
331
147BE
331
147BF
331
147C7
331
147C8
331
147CD
331
147CE
331
147D6
331
147D7
331
15C74
331
15C75
331
15C90
331
15C91
331
15CA0
331
15CA1
331
15DEA
331
15DEB
331
15DF7
331
15DF8
331
19A6F
331
19A70
331
1A585
331
1A586
331
1A6F3
331
1A6F4
331
1A710
331
1A711
331
1A71F
331
1A720
331
1A72E
331
1A72F
102
}
  0
BLOCK_RECORD
  5
1A7C2
102
{ACAD_XDICTIONARY
360
1A7EC
102
}
330
1
100
AcDbSymbolTableRecord
100
AcDbBlockTableRecord
  2
A$C17355
340
0
102
{BLKREFS
331
1A86E
102
}
  0
BLOCK_RECORD
  5
1A86F
102
{ACAD_XDICTIONARY
360
1A89A
102
}
330
1
100
AcDbSymbolTableRecord
100
AcDbBlockTableRecord
  2
A$C9827
340
0
102
{BLKREFS
331
1A9AC
102
}
  0
ENDTAB
  0
ENDSEC
  0
SECTION
  2
BLOCKS
  0
BLOCK
  5
20
330
1F
100
AcDbEntity
  8
0
100
AcDbBlockBegin
  2
*Model_Space
 70
     0
 10
0.0
 20
0.0
 30
0.0
  3
*Model_Space
  1

  0
ENDBLK
  5
21
330
1F
100
AcDbEntity
  8
0
100
AcDbBlockEnd
  0
BLOCK
  5
1C
330
1B
100
AcDbEntity
 67
     1
  8
0
100
AcDbBlockBegin
  2
*Paper_Space
 70
     0
 10
0.0
 20
0.0
 30
0.0
  3
*Paper_Space
  1

  0
ENDBLK
  5
1D
330
1B
100
AcDbEntity
 67
     1
  8
0
100
AcDbBlockEnd
  0
BLOCK
  5
24
330
23
100
AcDbEntity
  8
0
100
AcDbBlockBegin
  2
*Paper_Space0
 70
     0
 10
0.0
 20
0.0
 30
0.0
  3
*Paper_Space0
  1

  0
ENDBLK
  5
25
330
23
100
AcDbEntity
  8
0
100
AcDbBlockEnd
  0
BLOCK
  5
93
330
8F
100
AcDbEntity
  8
0
100
AcDbBlockBegin
  2
_Open
 70
     0
 10
0.0
 20
0.0
 30
0.0
  3
_Open
  1

  0
LINE
  5
90
330
8F
100
AcDbEntity
  8
01注記寸法
 62
     0
370
    -2
100
AcDbLine
 10
-1.0
 20
0.1666666666666667
 30
0.0
 11
0.0
 21
0.0
 31
0.0
  0
LINE
  5
91
330
8F
100
AcDbEntity
  8
01注記寸法
 62
     0
370
    -2
100
AcDbLine
 10
-1.0
 20
-0.1666666666666667
 30
0.0
 11
0.0
 21
0.0
 31
0.0
  0
LINE
  5
92
330
8F
100
AcDbEntity
  8
01注記寸法
 62
     0
370
    -2
100
AcDbLine
 10
0.0
 20
0.0
 30
0.0
 11
-1.0
 21
0.0
 31
0.0
  0
ENDBLK
  5
94
330
8F
100
AcDbEntity
  8
0
100
AcDbBlockEnd
  0
BLOCK
  5
1A86C
330
1A7C2
100
AcDbEntity
  8
0
100
AcDbBlockBegin
  2
A$C17355
 70
     0
 10
0.0
 20
0.0
 30
0.0
  3
A$C17355
  1

  0
LINE
  5
1A7EE
330
1A7C2
100
AcDbEntity
  8
02製品
  6
Continuous
370
    15
100
AcDbLine
 10
1230.000023841872
 20
740.999988745898
 30
0.0
 11
1230.000023841872
 21
722.9999820701778
 31
0.0
  0
LINE
  5
1A7EF
330
1A7C2
100
AcDbEntity
  8
02製品
  6
Continuous
370
    15
100
AcDbLine
 10
1228.999977111831
 20
722.9999820701778
 30
0.0
 11
1230.000023841872
 21
722.9999820701778
 31
0.0
  0
LINE
  5
1A7F0
330
1A7C2
100
AcDbEntity
  8
02製品
  6
Continuous
370
    15
100
AcDbLine
 10
1184.999947547927
 20
743.7999765388668
 30
0.0
 11
1184.999947547927
 21
743.0000226013362
 31
0.0
  0
ARC
  5
1A7F1
330
1A7C2
100
AcDbEntity
  8
02製品
  6
Continuous
370
    15
100
AcDbCircle
 10
1226.000000000015
 20
741.0000001900189
 30
0.0
 40
4.000000000000261
100
AcDbArc
 50
0.0
 51
67.80012022222986
  0
LINE
  5
1A7F2
330
1A7C2
100
AcDbEntity
  8
02製品
  6
Continuous
370
    15
100
AcDbLine
 10
1141.999964714065
 20
743.7999765388668
 30
0.0
 11
1141.999964714065
 21
743.0000226013362
 31
0.0
  0
ARC
  5
1A7F3
330
1A7C2
100
AcDbEntity
  8
02製品
  6
Continuous
370
    15
100
AcDbCircle
 10
4.0
 20
6.000000190018909
 30
0.0
 40
4.00000000000012
100
AcDbArc
 50
180.0
 51
247.8001320941844
  0
LINE
  5
1A7F4
330
1A7C2
100
AcDbEntity
  8
02製品
  6
Continuous
370
    15
100
AcDbLine
 10
0.0000001117732609
 20
6.000000284984708
 30
0.0
 11
0.0000001117732609
 21
23.99999974295497
 31
0.0
  0
LINE
  5
1A7F5
330
1A7C2
100
AcDbEntity
  8
02製品
  6
Continuous
370
    15
100
AcDbLine
 10
44.99999910594488
 20
3.200000210199505
 30
0.0
 11
44.99999910594488
 21
4.000000189989805
 31
0.0
  0
LINE
  5
1A7F6
330
1A7C2
100
AcDbEntity
  8
02製品
  6
Continuous
370
    15
100
AcDbLine
 10
0.9999998100247467
 20
23.99999974295497
 30
0.0
 11
0.0000001117732609
 21
23.99999974295497
 31
0.0
  0
LINE
  5
1A7F7
330
1A7C2
100
AcDbEntity
  8
02製品
  6
Continuous
370
    15
100
AcDbLine
 10
87.99999684096838
 20
3.200000210199505
 30
0.0
 11
87.99999684096838
 21
4.000000189989805
 31
0.0
  0
LINE
  5
1A7F8
330
1A7C2
100
AcDbEntity
  8
02製品
  6
Continuous
370
    15
100
AcDbLine
 10
1225.800042152419
 20
697.000018786639
 30
0.0
 11
1225.800042152419
 21
740.5999819748104
 31
0.0
  0
ARC
  5
1A7F9
330
1A7C2
100
AcDbEntity
  8
02製品
  6
Continuous
370
    15
100
AcDbCircle
 10
1222.600000000006
 20
740.6000001899956
 30
0.0
 40
3.199999999999932
100
AcDbArc
 50
0.0
 51
90.0
  0
LINE
  5
1A7FA
330
1A7C2
100
AcDbEntity
  8
02製品
  6
Continuous
370
    15
100
AcDbLine
 10
1222.599987983718
 20
743.7999765388668
 30
0.0
 11
1079.000000953689
 21
743.7999765388668
 31
0.0
  0
LINE
  5
1A7FB
330
1A7C2
100
AcDbEntity
  8
02製品
  6
Continuous
370
    15
100
AcDbLine
 10
1079.000000953689
 20
743.7999765388668
 30
0.0
 11
1079.000000953689
 21
746.9999711029232
 31
0.0
  0
LINE
  5
1A7FC
330
1A7C2
100
AcDbEntity
  8
02製品
  6
Continuous
370
    15
100
AcDbLine
 10
1079.000000953689
 20
746.9999711029232
 30
0.0
 11
1222.599987983718
 21
746.9999711029232
 31
0.0
  0
ARC
  5
1A7FD
330
1A7C2
100
AcDbEntity
  8
02製品
  6
Continuous
370
    15
100
AcDbCircle
 10
1222.600000000006
 20
740.6000001899956
 30
0.0
 40
6.399999999999864
100
AcDbArc
 50
0.0
 51
90.0
  0
LINE
  5
1A7FE
330
1A7C2
100
AcDbEntity
  8
02製品
  6
Continuous
370
    15
100
AcDbLine
 10
1228.999977111831
 20
740.5999819748104
 30
0.0
 11
1228.999977111831
 21
697.000018786639
 31
0.0
  0
LINE
  5
1A7FF
330
1A7C2
100
AcDbEntity
  8
02製品
  6
Continuous
370
    15
100
AcDbLine
 10
1228.999977111831
 20
697.000018786639
 30
0.0
 11
1225.800042152419
 21
697.000018786639
 31
0.0
  0
LINE
  5
1A800
330
1A7C2
100
AcDbEntity
  8
02製品
  6
Continuous
370
    15
100
AcDbLine
 10
4.200000020224252
 20
50.00000027939677
 30
0.0
 11
4.200000020224252
 21
6.400000303983688
 31
0.0
  0
ARC
  5
1A801
330
1A7C2
100
AcDbEntity
  8
02製品
  6
Continuous
370
    15
100
AcDbCircle
 10
7.400000000008731
 20
6.400000190013088
 30
0.0
 40
3.200000000000216
100
AcDbArc
 50
180.0
 51
270.0
  0
LINE
  5
1A802
330
1A7C2
100
AcDbEntity
  8
02製品
  6
Continuous
370
    15
100
AcDbLine
 10
7.400000114008435
 20
3.200000210199505
 30
0.0
 11
150.9999978542473
 21
3.200000210199505
 31
0.0
  0
LINE
  5
1A803
330
1A7C2
100
AcDbEntity
  8
02製品
  6
Continuous
370
    15
100
AcDbLine
 10
150.9999978542473
 20
3.200000210199505
 30
0.0
 11
150.9999978542473
 21
0.0
 31
0.0
  0
LINE
  5
1A804
330
1A7C2
100
AcDbEntity
  8
02製品
  6
Continuous
370
    15
100
AcDbLine
 10
150.9999978542473
 20
0.0
 30
0.0
 11
7.400000114008435
 21
0.0
 31
0.0
  0
ARC
  5
1A805
330
1A7C2
100
AcDbEntity
  8
02製品
  6
Continuous
370
    15
100
AcDbCircle
 10
7.400000000008731
 20
6.400000190013088
 30
0.0
 40
6.400000000000148
100
AcDbArc
 50
180.0
 51
270.0
  0
LINE
  5
1A806
330
1A7C2
100
AcDbEntity
  8
02製品
  6
Continuous
370
    15
100
AcDbLine
 10
0.9999998100247467
 20
6.400000303983688
 30
0.0
 11
0.9999998100247467
 21
50.00000027939677
 31
0.0
  0
LINE
  5
1A807
330
1A7C2
100
AcDbEntity
  8
02製品
  6
Continuous
370
    15
100
AcDbLine
 10
0.9999998100247467
 20
50.00000027939677
 30
0.0
 11
4.200000020224252
 21
50.00000027939677
 31
0.0
  0
LINE
  5
1A808
330
1A7C2
100
AcDbEntity
  8
02製品
  6
Continuous
370
    15
100
AcDbLine
 10
0.9999998100247467
 20
740.5999819748104
 30
0.0
 11
0.9999998100247467
 21
697.000018786639
 31
0.0
  0
ARC
  5
1A809
330
1A7C2
100
AcDbEntity
  8
02製品
  6
Continuous
370
    15
100
AcDbCircle
 10
7.400000000008731
 20
740.6000001899956
 30
0.0
 40
6.400000000000006
100
AcDbArc
 50
90.0
 51
180.0
  0
LINE
  5
1A80A
330
1A7C2
100
AcDbEntity
  8
02製品
  6
Continuous
370
    15
100
AcDbLine
 10
150.9999978542473
 20
746.9999711029232
 30
0.0
 11
7.400000114008435
 21
746.9999711029232
 31
0.0
  0
LINE
  5
1A80B
330
1A7C2
100
AcDbEntity
  8
02製品
  6
Continuous
370
    15
100
AcDbLine
 10
150.9999978542473
 20
743.7999765388668
 30
0.0
 11
150.9999978542473
 21
746.9999711029232
 31
0.0
  0
LINE
  5
1A80C
330
1A7C2
100
AcDbEntity
  8
02製品
  6
Continuous
370
    15
100
AcDbLine
 10
7.400000114008435
 20
743.7999765388668
 30
0.0
 11
150.9999978542473
 21
743.7999765388668
 31
0.0
  0
ARC
  5
1A80D
330
1A7C2
100
AcDbEntity
  8
02製品
  6
Continuous
370
    15
100
AcDbCircle
 10
7.400000000008731
 20
740.6000001899956
 30
0.0
 40
3.199999999999932
100
AcDbArc
 50
90.0
 51
180.0
  0
LINE
  5
1A80E
330
1A7C2
100
AcDbEntity
  8
02製品
  6
Continuous
370
    15
100
AcDbLine
 10
4.200000020224252
 20
697.000018786639
 30
0.0
 11
4.200000020224252
 21
740.5999819748104
 31
0.0
  0
LINE
  5
1A80F
330
1A7C2
100
AcDbEntity
  8
02製品
  6
Continuous
370
    15
100
AcDbLine
 10
0.9999998100247467
 20
697.000018786639
 30
0.0
 11
4.200000020224252
 21
697.000018786639
 31
0.0
  0
LINE
  5
1A810
330
1A7C2
100
AcDbEntity
  8
02製品
  6
Continuous
370
    15
100
AcDbLine
 10
1228.999977111831
 20
6.400000303983688
 30
0.0
 11
1228.999977111831
 21
50.00000027939677
 31
0.0
  0
ARC
  5
1A811
330
1A7C2
100
AcDbEntity
  8
02製品
  6
Continuous
370
    15
100
AcDbCircle
 10
1222.600000000006
 20
6.400000190013088
 30
0.0
 40
6.400000000000148
100
AcDbArc
 50
270.0
 51
0.0
  0
LINE
  5
1A812
330
1A7C2
100
AcDbEntity
  8
02製品
  6
Continuous
370
    15
100
AcDbLine
 10
1079.000000953689
 20
0.0
 30
0.0
 11
1222.599987983718
 21
0.0
 31
0.0
  0
LINE
  5
1A813
330
1A7C2
100
AcDbEntity
  8
02製品
  6
Continuous
370
    15
100
AcDbLine
 10
1079.000000953689
 20
3.200000210199505
 30
0.0
 11
1079.000000953689
 21
0.0
 31
0.0
  0
LINE
  5
1A814
330
1A7C2
100
AcDbEntity
  8
02製品
  6
Continuous
370
    15
100
AcDbLine
 10
1222.599987983718
 20
3.200000210199505
 30
0.0
 11
1079.000000953689
 21
3.200000210199505
 31
0.0
  0
ARC
  5
1A815
330
1A7C2
100
AcDbEntity
  8
02製品
  6
Continuous
370
    15
100
AcDbCircle
 10
1222.600000000006
 20
6.400000190013088
 30
0.0
 40
3.200000000000216
100
AcDbArc
 50
270.0
 51
0.0
  0
LINE
  5
1A816
330
1A7C2
100
AcDbEntity
  8
02製品
  6
Continuous
370
    15
100
AcDbLine
 10
1225.800042152419
 20
50.00000027939677
 30
0.0
 11
1225.800042152419
 21
6.400000303983688
 31
0.0
  0
LINE
  5
1A817
330
1A7C2
100
AcDbEntity
  8
02製品
  6
Continuous
370
    15
100
AcDbLine
 10
1228.999977111831
 20
50.00000027939677
 30
0.0
 11
1225.800042152419
 21
50.00000027939677
 31
0.0
  0
LINE
  5
1A818
330
1A7C2
100
AcDbEntity
  8
02製品
  6
Continuous
370
    15
100
AcDbLine
 10
1225.000028610244
 20
742.7166025154293
 30
0.0
 11
1225.000028610244
 21
740.0000016205013
 31
0.0
  0
LINE
  5
1A819
330
1A7C2
100
AcDbEntity
  8
02製品
  6
Continuous
370
    15
100
AcDbLine
 10
1222.000007629409
 20
743.0000226013362
 30
0.0
 11
1224.716548919692
 21
743.0000226013362
 31
0.0
  0
LINE
  5
1A81A
330
1A7C2
100
AcDbEntity
  8
02製品
  6
Continuous
370
    15
100
AcDbLine
 10
8.000000026091584
 20
4.000000189989805
 30
0.0
 11
5.283398956540623
 21
4.000000189989805
 31
0.0
  0
LINE
  5
1A81B
330
1A7C2
100
AcDbEntity
  8
02製品
  6
Continuous
370
    15
100
AcDbLine
 10
5.000000000014552
 20
4.283399146515876
 30
0.0
 11
5.000000000014552
 21
7.000000216066837
 31
0.0
  0
LINE
  5
1A81C
330
1A7C2
100
AcDbEntity
  8
02製品
  6
Continuous
370
    15
100
AcDbLine
 10
1222.000007629409
 20
4.000000189989805
 30
0.0
 11
1224.716548919692
 21
4.000000189989805
 31
0.0
  0
LINE
  5
1A81D
330
1A7C2
100
AcDbEntity
  8
02製品
  6
Continuous
370
    15
100
AcDbLine
 10
1225.000028610244
 20
4.283399146515876
 30
0.0
 11
1225.000028610244
 21
7.000000216066837
 31
0.0
  0
LINE
  5
1A81E
330
1A7C2
100
AcDbEntity
  8
02製品
  6
Continuous
370
    15
100
AcDbLine
 10
8.000000026091584
 20
743.0000226013362
 30
0.0
 11
5.283398956540623
 21
743.0000226013362
 31
0.0
  0
LINE
  5
1A81F
330
1A7C2
100
AcDbEntity
  8
02製品
  6
Continuous
370
    15
100
AcDbLine
 10
5.000000000014552
 20
742.7166025154293
 30
0.0
 11
5.000000000014552
 21
740.0000016205013
 31
0.0
  0
LINE
  5
1A820
330
1A7C2
100
AcDbEntity
  8
02製品
  6
Continuous
370
    15
100
AcDbLine
 10
600.000028610244
 20
703.0000011436641
 30
0.0
 11
600.000028610244
 21
43.99999929592013
 31
0.0
  0
LINE
  5
1A821
330
1A7C2
100
AcDbEntity
  8
02製品
  6
Continuous
370
    15
100
AcDbLine
 10
630.0000000000146
 20
703.0000011436641
 30
0.0
 11
630.0000000000146
 21
43.99999929592013
 31
0.0
  0
LINE
  5
1A822
330
1A7C2
100
AcDbEntity
  8
02製品
  6
Continuous
370
    15
100
AcDbLine
 10
1225.000028610244
 20
43.99999929592013
 30
0.0
 11
1184.999947547927
 21
43.99999929592013
 31
0.0
  0
LINE
  5
1A823
330
1A7C2
100
AcDbEntity
  8
02製品
  6
Continuous
370
    15
100
AcDbLine
 10
1184.999947547927
 20
703.0000011436641
 30
0.0
 11
1184.999947547927
 21
43.99999929592013
 31
0.0
  0
LINE
  5
1A824
330
1A7C2
100
AcDbEntity
  8
02製品
  6
Continuous
370
    15
100
AcDbLine
 10
1184.999947547927
 20
703.0000011436641
 30
0.0
 11
1225.000028610244
 21
703.0000011436641
 31
0.0
  0
LINE
  5
1A825
330
1A7C2
100
AcDbEntity
  8
02製品
  6
Continuous
370
    15
100
AcDbLine
 10
1225.000028610244
 20
703.0000011436641
 30
0.0
 11
1225.000028610244
 21
43.99999929592013
 31
0.0
  0
LINE
  5
1A826
330
1A7C2
100
AcDbEntity
  8
02製品
  6
Continuous
370
    15
100
AcDbLine
 10
5.000000000014552
 20
703.0000011436641
 30
0.0
 11
44.99999910594488
 21
703.0000011436641
 31
0.0
  0
LINE
  5
1A827
330
1A7C2
100
AcDbEntity
  8
02製品
  6
Continuous
370
    15
100
AcDbLine
 10
44.99999910594488
 20
43.99999929592013
 30
0.0
 11
44.99999910594488
 21
703.0000011436641
 31
0.0
  0
LINE
  5
1A828
330
1A7C2
100
AcDbEntity
  8
02製品
  6
Continuous
370
    15
100
AcDbLine
 10
44.99999910594488
 20
43.99999929592013
 30
0.0
 11
5.000000000014552
 21
43.99999929592013
 31
0.0
  0
LINE
  5
1A829
330
1A7C2
100
AcDbEntity
  8
02製品
  6
Continuous
370
    15
100
AcDbLine
 10
5.000000000014552
 20
43.99999929592013
 30
0.0
 11
5.000000000014552
 21
703.0000011436641
 31
0.0
  0
LINE
  5
1A82A
330
1A7C2
100
AcDbEntity
  8
02製品
  6
Continuous
370
    15
100
AcDbLine
 10
5.000000000014552
 20
7.000000216066837
 30
0.0
 11
8.000000026091584
 21
4.000000189989805
 31
0.0
  0
LINE
  5
1A82B
330
1A7C2
100
AcDbEntity
  8
02製品
  6
Continuous
370
    15
100
AcDbLine
 10
5.000000000014552
 20
43.99999929592013
 30
0.0
 11
5.000000000014552
 21
7.000000216066837
 31
0.0
  0
LINE
  5
1A82C
330
1A7C2
100
AcDbEntity
  8
02製品
  6
Continuous
370
    15
100
AcDbLine
 10
1225.000028610244
 20
43.99999929592013
 30
0.0
 11
5.000000000014552
 21
43.99999929592013
 31
0.0
  0
LINE
  5
1A82D
330
1A7C2
100
AcDbEntity
  8
02製品
  6
Continuous
370
    15
100
AcDbLine
 10
1225.000028610244
 20
43.99999929592013
 30
0.0
 11
1225.000028610244
 21
7.000000216066837
 31
0.0
  0
LINE
  5
1A82E
330
1A7C2
100
AcDbEntity
  8
02製品
  6
Continuous
370
    15
100
AcDbLine
 10
1222.000007629409
 20
4.000000189989805
 30
0.0
 11
1225.000028610244
 21
7.000000216066837
 31
0.0
  0
LINE
  5
1A82F
330
1A7C2
100
AcDbEntity
  8
02製品
  6
Continuous
370
    15
100
AcDbLine
 10
1222.000007629409
 20
4.000000189989805
 30
0.0
 11
8.000000026091584
 21
4.000000189989805
 31
0.0
  0
LINE
  5
1A830
330
1A7C2
100
AcDbEntity
  8
02製品
  6
Continuous
370
    15
100
AcDbLine
 10
1225.000028610244
 20
740.0000016205013
 30
0.0
 11
1222.000007629409
 21
743.0000226013362
 31
0.0
  0
LINE
  5
1A831
330
1A7C2
100
AcDbEntity
  8
02製品
  6
Continuous
370
    15
100
AcDbLine
 10
1225.000028610244
 20
703.0000011436641
 30
0.0
 11
1225.000028610244
 21
740.0000016205013
 31
0.0
  0
LINE
  5
1A832
330
1A7C2
100
AcDbEntity
  8
02製品
  6
Continuous
370
    15
100
AcDbLine
 10
5.000000000014552
 20
703.0000011436641
 30
0.0
 11
1225.000028610244
 21
703.0000011436641
 31
0.0
  0
LINE
  5
1A833
330
1A7C2
100
AcDbEntity
  8
02製品
  6
Continuous
370
    15
100
AcDbLine
 10
5.000000000014552
 20
703.0000011436641
 30
0.0
 11
5.000000000014552
 21
740.0000016205013
 31
0.0
  0
LINE
  5
1A834
330
1A7C2
100
AcDbEntity
  8
02製品
  6
Continuous
370
    15
100
AcDbLine
 10
8.000000026091584
 20
743.0000226013362
 30
0.0
 11
5.000000000014552
 21
740.0000016205013
 31
0.0
  0
LINE
  5
1A835
330
1A7C2
100
AcDbEntity
  8
02製品
  6
Continuous
370
    15
100
AcDbLine
 10
8.000000026091584
 20
743.0000226013362
 30
0.0
 11
1222.000007629409
 21
743.0000226013362
 31
0.0
  0
LINE
  5
1A836
330
1A7C2
100
AcDbEntity
  8
02製品
  6
Continuous
370
    15
100
AcDbLine
 10
1184.999947547927
 20
3.200000210199505
 30
0.0
 11
1184.999947547927
 21
4.000000189989805
 31
0.0
  0
LINE
  5
1A837
330
1A7C2
100
AcDbEntity
  8
02製品
  6
Continuous
370
    15
100
AcDbLine
 10
1228.999977111831
 20
23.99999974295497
 30
0.0
 11
1230.000023841872
 21
23.99999974295497
 31
0.0
  0
LINE
  5
1A838
330
1A7C2
100
AcDbEntity
  8
02製品
  6
Continuous
370
    15
100
AcDbLine
 10
1230.000023841872
 20
6.000000284984708
 30
0.0
 11
1230.000023841872
 21
23.99999974295497
 31
0.0
  0
ARC
  5
1A839
330
1A7C2
100
AcDbEntity
  8
02製品
  6
Continuous
370
    15
100
AcDbCircle
 10
1226.000000000015
 20
6.000000190018909
 30
0.0
 40
4.000000000000198
100
AcDbArc
 50
292.1998679064009
 51
0.0
  0
LINE
  5
1A83A
330
1A7C2
100
AcDbEntity
  8
02製品
  6
Continuous
370
    15
100
AcDbLine
 10
1141.999964714065
 20
3.200000210199505
 30
0.0
 11
1141.999964714065
 21
4.000000189989805
 31
0.0
  0
LINE
  5
1A83B
330
1A7C2
100
AcDbEntity
  8
02製品
  6
Continuous
370
    15
100
AcDbLine
 10
44.99999910594488
 20
743.7999765388668
 30
0.0
 11
44.99999910594488
 21
743.0000226013362
 31
0.0
  0
LINE
  5
1A83C
330
1A7C2
100
AcDbEntity
  8
02製品
  6
Continuous
370
    15
100
AcDbLine
 10
87.99999684096838
 20
743.7999765388668
 30
0.0
 11
87.99999684096838
 21
743.0000226013362
 31
0.0
  0
LINE
  5
1A83D
330
1A7C2
100
AcDbEntity
  8
02製品
  6
Continuous
370
    15
100
AcDbLine
 10
0.9999998100247467
 20
722.9999820701778
 30
0.0
 11
0.0000001117732609
 21
722.9999820701778
 31
0.0
  0
LINE
  5
1A83E
330
1A7C2
100
AcDbEntity
  8
02製品
  6
Continuous
370
    15
100
AcDbLine
 10
0.0000001117732609
 20
740.999988745898
 30
0.0
 11
0.0000001117732609
 21
722.9999820701778
 31
0.0
  0
ARC
  5
1A83F
330
1A7C2
100
AcDbEntity
  8
02製品
  6
Continuous
370
    15
100
AcDbCircle
 10
4.0
 20
741.0000001900189
 30
0.0
 40
4.000000000000199
100
AcDbArc
 50
112.1998745434957
 51
180.0
  0
LINE
  5
1A840
330
1A7C2
100
AcDbEntity
  8
02製品
  6
Continuous
100
AcDbLine
 10
718.30158596611
 20
358.9587726230384
 30
0.0
 11
589.1135119148676
 21
414.9683905844577
 31
0.0
  0
LINE
  5
1A841
330
1A7C2
100
AcDbEntity
  8
02製品
  6
Continuous
100
AcDbLine
 10
692.7070868100564
 20
347.2119839468796
 30
0.0
 11
563.5190127588139
 21
403.221601908328
 31
0.0
  0
LINE
  5
1A842
330
1A7C2
100
AcDbEntity
  8
02製品
  6
Continuous
100
AcDbLine
 10
640.5456258811464
 20
415.5132556683093
 30
0.0
 11
512.5731301009655
 21
356.7793122876319
 31
0.0
  0
LINE
  5
1A843
330
1A7C2
100
AcDbEntity
  8
02製品
  6
Continuous
100
AcDbLine
 10
666.3832406913862
 20
404.3113320760021
 30
0.0
 11
538.4107449112053
 21
345.5773886953248
 31
0.0
  0
LINE
  5
1A844
330
1A7C2
100
AcDbEntity
  8
02製品
  6
Continuous
100
AcDbLine
 10
692.2208555016259
 20
393.1094084837241
 30
0.0
 11
564.248359721445
 21
334.3754651030467
 31
0.0
  0
LINE
  5
1A845
330
1A7C2
100
AcDbEntity
  8
02製品
  6
Continuous
100
AcDbLine
 10
718.0584703118948
 20
381.907484891417
 30
0.0
 11
590.0859745317139
 21
323.1735415107687
 31
0.0
  0
LINE
  5
1A846
330
1A7C2
100
AcDbEntity
  8
02製品
  6
Continuous
100
AcDbLine
 10
667.1125876540173
 20
335.46519527075
 30
0.0
 11
537.9245136027894
 21
391.4748132321693
 31
0.0
  0
LINE
  5
1A847
330
1A7C2
100
AcDbEntity
  8
02製品
  6
Continuous
100
AcDbLine
 10
641.5180884979927
 20
323.7184065946203
 30
0.0
 11
512.3300144467503
 21
379.7280245560396
 31
0.0
  0
LINE
  5
1A848
330
1A7C2
100
AcDbEntity
  8
02製品
  6
Continuous
100
AcDbLine
 10
1185.000000000975
 20
131.0400002007955
 30
0.0
 11
1136.232000000018
 21
152.8000001986511
 31
0.0
  0
LINE
  5
1A849
330
1A7C2
100
AcDbEntity
  8
02製品
  6
Continuous
100
AcDbLine
 10
1185.000000000015
 20
152.8000002007757
 30
0.0
 11
1160.615999999529
 21
163.6800001997326
 31
0.0
  0
LINE
  5
1A84A
330
1A7C2
100
AcDbEntity
  8
02製品
  6
Continuous
100
AcDbLine
 10
989.9280000048311
 20
44.00000019214349
 30
0.0
 11
941.1600000038889
 21
65.76000018999912
 31
0.0
  0
LINE
  5
1A84B
330
1A7C2
100
AcDbEntity
  8
02製品
  6
Continuous
100
AcDbLine
 10
1185.000000003871
 20
65.76000020076754
 30
0.0
 11
1063.080000001457
 21
120.1600001954066
 31
0.0
  0
LINE
  5
1A84C
330
1A7C2
100
AcDbEntity
  8
02製品
  6
Continuous
100
AcDbLine
 10
1185.00000000291
 20
87.52000020080595
 30
0.0
 11
1087.464000004809
 21
44.00000019647996
 31
0.0
  0
LINE
  5
1A84D
330
1A7C2
100
AcDbEntity
  8
02製品
  6
Continuous
100
AcDbLine
 10
1185.000000001935
 20
109.2800002007862
 30
0.0
 11
1038.696000004828
 21
44.00000019432628
 31
0.0
  0
LINE
  5
1A84E
330
1A7C2
100
AcDbEntity
  8
02製品
  6
Continuous
100
AcDbLine
 10
1185.000000003871
 20
65.76000020076754
 30
0.0
 11
1136.232000004835
 21
44.00000019863364
 31
0.0
  0
LINE
  5
1A84F
330
1A7C2
100
AcDbEntity
  8
02製品
  6
Continuous
100
AcDbLine
 10
1087.464000004809
 20
44.00000019647996
 30
0.0
 11
989.9280000028957
 21
87.52000019216212
 31
0.0
  0
LINE
  5
1A850
330
1A7C2
100
AcDbEntity
  8
02製品
  6
Continuous
100
AcDbLine
 10
1038.696000004828
 20
44.00000019432628
 30
0.0
 11
965.544000003385
 21
76.64000019108062
 31
0.0
  0
LINE
  5
1A851
330
1A7C2
100
AcDbEntity
  8
02製品
  6
Continuous
100
AcDbLine
 10
1185.000000000015
 20
44.00000018998981
 30
0.0
 11
1038.695999997115
 21
109.2800001835567
 31
0.0
  0
LINE
  5
1A852
330
1A7C2
100
AcDbEntity
  8
02製品
  6
Continuous
100
AcDbLine
 10
1185.000000000975
 20
131.0400002007955
 30
0.0
 11
989.9280000048311
 21
44.00000019214349
 31
0.0
  0
LINE
  5
1A853
330
1A7C2
100
AcDbEntity
  8
02製品
  6
Continuous
100
AcDbLine
 10
1136.232000004835
 20
44.00000019863364
 30
0.0
 11
1014.312000002421
 21
98.40000019321451
 31
0.0
  0
LINE
  5
1A854
330
1A7C2
100
AcDbEntity
  8
02製品
  6
Continuous
100
AcDbLine
 10
941.1600000048347
 20
44.00000018998981
 30
0.0
 11
916.776000004349
 21
54.88000018891762
 31
0.0
  0
LINE
  5
1A855
330
1A7C2
100
AcDbEntity
  8
02製品
  6
Continuous
100
AcDbLine
 10
1185.00000000291
 20
87.52000020080595
 30
0.0
 11
1087.464000000968
 21
131.0400001964881
 31
0.0
  0
LINE
  5
1A856
330
1A7C2
100
AcDbEntity
  8
02製品
  6
Continuous
100
AcDbLine
 10
1185.000000001935
 20
109.2800002007862
 30
0.0
 11
1111.848000000493
 21
141.9200001975987
 31
0.0
  0
LINE
  5
1A857
330
1A7C2
100
AcDbEntity
  8
02製品
  6
Continuous
100
AcDbLine
 10
1185.000000000015
 20
152.8000002007757
 30
0.0
 11
941.1600000048347
 21
44.00000018998981
 31
0.0
  0
LINE
  5
1A858
330
1A7C2
100
AcDbEntity
  8
02製品
  6
Continuous
100
AcDbLine
 10
941.1600000048347
 20
44.00000018998981
 30
0.0
 11
1185.000000000015
 21
44.00000018998981
 31
0.0
  0
LINE
  5
1A859
330
1A7C2
100
AcDbEntity
  8
02製品
  6
Continuous
100
AcDbLine
 10
1185.000000000015
 20
44.00000018998981
 30
0.0
 11
1185.000000000015
 21
152.8000002007757
 31
0.0
  0
LINE
  5
1A85A
330
1A7C2
100
AcDbEntity
  8
02製品
  6
Continuous
100
AcDbLine
 10
45.00000765452569
 20
615.9600002387888
 30
0.0
 11
93.7680076554825
 21
594.2000002409332
 31
0.0
  0
LINE
  5
1A85B
330
1A7C2
100
AcDbEntity
  8
02製品
  6
Continuous
100
AcDbLine
 10
45.00000765548612
 20
594.2000002388086
 30
0.0
 11
69.3840076559718
 21
583.3200002398517
 31
0.0
  0
LINE
  5
1A85C
330
1A7C2
100
AcDbEntity
  8
02製品
  6
Continuous
100
AcDbLine
 10
240.0720076506695
 20
703.0000002474408
 30
0.0
 11
288.8400076516118
 21
681.2400002495851
 31
0.0
  0
LINE
  5
1A85D
330
1A7C2
100
AcDbEntity
  8
02製品
  6
Continuous
100
AcDbLine
 10
45.00000765162986
 20
681.2400002388167
 30
0.0
 11
166.9200076540437
 21
626.8400002441776
 31
0.0
  0
LINE
  5
1A85E
330
1A7C2
100
AcDbEntity
  8
02製品
  6
Continuous
100
AcDbLine
 10
45.00000765259028
 20
659.4800002387783
 30
0.0
 11
142.5360076506913
 21
703.0000002431043
 31
0.0
  0
LINE
  5
1A85F
330
1A7C2
100
AcDbEntity
  8
02製品
  6
Continuous
100
AcDbLine
 10
45.00000765356526
 20
637.7200002387981
 30
0.0
 11
191.3040076506732
 21
703.000000245258
 31
0.0
  0
LINE
  5
1A860
330
1A7C2
100
AcDbEntity
  8
02製品
  6
Continuous
100
AcDbLine
 10
45.00000765162986
 20
681.2400002388167
 30
0.0
 11
93.76800765066582
 21
703.0000002409506
 31
0.0
  0
LINE
  5
1A861
330
1A7C2
100
AcDbEntity
  8
02製品
  6
Continuous
100
AcDbLine
 10
142.5360076506913
 20
703.0000002431043
 30
0.0
 11
240.072007652605
 21
659.4800002474221
 31
0.0
  0
LINE
  5
1A862
330
1A7C2
100
AcDbEntity
  8
02製品
  6
Continuous
100
AcDbLine
 10
191.3040076506732
 20
703.000000245258
 30
0.0
 11
264.4560076521157
 21
670.3600002485036
 31
0.0
  0
LINE
  5
1A863
330
1A7C2
100
AcDbEntity
  8
02製品
  6
Continuous
100
AcDbLine
 10
45.00000765548612
 20
703.0000002495944
 30
0.0
 11
191.3040076583857
 21
637.7200002560276
 31
0.0
  0
LINE
  5
1A864
330
1A7C2
100
AcDbEntity
  8
02製品
  6
Continuous
100
AcDbLine
 10
45.00000765452569
 20
615.9600002387888
 30
0.0
 11
240.0720076506695
 21
703.0000002474408
 31
0.0
  0
LINE
  5
1A865
330
1A7C2
100
AcDbEntity
  8
02製品
  6
Continuous
100
AcDbLine
 10
93.76800765066582
 20
703.0000002409506
 30
0.0
 11
215.6880076530797
 21
648.6000002463697
 31
0.0
  0
LINE
  5
1A866
330
1A7C2
100
AcDbEntity
  8
02製品
  6
Continuous
100
AcDbLine
 10
288.8400076506659
 20
703.0000002495944
 30
0.0
 11
313.2240076511516
 21
692.1200002506666
 31
0.0
  0
LINE
  5
1A867
330
1A7C2
100
AcDbEntity
  8
02製品
  6
Continuous
100
AcDbLine
 10
45.00000765259028
 20
659.4800002387783
 30
0.0
 11
142.536007654533
 21
615.9600002430961
 31
0.0
  0
LINE
  5
1A868
330
1A7C2
100
AcDbEntity
  8
02製品
  6
Continuous
100
AcDbLine
 10
45.00000765356526
 20
637.7200002387981
 30
0.0
 11
118.1520076550078
 21
605.0800002419855
 31
0.0
  0
LINE
  5
1A869
330
1A7C2
100
AcDbEntity
  8
02製品
  6
Continuous
100
AcDbLine
 10
45.00000765548612
 20
594.2000002388086
 30
0.0
 11
288.8400076506659
 21
703.0000002495944
 31
0.0
  0
LINE
  5
1A86A
330
1A7C2
100
AcDbEntity
  8
02製品
  6
Continuous
100
AcDbLine
 10
288.8400076506659
 20
703.0000002495944
 30
0.0
 11
45.00000765548612
 21
703.0000002495944
 31
0.0
  0
LINE
  5
1A86B
330
1A7C2
100
AcDbEntity
  8
02製品
  6
Continuous
100
AcDbLine
 10
45.00000765548612
 20
703.0000002495944
 30
0.0
 11
45.00000765548612
 21
594.2000002388086
 31
0.0
  0
ENDBLK
  5
1A86D
330
1A7C2
100
AcDbEntity
  8
0
100
AcDbBlockEnd
  0
BLOCK
  5
1A9AA
330
1A86F
100
AcDbEntity
  8
0
100
AcDbBlockBegin
  2
A$C9827
 70
     0
 10
0.0
 20
0.0
 30
0.0
  3
A$C9827
  1

  0
LINE
  5
1A89C
330
1A86F
100
AcDbEntity
  8
02製品
  6
Continuous
370
    15
100
AcDbLine
 10
43.10498615184406
 20
542.9999968037009
 30
0.0
 11
47.09999864378551
 21
542.9999968037009
 31
0.0
  0
ARC
  5
1A89D
330
1A86F
100
AcDbEntity
  8
02製品
  6
Continuous
370
    15
100
AcDbCircle
 10
47.10000019350628
 20
547.999997138977
 30
0.0
 40
5.0
100
AcDbArc
 50
270.0
 51
90.0
  0
LINE
  5
1A89E
330
1A86F
100
AcDbEntity
  8
02製品
  6
Continuous
370
    15
100
AcDbLine
 10
47.09999864378551
 20
552.9999975115061
 30
0.0
 11
43.10498615184406
 21
552.9999975115061
 31
0.0
  0
LINE
  5
1A89F
330
1A86F
100
AcDbEntity
  8
02製品
  6
Continuous
370
    15
100
AcDbLine
 10
41.09501322188953
 20
552.9999975115061
 30
0.0
 11
37.10000072994808
 21
552.9999975115061
 31
0.0
  0
CIRCLE
  5
1A8A0
330
1A86F
100
AcDbEntity
  8
02製品
  6
Continuous
370
    15
100
AcDbCircle
 10
36.10000019350628
 20
437.9999971389771
 30
0.0
 40
4.999999999999432
  0
LINE
  5
1A8A1
330
1A86F
100
AcDbEntity
  8
02製品
  6
Continuous
370
    15
100
AcDbLine
 10
13.50000030750016
 20
417.9999977350235
 30
0.0
 11
57.10000028291324
 21
417.9999977350235
 31
0.0
  0
ARC
  5
1A8A2
330
1A86F
100
AcDbEntity
  8
02製品
  6
Continuous
370
    15
100
AcDbCircle
 10
42.10000019350628
 20
547.999997138977
 30
0.0
 40
5.1
100
AcDbArc
 50
78.63512303289117
 51
101.3648769671088
  0
LINE
  5
1A8A3
330
1A86F
100
AcDbEntity
  8
02製品
  6
Continuous
370
    15
100
AcDbLine
 10
57.10000028291324
 20
417.9999977350235
 30
0.0
 11
57.10000028291324
 21
567.9999962449074
 31
0.0
  0
ARC
  5
1A8A4
330
1A86F
100
AcDbEntity
  8
02製品
  6
Continuous
370
    15
100
AcDbCircle
 10
37.10000019350628
 20
547.999997138977
 30
0.0
 40
5.0
100
AcDbArc
 50
90.0
 51
270.0
  0
LINE
  5
1A8A5
330
1A86F
100
AcDbEntity
  8
02製品
  6
Continuous
370
    15
100
AcDbLine
 10
37.10000072994808
 20
542.9999968037009
 30
0.0
 11
41.09501322188953
 21
542.9999968037009
 31
0.0
  0
ARC
  5
1A8A6
330
1A86F
100
AcDbEntity
  8
02製品
  6
Continuous
370
    15
100
AcDbCircle
 10
42.10000019350628
 20
547.999997138977
 30
0.0
 40
5.1
100
AcDbArc
 50
258.6351230328912
 51
281.3648769671088
  0
CIRCLE
  5
1A8A7
330
1A86F
100
AcDbEntity
  8
02製品
  6
Continuous
370
    15
100
AcDbCircle
 10
36.10000019350628
 20
497.9999971389771
 30
0.0
 40
4.999999999999432
  0
LINE
  5
1A8A8
330
1A86F
100
AcDbEntity
  8
02製品
  6
Continuous
370
    15
100
AcDbLine
 10
13.50000030750016
 20
567.9999962449074
 30
0.0
 11
57.10000028291324
 21
567.9999962449074
 31
0.0
  0
LINE
  5
1A8A9
330
1A86F
100
AcDbEntity
  8
02製品
  6
Continuous
370
    15
100
AcDbLine
 10
7.10000000351647
 20
417.9999977350235
 30
0.0
 11
7.10000000351647
 21
567.9999962449074
 31
0.0
  0
LINE
  5
1A8AA
330
1A86F
100
AcDbEntity
  8
02製品
  6
Continuous
370
    15
100
AcDbLine
 10
7.10000000351647
 20
417.9999977350235
 30
0.0
 11
13.50000030750016
 21
417.9999977350235
 31
0.0
  0
LINE
  5
1A8AB
330
1A86F
100
AcDbEntity
  8
02製品
  6
Continuous
370
    15
100
AcDbLine
 10
7.10000000351647
 20
567.9999962449074
 30
0.0
 11
13.50000030750016
 21
567.9999962449074
 31
0.0
  0
LINE
  5
1A8AC
330
1A86F
100
AcDbEntity
  8
02製品
  6
Continuous
370
    15
100
AcDbLine
 10
11.10000019350628
 20
412.9999950528145
 30
0.0
 11
14.10000021958331
 21
412.9999950528145
 31
0.0
  0
LINE
  5
1A8AD
330
1A86F
100
AcDbEntity
  8
02製品
  6
Continuous
370
    15
100
AcDbLine
 10
14.10000021958331
 20
412.9999950528145
 30
0.0
 11
14.10000021958331
 21
417.9999977350235
 31
0.0
  0
LINE
  5
1A8AE
330
1A86F
100
AcDbEntity
  8
02製品
  6
Continuous
370
    15
100
AcDbLine
 10
11.10000019350628
 20
412.9999950528145
 30
0.0
 11
11.10000019350628
 21
417.9999977350235
 31
0.0
  0
CIRCLE
  5
1A8AF
330
1A86F
100
AcDbEntity
  8
02製品
  6
Continuous
370
    15
100
AcDbCircle
 10
41.10000019350628
 20
547.999997138977
 30
0.0
 40
5.0
  0
LINE
  5
1A8B0
330
1A86F
100
AcDbEntity
  8
02製品
100
AcDbLine
 10
36.10000019350628
 20
437.9999971389771
 30
0.0
 11
36.10000019350628
 21
440.4999971389771
 31
0.0
  0
LINE
  5
1A8B1
330
1A86F
100
AcDbEntity
  8
02製品
100
AcDbLine
 10
36.10000019350628
 20
437.9999971389771
 30
0.0
 11
33.60000019350628
 21
437.9999971389771
 31
0.0
  0
LINE
  5
1A8B2
330
1A86F
100
AcDbEntity
  8
02製品
100
AcDbLine
 10
36.10000019350628
 20
437.9999971389771
 30
0.0
 11
36.10000019350628
 21
435.4999971389771
 31
0.0
  0
LINE
  5
1A8B3
330
1A86F
100
AcDbEntity
  8
02製品
100
AcDbLine
 10
36.10000019350628
 20
437.9999971389771
 30
0.0
 11
38.60000019350628
 21
437.9999971389771
 31
0.0
  0
LINE
  5
1A8B4
330
1A86F
100
AcDbEntity
  8
02製品
100
AcDbLine
 10
36.10000019350628
 20
442.9999971389771
 30
0.0
 11
36.10000019350628
 21
445.4999971389771
 31
0.0
  0
LINE
  5
1A8B5
330
1A86F
100
AcDbEntity
  8
02製品
100
AcDbLine
 10
31.10000019350628
 20
437.9999971389771
 30
0.0
 11
28.60000019350628
 21
437.9999971389771
 31
0.0
  0
LINE
  5
1A8B6
330
1A86F
100
AcDbEntity
  8
02製品
100
AcDbLine
 10
36.10000019350628
 20
432.9999971389771
 30
0.0
 11
36.10000019350628
 21
430.4999971389771
 31
0.0
  0
LINE
  5
1A8B7
330
1A86F
100
AcDbEntity
  8
02製品
100
AcDbLine
 10
41.10000019350628
 20
437.9999971389771
 30
0.0
 11
43.60000019350628
 21
437.9999971389771
 31
0.0
  0
LINE
  5
1A8B8
330
1A86F
100
AcDbEntity
  8
02製品
100
AcDbLine
 10
36.10000019350628
 20
497.9999971389771
 30
0.0
 11
36.10000019350628
 21
500.4999971389771
 31
0.0
  0
LINE
  5
1A8B9
330
1A86F
100
AcDbEntity
  8
02製品
100
AcDbLine
 10
36.10000019350628
 20
497.9999971389771
 30
0.0
 11
33.60000019350628
 21
497.9999971389771
 31
0.0
  0
LINE
  5
1A8BA
330
1A86F
100
AcDbEntity
  8
02製品
100
AcDbLine
 10
36.10000019350628
 20
497.9999971389771
 30
0.0
 11
36.10000019350628
 21
495.4999971389771
 31
0.0
  0
LINE
  5
1A8BB
330
1A86F
100
AcDbEntity
  8
02製品
100
AcDbLine
 10
36.10000019350628
 20
497.9999971389771
 30
0.0
 11
38.60000019350628
 21
497.9999971389771
 31
0.0
  0
LINE
  5
1A8BC
330
1A86F
100
AcDbEntity
  8
02製品
100
AcDbLine
 10
36.10000019350628
 20
502.9999971389771
 30
0.0
 11
36.10000019350628
 21
505.4999971389771
 31
0.0
  0
LINE
  5
1A8BD
330
1A86F
100
AcDbEntity
  8
02製品
100
AcDbLine
 10
31.10000019350628
 20
497.9999971389771
 30
0.0
 11
28.60000019350628
 21
497.9999971389771
 31
0.0
  0
LINE
  5
1A8BE
330
1A86F
100
AcDbEntity
  8
02製品
100
AcDbLine
 10
36.10000019350628
 20
492.9999971389771
 30
0.0
 11
36.10000019350628
 21
490.4999971389771
 31
0.0
  0
LINE
  5
1A8BF
330
1A86F
100
AcDbEntity
  8
02製品
100
AcDbLine
 10
41.10000019350628
 20
497.9999971389771
 30
0.0
 11
43.60000019350628
 21
497.9999971389771
 31
0.0
  0
LINE
  5
1A8C0
330
1A86F
100
AcDbEntity
  8
02製品
100
AcDbLine
 10
41.10000019350628
 20
547.999997138977
 30
0.0
 11
41.10000019350628
 21
550.499997138977
 31
0.0
  0
LINE
  5
1A8C1
330
1A86F
100
AcDbEntity
  8
02製品
100
AcDbLine
 10
41.10000019350628
 20
547.999997138977
 30
0.0
 11
38.60000019350628
 21
547.999997138977
 31
0.0
  0
LINE
  5
1A8C2
330
1A86F
100
AcDbEntity
  8
02製品
100
AcDbLine
 10
41.10000019350628
 20
547.999997138977
 30
0.0
 11
41.10000019350628
 21
545.499997138977
 31
0.0
  0
LINE
  5
1A8C3
330
1A86F
100
AcDbEntity
  8
02製品
100
AcDbLine
 10
41.10000019350628
 20
547.999997138977
 30
0.0
 11
43.60000019350628
 21
547.999997138977
 31
0.0
  0
LINE
  5
1A8C4
330
1A86F
100
AcDbEntity
  8
02製品
100
AcDbLine
 10
41.10000019350628
 20
552.999997138977
 30
0.0
 11
41.10000019350628
 21
555.499997138977
 31
0.0
  0
LINE
  5
1A8C5
330
1A86F
100
AcDbEntity
  8
02製品
100
AcDbLine
 10
36.10000019350628
 20
547.999997138977
 30
0.0
 11
33.60000019350628
 21
547.999997138977
 31
0.0
  0
LINE
  5
1A8C6
330
1A86F
100
AcDbEntity
  8
02製品
100
AcDbLine
 10
41.10000019350628
 20
542.999997138977
 30
0.0
 11
41.10000019350628
 21
540.499997138977
 31
0.0
  0
LINE
  5
1A8C7
330
1A86F
100
AcDbEntity
  8
02製品
100
AcDbLine
 10
46.10000019350628
 20
547.999997138977
 30
0.0
 11
48.60000019350628
 21
547.999997138977
 31
0.0
  0
LINE
  5
1A8C8
330
1A86F
100
AcDbEntity
  8
02製品
  6
ByBlock
100
AcDbLine
 10
5.500000000001819
 20
539.499996244911
 30
0.0
 11
7.10000000351647
 21
539.499996244911
 31
0.0
  0
LINE
  5
1A8C9
330
1A86F
100
AcDbEntity
  8
02製品
  6
ByBlock
100
AcDbLine
 10
5.500000000001819
 20
556.499996244911
 30
0.0
 11
7.10000000351647
 21
556.499996244911
 31
0.0
  0
LINE
  5
1A8CA
330
1A86F
100
AcDbEntity
  8
02製品
  6
ByBlock
100
AcDbLine
 10
7.10000000351647
 20
556.499996244911
 30
0.0
 11
7.10000000351647
 21
539.499996244911
 31
0.0
  0
LINE
  5
1A8CB
330
1A86F
100
AcDbEntity
  8
02製品
  6
ByBlock
100
AcDbLine
 10
5.500000000001819
 20
556.499996244911
 30
0.0
 11
5.500000000001819
 21
539.499996244911
 31
0.0
  0
LINE
  5
1A8CC
330
1A86F
100
AcDbEntity
  8
02製品
  6
ByBlock
100
AcDbLine
 10
0.6960296630859375
 20
540.4944573044813
 30
0.0
 11
5.500000000001819
 21
540.4944573044813
 31
0.0
  0
LINE
  5
1A8CD
330
1A86F
100
AcDbEntity
  8
02製品
  6
ByBlock
100
AcDbLine
 10
0.0
 20
554.3000814525076
 30
0.0
 11
0.0
 21
541.699985423922
 31
0.0
  0
ARC
  5
1A8CE
330
1A86F
100
AcDbEntity
  8
02製品
  6
ByBlock
100
AcDbCircle
 10
12.00000000000182
 20
547.999996244911
 30
0.0
 40
12.0
100
AcDbArc
 50
161.7759804502453
 51
198.2237823143868
  0
LINE
  5
1A8CF
330
1A86F
100
AcDbEntity
  8
02製品
  6
ByBlock
100
AcDbLine
 10
0.601898193359375
 20
544.2472496628798
 30
0.0
 11
5.500000000001819
 21
544.2472496628798
 31
0.0
  0
LINE
  5
1A8D0
330
1A86F
100
AcDbEntity
  8
02製品
  6
ByBlock
100
AcDbLine
 10
0.6019134521502565
 20
551.7528038620985
 30
0.0
 11
5.500000000001819
 21
551.7528038620985
 31
0.0
  0
LINE
  5
1A8D1
330
1A86F
100
AcDbEntity
  8
02製品
  6
ByBlock
100
AcDbLine
 10
0.6960296630859375
 20
555.5055657029152
 30
0.0
 11
5.500000000001819
 21
555.5055657029152
 31
0.0
  0
LINE
  5
1A8D2
330
1A86F
100
AcDbEntity
  8
02製品
  6
ByBlock
100
AcDbLine
 10
0.6019017629496375
 20
551.752827517219
 30
0.0
 11
0.0
 21
554.3000814525076
 31
0.0
  0
LINE
  5
1A8D3
330
1A86F
100
AcDbEntity
  8
02製品
  6
ByBlock
100
AcDbLine
 10
0.0
 20
541.699985423922
 30
0.0
 11
0.6018760334500257
 21
544.2472967962203
 31
0.0
  0
LINE
  5
1A8D4
330
1A86F
100
AcDbEntity
  8
02製品
  6
ByBlock
100
AcDbLine
 10
0.0
 20
541.699985423922
 30
0.0
 11
0.6959975911631773
 21
540.494482100894
 31
0.0
  0
LINE
  5
1A8D5
330
1A86F
100
AcDbEntity
  8
02製品
  6
ByBlock
100
AcDbLine
 10
0.6960187865770422
 20
555.5056214870674
 30
0.0
 11
0.0
 21
554.3000814525076
 31
0.0
  0
LINE
  5
1A8D6
330
1A86F
100
AcDbEntity
  8
02製品
  6
ByBlock
100
AcDbLine
 10
5.500000000001819
 20
489.499996244911
 30
0.0
 11
7.10000000351647
 21
489.499996244911
 31
0.0
  0
LINE
  5
1A8D7
330
1A86F
100
AcDbEntity
  8
02製品
  6
ByBlock
100
AcDbLine
 10
5.500000000001819
 20
506.499996244911
 30
0.0
 11
7.10000000351647
 21
506.499996244911
 31
0.0
  0
LINE
  5
1A8D8
330
1A86F
100
AcDbEntity
  8
02製品
  6
ByBlock
100
AcDbLine
 10
7.10000000351647
 20
506.499996244911
 30
0.0
 11
7.10000000351647
 21
489.499996244911
 31
0.0
  0
LINE
  5
1A8D9
330
1A86F
100
AcDbEntity
  8
02製品
  6
ByBlock
100
AcDbLine
 10
5.500000000001819
 20
506.499996244911
 30
0.0
 11
5.500000000001819
 21
489.499996244911
 31
0.0
  0
LINE
  5
1A8DA
330
1A86F
100
AcDbEntity
  8
02製品
  6
ByBlock
100
AcDbLine
 10
0.6960296630859375
 20
490.4944573044813
 30
0.0
 11
5.500000000001819
 21
490.4944573044813
 31
0.0
  0
LINE
  5
1A8DB
330
1A86F
100
AcDbEntity
  8
02製品
  6
ByBlock
100
AcDbLine
 10
0.0
 20
504.3000814525076
 30
0.0
 11
0.0
 21
491.699985423922
 31
0.0
  0
ARC
  5
1A8DC
330
1A86F
100
AcDbEntity
  8
02製品
  6
ByBlock
100
AcDbCircle
 10
12.00000000000182
 20
497.999996244911
 30
0.0
 40
12.0
100
AcDbArc
 50
161.7759804502453
 51
198.2237823143868
  0
LINE
  5
1A8DD
330
1A86F
100
AcDbEntity
  8
02製品
  6
ByBlock
100
AcDbLine
 10
0.601898193359375
 20
494.2472496628798
 30
0.0
 11
5.500000000001819
 21
494.2472496628798
 31
0.0
  0
LINE
  5
1A8DE
330
1A86F
100
AcDbEntity
  8
02製品
  6
ByBlock
100
AcDbLine
 10
0.6019134521502565
 20
501.7528038620985
 30
0.0
 11
5.500000000001819
 21
501.7528038620985
 31
0.0
  0
LINE
  5
1A8DF
330
1A86F
100
AcDbEntity
  8
02製品
  6
ByBlock
100
AcDbLine
 10
0.6960296630859375
 20
505.5055657029152
 30
0.0
 11
5.500000000001819
 21
505.5055657029152
 31
0.0
  0
LINE
  5
1A8E0
330
1A86F
100
AcDbEntity
  8
02製品
  6
ByBlock
100
AcDbLine
 10
0.6019017629496375
 20
501.752827517219
 30
0.0
 11
0.0
 21
504.3000814525076
 31
0.0
  0
LINE
  5
1A8E1
330
1A86F
100
AcDbEntity
  8
02製品
  6
ByBlock
100
AcDbLine
 10
0.0
 20
491.699985423922
 30
0.0
 11
0.6018760334500257
 21
494.2472967962203
 31
0.0
  0
LINE
  5
1A8E2
330
1A86F
100
AcDbEntity
  8
02製品
  6
ByBlock
100
AcDbLine
 10
0.0
 20
491.699985423922
 30
0.0
 11
0.6959975911631773
 21
490.4944821008939
 31
0.0
  0
LINE
  5
1A8E3
330
1A86F
100
AcDbEntity
  8
02製品
  6
ByBlock
100
AcDbLine
 10
0.6960187865770422
 20
505.5056214870674
 30
0.0
 11
0.0
 21
504.3000814525076
 31
0.0
  0
LINE
  5
1A8E4
330
1A86F
100
AcDbEntity
  8
02製品
  6
ByBlock
100
AcDbLine
 10
5.500000000001819
 20
446.499996244911
 30
0.0
 11
7.10000000351647
 21
446.499996244911
 31
0.0
  0
LINE
  5
1A8E5
330
1A86F
100
AcDbEntity
  8
02製品
  6
ByBlock
100
AcDbLine
 10
0.6960296630859375
 20
430.4944573044813
 30
0.0
 11
5.500000000001819
 21
430.4944573044813
 31
0.0
  0
LINE
  5
1A8E6
330
1A86F
100
AcDbEntity
  8
02製品
  6
ByBlock
100
AcDbLine
 10
0.0
 20
444.3000814525076
 30
0.0
 11
0.0
 21
431.699985423922
 31
0.0
  0
ARC
  5
1A8E7
330
1A86F
100
AcDbEntity
  8
02製品
  6
ByBlock
100
AcDbCircle
 10
12.00000000000364
 20
437.999996244911
 30
0.0
 40
12.0
100
AcDbArc
 50
161.7759804502453
 51
198.2237823143868
  0
LINE
  5
1A8E8
330
1A86F
100
AcDbEntity
  8
02製品
  6
ByBlock
100
AcDbLine
 10
0.601898193359375
 20
434.2472496628798
 30
0.0
 11
5.500000000001819
 21
434.2472496628798
 31
0.0
  0
LINE
  5
1A8E9
330
1A86F
100
AcDbEntity
  8
02製品
  6
ByBlock
100
AcDbLine
 10
0.6019134521520755
 20
441.7528038620985
 30
0.0
 11
5.500000000001819
 21
441.7528038620985
 31
0.0
  0
LINE
  5
1A8EA
330
1A86F
100
AcDbEntity
  8
02製品
  6
ByBlock
100
AcDbLine
 10
0.6960296630859375
 20
445.5055657029152
 30
0.0
 11
5.500000000001819
 21
445.5055657029152
 31
0.0
  0
LINE
  5
1A8EB
330
1A86F
100
AcDbEntity
  8
02製品
  6
ByBlock
100
AcDbLine
 10
0.6019017629496375
 20
441.752827517219
 30
0.0
 11
0.0
 21
444.3000814525076
 31
0.0
  0
LINE
  5
1A8EC
330
1A86F
100
AcDbEntity
  8
02製品
  6
ByBlock
100
AcDbLine
 10
0.0
 20
431.699985423922
 30
0.0
 11
0.6018760334500257
 21
434.2472967962203
 31
0.0
  0
LINE
  5
1A8ED
330
1A86F
100
AcDbEntity
  8
02製品
  6
ByBlock
100
AcDbLine
 10
0.0
 20
431.699985423922
 30
0.0
 11
0.6959975911631773
 21
430.4944821008939
 31
0.0
  0
LINE
  5
1A8EE
330
1A86F
100
AcDbEntity
  8
02製品
  6
ByBlock
100
AcDbLine
 10
0.6960187865770422
 20
445.5056214870674
 30
0.0
 11
0.0
 21
444.3000814525076
 31
0.0
  0
LINE
  5
1A8EF
330
1A86F
100
AcDbEntity
  8
02製品
  6
ByBlock
100
AcDbLine
 10
5.500000000001819
 20
446.499996244911
 30
0.0
 11
5.500000000001819
 21
429.499996244911
 31
0.0
  0
LINE
  5
1A8F0
330
1A86F
100
AcDbEntity
  8
02製品
  6
ByBlock
100
AcDbLine
 10
5.500000000001819
 20
429.499996244911
 30
0.0
 11
7.10000000351647
 21
429.499996244911
 31
0.0
  0
LINE
  5
1A8F1
330
1A86F
100
AcDbEntity
  8
02製品
  6
ByBlock
100
AcDbLine
 10
7.10000000351647
 20
446.499996244911
 30
0.0
 11
7.10000000351647
 21
429.499996244911
 31
0.0
  0
LINE
  5
1A8F2
330
1A86F
100
AcDbEntity
  8
02製品
  6
Continuous
370
    15
100
AcDbLine
 10
730.0999820736943
 20
152.9999971389771
 30
0.0
 11
730.0999820736943
 21
72.9999840259552
 31
0.0
  0
LINE
  5
1A8F3
330
1A86F
100
AcDbEntity
  8
02製品
  6
Continuous
370
    15
100
AcDbLine
 10
748.0999887494145
 20
72.9999840259552
 30
0.0
 11
730.0999820736943
 21
72.9999840259552
 31
0.0
  0
LINE
  5
1A8F4
330
1A86F
100
AcDbEntity
  8
02製品
  6
Continuous
370
    15
100
AcDbLine
 10
748.0999887494145
 20
152.9999971389771
 30
0.0
 11
730.0999820736943
 21
152.9999971389771
 31
0.0
  0
LINE
  5
1A8F5
330
1A86F
100
AcDbEntity
  8
02製品
  6
Continuous
370
    15
100
AcDbLine
 10
752.0999968556462
 20
72.9999840259552
 30
0.0
 11
752.0999968556462
 21
152.9999971389771
 31
0.0
  0
LINE
  5
1A8F6
330
1A86F
100
AcDbEntity
  8
02製品
  6
Continuous
370
    15
100
AcDbLine
 10
748.0999887494145
 20
72.9999840259552
 30
0.0
 11
752.0999968556462
 21
72.9999840259552
 31
0.0
  0
LINE
  5
1A8F7
330
1A86F
100
AcDbEntity
  8
02製品
  6
Continuous
370
    15
100
AcDbLine
 10
752.0999968556462
 20
152.9999971389771
 30
0.0
 11
748.0999887494145
 21
152.9999971389771
 31
0.0
  0
LINE
  5
1A8F8
330
1A86F
100
AcDbEntity
  8
02製品
  6
Continuous
370
    15
100
AcDbLine
 10
752.0999968556462
 20
0.0
 30
0.0
 11
750.1000226048527
 21
0.0
 31
0.0
  0
LINE
  5
1A8F9
330
1A86F
100
AcDbEntity
  8
02製品
  6
Continuous
370
    15
100
AcDbLine
 10
750.1000226048527
 20
0.0
 30
0.0
 11
750.1000226048527
 21
67.99998879432678
 31
0.0
  0
LINE
  5
1A8FA
330
1A86F
100
AcDbEntity
  8
02製品
  6
Continuous
370
    15
100
AcDbLine
 10
754.0999711064396
 20
87.99999952316284
 30
0.0
 11
752.0999968556462
 21
87.99999952316284
 31
0.0
  0
LINE
  5
1A8FB
330
1A86F
100
AcDbEntity
  8
02製品
  6
Continuous
370
    15
100
AcDbLine
 10
754.0999711064396
 20
0.0
 30
0.0
 11
754.0999711064396
 21
87.99999952316284
 31
0.0
  0
LINE
  5
1A8FC
330
1A86F
100
AcDbEntity
  8
02製品
  6
Continuous
370
    15
100
AcDbLine
 10
752.0999968556462
 20
0.0
 30
0.0
 11
752.0999968556462
 21
72.9999840259552
 31
0.0
  0
LINE
  5
1A8FD
330
1A86F
100
AcDbEntity
  8
02製品
  6
Continuous
370
    15
100
AcDbLine
 10
754.0999711064396
 20
0.0
 30
0.0
 11
752.0999968556462
 21
0.0
 31
0.0
  0
LINE
  5
1A8FE
330
1A86F
100
AcDbEntity
  8
02製品
  6
Continuous
370
    15
100
AcDbLine
 10
7.10000000351647
 20
0.0
 30
0.0
 11
9.100000098511373
 21
0.0
 31
0.0
  0
LINE
  5
1A8FF
330
1A86F
100
AcDbEntity
  8
02製品
  6
Continuous
370
    15
100
AcDbLine
 10
7.10000000351647
 20
0.0
 30
0.0
 11
7.10000000351647
 21
87.99999952316284
 31
0.0
  0
LINE
  5
1A900
330
1A86F
100
AcDbEntity
  8
02製品
  6
Continuous
370
    15
100
AcDbLine
 10
7.10000000351647
 20
87.99999952316284
 30
0.0
 11
9.100000098511373
 21
87.99999952316284
 31
0.0
  0
LINE
  5
1A901
330
1A86F
100
AcDbEntity
  8
02製品
  6
Continuous
370
    15
100
AcDbLine
 10
9.100000098511373
 20
0.0
 30
0.0
 11
9.100000098511373
 21
72.9999840259552
 31
0.0
  0
LINE
  5
1A902
330
1A86F
100
AcDbEntity
  8
02製品
  6
Continuous
370
    15
100
AcDbLine
 10
747.6999819783268
 20
417.9999977350235
 30
0.0
 11
704.1000187901554
 21
417.9999977350235
 31
0.0
  0
LINE
  5
1A903
330
1A86F
100
AcDbEntity
  8
02製品
  6
Continuous
370
    15
100
AcDbLine
 10
704.1000187901554
 20
417.9999977350235
 30
0.0
 11
704.1000187901554
 21
567.9999962449074
 31
0.0
  0
LINE
  5
1A904
330
1A86F
100
AcDbEntity
  8
02製品
  6
Continuous
370
    15
100
AcDbLine
 10
747.6999819783268
 20
567.9999962449074
 30
0.0
 11
704.1000187901554
 21
567.9999962449074
 31
0.0
  0
CIRCLE
  5
1A905
330
1A86F
100
AcDbEntity
  8
02製品
  6
Continuous
370
    15
100
AcDbCircle
 10
725.1000001935063
 20
437.9999971389771
 30
0.0
 40
5.0
  0
CIRCLE
  5
1A906
330
1A86F
100
AcDbEntity
  8
02製品
  6
Continuous
370
    15
100
AcDbCircle
 10
725.1000001935063
 20
497.9999971389771
 30
0.0
 40
4.999999999999432
  0
ARC
  5
1A907
330
1A86F
100
AcDbEntity
  8
02製品
  6
Continuous
370
    15
100
AcDbCircle
 10
719.1000001935208
 20
547.999997138977
 30
0.0
 40
5.1
100
AcDbArc
 50
78.63512303305144
 51
101.3648769671088
  0
LINE
  5
1A908
330
1A86F
100
AcDbEntity
  8
02製品
  6
Continuous
370
    15
100
AcDbLine
 10
714.1000092534123
 20
552.9999975115061
 30
0.0
 11
718.0950105694828
 21
552.9999975115061
 31
0.0
  0
ARC
  5
1A909
330
1A86F
100
AcDbEntity
  8
02製品
  6
Continuous
370
    15
100
AcDbCircle
 10
714.1000001935208
 20
547.999997138977
 30
0.0
 40
5.0
100
AcDbArc
 50
90.0
 51
270.0
  0
LINE
  5
1A90A
330
1A86F
100
AcDbEntity
  8
02製品
  6
Continuous
370
    15
100
AcDbLine
 10
718.0950105694828
 20
542.9999968037009
 30
0.0
 11
714.1000092534123
 21
542.9999968037009
 31
0.0
  0
ARC
  5
1A90B
330
1A86F
100
AcDbEntity
  8
02製品
  6
Continuous
370
    15
100
AcDbCircle
 10
719.1000001935208
 20
547.999997138977
 30
0.0
 40
5.1
100
AcDbArc
 50
258.6351230328912
 51
281.3648769669485
  0
LINE
  5
1A90C
330
1A86F
100
AcDbEntity
  8
02製品
  6
Continuous
370
    15
100
AcDbLine
 10
724.0999997166691
 20
542.9999968037009
 30
0.0
 11
720.1049984005986
 21
542.9999968037009
 31
0.0
  0
ARC
  5
1A90D
330
1A86F
100
AcDbEntity
  8
02製品
  6
Continuous
370
    15
100
AcDbCircle
 10
724.1000001935208
 20
547.999997138977
 30
0.0
 40
5.0
100
AcDbArc
 50
270.0
 51
90.0
  0
LINE
  5
1A90E
330
1A86F
100
AcDbEntity
  8
02製品
  6
Continuous
370
    15
100
AcDbLine
 10
720.1049984005986
 20
552.9999975115061
 30
0.0
 11
724.0999997166691
 21
552.9999975115061
 31
0.0
  0
LINE
  5
1A90F
330
1A86F
100
AcDbEntity
  8
02製品
  6
Continuous
370
    15
100
AcDbLine
 10
754.0999711064396
 20
417.9999977350235
 30
0.0
 11
754.0999711064396
 21
567.9999962449074
 31
0.0
  0
LINE
  5
1A910
330
1A86F
100
AcDbEntity
  8
02製品
  6
Continuous
370
    15
100
AcDbLine
 10
754.0999711064396
 20
417.9999977350235
 30
0.0
 11
747.6999819783268
 21
417.9999977350235
 31
0.0
  0
LINE
  5
1A911
330
1A86F
100
AcDbEntity
  8
02製品
  6
Continuous
370
    15
100
AcDbLine
 10
754.0999711064396
 20
567.9999962449074
 30
0.0
 11
747.6999819783268
 21
567.9999962449074
 31
0.0
  0
LINE
  5
1A912
330
1A86F
100
AcDbEntity
  8
02製品
  6
Continuous
370
    15
100
AcDbLine
 10
747.1000016240178
 20
412.9999950528145
 30
0.0
 11
747.1000016240178
 21
417.9999977350235
 31
0.0
  0
LINE
  5
1A913
330
1A86F
100
AcDbEntity
  8
02製品
  6
Continuous
370
    15
100
AcDbLine
 10
750.1000226048527
 20
412.9999950528145
 30
0.0
 11
750.1000226048527
 21
152.9999971389771
 31
0.0
  0
LINE
  5
1A914
330
1A86F
100
AcDbEntity
  8
02製品
  6
Continuous
370
    15
100
AcDbLine
 10
750.1000226048527
 20
72.9999840259552
 30
0.0
 11
750.1000226048527
 21
71.00000977516174
 31
0.0
  0
LINE
  5
1A915
330
1A86F
100
AcDbEntity
  8
02製品
  6
Continuous
370
    15
100
AcDbLine
 10
710.1000011471806
 20
417.9999977350235
 30
0.0
 11
710.1000011471806
 21
71.00000977516174
 31
0.0
  0
LINE
  5
1A916
330
1A86F
100
AcDbEntity
  8
02製品
  6
Continuous
370
    15
100
AcDbLine
 10
750.1000226048527
 20
71.00000977516174
 30
0.0
 11
710.1000011471806
 21
71.00000977516174
 31
0.0
  0
LINE
  5
1A917
330
1A86F
100
AcDbEntity
  8
02製品
  6
Continuous
370
    15
100
AcDbLine
 10
750.1000226048527
 20
412.9999950528145
 30
0.0
 11
747.1000016240178
 21
412.9999950528145
 31
0.0
  0
LINE
  5
1A918
330
1A86F
100
AcDbEntity
  8
02製品
  6
Continuous
370
    15
100
AcDbLine
 10
750.1000226048527
 20
412.9999950528145
 30
0.0
 11
750.1000226048527
 21
417.9999977350235
 31
0.0
  0
LINE
  5
1A919
330
1A86F
100
AcDbEntity
  8
02製品
  6
Continuous
370
    15
100
AcDbLine
 10
11.10000019350628
 20
71.00000977516174
 30
0.0
 11
11.10000019350628
 21
67.99998879432678
 31
0.0
  0
LINE
  5
1A91A
330
1A86F
100
AcDbEntity
  8
02製品
  6
Continuous
370
    15
100
AcDbLine
 10
11.10000019350628
 20
71.00000977516174
 30
0.0
 11
51.0999992994366
 21
71.00000977516174
 31
0.0
  0
LINE
  5
1A91B
330
1A86F
100
AcDbEntity
  8
02製品
  6
Continuous
370
    15
100
AcDbLine
 10
11.10000019350628
 20
67.99998879432678
 30
0.0
 11
51.0999992994366
 21
67.99998879432678
 31
0.0
  0
LINE
  5
1A91C
330
1A86F
100
AcDbEntity
  8
02製品
  6
Continuous
370
    15
100
AcDbLine
 10
51.0999992994366
 20
71.00000977516174
 30
0.0
 11
51.0999992994366
 21
67.99998879432678
 31
0.0
  0
LINE
  5
1A91D
330
1A86F
100
AcDbEntity
  8
02製品
  6
Continuous
370
    15
100
AcDbLine
 10
750.1000226048527
 20
67.99998879432678
 30
0.0
 11
750.1000226048527
 21
71.00000977516174
 31
0.0
  0
LINE
  5
1A91E
330
1A86F
100
AcDbEntity
  8
02製品
  6
Continuous
370
    15
100
AcDbLine
 10
750.1000226048527
 20
67.99998879432678
 30
0.0
 11
710.1000011471806
 21
67.99998879432678
 31
0.0
  0
LINE
  5
1A91F
330
1A86F
100
AcDbEntity
  8
02製品
  6
Continuous
370
    15
100
AcDbLine
 10
710.1000011471806
 20
67.99998879432678
 30
0.0
 11
710.1000011471806
 21
71.00000977516174
 31
0.0
  0
LINE
  5
1A920
330
1A86F
100
AcDbEntity
  8
02製品
  6
Continuous
370
    15
100
AcDbLine
 10
11.10000019350628
 20
412.9999950528145
 30
0.0
 11
11.10000019350628
 21
152.9999971389771
 31
0.0
  0
LINE
  5
1A921
330
1A86F
100
AcDbEntity
  8
02製品
  6
Continuous
370
    15
100
AcDbLine
 10
11.10000019350628
 20
72.9999840259552
 30
0.0
 11
11.10000019350628
 21
71.00000977516174
 31
0.0
  0
LINE
  5
1A922
330
1A86F
100
AcDbEntity
  8
02製品
  6
Continuous
370
    15
100
AcDbLine
 10
51.0999992994366
 20
417.9999977350235
 30
0.0
 11
51.0999992994366
 21
71.00000977516174
 31
0.0
  0
LINE
  5
1A923
330
1A86F
100
AcDbEntity
  8
02製品
  6
Continuous
370
    15
100
AcDbLine
 10
704.1000187901554
 20
567.9999962449074
 30
0.0
 11
57.10000028291324
 21
567.9999962449074
 31
0.0
  0
CIRCLE
  5
1A924
330
1A86F
100
AcDbEntity
  8
02製品
  6
Continuous
370
    15
100
AcDbCircle
 10
720.1000001935063
 20
547.999997138977
 30
0.0
 40
5.0
  0
LINE
  5
1A925
330
1A86F
100
AcDbEntity
  8
02製品
  6
Continuous
370
    15
100
AcDbLine
 10
704.1000187901554
 20
527.999997138977
 30
0.0
 11
57.10000028291324
 21
527.999997138977
 31
0.0
  0
LINE
  5
1A926
330
1A86F
100
AcDbEntity
  8
02製品
  6
Continuous
370
    15
100
AcDbLine
 10
31.09999974647144
 20
152.9999971389771
 30
0.0
 11
31.09999974647144
 21
72.9999840259552
 31
0.0
  0
LINE
  5
1A927
330
1A86F
100
AcDbEntity
  8
02製品
  6
Continuous
370
    15
100
AcDbLine
 10
13.10000028850118
 20
72.9999840259552
 30
0.0
 11
31.09999974647144
 21
72.9999840259552
 31
0.0
  0
LINE
  5
1A928
330
1A86F
100
AcDbEntity
  8
02製品
  6
Continuous
370
    15
100
AcDbLine
 10
13.10000028850118
 20
152.9999971389771
 30
0.0
 11
31.09999974647144
 21
152.9999971389771
 31
0.0
  0
LINE
  5
1A929
330
1A86F
100
AcDbEntity
  8
02製品
  6
Continuous
370
    15
100
AcDbLine
 10
9.100000098511373
 20
72.9999840259552
 30
0.0
 11
9.100000098511373
 21
152.9999971389771
 31
0.0
  0
LINE
  5
1A92A
330
1A86F
100
AcDbEntity
  8
02製品
  6
Continuous
370
    15
100
AcDbLine
 10
13.10000028850118
 20
72.9999840259552
 30
0.0
 11
9.100000098511373
 21
72.9999840259552
 31
0.0
  0
LINE
  5
1A92B
330
1A86F
100
AcDbEntity
  8
02製品
  6
Continuous
370
    15
100
AcDbLine
 10
9.100000098511373
 20
152.9999971389771
 30
0.0
 11
13.10000028850118
 21
152.9999971389771
 31
0.0
  0
LINE
  5
1A92C
330
1A86F
100
AcDbEntity
  8
02製品
  6
Continuous
370
    15
100
AcDbLine
 10
9.100000098511373
 20
0.0
 30
0.0
 11
11.10000019350628
 21
0.0
 31
0.0
  0
LINE
  5
1A92D
330
1A86F
100
AcDbEntity
  8
02製品
  6
Continuous
370
    15
100
AcDbLine
 10
11.10000019350628
 20
0.0
 30
0.0
 11
11.10000019350628
 21
67.99998879432678
 31
0.0
  0
LINE
  5
1A92E
330
1A86F
100
AcDbEntity
  8
02製品
  6
CENTERX2
 48
0.1
370
     0
100
AcDbLine
 10
7.100000193506276
 20
9.99999713897705
 30
0.0
 11
9.100000193520827
 21
9.99999713897705
 31
0.0
  0
LINE
  5
1A92F
330
1A86F
100
AcDbEntity
  8
02製品
  6
CENTERX2
 48
0.1
370
     0
100
AcDbLine
 10
9.100000193520827
 20
10.99999713897705
 30
0.0
 11
7.100000193506276
 21
10.99999713897705
 31
0.0
  0
LINE
  5
1A930
330
1A86F
100
AcDbEntity
  8
02製品
100
AcDbLine
 10
720.1000001935063
 20
547.999997138977
 30
0.0
 11
720.1000001935063
 21
550.499997138977
 31
0.0
  0
LINE
  5
1A931
330
1A86F
100
AcDbEntity
  8
02製品
100
AcDbLine
 10
720.1000001935063
 20
547.999997138977
 30
0.0
 11
717.6000001935063
 21
547.999997138977
 31
0.0
  0
LINE
  5
1A932
330
1A86F
100
AcDbEntity
  8
02製品
100
AcDbLine
 10
720.1000001935063
 20
547.999997138977
 30
0.0
 11
720.1000001935063
 21
545.499997138977
 31
0.0
  0
LINE
  5
1A933
330
1A86F
100
AcDbEntity
  8
02製品
100
AcDbLine
 10
720.1000001935063
 20
547.999997138977
 30
0.0
 11
722.6000001935063
 21
547.999997138977
 31
0.0
  0
LINE
  5
1A934
330
1A86F
100
AcDbEntity
  8
02製品
100
AcDbLine
 10
720.1000001935063
 20
552.999997138977
 30
0.0
 11
720.1000001935063
 21
555.499997138977
 31
0.0
  0
LINE
  5
1A935
330
1A86F
100
AcDbEntity
  8
02製品
100
AcDbLine
 10
715.1000001935063
 20
547.999997138977
 30
0.0
 11
712.6000001935063
 21
547.999997138977
 31
0.0
  0
LINE
  5
1A936
330
1A86F
100
AcDbEntity
  8
02製品
100
AcDbLine
 10
720.1000001935063
 20
542.999997138977
 30
0.0
 11
720.1000001935063
 21
540.499997138977
 31
0.0
  0
LINE
  5
1A937
330
1A86F
100
AcDbEntity
  8
02製品
100
AcDbLine
 10
725.1000001935063
 20
547.999997138977
 30
0.0
 11
727.6000001935063
 21
547.999997138977
 31
0.0
  0
LINE
  5
1A938
330
1A86F
100
AcDbEntity
  8
02製品
100
AcDbLine
 10
725.1000001935063
 20
497.9999971389771
 30
0.0
 11
725.1000001935063
 21
500.4999971389771
 31
0.0
  0
LINE
  5
1A939
330
1A86F
100
AcDbEntity
  8
02製品
100
AcDbLine
 10
725.1000001935063
 20
497.9999971389771
 30
0.0
 11
722.6000001935063
 21
497.9999971389771
 31
0.0
  0
LINE
  5
1A93A
330
1A86F
100
AcDbEntity
  8
02製品
100
AcDbLine
 10
725.1000001935063
 20
497.9999971389771
 30
0.0
 11
725.1000001935063
 21
495.4999971389771
 31
0.0
  0
LINE
  5
1A93B
330
1A86F
100
AcDbEntity
  8
02製品
100
AcDbLine
 10
725.1000001935063
 20
497.9999971389771
 30
0.0
 11
727.6000001935063
 21
497.9999971389771
 31
0.0
  0
LINE
  5
1A93C
330
1A86F
100
AcDbEntity
  8
02製品
100
AcDbLine
 10
725.1000001935063
 20
502.9999971389771
 30
0.0
 11
725.1000001935063
 21
505.4999971389771
 31
0.0
  0
LINE
  5
1A93D
330
1A86F
100
AcDbEntity
  8
02製品
100
AcDbLine
 10
720.1000001935063
 20
497.9999971389771
 30
0.0
 11
717.6000001935063
 21
497.9999971389771
 31
0.0
  0
LINE
  5
1A93E
330
1A86F
100
AcDbEntity
  8
02製品
100
AcDbLine
 10
725.1000001935063
 20
492.9999971389771
 30
0.0
 11
725.1000001935063
 21
490.4999971389771
 31
0.0
  0
LINE
  5
1A93F
330
1A86F
100
AcDbEntity
  8
02製品
100
AcDbLine
 10
730.1000001935063
 20
497.9999971389771
 30
0.0
 11
732.6000001935063
 21
497.9999971389771
 31
0.0
  0
LINE
  5
1A940
330
1A86F
100
AcDbEntity
  8
02製品
100
AcDbLine
 10
725.1000001935063
 20
437.9999971389771
 30
0.0
 11
725.1000001935063
 21
440.4999971389771
 31
0.0
  0
LINE
  5
1A941
330
1A86F
100
AcDbEntity
  8
02製品
100
AcDbLine
 10
725.1000001935063
 20
437.9999971389771
 30
0.0
 11
722.6000001935063
 21
437.9999971389771
 31
0.0
  0
LINE
  5
1A942
330
1A86F
100
AcDbEntity
  8
02製品
100
AcDbLine
 10
725.1000001935063
 20
437.9999971389771
 30
0.0
 11
725.1000001935063
 21
435.4999971389771
 31
0.0
  0
LINE
  5
1A943
330
1A86F
100
AcDbEntity
  8
02製品
100
AcDbLine
 10
725.1000001935063
 20
437.9999971389771
 30
0.0
 11
727.6000001935063
 21
437.9999971389771
 31
0.0
  0
LINE
  5
1A944
330
1A86F
100
AcDbEntity
  8
02製品
100
AcDbLine
 10
725.1000001935063
 20
442.9999971389771
 30
0.0
 11
725.1000001935063
 21
445.4999971389771
 31
0.0
  0
LINE
  5
1A945
330
1A86F
100
AcDbEntity
  8
02製品
100
AcDbLine
 10
720.1000001935063
 20
437.9999971389771
 30
0.0
 11
717.6000001935063
 21
437.9999971389771
 31
0.0
  0
LINE
  5
1A946
330
1A86F
100
AcDbEntity
  8
02製品
100
AcDbLine
 10
725.1000001935063
 20
432.9999971389771
 30
0.0
 11
725.1000001935063
 21
430.4999971389771
 31
0.0
  0
LINE
  5
1A947
330
1A86F
100
AcDbEntity
  8
02製品
100
AcDbLine
 10
730.1000001935063
 20
437.9999971389771
 30
0.0
 11
732.6000001935063
 21
437.9999971389771
 31
0.0
  0
LINE
  5
1A948
330
1A86F
100
AcDbEntity
  8
02製品
  6
ByBlock
100
AcDbLine
 10
755.6999711099543
 20
539.499996244911
 30
0.0
 11
754.0999711064396
 21
539.499996244911
 31
0.0
  0
LINE
  5
1A949
330
1A86F
100
AcDbEntity
  8
02製品
  6
ByBlock
100
AcDbLine
 10
755.6999711099543
 20
556.499996244911
 30
0.0
 11
754.0999711064396
 21
556.499996244911
 31
0.0
  0
LINE
  5
1A94A
330
1A86F
100
AcDbEntity
  8
02製品
  6
ByBlock
100
AcDbLine
 10
754.0999711064396
 20
556.499996244911
 30
0.0
 11
754.0999711064396
 21
539.499996244911
 31
0.0
  0
LINE
  5
1A94B
330
1A86F
100
AcDbEntity
  8
02製品
  6
ByBlock
100
AcDbLine
 10
755.6999711099543
 20
556.499996244911
 30
0.0
 11
755.6999711099543
 21
539.499996244911
 31
0.0
  0
LINE
  5
1A94C
330
1A86F
100
AcDbEntity
  8
02製品
  6
ByBlock
100
AcDbLine
 10
760.5039414468702
 20
540.4944573044813
 30
0.0
 11
755.6999711099543
 21
540.4944573044813
 31
0.0
  0
LINE
  5
1A94D
330
1A86F
100
AcDbEntity
  8
02製品
  6
ByBlock
100
AcDbLine
 10
761.1999711099561
 20
554.3000814525076
 30
0.0
 11
761.1999711099561
 21
541.699985423922
 31
0.0
  0
LINE
  5
1A94E
330
1A86F
100
AcDbEntity
  8
02製品
  6
ByBlock
100
AcDbLine
 10
761.1999711099561
 20
541.699985423922
 30
0.0
 11
760.5980950765061
 21
544.2472967962203
 31
0.0
  0
ARC
  5
1A94F
330
1A86F
100
AcDbEntity
  8
02製品
  6
ByBlock
100
AcDbCircle
 10
749.1999711099543
 20
547.999996244911
 30
0.0
 40
12.0
100
AcDbArc
 50
341.7762176856132
 51
18.22401954975472
  0
LINE
  5
1A950
330
1A86F
100
AcDbEntity
  8
02製品
  6
ByBlock
100
AcDbLine
 10
761.1999711099561
 20
541.699985423922
 30
0.0
 11
760.5039735187929
 21
540.494482100894
 31
0.0
  0
LINE
  5
1A951
330
1A86F
100
AcDbEntity
  8
02製品
  6
ByBlock
100
AcDbLine
 10
760.5980729165967
 20
544.2472496628798
 30
0.0
 11
755.6999711099543
 21
544.2472496628798
 31
0.0
  0
LINE
  5
1A952
330
1A86F
100
AcDbEntity
  8
02製品
  6
ByBlock
100
AcDbLine
 10
760.5980576578058
 20
551.7528038620985
 30
0.0
 11
755.6999711099543
 21
551.7528038620985
 31
0.0
  0
LINE
  5
1A953
330
1A86F
100
AcDbEntity
  8
02製品
  6
ByBlock
100
AcDbLine
 10
760.5039414468702
 20
555.5055657029152
 30
0.0
 11
755.6999711099543
 21
555.5055657029152
 31
0.0
  0
LINE
  5
1A954
330
1A86F
100
AcDbEntity
  8
02製品
  6
ByBlock
100
AcDbLine
 10
760.5980693470065
 20
551.752827517219
 30
0.0
 11
761.1999711099561
 21
554.3000814525076
 31
0.0
  0
LINE
  5
1A955
330
1A86F
100
AcDbEntity
  8
02製品
  6
ByBlock
100
AcDbLine
 10
760.503952323379
 20
555.5056214870674
 30
0.0
 11
761.1999711099561
 21
554.3000814525076
 31
0.0
  0
LINE
  5
1A956
330
1A86F
100
AcDbEntity
  8
02製品
  6
ByBlock
100
AcDbLine
 10
755.6999711099543
 20
489.499996244911
 30
0.0
 11
754.0999711064396
 21
489.499996244911
 31
0.0
  0
LINE
  5
1A957
330
1A86F
100
AcDbEntity
  8
02製品
  6
ByBlock
100
AcDbLine
 10
755.6999711099543
 20
506.499996244911
 30
0.0
 11
754.0999711064396
 21
506.499996244911
 31
0.0
  0
LINE
  5
1A958
330
1A86F
100
AcDbEntity
  8
02製品
  6
ByBlock
100
AcDbLine
 10
754.0999711064396
 20
506.499996244911
 30
0.0
 11
754.0999711064396
 21
489.499996244911
 31
0.0
  0
LINE
  5
1A959
330
1A86F
100
AcDbEntity
  8
02製品
  6
ByBlock
100
AcDbLine
 10
755.6999711099543
 20
506.499996244911
 30
0.0
 11
755.6999711099543
 21
489.499996244911
 31
0.0
  0
LINE
  5
1A95A
330
1A86F
100
AcDbEntity
  8
02製品
  6
ByBlock
100
AcDbLine
 10
760.5039414468702
 20
490.4944573044813
 30
0.0
 11
755.6999711099543
 21
490.4944573044813
 31
0.0
  0
LINE
  5
1A95B
330
1A86F
100
AcDbEntity
  8
02製品
  6
ByBlock
100
AcDbLine
 10
761.1999711099561
 20
504.3000814525076
 30
0.0
 11
761.1999711099561
 21
491.699985423922
 31
0.0
  0
ARC
  5
1A95C
330
1A86F
100
AcDbEntity
  8
02製品
  6
ByBlock
100
AcDbCircle
 10
749.1999711099543
 20
497.999996244911
 30
0.0
 40
12.0
100
AcDbArc
 50
341.7762176856132
 51
18.22401954975472
  0
LINE
  5
1A95D
330
1A86F
100
AcDbEntity
  8
02製品
  6
ByBlock
100
AcDbLine
 10
760.5980729165967
 20
494.2472496628798
 30
0.0
 11
755.6999711099543
 21
494.2472496628798
 31
0.0
  0
LINE
  5
1A95E
330
1A86F
100
AcDbEntity
  8
02製品
  6
ByBlock
100
AcDbLine
 10
760.5980576578058
 20
501.7528038620985
 30
0.0
 11
755.6999711099543
 21
501.7528038620985
 31
0.0
  0
LINE
  5
1A95F
330
1A86F
100
AcDbEntity
  8
02製品
  6
ByBlock
100
AcDbLine
 10
760.5039414468702
 20
505.5055657029152
 30
0.0
 11
755.6999711099543
 21
505.5055657029152
 31
0.0
  0
LINE
  5
1A960
330
1A86F
100
AcDbEntity
  8
02製品
  6
ByBlock
100
AcDbLine
 10
760.5980693470065
 20
501.752827517219
 30
0.0
 11
761.1999711099561
 21
504.3000814525076
 31
0.0
  0
LINE
  5
1A961
330
1A86F
100
AcDbEntity
  8
02製品
  6
ByBlock
100
AcDbLine
 10
761.1999711099561
 20
491.699985423922
 30
0.0
 11
760.5980950765061
 21
494.2472967962203
 31
0.0
  0
LINE
  5
1A962
330
1A86F
100
AcDbEntity
  8
02製品
  6
ByBlock
100
AcDbLine
 10
761.1999711099561
 20
491.699985423922
 30
0.0
 11
760.5039735187929
 21
490.4944821008939
 31
0.0
  0
LINE
  5
1A963
330
1A86F
100
AcDbEntity
  8
02製品
  6
ByBlock
100
AcDbLine
 10
760.503952323379
 20
505.5056214870674
 30
0.0
 11
761.1999711099561
 21
504.3000814525076
 31
0.0
  0
LINE
  5
1A964
330
1A86F
100
AcDbEntity
  8
02製品
  6
ByBlock
100
AcDbLine
 10
755.6999711099543
 20
429.499996244911
 30
0.0
 11
754.0999711064396
 21
429.499996244911
 31
0.0
  0
LINE
  5
1A965
330
1A86F
100
AcDbEntity
  8
02製品
  6
ByBlock
100
AcDbLine
 10
755.6999711099543
 20
446.499996244911
 30
0.0
 11
754.0999711064396
 21
446.499996244911
 31
0.0
  0
LINE
  5
1A966
330
1A86F
100
AcDbEntity
  8
02製品
  6
ByBlock
100
AcDbLine
 10
754.0999711064396
 20
446.499996244911
 30
0.0
 11
754.0999711064396
 21
429.499996244911
 31
0.0
  0
LINE
  5
1A967
330
1A86F
100
AcDbEntity
  8
02製品
  6
ByBlock
100
AcDbLine
 10
755.6999711099543
 20
446.499996244911
 30
0.0
 11
755.6999711099543
 21
429.499996244911
 31
0.0
  0
LINE
  5
1A968
330
1A86F
100
AcDbEntity
  8
02製品
  6
ByBlock
100
AcDbLine
 10
760.5039414468702
 20
430.4944573044813
 30
0.0
 11
755.6999711099543
 21
430.4944573044813
 31
0.0
  0
LINE
  5
1A969
330
1A86F
100
AcDbEntity
  8
02製品
  6
ByBlock
100
AcDbLine
 10
761.1999711099561
 20
444.3000814525076
 30
0.0
 11
761.1999711099561
 21
431.699985423922
 31
0.0
  0
ARC
  5
1A96A
330
1A86F
100
AcDbEntity
  8
02製品
  6
ByBlock
100
AcDbCircle
 10
749.1999711099525
 20
437.999996244911
 30
0.0
 40
12.0
100
AcDbArc
 50
341.7762176856132
 51
18.22401954975472
  0
LINE
  5
1A96B
330
1A86F
100
AcDbEntity
  8
02製品
  6
ByBlock
100
AcDbLine
 10
760.5980729165967
 20
434.2472496628798
 30
0.0
 11
755.6999711099543
 21
434.2472496628798
 31
0.0
  0
LINE
  5
1A96C
330
1A86F
100
AcDbEntity
  8
02製品
  6
ByBlock
100
AcDbLine
 10
760.598057657804
 20
441.7528038620985
 30
0.0
 11
755.6999711099543
 21
441.7528038620985
 31
0.0
  0
LINE
  5
1A96D
330
1A86F
100
AcDbEntity
  8
02製品
  6
ByBlock
100
AcDbLine
 10
760.5039414468702
 20
445.5055657029152
 30
0.0
 11
755.6999711099543
 21
445.5055657029152
 31
0.0
  0
LINE
  5
1A96E
330
1A86F
100
AcDbEntity
  8
02製品
  6
ByBlock
100
AcDbLine
 10
760.5980693470065
 20
441.752827517219
 30
0.0
 11
761.1999711099561
 21
444.3000814525076
 31
0.0
  0
LINE
  5
1A96F
330
1A86F
100
AcDbEntity
  8
02製品
  6
ByBlock
100
AcDbLine
 10
761.1999711099561
 20
431.699985423922
 30
0.0
 11
760.5980950765061
 21
434.2472967962203
 31
0.0
  0
LINE
  5
1A970
330
1A86F
100
AcDbEntity
  8
02製品
  6
ByBlock
100
AcDbLine
 10
761.1999711099561
 20
431.699985423922
 30
0.0
 11
760.5039735187929
 21
430.4944821008939
 31
0.0
  0
LINE
  5
1A971
330
1A86F
100
AcDbEntity
  8
02製品
  6
ByBlock
100
AcDbLine
 10
760.503952323379
 20
445.5056214870674
 30
0.0
 11
761.1999711099561
 21
444.3000814525076
 31
0.0
  0
LINE
  5
1A972
330
1A86F
100
AcDbEntity
  8
02製品
  6
ByBlock
100
AcDbLine
 10
7.500000094996722
 20
141.4999971389771
 30
0.0
 11
9.100000098511373
 21
141.4999971389771
 31
0.0
  0
LINE
  5
1A973
330
1A86F
100
AcDbEntity
  8
02製品
  6
ByBlock
100
AcDbLine
 10
2.69602975808084
 20
125.4944581985474
 30
0.0
 11
7.500000094996722
 21
125.4944581985474
 31
0.0
  0
LINE
  5
1A974
330
1A86F
100
AcDbEntity
  8
02製品
  6
ByBlock
100
AcDbLine
 10
2.000000094994903
 20
139.3000823465736
 30
0.0
 11
2.000000094994903
 21
126.6999863179881
 31
0.0
  0
ARC
  5
1A975
330
1A86F
100
AcDbEntity
  8
02製品
  6
ByBlock
100
AcDbCircle
 10
14.00000009499854
 20
132.9999971389771
 30
0.0
 40
12.0
100
AcDbArc
 50
161.7759804502453
 51
198.2237823143868
  0
LINE
  5
1A976
330
1A86F
100
AcDbEntity
  8
02製品
  6
ByBlock
100
AcDbLine
 10
2.601898288354278
 20
129.2472505569458
 30
0.0
 11
7.500000094996722
 21
129.2472505569458
 31
0.0
  0
LINE
  5
1A977
330
1A86F
100
AcDbEntity
  8
02製品
  6
ByBlock
100
AcDbLine
 10
2.601913547146978
 20
136.7528047561646
 30
0.0
 11
7.500000094996722
 21
136.7528047561646
 31
0.0
  0
LINE
  5
1A978
330
1A86F
100
AcDbEntity
  8
02製品
  6
ByBlock
100
AcDbLine
 10
2.69602975808084
 20
140.5055665969812
 30
0.0
 11
7.500000094996722
 21
140.5055665969812
 31
0.0
  0
LINE
  5
1A979
330
1A86F
100
AcDbEntity
  8
02製品
  6
ByBlock
100
AcDbLine
 10
2.60190185794454
 20
136.752828411285
 30
0.0
 11
2.000000094994903
 21
139.3000823465736
 31
0.0
  0
LINE
  5
1A97A
330
1A86F
100
AcDbEntity
  8
02製品
  6
ByBlock
100
AcDbLine
 10
2.000000094994903
 20
126.6999863179881
 30
0.0
 11
2.601876128444928
 21
129.2472976902864
 31
0.0
  0
LINE
  5
1A97B
330
1A86F
100
AcDbEntity
  8
02製品
  6
ByBlock
100
AcDbLine
 10
2.000000094994903
 20
126.6999863179881
 30
0.0
 11
2.69599768615808
 21
125.49448299496
 31
0.0
  0
LINE
  5
1A97C
330
1A86F
100
AcDbEntity
  8
02製品
  6
ByBlock
100
AcDbLine
 10
2.696018881571945
 20
140.5056223811334
 30
0.0
 11
2.000000094994903
 21
139.3000823465736
 31
0.0
  0
LINE
  5
1A97D
330
1A86F
100
AcDbEntity
  8
02製品
  6
ByBlock
100
AcDbLine
 10
7.500000094996722
 20
141.4999971389771
 30
0.0
 11
7.500000094996722
 21
124.4999971389771
 31
0.0
  0
LINE
  5
1A97E
330
1A86F
100
AcDbEntity
  8
02製品
  6
ByBlock
100
AcDbLine
 10
7.500000094996722
 20
124.4999971389771
 30
0.0
 11
9.100000098511373
 21
124.4999971389771
 31
0.0
  0
LINE
  5
1A97F
330
1A86F
100
AcDbEntity
  8
02製品
  6
ByBlock
100
AcDbLine
 10
9.100000098511373
 20
141.4999971389771
 30
0.0
 11
9.100000098511373
 21
124.4999971389771
 31
0.0
  0
LINE
  5
1A980
330
1A86F
100
AcDbEntity
  8
02製品
  6
ByBlock
100
AcDbLine
 10
753.6999968591608
 20
124.4999971389771
 30
0.0
 11
752.0999968556462
 21
124.4999971389771
 31
0.0
  0
LINE
  5
1A981
330
1A86F
100
AcDbEntity
  8
02製品
  6
ByBlock
100
AcDbLine
 10
753.6999968591608
 20
141.4999971389771
 30
0.0
 11
752.0999968556462
 21
141.4999971389771
 31
0.0
  0
LINE
  5
1A982
330
1A86F
100
AcDbEntity
  8
02製品
  6
ByBlock
100
AcDbLine
 10
752.0999968556462
 20
141.4999971389771
 30
0.0
 11
752.0999968556462
 21
124.4999971389771
 31
0.0
  0
LINE
  5
1A983
330
1A86F
100
AcDbEntity
  8
02製品
  6
ByBlock
100
AcDbLine
 10
753.6999968591608
 20
141.4999971389771
 30
0.0
 11
753.6999968591608
 21
124.4999971389771
 31
0.0
  0
LINE
  5
1A984
330
1A86F
100
AcDbEntity
  8
02製品
  6
ByBlock
100
AcDbLine
 10
758.5039671960767
 20
125.4944581985474
 30
0.0
 11
753.6999968591608
 21
125.4944581985474
 31
0.0
  0
LINE
  5
1A985
330
1A86F
100
AcDbEntity
  8
02製品
  6
ByBlock
100
AcDbLine
 10
759.1999968591626
 20
139.3000823465736
 30
0.0
 11
759.1999968591626
 21
126.6999863179881
 31
0.0
  0
ARC
  5
1A986
330
1A86F
100
AcDbEntity
  8
02製品
  6
ByBlock
100
AcDbCircle
 10
747.199996859159
 20
132.9999971389771
 30
0.0
 40
12.0
100
AcDbArc
 50
341.7762176856132
 51
18.22401954975472
  0
LINE
  5
1A987
330
1A86F
100
AcDbEntity
  8
02製品
  6
ByBlock
100
AcDbLine
 10
758.5980986658033
 20
129.2472505569458
 30
0.0
 11
753.6999968591608
 21
129.2472505569458
 31
0.0
  0
LINE
  5
1A988
330
1A86F
100
AcDbEntity
  8
02製品
  6
ByBlock
100
AcDbLine
 10
758.5980834070106
 20
136.7528047561646
 30
0.0
 11
753.6999968591608
 21
136.7528047561646
 31
0.0
  0
LINE
  5
1A989
330
1A86F
100
AcDbEntity
  8
02製品
  6
ByBlock
100
AcDbLine
 10
758.5039671960767
 20
140.5055665969812
 30
0.0
 11
753.6999968591608
 21
140.5055665969812
 31
0.0
  0
LINE
  5
1A98A
330
1A86F
100
AcDbEntity
  8
02製品
  6
ByBlock
100
AcDbLine
 10
758.598095096213
 20
136.752828411285
 30
0.0
 11
759.1999968591626
 21
139.3000823465736
 31
0.0
  0
LINE
  5
1A98B
330
1A86F
100
AcDbEntity
  8
02製品
  6
ByBlock
100
AcDbLine
 10
759.1999968591626
 20
126.6999863179881
 30
0.0
 11
758.5981208257126
 21
129.2472976902864
 31
0.0
  0
LINE
  5
1A98C
330
1A86F
100
AcDbEntity
  8
02製品
  6
ByBlock
100
AcDbLine
 10
759.1999968591626
 20
126.6999863179881
 30
0.0
 11
758.5039992679995
 21
125.49448299496
 31
0.0
  0
LINE
  5
1A98D
330
1A86F
100
AcDbEntity
  8
02製品
  6
ByBlock
100
AcDbLine
 10
758.5039780725856
 20
140.5056223811334
 30
0.0
 11
759.1999968591626
 21
139.3000823465736
 31
0.0
  0
LINE
  5
1A98E
330
1A86F
100
AcDbEntity
  8
02製品
  6
ByBlock
100
AcDbLine
 10
7.500000094996722
 20
101.4999971389771
 30
0.0
 11
9.100000098511373
 21
101.4999971389771
 31
0.0
  0
LINE
  5
1A98F
330
1A86F
100
AcDbEntity
  8
02製品
  6
ByBlock
100
AcDbLine
 10
2.69602975808084
 20
85.49445819854736
 30
0.0
 11
7.500000094996722
 21
85.49445819854736
 31
0.0
  0
LINE
  5
1A990
330
1A86F
100
AcDbEntity
  8
02製品
  6
ByBlock
100
AcDbLine
 10
2.000000094994903
 20
99.30008234657362
 30
0.0
 11
2.000000094994903
 21
86.69998631798808
 31
0.0
  0
ARC
  5
1A991
330
1A86F
100
AcDbEntity
  8
02製品
  6
ByBlock
100
AcDbCircle
 10
14.00000009499854
 20
92.99999713897705
 30
0.0
 40
12.0
100
AcDbArc
 50
161.7759804502453
 51
198.2237823143868
  0
LINE
  5
1A992
330
1A86F
100
AcDbEntity
  8
02製品
  6
ByBlock
100
AcDbLine
 10
2.601898288354278
 20
89.2472505569458
 30
0.0
 11
7.500000094996722
 21
89.2472505569458
 31
0.0
  0
LINE
  5
1A993
330
1A86F
100
AcDbEntity
  8
02製品
  6
ByBlock
100
AcDbLine
 10
2.601913547146978
 20
96.75280475616455
 30
0.0
 11
7.500000094996722
 21
96.75280475616455
 31
0.0
  0
LINE
  5
1A994
330
1A86F
100
AcDbEntity
  8
02製品
  6
ByBlock
100
AcDbLine
 10
2.69602975808084
 20
100.5055665969812
 30
0.0
 11
7.500000094996722
 21
100.5055665969812
 31
0.0
  0
LINE
  5
1A995
330
1A86F
100
AcDbEntity
  8
02製品
  6
ByBlock
100
AcDbLine
 10
2.60190185794454
 20
96.75282841128501
 30
0.0
 11
2.000000094994903
 21
99.30008234657362
 31
0.0
  0
LINE
  5
1A996
330
1A86F
100
AcDbEntity
  8
02製品
  6
ByBlock
100
AcDbLine
 10
2.000000094994903
 20
86.69998631798808
 30
0.0
 11
2.601876128444928
 21
89.24729769028636
 31
0.0
  0
LINE
  5
1A997
330
1A86F
100
AcDbEntity
  8
02製品
  6
ByBlock
100
AcDbLine
 10
2.000000094994903
 20
86.69998631798808
 30
0.0
 11
2.69599768615808
 21
85.49448299495998
 31
0.0
  0
LINE
  5
1A998
330
1A86F
100
AcDbEntity
  8
02製品
  6
ByBlock
100
AcDbLine
 10
2.696018881571945
 20
100.5056223811334
 30
0.0
 11
2.000000094994903
 21
99.30008234657362
 31
0.0
  0
LINE
  5
1A999
330
1A86F
100
AcDbEntity
  8
02製品
  6
ByBlock
100
AcDbLine
 10
7.500000094996722
 20
101.4999971389771
 30
0.0
 11
7.500000094996722
 21
84.49999713897705
 31
0.0
  0
LINE
  5
1A99A
330
1A86F
100
AcDbEntity
  8
02製品
  6
ByBlock
100
AcDbLine
 10
7.500000094996722
 20
84.49999713897705
 30
0.0
 11
9.100000098511373
 21
84.49999713897705
 31
0.0
  0
LINE
  5
1A99B
330
1A86F
100
AcDbEntity
  8
02製品
  6
ByBlock
100
AcDbLine
 10
9.100000098511373
 20
101.4999971389771
 30
0.0
 11
9.100000098511373
 21
84.49999713897705
 31
0.0
  0
LINE
  5
1A99C
330
1A86F
100
AcDbEntity
  8
02製品
  6
ByBlock
100
AcDbLine
 10
753.6999968591608
 20
84.49999713897705
 30
0.0
 11
752.0999968556462
 21
84.49999713897705
 31
0.0
  0
LINE
  5
1A99D
330
1A86F
100
AcDbEntity
  8
02製品
  6
ByBlock
100
AcDbLine
 10
753.6999968591608
 20
101.4999971389771
 30
0.0
 11
752.0999968556462
 21
101.4999971389771
 31
0.0
  0
LINE
  5
1A99E
330
1A86F
100
AcDbEntity
  8
02製品
  6
ByBlock
100
AcDbLine
 10
752.0999968556462
 20
101.4999971389771
 30
0.0
 11
752.0999968556462
 21
84.49999713897705
 31
0.0
  0
LINE
  5
1A99F
330
1A86F
100
AcDbEntity
  8
02製品
  6
ByBlock
100
AcDbLine
 10
753.6999968591608
 20
101.4999971389771
 30
0.0
 11
753.6999968591608
 21
84.49999713897705
 31
0.0
  0
LINE
  5
1A9A0
330
1A86F
100
AcDbEntity
  8
02製品
  6
ByBlock
100
AcDbLine
 10
758.5039671960767
 20
85.49445819854736
 30
0.0
 11
753.6999968591608
 21
85.49445819854736
 31
0.0
  0
LINE
  5
1A9A1
330
1A86F
100
AcDbEntity
  8
02製品
  6
ByBlock
100
AcDbLine
 10
759.1999968591626
 20
99.30008234657362
 30
0.0
 11
759.1999968591626
 21
86.69998631798808
 31
0.0
  0
ARC
  5
1A9A2
330
1A86F
100
AcDbEntity
  8
02製品
  6
ByBlock
100
AcDbCircle
 10
747.199996859159
 20
92.99999713897705
 30
0.0
 40
12.0
100
AcDbArc
 50
341.7762176856132
 51
18.22401954975472
  0
LINE
  5
1A9A3
330
1A86F
100
AcDbEntity
  8
02製品
  6
ByBlock
100
AcDbLine
 10
758.5980986658033
 20
89.2472505569458
 30
0.0
 11
753.6999968591608
 21
89.2472505569458
 31
0.0
  0
LINE
  5
1A9A4
330
1A86F
100
AcDbEntity
  8
02製品
  6
ByBlock
100
AcDbLine
 10
758.5980834070106
 20
96.75280475616455
 30
0.0
 11
753.6999968591608
 21
96.75280475616455
 31
0.0
  0
LINE
  5
1A9A5
330
1A86F
100
AcDbEntity
  8
02製品
  6
ByBlock
100
AcDbLine
 10
758.5039671960767
 20
100.5055665969812
 30
0.0
 11
753.6999968591608
 21
100.5055665969812
 31
0.0
  0
LINE
  5
1A9A6
330
1A86F
100
AcDbEntity
  8
02製品
  6
ByBlock
100
AcDbLine
 10
758.598095096213
 20
96.75282841128501
 30
0.0
 11
759.1999968591626
 21
99.30008234657362
 31
0.0
  0
LINE
  5
1A9A7
330
1A86F
100
AcDbEntity
  8
02製品
  6
ByBlock
100
AcDbLine
 10
759.1999968591626
 20
86.69998631798808
 30
0.0
 11
758.5981208257126
 21
89.24729769028636
 31
0.0
  0
LINE
  5
1A9A8
330
1A86F
100
AcDbEntity
  8
02製品
  6
ByBlock
100
AcDbLine
 10
759.1999968591626
 20
86.69998631798808
 30
0.0
 11
758.5039992679995
 21
85.49448299495998
 31
0.0
  0
LINE
  5
1A9A9
330
1A86F
100
AcDbEntity
  8
02製品
  6
ByBlock
100
AcDbLine
 10
758.5039780725856
 20
100.5056223811334
 30
0.0
 11
759.1999968591626
 21
99.30008234657362
 31
0.0
  0
ENDBLK
  5
1A9AB
330
1A86F
100
AcDbEntity
  8
0
100
AcDbBlockEnd
  0
ENDSEC
  0
SECTION
  2
ENTITIES
  0
LINE
  5
1A08E
102
{ACAD_REACTORS
330
1A725
102
}
330
1F
100
AcDbEntity
  8
02製品
  6
Continuous
370
    15
100
AcDbLine
 10
10538.25836183963
 20
16022.36745997965
 30
0.0
 11
10579.25836099306
 21
16022.36745997965
 31
0.0
  0
LINE
  5
1A08F
102
{ACAD_REACTORS
330
1A725
102
}
330
1F
100
AcDbEntity
  8
02製品
  6
Continuous
370
    15
100
AcDbLine
 10
10579.25836099306
 20
16022.36745997965
 30
0.0
 11
10614.19586194674
 21
15957.36746236384
 31
0.0
  0
LINE
  5
1A090
102
{ACAD_REACTORS
330
1A725
102
}
330
1F
100
AcDbEntity
  8
02製品
  6
Continuous
370
    15
100
AcDbLine
 10
10567.2583627514
 20
15942.36744686663
 30
0.0
 11
10538.25836183963
 21
15942.36744686663
 31
0.0
  0
CIRCLE
  5
1A091
102
{ACAD_REACTORS
330
1A725
102
}
330
1F
100
AcDbEntity
  8
02製品
  6
Continuous
370
    15
100
AcDbCircle
 10
10559.25836188713
 20
15962.36745997965
 30
0.0
 40
5.499999999999972
  0
CIRCLE
  5
1A092
102
{ACAD_REACTORS
330
1A725
102
}
330
1F
100
AcDbEntity
  8
02製品
  6
Continuous
370
    15
100
AcDbCircle
 10
10559.25836188713
 20
16002.36745997965
 30
0.0
 40
5.499999999999972
  0
LINE
  5
1A093
102
{ACAD_REACTORS
330
1A725
102
}
330
1F
100
AcDbEntity
  8
02製品
  6
Continuous
370
    15
100
AcDbLine
 10
10534.25836199889
 20
16022.36745997965
 30
0.0
 11
10534.25836199889
 21
15942.36744686663
 31
0.0
  0
LINE
  5
1A094
102
{ACAD_REACTORS
330
1A725
102
}
330
1F
100
AcDbEntity
  8
02製品
  6
Continuous
370
    15
100
AcDbLine
 10
10538.25836183963
 20
16022.36745997965
 30
0.0
 11
10534.25836199889
 21
16022.36745997965
 31
0.0
  0
LINE
  5
1A095
102
{ACAD_REACTORS
330
1A725
102
}
330
1F
100
AcDbEntity
  8
02製品
  6
Continuous
370
    15
100
AcDbLine
 10
10534.25836199889
 20
15942.36744686663
 30
0.0
 11
10538.25836183963
 21
15942.36744686663
 31
0.0
  0
LINE
  5
1A096
102
{ACAD_REACTORS
330
1A725
102
}
330
1F
100
AcDbEntity
  8
02製品
  6
Continuous
370
    15
100
AcDbLine
 10
10622.25835872809
 20
15942.36744686663
 30
0.0
 11
10622.25835872809
 21
15896.36747285426
 31
0.0
  0
LINE
  5
1A097
102
{ACAD_REACTORS
330
1A725
102
}
330
1F
100
AcDbEntity
  8
02製品
  6
Continuous
370
    15
100
AcDbLine
 10
10622.25835872809
 20
15896.36747285426
 30
0.0
 11
10603.25836492697
 21
15896.36747285426
 31
0.0
  0
LINE
  5
1A098
102
{ACAD_REACTORS
330
1A725
102
}
330
1F
100
AcDbEntity
  8
02製品
  6
Continuous
370
    15
100
AcDbLine
 10
10603.25836492697
 20
15896.36747285426
 30
0.0
 11
10603.25836492697
 21
15869.36746284068
 31
0.0
  0
LINE
  5
1A099
102
{ACAD_REACTORS
330
1A725
102
}
330
1F
100
AcDbEntity
  8
02製品
  6
Continuous
370
    15
100
AcDbLine
 10
10603.25836492697
 20
15869.36746284068
 30
0.0
 11
10567.2583627514
 21
15869.36746284068
 31
0.0
  0
LINE
  5
1A09A
102
{ACAD_REACTORS
330
1A725
102
}
330
1F
100
AcDbEntity
  8
02製品
  6
Continuous
370
    15
100
AcDbLine
 10
10567.2583627514
 20
15869.36746284068
 30
0.0
 11
10567.2583627514
 21
15957.36746236384
 31
0.0
  0
LINE
  5
1A09B
102
{ACAD_REACTORS
330
1A725
102
}
330
1F
100
AcDbEntity
  8
02製品
  6
Continuous
370
    15
100
AcDbLine
 10
10567.2583627514
 20
15957.36746236384
 30
0.0
 11
10614.19586194674
 21
15957.36746236384
 31
0.0
  0
CIRCLE
  5
1A09C
102
{ACAD_REACTORS
330
1A725
102
}
330
1F
100
AcDbEntity
  8
02製品
  6
Continuous
370
    15
100
AcDbCircle
 10
10577.25836188712
 20
15911.36745997962
 30
0.0
 40
3.499999999999943
  0
CIRCLE
  5
1A09D
102
{ACAD_REACTORS
330
1A725
102
}
330
1F
100
AcDbEntity
  8
02製品
  6
Continuous
370
    15
100
AcDbCircle
 10
10613.25836188712
 20
15905.36745997962
 30
0.0
 40
3.499999999999801
  0
CIRCLE
  5
1A09E
102
{ACAD_REACTORS
330
1A725
102
}
330
1F
100
AcDbEntity
  8
02製品
  6
Continuous
370
    15
100
AcDbCircle
 10
10577.25836188712
 20
15876.36745997962
 30
0.0
 40
3.499999999999943
  0
LINE
  5
1A09F
102
{ACAD_REACTORS
330
1A725
102
}
330
1F
100
AcDbEntity
  8
02製品
  6
Continuous
370
    15
100
AcDbLine
 10
10614.19586194674
 20
15957.36746236384
 30
0.0
 11
10622.25835872809
 21
15942.36744686663
 31
0.0
  0
LINE
  5
1A0A0
102
{ACAD_REACTORS
330
1A725
102
}
330
1F
100
AcDbEntity
  8
02製品
  6
Continuous
370
    15
100
AcDbLine
 10
11695.25838000694
 20
15896.36747285426
 30
0.0
 11
11695.25838000694
 21
15869.36746284068
 31
0.0
  0
CIRCLE
  5
1A0A1
102
{ACAD_REACTORS
330
1A725
102
}
330
1F
100
AcDbEntity
  8
02製品
  6
Continuous
370
    15
100
AcDbCircle
 10
11685.25836188713
 20
15905.36745997962
 30
0.0
 40
3.499999999999943
  0
LINE
  5
1A0A2
102
{ACAD_REACTORS
330
1A725
102
}
330
1F
100
AcDbEntity
  8
02製品
  6
Continuous
370
    15
100
AcDbLine
 10
11676.25832660118
 20
15896.36747285426
 30
0.0
 11
11695.25838000694
 21
15896.36747285426
 31
0.0
  0
LINE
  5
1A0A3
102
{ACAD_REACTORS
330
1A725
102
}
330
1F
100
AcDbEntity
  8
02製品
  6
Continuous
370
    15
100
AcDbLine
 10
11695.25838000694
 20
15869.36746284068
 30
0.0
 11
11731.25839335838
 21
15869.36746284068
 31
0.0
  0
LINE
  5
1A0A4
102
{ACAD_REACTORS
330
1A725
102
}
330
1F
100
AcDbEntity
  8
02製品
  6
Continuous
370
    15
100
AcDbLine
 10
11684.32080848137
 20
15957.36746236384
 30
0.0
 11
11676.25832660118
 21
15942.36744686663
 31
0.0
  0
CIRCLE
  5
1A0A5
102
{ACAD_REACTORS
330
1A725
102
}
330
1F
100
AcDbEntity
  8
02製品
  6
Continuous
370
    15
100
AcDbCircle
 10
11721.25836188713
 20
15911.36745997962
 30
0.0
 40
3.499999999999659
  0
LINE
  5
1A0A6
102
{ACAD_REACTORS
330
1A725
102
}
330
1F
100
AcDbEntity
  8
02製品
  6
Continuous
370
    15
100
AcDbLine
 10
11676.25832660118
 20
15942.36744686663
 30
0.0
 11
11676.25832660118
 21
15896.36747285426
 31
0.0
  0
LINE
  5
1A0A7
102
{ACAD_REACTORS
330
1A725
102
}
330
1F
100
AcDbEntity
  8
02製品
  6
Continuous
370
    15
100
AcDbLine
 10
11731.25839335838
 20
15957.36746236384
 30
0.0
 11
11684.32080848137
 21
15957.36746236384
 31
0.0
  0
CIRCLE
  5
1A0A8
102
{ACAD_REACTORS
330
1A725
102
}
330
1F
100
AcDbEntity
  8
02製品
  6
Continuous
370
    15
100
AcDbCircle
 10
11721.25836188713
 20
15876.36745997962
 30
0.0
 40
3.499999999999659
  0
LINE
  5
1A0A9
102
{ACAD_REACTORS
330
1A725
102
}
330
1F
100
AcDbEntity
  8
02製品
  6
Continuous
370
    15
100
AcDbLine
 10
11731.25839335838
 20
15869.36746284068
 30
0.0
 11
11731.25839335838
 21
15957.36746236384
 31
0.0
  0
LINE
  5
1A0AA
102
{ACAD_REACTORS
330
1A725
102
}
330
1F
100
AcDbEntity
  8
02製品
  6
Continuous
370
    15
100
AcDbLine
 10
10575.25836033741
 20
16287.3674605757
 30
0.0
 11
10541.65836200113
 21
16287.3674605757
 31
0.0
  0
LINE
  5
1A0AB
102
{ACAD_REACTORS
330
1A725
102
}
330
1F
100
AcDbEntity
  8
02製品
  6
Continuous
370
    15
100
AcDbLine
 10
10685.25835974136
 20
16397.36745997965
 30
0.0
 11
10685.25835974136
 21
16437.36745908558
 31
0.0
  0
LINE
  5
1A0AC
102
{ACAD_REACTORS
330
1A725
102
}
330
1F
100
AcDbEntity
  8
02製品
  6
Continuous
370
    15
100
AcDbLine
 10
10575.25836033741
 20
16287.3674605757
 30
0.0
 11
10685.25835974136
 21
16397.36745997965
 31
0.0
  0
CIRCLE
  5
1A0AD
102
{ACAD_REACTORS
330
1A725
102
}
330
1F
100
AcDbEntity
  8
02製品
  6
Continuous
370
    15
100
AcDbCircle
 10
10664.25836188713
 20
16417.36745997965
 30
0.0
 40
5.0
  0
CIRCLE
  5
1A0AE
102
{ACAD_REACTORS
330
1A725
102
}
330
1F
100
AcDbEntity
  8
02製品
  6
Continuous
370
    15
100
AcDbCircle
 10
10569.25836188713
 20
16417.36745997965
 30
0.0
 40
5.000000000000142
  0
CIRCLE
  5
1A0AF
102
{ACAD_REACTORS
330
1A725
102
}
330
1F
100
AcDbEntity
  8
02製品
  6
Continuous
370
    15
100
AcDbCircle
 10
10564.25836188713
 20
16367.36745997965
 30
0.0
 40
5.0
  0
CIRCLE
  5
1A0B0
102
{ACAD_REACTORS
330
1A725
102
}
330
1F
100
AcDbEntity
  8
02製品
  6
Continuous
370
    15
100
AcDbCircle
 10
10564.25836188713
 20
16307.36745997965
 30
0.0
 40
5.0
  0
LINE
  5
1A0B1
102
{ACAD_REACTORS
330
1A725
102
}
330
1F
100
AcDbEntity
  8
02製品
  6
Continuous
370
    15
100
AcDbLine
 10
10685.25835974136
 20
16437.36745908558
 30
0.0
 11
10541.65836200113
 21
16437.36745908558
 31
0.0
  0
LINE
  5
1A0B2
102
{ACAD_REACTORS
330
1A725
102
}
330
1F
100
AcDbEntity
  8
02製品
  6
Continuous
370
    15
100
AcDbLine
 10
10535.25836169714
 20
16287.3674605757
 30
0.0
 11
10535.25836169714
 21
16437.36745908558
 31
0.0
  0
LINE
  5
1A0B3
102
{ACAD_REACTORS
330
1A725
102
}
330
1F
100
AcDbEntity
  8
02製品
  6
Continuous
370
    15
100
AcDbLine
 10
10541.65836200113
 20
16287.3674605757
 30
0.0
 11
10535.25836169714
 21
16287.3674605757
 31
0.0
  0
LINE
  5
1A0B4
102
{ACAD_REACTORS
330
1A725
102
}
330
1F
100
AcDbEntity
  8
02製品
  6
Continuous
370
    15
100
AcDbLine
 10
10541.65836200113
 20
16437.36745908558
 30
0.0
 11
10535.25836169714
 21
16437.36745908558
 31
0.0
  0
LINE
  5
1A0B5
102
{ACAD_REACTORS
330
1A725
102
}
330
1F
100
AcDbEntity
  8
02製品
  6
Continuous
370
    15
100
AcDbLine
 10
11723.25837714592
 20
16287.3674605757
 30
0.0
 11
11756.85834987084
 21
16287.3674605757
 31
0.0
  0
LINE
  5
1A0B6
102
{ACAD_REACTORS
330
1A725
102
}
330
1F
100
AcDbEntity
  8
02製品
  6
Continuous
370
    15
100
AcDbLine
 10
11723.25837714592
 20
16287.3674605757
 30
0.0
 11
11613.25836284081
 21
16397.36745997965
 31
0.0
  0
CIRCLE
  5
1A0B7
102
{ACAD_REACTORS
330
1A725
102
}
330
1F
100
AcDbEntity
  8
02製品
  6
Continuous
370
    15
100
AcDbCircle
 10
11634.25836188713
 20
16417.36745997965
 30
0.0
 40
5.0
  0
CIRCLE
  5
1A0B8
102
{ACAD_REACTORS
330
1A725
102
}
330
1F
100
AcDbEntity
  8
02製品
  6
Continuous
370
    15
100
AcDbCircle
 10
11729.25836188713
 20
16417.36745997965
 30
0.0
 40
5.0
  0
CIRCLE
  5
1A0B9
102
{ACAD_REACTORS
330
1A725
102
}
330
1F
100
AcDbEntity
  8
02製品
  6
Continuous
370
    15
100
AcDbCircle
 10
11734.25836188713
 20
16367.36745997965
 30
0.0
 40
5.0
  0
CIRCLE
  5
1A0BA
102
{ACAD_REACTORS
330
1A725
102
}
330
1F
100
AcDbEntity
  8
02製品
  6
Continuous
370
    15
100
AcDbCircle
 10
11734.25836188713
 20
16307.36745997965
 30
0.0
 40
5.0
  0
LINE
  5
1A0BB
102
{ACAD_REACTORS
330
1A725
102
}
330
1F
100
AcDbEntity
  8
02製品
  6
Continuous
370
    15
100
AcDbLine
 10
11613.25836284081
 20
16397.36745997965
 30
0.0
 11
11613.25836284081
 21
16437.36745908558
 31
0.0
  0
LINE
  5
1A0BC
102
{ACAD_REACTORS
330
1A725
102
}
330
1F
100
AcDbEntity
  8
02製品
  6
Continuous
370
    15
100
AcDbLine
 10
11613.25836284081
 20
16437.36745908558
 30
0.0
 11
11756.85834987084
 21
16437.36745908558
 31
0.0
  0
LINE
  5
1A0BD
102
{ACAD_REACTORS
330
1A725
102
}
330
1F
100
AcDbEntity
  8
02製品
  6
Continuous
370
    15
100
AcDbLine
 10
11763.25833899895
 20
16287.3674605757
 30
0.0
 11
11763.25833899895
 21
16437.36745908558
 31
0.0
  0
LINE
  5
1A0BE
102
{ACAD_REACTORS
330
1A725
102
}
330
1F
100
AcDbEntity
  8
02製品
  6
Continuous
370
    15
100
AcDbLine
 10
11756.85834987084
 20
16287.3674605757
 30
0.0
 11
11763.25833899895
 21
16287.3674605757
 31
0.0
  0
LINE
  5
1A0BF
102
{ACAD_REACTORS
330
1A725
102
}
330
1F
100
AcDbEntity
  8
02製品
  6
Continuous
370
    15
100
AcDbLine
 10
11756.85834987084
 20
16437.36745908558
 30
0.0
 11
11763.25833899895
 21
16437.36745908558
 31
0.0
  0
LINE
  5
1A0C0
102
{ACAD_REACTORS
330
1A725
102
}
330
1F
100
AcDbEntity
  8
02製品
  6
Continuous
370
    15
100
AcDbLine
 10
10542.25836191321
 20
16282.36745789349
 30
0.0
 11
10542.25836191321
 21
16287.3674605757
 31
0.0
  0
LINE
  5
1A0C1
102
{ACAD_REACTORS
330
1A725
102
}
330
1F
100
AcDbEntity
  8
02製品
  6
Continuous
370
    15
100
AcDbLine
 10
10579.25836099306
 20
16291.36746123135
 30
0.0
 11
10579.25836099306
 21
16022.36745997965
 31
0.0
  0
LINE
  5
1A0C2
102
{ACAD_REACTORS
330
1A725
102
}
330
1F
100
AcDbEntity
  8
02製品
  6
Continuous
370
    15
100
AcDbLine
 10
10567.2583627514
 20
15940.36747261584
 30
0.0
 11
10539.25836188713
 21
15940.36747261584
 31
0.0
  0
LINE
  5
1A0C3
102
{ACAD_REACTORS
330
1A725
102
}
330
1F
100
AcDbEntity
  8
02製品
  6
Continuous
370
    15
100
AcDbLine
 10
10539.25836188713
 20
16282.36745789349
 30
0.0
 11
10539.25836188713
 21
16022.36745997965
 31
0.0
  0
LINE
  5
1A0C4
102
{ACAD_REACTORS
330
1A725
102
}
330
1F
100
AcDbEntity
  8
02製品
  6
Continuous
370
    15
100
AcDbLine
 10
10539.25836188713
 20
15942.36744686663
 30
0.0
 11
10539.25836188713
 21
15940.36747261584
 31
0.0
  0
LINE
  5
1A0C5
102
{ACAD_REACTORS
330
1A725
102
}
330
1F
100
AcDbEntity
  8
02製品
  6
Continuous
370
    15
100
AcDbLine
 10
10542.25836191321
 20
16282.36745789349
 30
0.0
 11
10539.25836188713
 21
16282.36745789349
 31
0.0
  0
CIRCLE
  5
1A0C6
102
{ACAD_REACTORS
330
1A725
102
}
330
1F
100
AcDbEntity
  8
02製品
  6
Continuous
370
    15
100
AcDbCircle
 10
10559.25836188713
 20
16002.36745997965
 30
0.0
 40
5.0
  0
CIRCLE
  5
1A0C7
102
{ACAD_REACTORS
330
1A725
102
}
330
1F
100
AcDbEntity
  8
02製品
  6
Continuous
370
    15
100
AcDbCircle
 10
10559.25836188713
 20
15962.36745997965
 30
0.0
 40
5.0
  0
LINE
  5
1A0C8
102
{ACAD_REACTORS
330
1A725
102
}
330
1F
100
AcDbEntity
  8
02製品
  6
Continuous
370
    15
100
AcDbLine
 10
10539.25836188713
 20
16282.36745789349
 30
0.0
 11
10539.25836188713
 21
16287.3674605757
 31
0.0
  0
LINE
  5
1A0C9
102
{ACAD_REACTORS
330
1A725
102
}
330
1F
100
AcDbEntity
  8
02製品
  6
Continuous
370
    15
100
AcDbLine
 10
10567.2583627514
 20
15937.367451635
 30
0.0
 11
10539.25836188713
 21
15937.367451635
 31
0.0
  0
LINE
  5
1A0CA
102
{ACAD_REACTORS
330
1A725
102
}
330
1F
100
AcDbEntity
  8
02製品
  6
Continuous
370
    15
100
AcDbLine
 10
10539.25836188713
 20
15937.367451635
 30
0.0
 11
10539.25836188713
 21
15940.36747261584
 31
0.0
  0
LINE
  5
1A0CB
102
{ACAD_REACTORS
330
1A725
102
}
330
1F
100
AcDbEntity
  8
02製品
  6
Continuous
370
    15
100
AcDbLine
 10
11759.25839049736
 20
15940.36747261584
 30
0.0
 11
11759.25839049736
 21
15937.367451635
 31
0.0
  0
LINE
  5
1A0CC
102
{ACAD_REACTORS
330
1A725
102
}
330
1F
100
AcDbEntity
  8
02製品
  6
Continuous
370
    15
100
AcDbLine
 10
11731.25839335838
 20
15940.36747261584
 30
0.0
 11
11759.25839049736
 21
15940.36747261584
 31
0.0
  0
LINE
  5
1A0CD
102
{ACAD_REACTORS
330
1A725
102
}
330
1F
100
AcDbEntity
  8
02製品
  6
Continuous
370
    15
100
AcDbLine
 10
11731.25839335838
 20
15937.367451635
 30
0.0
 11
11759.25839049736
 21
15937.367451635
 31
0.0
  0
LINE
  5
1A0CE
102
{ACAD_REACTORS
330
1A725
102
}
330
1F
100
AcDbEntity
  8
02製品
  6
Continuous
370
    15
100
AcDbLine
 10
11756.25836951653
 20
16282.36745789349
 30
0.0
 11
11756.25836951653
 21
16287.3674605757
 31
0.0
  0
LINE
  5
1A0CF
102
{ACAD_REACTORS
330
1A725
102
}
330
1F
100
AcDbEntity
  8
02製品
  6
Continuous
370
    15
100
AcDbLine
 10
11756.25836951653
 20
16282.36745789349
 30
0.0
 11
11759.25839049736
 21
16282.36745789349
 31
0.0
  0
CIRCLE
  5
1A0D0
102
{ACAD_REACTORS
330
1A725
102
}
330
1F
100
AcDbEntity
  8
02製品
  6
Continuous
370
    15
100
AcDbCircle
 10
11739.25836188713
 20
16002.36745997965
 30
0.0
 40
5.0
  0
LINE
  5
1A0D1
102
{ACAD_REACTORS
330
1A725
102
}
330
1F
100
AcDbEntity
  8
02製品
  6
Continuous
370
    15
100
AcDbLine
 10
11759.25839049736
 20
16282.36745789349
 30
0.0
 11
11759.25839049736
 21
16022.36745997965
 31
0.0
  0
LINE
  5
1A0D2
102
{ACAD_REACTORS
330
1A725
102
}
330
1F
100
AcDbEntity
  8
02製品
  6
Continuous
370
    15
100
AcDbLine
 10
11759.25839049736
 20
15942.36744686663
 30
0.0
 11
11759.25839049736
 21
15940.36747261584
 31
0.0
  0
CIRCLE
  5
1A0D3
102
{ACAD_REACTORS
330
1A725
102
}
330
1F
100
AcDbEntity
  8
02製品
  6
Continuous
370
    15
100
AcDbCircle
 10
11739.25836188713
 20
15962.36745997965
 30
0.0
 40
5.0
  0
LINE
  5
1A0D4
102
{ACAD_REACTORS
330
1A725
102
}
330
1F
100
AcDbEntity
  8
02製品
  6
Continuous
370
    15
100
AcDbLine
 10
11719.25830943504
 20
16291.36746123135
 30
0.0
 11
11719.25830943504
 21
16022.36745997965
 31
0.0
  0
LINE
  5
1A0D5
102
{ACAD_REACTORS
330
1A725
102
}
330
1F
100
AcDbEntity
  8
02製品
  6
Continuous
370
    15
100
AcDbLine
 10
11759.25839049736
 20
16282.36745789349
 30
0.0
 11
11759.25839049736
 21
16287.3674605757
 31
0.0
  0
LINE
  5
1A0D6
102
{ACAD_REACTORS
330
1A725
102
}
330
1F
100
AcDbEntity
  8
02製品
  6
Continuous
370
    15
100
AcDbLine
 10
11613.25836284081
 20
16437.36745908558
 30
0.0
 11
10685.25835974136
 21
16437.36745908558
 31
0.0
  0
LINE
  5
1A0D7
102
{ACAD_REACTORS
330
1A725
102
}
330
1F
100
AcDbEntity
  8
02製品
  6
Continuous
370
    15
100
AcDbLine
 10
11613.25836284081
 20
16397.36745997965
 30
0.0
 11
10685.25835974136
 21
16397.36745997965
 31
0.0
  0
LINE
  5
1A0D8
102
{ACAD_REACTORS
330
1A725
102
}
330
1F
100
AcDbEntity
  8
02製品
  6
Continuous
370
    15
100
AcDbLine
 10
11760.25831801811
 20
16022.36745997965
 30
0.0
 11
11764.25838572899
 21
16022.36745997965
 31
0.0
  0
LINE
  5
1A0D9
102
{ACAD_REACTORS
330
1A725
102
}
330
1F
100
AcDbEntity
  8
02製品
  6
Continuous
370
    15
100
AcDbLine
 10
11764.25838572899
 20
16022.36745997965
 30
0.0
 11
11764.25838572899
 21
15942.36744686663
 31
0.0
  0
LINE
  5
1A0DA
102
{ACAD_REACTORS
330
1A725
102
}
330
1F
100
AcDbEntity
  8
02製品
  6
Continuous
370
    15
100
AcDbLine
 10
11764.25838572899
 20
15942.36744686663
 30
0.0
 11
11760.25831801811
 21
15942.36744686663
 31
0.0
  0
LINE
  5
1A0DB
102
{ACAD_REACTORS
330
1A725
102
}
330
1F
100
AcDbEntity
  8
02製品
  6
Continuous
370
    15
100
AcDbLine
 10
11719.25830943504
 20
16022.36745997965
 30
0.0
 11
11684.32080848137
 21
15957.36746236384
 31
0.0
  0
LINE
  5
1A0DC
102
{ACAD_REACTORS
330
1A725
102
}
330
1F
100
AcDbEntity
  8
02製品
  6
Continuous
370
    15
100
AcDbLine
 10
11760.25831801811
 20
16022.36745997965
 30
0.0
 11
11719.25830943504
 21
16022.36745997965
 31
0.0
  0
CIRCLE
  5
1A0DD
102
{ACAD_REACTORS
330
1A725
102
}
330
1F
100
AcDbEntity
  8
02製品
  6
Continuous
370
    15
100
AcDbCircle
 10
11739.25836188713
 20
16002.36745997965
 30
0.0
 40
5.499999999999829
  0
LINE
  5
1A0DE
102
{ACAD_REACTORS
330
1A725
102
}
330
1F
100
AcDbEntity
  8
02製品
  6
Continuous
370
    15
100
AcDbLine
 10
11731.25839335838
 20
15942.36744686663
 30
0.0
 11
11760.25831801811
 21
15942.36744686663
 31
0.0
  0
CIRCLE
  5
1A0DF
102
{ACAD_REACTORS
330
1A725
102
}
330
1F
100
AcDbEntity
  8
02製品
  6
Continuous
370
    15
100
AcDbCircle
 10
11739.25836188713
 20
15962.36745997965
 30
0.0
 40
5.499999999999829
  0
LINE
  5
1A44E
102
{ACAD_REACTORS
330
1A725
102
}
330
1F
100
AcDbEntity
  8
02製品
100
AcDbLine
 10
11731.72495857736
 20
16303.05679092829
 30
0.0
 11
11731.72495857736
 21
16303.05679092829
 31
0.0
  0
LINE
  5
1A453
102
{ACAD_REACTORS
330
1A725
102
}
330
1F
100
AcDbEntity
  8
02製品
100
AcDbLine
 10
11719.67600138003
 20
15873.24557990097
 30
0.0
 11
11719.67600138003
 21
15873.24557990097
 31
0.0
  0
LINE
  5
1A455
102
{ACAD_REACTORS
330
1A725
102
}
330
1F
100
AcDbEntity
  8
02製品
100
AcDbLine
 10
11719.67600138003
 20
15873.24557990097
 30
0.0
 11
11722.84072239422
 21
15879.48934005831
 31
0.0
  0
LINE
  5
1A458
102
{ACAD_REACTORS
330
1A725
102
}
330
1F
100
AcDbEntity
  8
02製品
100
AcDbLine
 10
10610.87442996353
 20
15902.80486976977
 30
0.0
 11
10610.87442996353
 21
15902.80486976977
 31
0.0
  0
LINE
  5
1A45A
102
{ACAD_REACTORS
330
1A725
102
}
330
1F
100
AcDbEntity
  8
02製品
100
AcDbLine
 10
10610.87442996353
 20
15902.80486976977
 30
0.0
 11
10615.64229381072
 21
15907.93005018948
 31
0.0
  0
LINE
  5
1A476
102
{ACAD_REACTORS
330
1A725
102
}
330
1F
100
AcDbEntity
  8
02製品
100
AcDbLine
 10
10569.25836188713
 20
16417.36745997965
 30
0.0
 11
10569.25836188713
 21
16419.86745997965
 31
0.0
  0
LINE
  5
1A477
102
{ACAD_REACTORS
330
1A725
102
}
330
1F
100
AcDbEntity
  8
02製品
100
AcDbLine
 10
10569.25836188713
 20
16417.36745997965
 30
0.0
 11
10566.75836188713
 21
16417.36745997965
 31
0.0
  0
LINE
  5
1A478
102
{ACAD_REACTORS
330
1A725
102
}
330
1F
100
AcDbEntity
  8
02製品
100
AcDbLine
 10
10569.25836188713
 20
16417.36745997965
 30
0.0
 11
10569.25836188713
 21
16414.86745997965
 31
0.0
  0
LINE
  5
1A479
102
{ACAD_REACTORS
330
1A725
102
}
330
1F
100
AcDbEntity
  8
02製品
100
AcDbLine
 10
10569.25836188713
 20
16417.36745997965
 30
0.0
 11
10571.75836188713
 21
16417.36745997965
 31
0.0
  0
LINE
  5
1A47A
102
{ACAD_REACTORS
330
1A725
102
}
330
1F
100
AcDbEntity
  8
02製品
100
AcDbLine
 10
10569.25836188713
 20
16422.36745997965
 30
0.0
 11
10569.25836188713
 21
16424.86745997965
 31
0.0
  0
LINE
  5
1A47B
102
{ACAD_REACTORS
330
1A725
102
}
330
1F
100
AcDbEntity
  8
02製品
100
AcDbLine
 10
10564.25836188713
 20
16417.36745997965
 30
0.0
 11
10561.75836188713
 21
16417.36745997965
 31
0.0
  0
LINE
  5
1A47C
102
{ACAD_REACTORS
330
1A725
102
}
330
1F
100
AcDbEntity
  8
02製品
100
AcDbLine
 10
10569.25836188713
 20
16412.36745997965
 30
0.0
 11
10569.25836188713
 21
16409.86745997965
 31
0.0
  0
LINE
  5
1A47D
102
{ACAD_REACTORS
330
1A725
102
}
330
1F
100
AcDbEntity
  8
02製品
100
AcDbLine
 10
10574.25836188713
 20
16417.36745997965
 30
0.0
 11
10576.75836188713
 21
16417.36745997965
 31
0.0
  0
LINE
  5
1A47E
102
{ACAD_REACTORS
330
1A725
102
}
330
1F
100
AcDbEntity
  8
02製品
100
AcDbLine
 10
10664.25836188713
 20
16417.36745997965
 30
0.0
 11
10664.25836188713
 21
16419.86745997965
 31
0.0
  0
LINE
  5
1A47F
102
{ACAD_REACTORS
330
1A725
102
}
330
1F
100
AcDbEntity
  8
02製品
100
AcDbLine
 10
10664.25836188713
 20
16417.36745997965
 30
0.0
 11
10661.75836188713
 21
16417.36745997965
 31
0.0
  0
LINE
  5
1A480
102
{ACAD_REACTORS
330
1A725
102
}
330
1F
100
AcDbEntity
  8
02製品
100
AcDbLine
 10
10664.25836188713
 20
16417.36745997965
 30
0.0
 11
10664.25836188713
 21
16414.86745997965
 31
0.0
  0
LINE
  5
1A481
102
{ACAD_REACTORS
330
1A725
102
}
330
1F
100
AcDbEntity
  8
02製品
100
AcDbLine
 10
10664.25836188713
 20
16417.36745997965
 30
0.0
 11
10666.75836188713
 21
16417.36745997965
 31
0.0
  0
LINE
  5
1A482
102
{ACAD_REACTORS
330
1A725
102
}
330
1F
100
AcDbEntity
  8
02製品
100
AcDbLine
 10
10664.25836188713
 20
16422.36745997965
 30
0.0
 11
10664.25836188713
 21
16424.86745997965
 31
0.0
  0
LINE
  5
1A483
102
{ACAD_REACTORS
330
1A725
102
}
330
1F
100
AcDbEntity
  8
02製品
100
AcDbLine
 10
10659.25836188713
 20
16417.36745997965
 30
0.0
 11
10656.75836188713
 21
16417.36745997965
 31
0.0
  0
LINE
  5
1A484
102
{ACAD_REACTORS
330
1A725
102
}
330
1F
100
AcDbEntity
  8
02製品
100
AcDbLine
 10
10664.25836188713
 20
16412.36745997965
 30
0.0
 11
10664.25836188713
 21
16409.86745997965
 31
0.0
  0
LINE
  5
1A485
102
{ACAD_REACTORS
330
1A725
102
}
330
1F
100
AcDbEntity
  8
02製品
100
AcDbLine
 10
10669.25836188713
 20
16417.36745997965
 30
0.0
 11
10671.75836188713
 21
16417.36745997965
 31
0.0
  0
LINE
  5
1A486
102
{ACAD_REACTORS
330
1A725
102
}
330
1F
100
AcDbEntity
  8
02製品
100
AcDbLine
 10
10564.25836188713
 20
16367.36745997965
 30
0.0
 11
10564.25836188713
 21
16369.86745997965
 31
0.0
  0
LINE
  5
1A487
102
{ACAD_REACTORS
330
1A725
102
}
330
1F
100
AcDbEntity
  8
02製品
100
AcDbLine
 10
10564.25836188713
 20
16367.36745997965
 30
0.0
 11
10561.75836188713
 21
16367.36745997965
 31
0.0
  0
LINE
  5
1A488
102
{ACAD_REACTORS
330
1A725
102
}
330
1F
100
AcDbEntity
  8
02製品
100
AcDbLine
 10
10564.25836188713
 20
16367.36745997965
 30
0.0
 11
10564.25836188713
 21
16364.86745997965
 31
0.0
  0
LINE
  5
1A489
102
{ACAD_REACTORS
330
1A725
102
}
330
1F
100
AcDbEntity
  8
02製品
100
AcDbLine
 10
10564.25836188713
 20
16367.36745997965
 30
0.0
 11
10566.75836188713
 21
16367.36745997965
 31
0.0
  0
LINE
  5
1A48A
102
{ACAD_REACTORS
330
1A725
102
}
330
1F
100
AcDbEntity
  8
02製品
100
AcDbLine
 10
10564.25836188713
 20
16372.36745997965
 30
0.0
 11
10564.25836188713
 21
16374.86745997965
 31
0.0
  0
LINE
  5
1A48B
102
{ACAD_REACTORS
330
1A725
102
}
330
1F
100
AcDbEntity
  8
02製品
100
AcDbLine
 10
10559.25836188713
 20
16367.36745997965
 30
0.0
 11
10556.75836188713
 21
16367.36745997965
 31
0.0
  0
LINE
  5
1A48C
102
{ACAD_REACTORS
330
1A725
102
}
330
1F
100
AcDbEntity
  8
02製品
100
AcDbLine
 10
10564.25836188713
 20
16362.36745997965
 30
0.0
 11
10564.25836188713
 21
16359.86745997965
 31
0.0
  0
LINE
  5
1A48D
102
{ACAD_REACTORS
330
1A725
102
}
330
1F
100
AcDbEntity
  8
02製品
100
AcDbLine
 10
10569.25836188713
 20
16367.36745997965
 30
0.0
 11
10571.75836188713
 21
16367.36745997965
 31
0.0
  0
LINE
  5
1A48E
102
{ACAD_REACTORS
330
1A725
102
}
330
1F
100
AcDbEntity
  8
02製品
100
AcDbLine
 10
10564.25836188713
 20
16307.36745997965
 30
0.0
 11
10564.25836188713
 21
16309.86745997965
 31
0.0
  0
LINE
  5
1A48F
102
{ACAD_REACTORS
330
1A725
102
}
330
1F
100
AcDbEntity
  8
02製品
100
AcDbLine
 10
10564.25836188713
 20
16307.36745997965
 30
0.0
 11
10561.75836188713
 21
16307.36745997965
 31
0.0
  0
LINE
  5
1A490
102
{ACAD_REACTORS
330
1A725
102
}
330
1F
100
AcDbEntity
  8
02製品
100
AcDbLine
 10
10564.25836188713
 20
16307.36745997965
 30
0.0
 11
10564.25836188713
 21
16304.86745997965
 31
0.0
  0
LINE
  5
1A491
102
{ACAD_REACTORS
330
1A725
102
}
330
1F
100
AcDbEntity
  8
02製品
100
AcDbLine
 10
10564.25836188713
 20
16307.36745997965
 30
0.0
 11
10566.75836188713
 21
16307.36745997965
 31
0.0
  0
LINE
  5
1A492
102
{ACAD_REACTORS
330
1A725
102
}
330
1F
100
AcDbEntity
  8
02製品
100
AcDbLine
 10
10564.25836188713
 20
16312.36745997965
 30
0.0
 11
10564.25836188713
 21
16314.86745997965
 31
0.0
  0
LINE
  5
1A493
102
{ACAD_REACTORS
330
1A725
102
}
330
1F
100
AcDbEntity
  8
02製品
100
AcDbLine
 10
10559.25836188713
 20
16307.36745997965
 30
0.0
 11
10556.75836188713
 21
16307.36745997965
 31
0.0
  0
LINE
  5
1A494
102
{ACAD_REACTORS
330
1A725
102
}
330
1F
100
AcDbEntity
  8
02製品
100
AcDbLine
 10
10564.25836188713
 20
16302.36745997965
 30
0.0
 11
10564.25836188713
 21
16299.86745997965
 31
0.0
  0
LINE
  5
1A495
102
{ACAD_REACTORS
330
1A725
102
}
330
1F
100
AcDbEntity
  8
02製品
100
AcDbLine
 10
10569.25836188713
 20
16307.36745997965
 30
0.0
 11
10571.75836188713
 21
16307.36745997965
 31
0.0
  0
LINE
  5
1A496
102
{ACAD_REACTORS
330
1A725
102
}
330
1F
100
AcDbEntity
  8
02製品
100
AcDbLine
 10
10559.25836188713
 20
15962.36745997965
 30
0.0
 11
10559.25836188713
 21
15964.86745997965
 31
0.0
  0
LINE
  5
1A497
102
{ACAD_REACTORS
330
1A725
102
}
330
1F
100
AcDbEntity
  8
02製品
100
AcDbLine
 10
10559.25836188713
 20
15962.36745997965
 30
0.0
 11
10556.75836188713
 21
15962.36745997965
 31
0.0
  0
LINE
  5
1A498
102
{ACAD_REACTORS
330
1A725
102
}
330
1F
100
AcDbEntity
  8
02製品
100
AcDbLine
 10
10559.25836188713
 20
15962.36745997965
 30
0.0
 11
10559.25836188713
 21
15959.86745997965
 31
0.0
  0
LINE
  5
1A499
102
{ACAD_REACTORS
330
1A725
102
}
330
1F
100
AcDbEntity
  8
02製品
100
AcDbLine
 10
10559.25836188713
 20
15962.36745997965
 30
0.0
 11
10561.75836188713
 21
15962.36745997965
 31
0.0
  0
LINE
  5
1A49A
102
{ACAD_REACTORS
330
1A725
102
}
330
1F
100
AcDbEntity
  8
02製品
100
AcDbLine
 10
10559.25836188713
 20
15967.36745997965
 30
0.0
 11
10559.25836188713
 21
15969.86745997965
 31
0.0
  0
LINE
  5
1A49B
102
{ACAD_REACTORS
330
1A725
102
}
330
1F
100
AcDbEntity
  8
02製品
100
AcDbLine
 10
10554.25836188713
 20
15962.36745997965
 30
0.0
 11
10551.75836188713
 21
15962.36745997965
 31
0.0
  0
LINE
  5
1A49C
102
{ACAD_REACTORS
330
1A725
102
}
330
1F
100
AcDbEntity
  8
02製品
100
AcDbLine
 10
10559.25836188713
 20
15957.36745997965
 30
0.0
 11
10559.25836188713
 21
15954.86745997965
 31
0.0
  0
LINE
  5
1A49D
102
{ACAD_REACTORS
330
1A725
102
}
330
1F
100
AcDbEntity
  8
02製品
100
AcDbLine
 10
10564.25836188713
 20
15962.36745997965
 30
0.0
 11
10566.75836188713
 21
15962.36745997965
 31
0.0
  0
LINE
  5
1A49E
102
{ACAD_REACTORS
330
1A725
102
}
330
1F
100
AcDbEntity
  8
02製品
100
AcDbLine
 10
10559.25836188713
 20
16002.36745997965
 30
0.0
 11
10559.25836188713
 21
16004.86745997965
 31
0.0
  0
LINE
  5
1A49F
102
{ACAD_REACTORS
330
1A725
102
}
330
1F
100
AcDbEntity
  8
02製品
100
AcDbLine
 10
10559.25836188713
 20
16002.36745997965
 30
0.0
 11
10556.75836188713
 21
16002.36745997965
 31
0.0
  0
LINE
  5
1A4A0
102
{ACAD_REACTORS
330
1A725
102
}
330
1F
100
AcDbEntity
  8
02製品
100
AcDbLine
 10
10559.25836188713
 20
16002.36745997965
 30
0.0
 11
10559.25836188713
 21
15999.86745997965
 31
0.0
  0
LINE
  5
1A4A1
102
{ACAD_REACTORS
330
1A725
102
}
330
1F
100
AcDbEntity
  8
02製品
100
AcDbLine
 10
10559.25836188713
 20
16002.36745997965
 30
0.0
 11
10561.75836188713
 21
16002.36745997965
 31
0.0
  0
LINE
  5
1A4A2
102
{ACAD_REACTORS
330
1A725
102
}
330
1F
100
AcDbEntity
  8
02製品
100
AcDbLine
 10
10559.25836188713
 20
16007.36745997965
 30
0.0
 11
10559.25836188713
 21
16009.86745997965
 31
0.0
  0
LINE
  5
1A4A3
102
{ACAD_REACTORS
330
1A725
102
}
330
1F
100
AcDbEntity
  8
02製品
100
AcDbLine
 10
10554.25836188713
 20
16002.36745997965
 30
0.0
 11
10551.75836188713
 21
16002.36745997965
 31
0.0
  0
LINE
  5
1A4A4
102
{ACAD_REACTORS
330
1A725
102
}
330
1F
100
AcDbEntity
  8
02製品
100
AcDbLine
 10
10559.25836188713
 20
15997.36745997965
 30
0.0
 11
10559.25836188713
 21
15994.86745997965
 31
0.0
  0
LINE
  5
1A4A5
102
{ACAD_REACTORS
330
1A725
102
}
330
1F
100
AcDbEntity
  8
02製品
100
AcDbLine
 10
10564.25836188713
 20
16002.36745997965
 30
0.0
 11
10566.75836188713
 21
16002.36745997965
 31
0.0
  0
LINE
  5
1A4A6
102
{ACAD_REACTORS
330
1A725
102
}
330
1F
100
AcDbEntity
  8
02製品
100
AcDbLine
 10
11739.25836188713
 20
16002.36745997965
 30
0.0
 11
11739.25836188713
 21
16004.86745997965
 31
0.0
  0
LINE
  5
1A4A7
102
{ACAD_REACTORS
330
1A725
102
}
330
1F
100
AcDbEntity
  8
02製品
100
AcDbLine
 10
11739.25836188713
 20
16002.36745997965
 30
0.0
 11
11736.75836188713
 21
16002.36745997965
 31
0.0
  0
LINE
  5
1A4A8
102
{ACAD_REACTORS
330
1A725
102
}
330
1F
100
AcDbEntity
  8
02製品
100
AcDbLine
 10
11739.25836188713
 20
16002.36745997965
 30
0.0
 11
11739.25836188713
 21
15999.86745997965
 31
0.0
  0
LINE
  5
1A4A9
102
{ACAD_REACTORS
330
1A725
102
}
330
1F
100
AcDbEntity
  8
02製品
100
AcDbLine
 10
11739.25836188713
 20
16002.36745997965
 30
0.0
 11
11741.75836188713
 21
16002.36745997965
 31
0.0
  0
LINE
  5
1A4AA
102
{ACAD_REACTORS
330
1A725
102
}
330
1F
100
AcDbEntity
  8
02製品
100
AcDbLine
 10
11739.25836188713
 20
16007.36745997965
 30
0.0
 11
11739.25836188713
 21
16009.86745997965
 31
0.0
  0
LINE
  5
1A4AB
102
{ACAD_REACTORS
330
1A725
102
}
330
1F
100
AcDbEntity
  8
02製品
100
AcDbLine
 10
11734.25836188713
 20
16002.36745997965
 30
0.0
 11
11731.75836188713
 21
16002.36745997965
 31
0.0
  0
LINE
  5
1A4AC
102
{ACAD_REACTORS
330
1A725
102
}
330
1F
100
AcDbEntity
  8
02製品
100
AcDbLine
 10
11739.25836188713
 20
15997.36745997965
 30
0.0
 11
11739.25836188713
 21
15994.86745997965
 31
0.0
  0
LINE
  5
1A4AD
102
{ACAD_REACTORS
330
1A725
102
}
330
1F
100
AcDbEntity
  8
02製品
100
AcDbLine
 10
11744.25836188713
 20
16002.36745997965
 30
0.0
 11
11746.75836188713
 21
16002.36745997965
 31
0.0
  0
LINE
  5
1A4AE
102
{ACAD_REACTORS
330
1A725
102
}
330
1F
100
AcDbEntity
  8
02製品
100
AcDbLine
 10
11739.25836188713
 20
15962.36745997965
 30
0.0
 11
11739.25836188713
 21
15964.86745997965
 31
0.0
  0
LINE
  5
1A4AF
102
{ACAD_REACTORS
330
1A725
102
}
330
1F
100
AcDbEntity
  8
02製品
100
AcDbLine
 10
11739.25836188713
 20
15962.36745997965
 30
0.0
 11
11736.75836188713
 21
15962.36745997965
 31
0.0
  0
LINE
  5
1A4B0
102
{ACAD_REACTORS
330
1A725
102
}
330
1F
100
AcDbEntity
  8
02製品
100
AcDbLine
 10
11739.25836188713
 20
15962.36745997965
 30
0.0
 11
11739.25836188713
 21
15959.86745997965
 31
0.0
  0
LINE
  5
1A4B1
102
{ACAD_REACTORS
330
1A725
102
}
330
1F
100
AcDbEntity
  8
02製品
100
AcDbLine
 10
11739.25836188713
 20
15962.36745997965
 30
0.0
 11
11741.75836188713
 21
15962.36745997965
 31
0.0
  0
LINE
  5
1A4B2
102
{ACAD_REACTORS
330
1A725
102
}
330
1F
100
AcDbEntity
  8
02製品
100
AcDbLine
 10
11739.25836188713
 20
15967.36745997965
 30
0.0
 11
11739.25836188713
 21
15969.86745997965
 31
0.0
  0
LINE
  5
1A4B3
102
{ACAD_REACTORS
330
1A725
102
}
330
1F
100
AcDbEntity
  8
02製品
100
AcDbLine
 10
11734.25836188713
 20
15962.36745997965
 30
0.0
 11
11731.75836188713
 21
15962.36745997965
 31
0.0
  0
LINE
  5
1A4B4
102
{ACAD_REACTORS
330
1A725
102
}
330
1F
100
AcDbEntity
  8
02製品
100
AcDbLine
 10
11739.25836188713
 20
15957.36745997965
 30
0.0
 11
11739.25836188713
 21
15954.86745997965
 31
0.0
  0
LINE
  5
1A4B5
102
{ACAD_REACTORS
330
1A725
102
}
330
1F
100
AcDbEntity
  8
02製品
100
AcDbLine
 10
11744.25836188713
 20
15962.36745997965
 30
0.0
 11
11746.75836188713
 21
15962.36745997965
 31
0.0
  0
LINE
  5
1A4B6
102
{ACAD_REACTORS
330
1A725
102
}
330
1F
100
AcDbEntity
  8
02製品
100
AcDbLine
 10
11734.25836188713
 20
16307.36745997965
 30
0.0
 11
11734.25836188713
 21
16309.86745997965
 31
0.0
  0
LINE
  5
1A4B7
102
{ACAD_REACTORS
330
1A725
102
}
330
1F
100
AcDbEntity
  8
02製品
100
AcDbLine
 10
11734.25836188713
 20
16307.36745997965
 30
0.0
 11
11731.75836188713
 21
16307.36745997965
 31
0.0
  0
LINE
  5
1A4B8
102
{ACAD_REACTORS
330
1A725
102
}
330
1F
100
AcDbEntity
  8
02製品
100
AcDbLine
 10
11734.25836188713
 20
16307.36745997965
 30
0.0
 11
11734.25836188713
 21
16304.86745997965
 31
0.0
  0
LINE
  5
1A4B9
102
{ACAD_REACTORS
330
1A725
102
}
330
1F
100
AcDbEntity
  8
02製品
100
AcDbLine
 10
11734.25836188713
 20
16307.36745997965
 30
0.0
 11
11736.75836188713
 21
16307.36745997965
 31
0.0
  0
LINE
  5
1A4BA
102
{ACAD_REACTORS
330
1A725
102
}
330
1F
100
AcDbEntity
  8
02製品
100
AcDbLine
 10
11734.25836188713
 20
16312.36745997965
 30
0.0
 11
11734.25836188713
 21
16314.86745997965
 31
0.0
  0
LINE
  5
1A4BB
102
{ACAD_REACTORS
330
1A725
102
}
330
1F
100
AcDbEntity
  8
02製品
100
AcDbLine
 10
11729.25836188713
 20
16307.36745997965
 30
0.0
 11
11726.75836188713
 21
16307.36745997965
 31
0.0
  0
LINE
  5
1A4BC
102
{ACAD_REACTORS
330
1A725
102
}
330
1F
100
AcDbEntity
  8
02製品
100
AcDbLine
 10
11734.25836188713
 20
16302.36745997965
 30
0.0
 11
11734.25836188713
 21
16299.86745997965
 31
0.0
  0
LINE
  5
1A4BD
102
{ACAD_REACTORS
330
1A725
102
}
330
1F
100
AcDbEntity
  8
02製品
100
AcDbLine
 10
11739.25836188713
 20
16307.36745997965
 30
0.0
 11
11741.75836188713
 21
16307.36745997965
 31
0.0
  0
LINE
  5
1A4BE
102
{ACAD_REACTORS
330
1A725
102
}
330
1F
100
AcDbEntity
  8
02製品
100
AcDbLine
 10
11734.25836188713
 20
16367.36745997965
 30
0.0
 11
11734.25836188713
 21
16369.86745997965
 31
0.0
  0
LINE
  5
1A4BF
102
{ACAD_REACTORS
330
1A725
102
}
330
1F
100
AcDbEntity
  8
02製品
100
AcDbLine
 10
11734.25836188713
 20
16367.36745997965
 30
0.0
 11
11731.75836188713
 21
16367.36745997965
 31
0.0
  0
LINE
  5
1A4C0
102
{ACAD_REACTORS
330
1A725
102
}
330
1F
100
AcDbEntity
  8
02製品
100
AcDbLine
 10
11734.25836188713
 20
16367.36745997965
 30
0.0
 11
11734.25836188713
 21
16364.86745997965
 31
0.0
  0
LINE
  5
1A4C1
102
{ACAD_REACTORS
330
1A725
102
}
330
1F
100
AcDbEntity
  8
02製品
100
AcDbLine
 10
11734.25836188713
 20
16367.36745997965
 30
0.0
 11
11736.75836188713
 21
16367.36745997965
 31
0.0
  0
LINE
  5
1A4C2
102
{ACAD_REACTORS
330
1A725
102
}
330
1F
100
AcDbEntity
  8
02製品
100
AcDbLine
 10
11734.25836188713
 20
16372.36745997965
 30
0.0
 11
11734.25836188713
 21
16374.86745997965
 31
0.0
  0
LINE
  5
1A4C3
102
{ACAD_REACTORS
330
1A725
102
}
330
1F
100
AcDbEntity
  8
02製品
100
AcDbLine
 10
11729.25836188713
 20
16367.36745997965
 30
0.0
 11
11726.75836188713
 21
16367.36745997965
 31
0.0
  0
LINE
  5
1A4C4
102
{ACAD_REACTORS
330
1A725
102
}
330
1F
100
AcDbEntity
  8
02製品
100
AcDbLine
 10
11734.25836188713
 20
16362.36745997965
 30
0.0
 11
11734.25836188713
 21
16359.86745997965
 31
0.0
  0
LINE
  5
1A4C5
102
{ACAD_REACTORS
330
1A725
102
}
330
1F
100
AcDbEntity
  8
02製品
100
AcDbLine
 10
11739.25836188713
 20
16367.36745997965
 30
0.0
 11
11741.75836188713
 21
16367.36745997965
 31
0.0
  0
LINE
  5
1A4C6
102
{ACAD_REACTORS
330
1A725
102
}
330
1F
100
AcDbEntity
  8
02製品
100
AcDbLine
 10
11729.25836188713
 20
16417.36745997965
 30
0.0
 11
11729.25836188713
 21
16419.86745997965
 31
0.0
  0
LINE
  5
1A4C7
102
{ACAD_REACTORS
330
1A725
102
}
330
1F
100
AcDbEntity
  8
02製品
100
AcDbLine
 10
11729.25836188713
 20
16417.36745997965
 30
0.0
 11
11726.75836188713
 21
16417.36745997965
 31
0.0
  0
LINE
  5
1A4C8
102
{ACAD_REACTORS
330
1A725
102
}
330
1F
100
AcDbEntity
  8
02製品
100
AcDbLine
 10
11729.25836188713
 20
16417.36745997965
 30
0.0
 11
11729.25836188713
 21
16414.86745997965
 31
0.0
  0
LINE
  5
1A4C9
102
{ACAD_REACTORS
330
1A725
102
}
330
1F
100
AcDbEntity
  8
02製品
100
AcDbLine
 10
11729.25836188713
 20
16417.36745997965
 30
0.0
 11
11731.75836188713
 21
16417.36745997965
 31
0.0
  0
LINE
  5
1A4CA
102
{ACAD_REACTORS
330
1A725
102
}
330
1F
100
AcDbEntity
  8
02製品
100
AcDbLine
 10
11729.25836188713
 20
16422.36745997965
 30
0.0
 11
11729.25836188713
 21
16424.86745997965
 31
0.0
  0
LINE
  5
1A4CB
102
{ACAD_REACTORS
330
1A725
102
}
330
1F
100
AcDbEntity
  8
02製品
100
AcDbLine
 10
11724.25836188713
 20
16417.36745997965
 30
0.0
 11
11721.75836188713
 21
16417.36745997965
 31
0.0
  0
LINE
  5
1A4CC
102
{ACAD_REACTORS
330
1A725
102
}
330
1F
100
AcDbEntity
  8
02製品
100
AcDbLine
 10
11729.25836188713
 20
16412.36745997965
 30
0.0
 11
11729.25836188713
 21
16409.86745997965
 31
0.0
  0
LINE
  5
1A4CD
102
{ACAD_REACTORS
330
1A725
102
}
330
1F
100
AcDbEntity
  8
02製品
100
AcDbLine
 10
11734.25836188713
 20
16417.36745997965
 30
0.0
 11
11736.75836188713
 21
16417.36745997965
 31
0.0
  0
LINE
  5
1A4CE
102
{ACAD_REACTORS
330
1A725
102
}
330
1F
100
AcDbEntity
  8
02製品
100
AcDbLine
 10
11634.25836188713
 20
16417.36745997965
 30
0.0
 11
11634.25836188713
 21
16419.86745997965
 31
0.0
  0
LINE
  5
1A4CF
102
{ACAD_REACTORS
330
1A725
102
}
330
1F
100
AcDbEntity
  8
02製品
100
AcDbLine
 10
11634.25836188713
 20
16417.36745997965
 30
0.0
 11
11631.75836188713
 21
16417.36745997965
 31
0.0
  0
LINE
  5
1A4D0
102
{ACAD_REACTORS
330
1A725
102
}
330
1F
100
AcDbEntity
  8
02製品
100
AcDbLine
 10
11634.25836188713
 20
16417.36745997965
 30
0.0
 11
11634.25836188713
 21
16414.86745997965
 31
0.0
  0
LINE
  5
1A4D1
102
{ACAD_REACTORS
330
1A725
102
}
330
1F
100
AcDbEntity
  8
02製品
100
AcDbLine
 10
11634.25836188713
 20
16417.36745997965
 30
0.0
 11
11636.75836188713
 21
16417.36745997965
 31
0.0
  0
LINE
  5
1A4D2
102
{ACAD_REACTORS
330
1A725
102
}
330
1F
100
AcDbEntity
  8
02製品
100
AcDbLine
 10
11634.25836188713
 20
16422.36745997965
 30
0.0
 11
11634.25836188713
 21
16424.86745997965
 31
0.0
  0
LINE
  5
1A4D3
102
{ACAD_REACTORS
330
1A725
102
}
330
1F
100
AcDbEntity
  8
02製品
100
AcDbLine
 10
11629.25836188713
 20
16417.36745997965
 30
0.0
 11
11626.75836188713
 21
16417.36745997965
 31
0.0
  0
LINE
  5
1A4D4
102
{ACAD_REACTORS
330
1A725
102
}
330
1F
100
AcDbEntity
  8
02製品
100
AcDbLine
 10
11634.25836188713
 20
16412.36745997965
 30
0.0
 11
11634.25836188713
 21
16409.86745997965
 31
0.0
  0
LINE
  5
1A4D5
102
{ACAD_REACTORS
330
1A725
102
}
330
1F
100
AcDbEntity
  8
02製品
100
AcDbLine
 10
11639.25836188713
 20
16417.36745997965
 30
0.0
 11
11641.75836188713
 21
16417.36745997965
 31
0.0
  0
LINE
  5
1A4D6
102
{ACAD_REACTORS
330
1A725
102
}
330
1F
100
AcDbEntity
  8
02製品
100
AcDbLine
 10
11721.25836188713
 20
15911.36745997962
 30
0.0
 11
11721.25836188713
 21
15913.86745997962
 31
0.0
  0
LINE
  5
1A4D7
102
{ACAD_REACTORS
330
1A725
102
}
330
1F
100
AcDbEntity
  8
02製品
100
AcDbLine
 10
11721.25836188713
 20
15911.36745997962
 30
0.0
 11
11718.75836188713
 21
15911.36745997962
 31
0.0
  0
LINE
  5
1A4D8
102
{ACAD_REACTORS
330
1A725
102
}
330
1F
100
AcDbEntity
  8
02製品
100
AcDbLine
 10
11721.25836188713
 20
15911.36745997962
 30
0.0
 11
11721.25836188713
 21
15908.86745997962
 31
0.0
  0
LINE
  5
1A4D9
102
{ACAD_REACTORS
330
1A725
102
}
330
1F
100
AcDbEntity
  8
02製品
100
AcDbLine
 10
11721.25836188713
 20
15911.36745997962
 30
0.0
 11
11723.75836188713
 21
15911.36745997962
 31
0.0
  0
LINE
  5
1A4DA
102
{ACAD_REACTORS
330
1A725
102
}
330
1F
100
AcDbEntity
  8
02製品
100
AcDbLine
 10
11721.25836188713
 20
15916.36745997962
 30
0.0
 11
11721.25836188713
 21
15917.3674599796
 31
0.0
  0
LINE
  5
1A4DB
102
{ACAD_REACTORS
330
1A725
102
}
330
1F
100
AcDbEntity
  8
02製品
100
AcDbLine
 10
11716.25836188713
 20
15911.36745997962
 30
0.0
 11
11715.25836188713
 21
15911.36745997962
 31
0.0
  0
LINE
  5
1A4DC
102
{ACAD_REACTORS
330
1A725
102
}
330
1F
100
AcDbEntity
  8
02製品
100
AcDbLine
 10
11721.25836188713
 20
15906.36745997962
 30
0.0
 11
11721.25836188713
 21
15905.36745997962
 31
0.0
  0
LINE
  5
1A4DD
102
{ACAD_REACTORS
330
1A725
102
}
330
1F
100
AcDbEntity
  8
02製品
100
AcDbLine
 10
11726.25836188713
 20
15911.36745997962
 30
0.0
 11
11727.25836188715
 21
15911.36745997962
 31
0.0
  0
LINE
  5
1A4DE
102
{ACAD_REACTORS
330
1A725
102
}
330
1F
100
AcDbEntity
  8
02製品
100
AcDbLine
 10
11685.25836188713
 20
15905.36745997962
 30
0.0
 11
11685.25836188713
 21
15907.86745997962
 31
0.0
  0
LINE
  5
1A4DF
102
{ACAD_REACTORS
330
1A725
102
}
330
1F
100
AcDbEntity
  8
02製品
100
AcDbLine
 10
11685.25836188713
 20
15905.36745997962
 30
0.0
 11
11682.75836188713
 21
15905.36745997962
 31
0.0
  0
LINE
  5
1A4E0
102
{ACAD_REACTORS
330
1A725
102
}
330
1F
100
AcDbEntity
  8
02製品
100
AcDbLine
 10
11685.25836188713
 20
15905.36745997962
 30
0.0
 11
11685.25836188713
 21
15902.86745997962
 31
0.0
  0
LINE
  5
1A4E1
102
{ACAD_REACTORS
330
1A725
102
}
330
1F
100
AcDbEntity
  8
02製品
100
AcDbLine
 10
11685.25836188713
 20
15905.36745997962
 30
0.0
 11
11687.75836188713
 21
15905.36745997962
 31
0.0
  0
LINE
  5
1A4E2
102
{ACAD_REACTORS
330
1A725
102
}
330
1F
100
AcDbEntity
  8
02製品
100
AcDbLine
 10
11685.25836188713
 20
15910.36745997962
 30
0.0
 11
11685.25836188713
 21
15911.36745997962
 31
0.0
  0
LINE
  5
1A4E3
102
{ACAD_REACTORS
330
1A725
102
}
330
1F
100
AcDbEntity
  8
02製品
100
AcDbLine
 10
11680.25836188713
 20
15905.36745997962
 30
0.0
 11
11679.25836188713
 21
15905.36745997962
 31
0.0
  0
LINE
  5
1A4E4
102
{ACAD_REACTORS
330
1A725
102
}
330
1F
100
AcDbEntity
  8
02製品
100
AcDbLine
 10
11685.25836188713
 20
15900.36745997962
 30
0.0
 11
11685.25836188713
 21
15899.36745997965
 31
0.0
  0
LINE
  5
1A4E5
102
{ACAD_REACTORS
330
1A725
102
}
330
1F
100
AcDbEntity
  8
02製品
100
AcDbLine
 10
11690.25836188713
 20
15905.36745997962
 30
0.0
 11
11691.25836188713
 21
15905.36745997962
 31
0.0
  0
LINE
  5
1A4E6
102
{ACAD_REACTORS
330
1A725
102
}
330
1F
100
AcDbEntity
  8
02製品
100
AcDbLine
 10
11721.25836188713
 20
15876.36745997962
 30
0.0
 11
11721.25836188713
 21
15878.86745997962
 31
0.0
  0
LINE
  5
1A4E7
102
{ACAD_REACTORS
330
1A725
102
}
330
1F
100
AcDbEntity
  8
02製品
100
AcDbLine
 10
11721.25836188713
 20
15876.36745997962
 30
0.0
 11
11718.75836188713
 21
15876.36745997962
 31
0.0
  0
LINE
  5
1A4E8
102
{ACAD_REACTORS
330
1A725
102
}
330
1F
100
AcDbEntity
  8
02製品
100
AcDbLine
 10
11721.25836188713
 20
15876.36745997962
 30
0.0
 11
11721.25836188713
 21
15873.86745997962
 31
0.0
  0
LINE
  5
1A4E9
102
{ACAD_REACTORS
330
1A725
102
}
330
1F
100
AcDbEntity
  8
02製品
100
AcDbLine
 10
11721.25836188713
 20
15876.36745997962
 30
0.0
 11
11723.75836188713
 21
15876.36745997962
 31
0.0
  0
LINE
  5
1A4EA
102
{ACAD_REACTORS
330
1A725
102
}
330
1F
100
AcDbEntity
  8
02製品
100
AcDbLine
 10
11721.25836188713
 20
15881.36745997962
 30
0.0
 11
11721.25836188713
 21
15882.3674599796
 31
0.0
  0
LINE
  5
1A4EB
102
{ACAD_REACTORS
330
1A725
102
}
330
1F
100
AcDbEntity
  8
02製品
100
AcDbLine
 10
11716.25836188713
 20
15876.36745997962
 30
0.0
 11
11715.25836188713
 21
15876.36745997962
 31
0.0
  0
LINE
  5
1A4EC
102
{ACAD_REACTORS
330
1A725
102
}
330
1F
100
AcDbEntity
  8
02製品
100
AcDbLine
 10
11721.25836188713
 20
15871.36745997962
 30
0.0
 11
11721.25836188713
 21
15870.36745997962
 31
0.0
  0
LINE
  5
1A4ED
102
{ACAD_REACTORS
330
1A725
102
}
330
1F
100
AcDbEntity
  8
02製品
100
AcDbLine
 10
11726.25836188713
 20
15876.36745997962
 30
0.0
 11
11727.25836188715
 21
15876.36745997962
 31
0.0
  0
LINE
  5
1A4EE
102
{ACAD_REACTORS
330
1A725
102
}
330
1F
100
AcDbEntity
  8
02製品
100
AcDbLine
 10
10577.25836188712
 20
15876.36745997962
 30
0.0
 11
10577.25836188712
 21
15878.86745997962
 31
0.0
  0
LINE
  5
1A4EF
102
{ACAD_REACTORS
330
1A725
102
}
330
1F
100
AcDbEntity
  8
02製品
100
AcDbLine
 10
10577.25836188712
 20
15876.36745997962
 30
0.0
 11
10574.75836188712
 21
15876.36745997962
 31
0.0
  0
LINE
  5
1A4F0
102
{ACAD_REACTORS
330
1A725
102
}
330
1F
100
AcDbEntity
  8
02製品
100
AcDbLine
 10
10577.25836188712
 20
15876.36745997962
 30
0.0
 11
10577.25836188712
 21
15873.86745997962
 31
0.0
  0
LINE
  5
1A4F1
102
{ACAD_REACTORS
330
1A725
102
}
330
1F
100
AcDbEntity
  8
02製品
100
AcDbLine
 10
10577.25836188712
 20
15876.36745997962
 30
0.0
 11
10579.75836188712
 21
15876.36745997962
 31
0.0
  0
LINE
  5
1A4F2
102
{ACAD_REACTORS
330
1A725
102
}
330
1F
100
AcDbEntity
  8
02製品
100
AcDbLine
 10
10577.25836188712
 20
15881.36745997962
 30
0.0
 11
10577.25836188712
 21
15882.3674599796
 31
0.0
  0
LINE
  5
1A4F3
102
{ACAD_REACTORS
330
1A725
102
}
330
1F
100
AcDbEntity
  8
02製品
100
AcDbLine
 10
10572.25836188712
 20
15876.36745997962
 30
0.0
 11
10571.25836188712
 21
15876.36745997962
 31
0.0
  0
LINE
  5
1A4F4
102
{ACAD_REACTORS
330
1A725
102
}
330
1F
100
AcDbEntity
  8
02製品
100
AcDbLine
 10
10577.25836188712
 20
15871.36745997962
 30
0.0
 11
10577.25836188712
 21
15870.36745997962
 31
0.0
  0
LINE
  5
1A4F5
102
{ACAD_REACTORS
330
1A725
102
}
330
1F
100
AcDbEntity
  8
02製品
100
AcDbLine
 10
10582.25836188712
 20
15876.36745997962
 30
0.0
 11
10583.25836188712
 21
15876.36745997962
 31
0.0
  0
LINE
  5
1A4F6
102
{ACAD_REACTORS
330
1A725
102
}
330
1F
100
AcDbEntity
  8
02製品
100
AcDbLine
 10
10577.25836188712
 20
15911.36745997962
 30
0.0
 11
10577.25836188712
 21
15913.86745997962
 31
0.0
  0
LINE
  5
1A4F7
102
{ACAD_REACTORS
330
1A725
102
}
330
1F
100
AcDbEntity
  8
02製品
100
AcDbLine
 10
10577.25836188712
 20
15911.36745997962
 30
0.0
 11
10574.75836188712
 21
15911.36745997962
 31
0.0
  0
LINE
  5
1A4F8
102
{ACAD_REACTORS
330
1A725
102
}
330
1F
100
AcDbEntity
  8
02製品
100
AcDbLine
 10
10577.25836188712
 20
15911.36745997962
 30
0.0
 11
10577.25836188712
 21
15908.86745997962
 31
0.0
  0
LINE
  5
1A4F9
102
{ACAD_REACTORS
330
1A725
102
}
330
1F
100
AcDbEntity
  8
02製品
100
AcDbLine
 10
10577.25836188712
 20
15911.36745997962
 30
0.0
 11
10579.75836188712
 21
15911.36745997962
 31
0.0
  0
LINE
  5
1A4FA
102
{ACAD_REACTORS
330
1A725
102
}
330
1F
100
AcDbEntity
  8
02製品
100
AcDbLine
 10
10577.25836188712
 20
15916.36745997962
 30
0.0
 11
10577.25836188712
 21
15917.3674599796
 31
0.0
  0
LINE
  5
1A4FB
102
{ACAD_REACTORS
330
1A725
102
}
330
1F
100
AcDbEntity
  8
02製品
100
AcDbLine
 10
10572.25836188712
 20
15911.36745997962
 30
0.0
 11
10571.25836188712
 21
15911.36745997962
 31
0.0
  0
LINE
  5
1A4FC
102
{ACAD_REACTORS
330
1A725
102
}
330
1F
100
AcDbEntity
  8
02製品
100
AcDbLine
 10
10577.25836188712
 20
15906.36745997962
 30
0.0
 11
10577.25836188712
 21
15905.36745997962
 31
0.0
  0
LINE
  5
1A4FD
102
{ACAD_REACTORS
330
1A725
102
}
330
1F
100
AcDbEntity
  8
02製品
100
AcDbLine
 10
10582.25836188712
 20
15911.36745997962
 30
0.0
 11
10583.25836188712
 21
15911.36745997962
 31
0.0
  0
LINE
  5
1A4FE
102
{ACAD_REACTORS
330
1A725
102
}
330
1F
100
AcDbEntity
  8
02製品
100
AcDbLine
 10
10613.25836188712
 20
15905.36745997962
 30
0.0
 11
10613.25836188712
 21
15907.86745997962
 31
0.0
  0
LINE
  5
1A4FF
102
{ACAD_REACTORS
330
1A725
102
}
330
1F
100
AcDbEntity
  8
02製品
100
AcDbLine
 10
10613.25836188712
 20
15905.36745997962
 30
0.0
 11
10610.75836188712
 21
15905.36745997962
 31
0.0
  0
LINE
  5
1A500
102
{ACAD_REACTORS
330
1A725
102
}
330
1F
100
AcDbEntity
  8
02製品
100
AcDbLine
 10
10613.25836188712
 20
15905.36745997962
 30
0.0
 11
10613.25836188712
 21
15902.86745997962
 31
0.0
  0
LINE
  5
1A501
102
{ACAD_REACTORS
330
1A725
102
}
330
1F
100
AcDbEntity
  8
02製品
100
AcDbLine
 10
10613.25836188712
 20
15905.36745997962
 30
0.0
 11
10615.75836188712
 21
15905.36745997962
 31
0.0
  0
LINE
  5
1A502
102
{ACAD_REACTORS
330
1A725
102
}
330
1F
100
AcDbEntity
  8
02製品
100
AcDbLine
 10
10613.25836188712
 20
15910.36745997962
 30
0.0
 11
10613.25836188712
 21
15911.36745997962
 31
0.0
  0
LINE
  5
1A503
102
{ACAD_REACTORS
330
1A725
102
}
330
1F
100
AcDbEntity
  8
02製品
100
AcDbLine
 10
10608.25836188712
 20
15905.36745997962
 30
0.0
 11
10607.25836188712
 21
15905.36745997962
 31
0.0
  0
LINE
  5
1A504
102
{ACAD_REACTORS
330
1A725
102
}
330
1F
100
AcDbEntity
  8
02製品
100
AcDbLine
 10
10613.25836188712
 20
15900.36745997962
 30
0.0
 11
10613.25836188712
 21
15899.36745997965
 31
0.0
  0
LINE
  5
1A505
102
{ACAD_REACTORS
330
1A725
102
}
330
1F
100
AcDbEntity
  8
02製品
100
AcDbLine
 10
10618.25836188712
 20
15905.36745997962
 30
0.0
 11
10619.25836188713
 21
15905.36745997962
 31
0.0
  0
LINE
  5
1A506
102
{ACAD_REACTORS
330
1A725
102
}
330
1F
100
AcDbEntity
  8
02製品
100
AcDbLine
 10
10577.25836188712
 20
15911.36745997962
 30
0.0
 11
10579.75836188712
 21
15911.36745997962
 31
0.0
  0
LINE
  5
1A507
102
{ACAD_REACTORS
330
1A725
102
}
330
1F
100
AcDbEntity
  8
02製品
100
AcDbLine
 10
10577.25836188712
 20
15911.36745997962
 30
0.0
 11
10577.25836188712
 21
15913.86745997962
 31
0.0
  0
LINE
  5
1A508
102
{ACAD_REACTORS
330
1A725
102
}
330
1F
100
AcDbEntity
  8
02製品
100
AcDbLine
 10
10577.25836188712
 20
15911.36745997962
 30
0.0
 11
10574.75836188712
 21
15911.36745997962
 31
0.0
  0
LINE
  5
1A509
102
{ACAD_REACTORS
330
1A725
102
}
330
1F
100
AcDbEntity
  8
02製品
100
AcDbLine
 10
10577.25836188712
 20
15911.36745997962
 30
0.0
 11
10577.25836188712
 21
15908.86745997962
 31
0.0
  0
LINE
  5
1A50A
102
{ACAD_REACTORS
330
1A725
102
}
330
1F
100
AcDbEntity
  8
02製品
100
AcDbLine
 10
10577.25836188712
 20
15916.36745997962
 30
0.0
 11
10577.25836188712
 21
15917.3674599796
 31
0.0
  0
LINE
  5
1A50B
102
{ACAD_REACTORS
330
1A725
102
}
330
1F
100
AcDbEntity
  8
02製品
100
AcDbLine
 10
10572.25836188712
 20
15911.36745997962
 30
0.0
 11
10571.25836188712
 21
15911.36745997962
 31
0.0
  0
LINE
  5
1A50C
102
{ACAD_REACTORS
330
1A725
102
}
330
1F
100
AcDbEntity
  8
02製品
100
AcDbLine
 10
10577.25836188712
 20
15876.36745997962
 30
0.0
 11
10579.75836188712
 21
15876.36745997962
 31
0.0
  0
LINE
  5
1A50D
102
{ACAD_REACTORS
330
1A725
102
}
330
1F
100
AcDbEntity
  8
02製品
100
AcDbLine
 10
10577.25836188712
 20
15876.36745997962
 30
0.0
 11
10577.25836188712
 21
15878.86745997962
 31
0.0
  0
LINE
  5
1A50E
102
{ACAD_REACTORS
330
1A725
102
}
330
1F
100
AcDbEntity
  8
02製品
100
AcDbLine
 10
10577.25836188712
 20
15876.36745997962
 30
0.0
 11
10574.75836188712
 21
15876.36745997962
 31
0.0
  0
LINE
  5
1A50F
102
{ACAD_REACTORS
330
1A725
102
}
330
1F
100
AcDbEntity
  8
02製品
100
AcDbLine
 10
10577.25836188712
 20
15876.36745997962
 30
0.0
 11
10577.25836188712
 21
15873.86745997962
 31
0.0
  0
LINE
  5
1A510
102
{ACAD_REACTORS
330
1A725
102
}
330
1F
100
AcDbEntity
  8
02製品
100
AcDbLine
 10
10572.25836188712
 20
15876.36745997962
 30
0.0
 11
10571.25836188712
 21
15876.36745997962
 31
0.0
  0
LINE
  5
1A511
102
{ACAD_REACTORS
330
1A725
102
}
330
1F
100
AcDbEntity
  8
02製品
100
AcDbLine
 10
10577.25836188712
 20
15871.36745997962
 30
0.0
 11
10577.25836188712
 21
15870.36745997962
 31
0.0
  0
LINE
  5
1A522
102
{ACAD_REACTORS
330
1A725
102
}
330
1F
100
AcDbEntity
  8
02製品
100
AcDbLine
 10
10613.25836188712
 20
15905.36745997962
 30
0.0
 11
10613.25836188712
 21
15907.86745997962
 31
0.0
  0
LINE
  5
1A523
102
{ACAD_REACTORS
330
1A725
102
}
330
1F
100
AcDbEntity
  8
02製品
100
AcDbLine
 10
10613.25836188712
 20
15905.36745997962
 30
0.0
 11
10610.75836188712
 21
15905.36745997962
 31
0.0
  0
LINE
  5
1A524
102
{ACAD_REACTORS
330
1A725
102
}
330
1F
100
AcDbEntity
  8
02製品
100
AcDbLine
 10
10613.25836188712
 20
15905.36745997962
 30
0.0
 11
10613.25836188712
 21
15902.86745997962
 31
0.0
  0
LINE
  5
1A525
102
{ACAD_REACTORS
330
1A725
102
}
330
1F
100
AcDbEntity
  8
02製品
100
AcDbLine
 10
10613.25836188712
 20
15905.36745997962
 30
0.0
 11
10615.75836188712
 21
15905.36745997962
 31
0.0
  0
LINE
  5
1A526
102
{ACAD_REACTORS
330
1A725
102
}
330
1F
100
AcDbEntity
  8
02製品
100
AcDbLine
 10
10613.25836188712
 20
15910.36745997962
 30
0.0
 11
10613.25836188712
 21
15911.36745997962
 31
0.0
  0
LINE
  5
1A527
102
{ACAD_REACTORS
330
1A725
102
}
330
1F
100
AcDbEntity
  8
02製品
100
AcDbLine
 10
10608.25836188712
 20
15905.36745997962
 30
0.0
 11
10607.25836188712
 21
15905.36745997962
 31
0.0
  0
LINE
  5
1A528
102
{ACAD_REACTORS
330
1A725
102
}
330
1F
100
AcDbEntity
  8
02製品
100
AcDbLine
 10
10613.25836188712
 20
15900.36745997962
 30
0.0
 11
10613.25836188712
 21
15899.36745997965
 31
0.0
  0
LINE
  5
1A598
102
{ACAD_REACTORS
330
1A725
102
}
330
1F
100
AcDbEntity
  8
02製品
  6
ByBlock
100
AcDbLine
 10
10533.65836169363
 20
16408.86745908559
 30
0.0
 11
10535.25836169714
 21
16408.86745908559
 31
0.0
  0
LINE
  5
1A599
102
{ACAD_REACTORS
330
1A725
102
}
330
1F
100
AcDbEntity
  8
02製品
  6
ByBlock
100
AcDbLine
 10
10533.65836169363
 20
16425.86745908559
 30
0.0
 11
10535.25836169714
 21
16425.86745908559
 31
0.0
  0
LINE
  5
1A59A
102
{ACAD_REACTORS
330
1A725
102
}
330
1F
100
AcDbEntity
  8
02製品
  6
ByBlock
100
AcDbLine
 10
10535.25836169714
 20
16425.86745908559
 30
0.0
 11
10535.25836169714
 21
16408.86745908559
 31
0.0
  0
LINE
  5
1A59B
102
{ACAD_REACTORS
330
1A725
102
}
330
1F
100
AcDbEntity
  8
02製品
  6
ByBlock
100
AcDbLine
 10
10533.65836169363
 20
16425.86745908559
 30
0.0
 11
10533.65836169363
 21
16408.86745908559
 31
0.0
  0
LINE
  5
1A59C
102
{ACAD_REACTORS
330
1A725
102
}
330
1F
100
AcDbEntity
  8
02製品
  6
ByBlock
100
AcDbLine
 10
10528.85439135671
 20
16409.86192014516
 30
0.0
 11
10533.65836169363
 21
16409.86192014516
 31
0.0
  0
LINE
  5
1A59D
102
{ACAD_REACTORS
330
1A725
102
}
330
1F
100
AcDbEntity
  8
02製品
  6
ByBlock
100
AcDbLine
 10
10528.15836169363
 20
16423.66754429319
 30
0.0
 11
10528.15836169363
 21
16411.0674482646
 31
0.0
  0
ARC
  5
1A59E
102
{ACAD_REACTORS
330
1A725
102
}
330
1F
100
AcDbEntity
  8
02製品
  6
ByBlock
100
AcDbCircle
 10
10540.15836169363
 20
16417.36745908559
 30
0.0
 40
12.0
100
AcDbArc
 50
161.7759804502453
 51
198.2237823143868
  0
LINE
  5
1A59F
102
{ACAD_REACTORS
330
1A725
102
}
330
1F
100
AcDbEntity
  8
02製品
  6
ByBlock
100
AcDbLine
 10
10528.76025988699
 20
16413.61471250356
 30
0.0
 11
10533.65836169363
 21
16413.61471250356
 31
0.0
  0
LINE
  5
1A5A0
102
{ACAD_REACTORS
330
1A725
102
}
330
1F
100
AcDbEntity
  8
02製品
  6
ByBlock
100
AcDbLine
 10
10528.76027514578
 20
16421.12026670278
 30
0.0
 11
10533.65836169363
 21
16421.12026670278
 31
0.0
  0
LINE
  5
1A5A1
102
{ACAD_REACTORS
330
1A725
102
}
330
1F
100
AcDbEntity
  8
02製品
  6
ByBlock
100
AcDbLine
 10
10528.85439135671
 20
16424.8730285436
 30
0.0
 11
10533.65836169363
 21
16424.8730285436
 31
0.0
  0
LINE
  5
1A5A2
102
{ACAD_REACTORS
330
1A725
102
}
330
1F
100
AcDbEntity
  8
02製品
  6
ByBlock
100
AcDbLine
 10
10528.76026345658
 20
16421.1202903579
 30
0.0
 11
10528.15836169363
 21
16423.66754429319
 31
0.0
  0
LINE
  5
1A5A3
102
{ACAD_REACTORS
330
1A725
102
}
330
1F
100
AcDbEntity
  8
02製品
  6
ByBlock
100
AcDbLine
 10
10528.15836169363
 20
16411.0674482646
 30
0.0
 11
10528.76023772708
 21
16413.6147596369
 31
0.0
  0
LINE
  5
1A5A4
102
{ACAD_REACTORS
330
1A725
102
}
330
1F
100
AcDbEntity
  8
02製品
  6
ByBlock
100
AcDbLine
 10
10528.15836169363
 20
16411.0674482646
 30
0.0
 11
10528.85435928479
 21
16409.86194494157
 31
0.0
  0
LINE
  5
1A5A5
102
{ACAD_REACTORS
330
1A725
102
}
330
1F
100
AcDbEntity
  8
02製品
  6
ByBlock
100
AcDbLine
 10
10528.8543804802
 20
16424.87308432775
 30
0.0
 11
10528.15836169363
 21
16423.66754429319
 31
0.0
  0
LINE
  5
1A5A6
102
{ACAD_REACTORS
330
1A725
102
}
330
1F
100
AcDbEntity
  8
02製品
  6
ByBlock
100
AcDbLine
 10
10533.65836169363
 20
16358.86745908559
 30
0.0
 11
10535.25836169714
 21
16358.86745908559
 31
0.0
  0
LINE
  5
1A5A7
102
{ACAD_REACTORS
330
1A725
102
}
330
1F
100
AcDbEntity
  8
02製品
  6
ByBlock
100
AcDbLine
 10
10533.65836169363
 20
16375.86745908559
 30
0.0
 11
10535.25836169714
 21
16375.86745908559
 31
0.0
  0
LINE
  5
1A5A8
102
{ACAD_REACTORS
330
1A725
102
}
330
1F
100
AcDbEntity
  8
02製品
  6
ByBlock
100
AcDbLine
 10
10535.25836169714
 20
16375.86745908559
 30
0.0
 11
10535.25836169714
 21
16358.86745908559
 31
0.0
  0
LINE
  5
1A5A9
102
{ACAD_REACTORS
330
1A725
102
}
330
1F
100
AcDbEntity
  8
02製品
  6
ByBlock
100
AcDbLine
 10
10533.65836169363
 20
16375.86745908559
 30
0.0
 11
10533.65836169363
 21
16358.86745908559
 31
0.0
  0
LINE
  5
1A5AA
102
{ACAD_REACTORS
330
1A725
102
}
330
1F
100
AcDbEntity
  8
02製品
  6
ByBlock
100
AcDbLine
 10
10528.85439135671
 20
16359.86192014516
 30
0.0
 11
10533.65836169363
 21
16359.86192014516
 31
0.0
  0
LINE
  5
1A5AB
102
{ACAD_REACTORS
330
1A725
102
}
330
1F
100
AcDbEntity
  8
02製品
  6
ByBlock
100
AcDbLine
 10
10528.15836169363
 20
16373.66754429319
 30
0.0
 11
10528.15836169363
 21
16361.0674482646
 31
0.0
  0
ARC
  5
1A5AC
102
{ACAD_REACTORS
330
1A725
102
}
330
1F
100
AcDbEntity
  8
02製品
  6
ByBlock
100
AcDbCircle
 10
10540.15836169363
 20
16367.36745908559
 30
0.0
 40
12.0
100
AcDbArc
 50
161.7759804502453
 51
198.2237823143868
  0
LINE
  5
1A5AD
102
{ACAD_REACTORS
330
1A725
102
}
330
1F
100
AcDbEntity
  8
02製品
  6
ByBlock
100
AcDbLine
 10
10528.76025988699
 20
16363.61471250356
 30
0.0
 11
10533.65836169363
 21
16363.61471250356
 31
0.0
  0
LINE
  5
1A5AE
102
{ACAD_REACTORS
330
1A725
102
}
330
1F
100
AcDbEntity
  8
02製品
  6
ByBlock
100
AcDbLine
 10
10528.76027514578
 20
16371.12026670278
 30
0.0
 11
10533.65836169363
 21
16371.12026670278
 31
0.0
  0
LINE
  5
1A5AF
102
{ACAD_REACTORS
330
1A725
102
}
330
1F
100
AcDbEntity
  8
02製品
  6
ByBlock
100
AcDbLine
 10
10528.85439135671
 20
16374.8730285436
 30
0.0
 11
10533.65836169363
 21
16374.8730285436
 31
0.0
  0
LINE
  5
1A5B0
102
{ACAD_REACTORS
330
1A725
102
}
330
1F
100
AcDbEntity
  8
02製品
  6
ByBlock
100
AcDbLine
 10
10528.76026345658
 20
16371.1202903579
 30
0.0
 11
10528.15836169363
 21
16373.66754429319
 31
0.0
  0
LINE
  5
1A5B1
102
{ACAD_REACTORS
330
1A725
102
}
330
1F
100
AcDbEntity
  8
02製品
  6
ByBlock
100
AcDbLine
 10
10528.15836169363
 20
16361.0674482646
 30
0.0
 11
10528.76023772708
 21
16363.6147596369
 31
0.0
  0
LINE
  5
1A5B2
102
{ACAD_REACTORS
330
1A725
102
}
330
1F
100
AcDbEntity
  8
02製品
  6
ByBlock
100
AcDbLine
 10
10528.15836169363
 20
16361.0674482646
 30
0.0
 11
10528.85435928479
 21
16359.86194494157
 31
0.0
  0
LINE
  5
1A5B3
102
{ACAD_REACTORS
330
1A725
102
}
330
1F
100
AcDbEntity
  8
02製品
  6
ByBlock
100
AcDbLine
 10
10528.8543804802
 20
16374.87308432775
 30
0.0
 11
10528.15836169363
 21
16373.66754429319
 31
0.0
  0
LINE
  5
1A5B4
102
{ACAD_REACTORS
330
1A725
102
}
330
1F
100
AcDbEntity
  8
02製品
  6
ByBlock
100
AcDbLine
 10
10533.65836169363
 20
16315.86745908559
 30
0.0
 11
10535.25836169714
 21
16315.86745908559
 31
0.0
  0
LINE
  5
1A5B5
102
{ACAD_REACTORS
330
1A725
102
}
330
1F
100
AcDbEntity
  8
02製品
  6
ByBlock
100
AcDbLine
 10
10528.85439135671
 20
16299.86192014516
 30
0.0
 11
10533.65836169363
 21
16299.86192014516
 31
0.0
  0
LINE
  5
1A5B6
102
{ACAD_REACTORS
330
1A725
102
}
330
1F
100
AcDbEntity
  8
02製品
  6
ByBlock
100
AcDbLine
 10
10528.15836169363
 20
16313.66754429319
 30
0.0
 11
10528.15836169363
 21
16301.0674482646
 31
0.0
  0
ARC
  5
1A5B7
102
{ACAD_REACTORS
330
1A725
102
}
330
1F
100
AcDbEntity
  8
02製品
  6
ByBlock
100
AcDbCircle
 10
10540.15836169363
 20
16307.36745908559
 30
0.0
 40
12.0
100
AcDbArc
 50
161.7759804502453
 51
198.2237823143868
  0
LINE
  5
1A5B8
102
{ACAD_REACTORS
330
1A725
102
}
330
1F
100
AcDbEntity
  8
02製品
  6
ByBlock
100
AcDbLine
 10
10528.76025988699
 20
16303.61471250356
 30
0.0
 11
10533.65836169363
 21
16303.61471250356
 31
0.0
  0
LINE
  5
1A5B9
102
{ACAD_REACTORS
330
1A725
102
}
330
1F
100
AcDbEntity
  8
02製品
  6
ByBlock
100
AcDbLine
 10
10528.76027514578
 20
16311.12026670278
 30
0.0
 11
10533.65836169363
 21
16311.12026670278
 31
0.0
  0
LINE
  5
1A5BA
102
{ACAD_REACTORS
330
1A725
102
}
330
1F
100
AcDbEntity
  8
02製品
  6
ByBlock
100
AcDbLine
 10
10528.85439135671
 20
16314.8730285436
 30
0.0
 11
10533.65836169363
 21
16314.8730285436
 31
0.0
  0
LINE
  5
1A5BB
102
{ACAD_REACTORS
330
1A725
102
}
330
1F
100
AcDbEntity
  8
02製品
  6
ByBlock
100
AcDbLine
 10
10528.76026345658
 20
16311.1202903579
 30
0.0
 11
10528.15836169363
 21
16313.66754429319
 31
0.0
  0
LINE
  5
1A5BC
102
{ACAD_REACTORS
330
1A725
102
}
330
1F
100
AcDbEntity
  8
02製品
  6
ByBlock
100
AcDbLine
 10
10528.15836169363
 20
16301.0674482646
 30
0.0
 11
10528.76023772708
 21
16303.6147596369
 31
0.0
  0
LINE
  5
1A5BD
102
{ACAD_REACTORS
330
1A725
102
}
330
1F
100
AcDbEntity
  8
02製品
  6
ByBlock
100
AcDbLine
 10
10528.15836169363
 20
16301.0674482646
 30
0.0
 11
10528.85435928479
 21
16299.86194494157
 31
0.0
  0
LINE
  5
1A5BE
102
{ACAD_REACTORS
330
1A725
102
}
330
1F
100
AcDbEntity
  8
02製品
  6
ByBlock
100
AcDbLine
 10
10528.8543804802
 20
16314.87308432775
 30
0.0
 11
10528.15836169363
 21
16313.66754429319
 31
0.0
  0
LINE
  5
1A5BF
102
{ACAD_REACTORS
330
1A725
102
}
330
1F
100
AcDbEntity
  8
02製品
  6
ByBlock
100
AcDbLine
 10
10533.65836169363
 20
16315.86745908559
 30
0.0
 11
10533.65836169363
 21
16298.86745908559
 31
0.0
  0
LINE
  5
1A5C0
102
{ACAD_REACTORS
330
1A725
102
}
330
1F
100
AcDbEntity
  8
02製品
  6
ByBlock
100
AcDbLine
 10
10533.65836169363
 20
16298.86745908559
 30
0.0
 11
10535.25836169714
 21
16298.86745908559
 31
0.0
  0
LINE
  5
1A5C1
102
{ACAD_REACTORS
330
1A725
102
}
330
1F
100
AcDbEntity
  8
02製品
  6
ByBlock
100
AcDbLine
 10
10535.25836169714
 20
16315.86745908559
 30
0.0
 11
10535.25836169714
 21
16298.86745908559
 31
0.0
  0
LINE
  5
1A5C2
102
{ACAD_REACTORS
330
1A725
102
}
330
1F
100
AcDbEntity
  8
02製品
  6
ByBlock
100
AcDbLine
 10
11764.85833900246
 20
16408.86745908559
 30
0.0
 11
11763.25833899895
 21
16408.86745908559
 31
0.0
  0
LINE
  5
1A5C3
102
{ACAD_REACTORS
330
1A725
102
}
330
1F
100
AcDbEntity
  8
02製品
  6
ByBlock
100
AcDbLine
 10
11764.85833900246
 20
16425.86745908559
 30
0.0
 11
11763.25833899895
 21
16425.86745908559
 31
0.0
  0
LINE
  5
1A5C4
102
{ACAD_REACTORS
330
1A725
102
}
330
1F
100
AcDbEntity
  8
02製品
  6
ByBlock
100
AcDbLine
 10
11763.25833899895
 20
16425.86745908559
 30
0.0
 11
11763.25833899895
 21
16408.86745908559
 31
0.0
  0
LINE
  5
1A5C5
102
{ACAD_REACTORS
330
1A725
102
}
330
1F
100
AcDbEntity
  8
02製品
  6
ByBlock
100
AcDbLine
 10
11764.85833900246
 20
16425.86745908559
 30
0.0
 11
11764.85833900246
 21
16408.86745908559
 31
0.0
  0
LINE
  5
1A5C6
102
{ACAD_REACTORS
330
1A725
102
}
330
1F
100
AcDbEntity
  8
02製品
  6
ByBlock
100
AcDbLine
 10
11769.66230933938
 20
16409.86192014516
 30
0.0
 11
11764.85833900246
 21
16409.86192014516
 31
0.0
  0
LINE
  5
1A5C7
102
{ACAD_REACTORS
330
1A725
102
}
330
1F
100
AcDbEntity
  8
02製品
  6
ByBlock
100
AcDbLine
 10
11770.35833900247
 20
16423.66754429318
 30
0.0
 11
11770.35833900247
 21
16411.0674482646
 31
0.0
  0
LINE
  5
1A5C8
102
{ACAD_REACTORS
330
1A725
102
}
330
1F
100
AcDbEntity
  8
02製品
  6
ByBlock
100
AcDbLine
 10
11770.35833900247
 20
16411.0674482646
 30
0.0
 11
11769.75646296902
 21
16413.6147596369
 31
0.0
  0
ARC
  5
1A5C9
102
{ACAD_REACTORS
330
1A725
102
}
330
1F
100
AcDbEntity
  8
02製品
  6
ByBlock
100
AcDbCircle
 10
11758.35833900246
 20
16417.36745908559
 30
0.0
 40
12.0
100
AcDbArc
 50
341.7762176856132
 51
18.22401954975472
  0
LINE
  5
1A5CA
102
{ACAD_REACTORS
330
1A725
102
}
330
1F
100
AcDbEntity
  8
02製品
  6
ByBlock
100
AcDbLine
 10
11770.35833900247
 20
16411.0674482646
 30
0.0
 11
11769.6623414113
 21
16409.86194494157
 31
0.0
  0
LINE
  5
1A5CB
102
{ACAD_REACTORS
330
1A725
102
}
330
1F
100
AcDbEntity
  8
02製品
  6
ByBlock
100
AcDbLine
 10
11769.75644080911
 20
16413.61471250356
 30
0.0
 11
11764.85833900246
 21
16413.61471250356
 31
0.0
  0
LINE
  5
1A5CC
102
{ACAD_REACTORS
330
1A725
102
}
330
1F
100
AcDbEntity
  8
02製品
  6
ByBlock
100
AcDbLine
 10
11769.75642555031
 20
16421.12026670278
 30
0.0
 11
11764.85833900246
 21
16421.12026670278
 31
0.0
  0
LINE
  5
1A5CD
102
{ACAD_REACTORS
330
1A725
102
}
330
1F
100
AcDbEntity
  8
02製品
  6
ByBlock
100
AcDbLine
 10
11769.66230933938
 20
16424.87302854359
 30
0.0
 11
11764.85833900246
 21
16424.87302854359
 31
0.0
  0
LINE
  5
1A5CE
102
{ACAD_REACTORS
330
1A725
102
}
330
1F
100
AcDbEntity
  8
02製品
  6
ByBlock
100
AcDbLine
 10
11769.75643723952
 20
16421.1202903579
 30
0.0
 11
11770.35833900247
 21
16423.66754429318
 31
0.0
  0
LINE
  5
1A5CF
102
{ACAD_REACTORS
330
1A725
102
}
330
1F
100
AcDbEntity
  8
02製品
  6
ByBlock
100
AcDbLine
 10
11769.66232021589
 20
16424.87308432774
 30
0.0
 11
11770.35833900247
 21
16423.66754429318
 31
0.0
  0
LINE
  5
1A5D0
102
{ACAD_REACTORS
330
1A725
102
}
330
1F
100
AcDbEntity
  8
02製品
  6
ByBlock
100
AcDbLine
 10
11764.85833900246
 20
16358.86745908559
 30
0.0
 11
11763.25833899895
 21
16358.86745908559
 31
0.0
  0
LINE
  5
1A5D1
102
{ACAD_REACTORS
330
1A725
102
}
330
1F
100
AcDbEntity
  8
02製品
  6
ByBlock
100
AcDbLine
 10
11764.85833900246
 20
16375.86745908559
 30
0.0
 11
11763.25833899895
 21
16375.86745908559
 31
0.0
  0
LINE
  5
1A5D2
102
{ACAD_REACTORS
330
1A725
102
}
330
1F
100
AcDbEntity
  8
02製品
  6
ByBlock
100
AcDbLine
 10
11763.25833899895
 20
16375.86745908559
 30
0.0
 11
11763.25833899895
 21
16358.86745908559
 31
0.0
  0
LINE
  5
1A5D3
102
{ACAD_REACTORS
330
1A725
102
}
330
1F
100
AcDbEntity
  8
02製品
  6
ByBlock
100
AcDbLine
 10
11764.85833900246
 20
16375.86745908559
 30
0.0
 11
11764.85833900246
 21
16358.86745908559
 31
0.0
  0
LINE
  5
1A5D4
102
{ACAD_REACTORS
330
1A725
102
}
330
1F
100
AcDbEntity
  8
02製品
  6
ByBlock
100
AcDbLine
 10
11769.66230933938
 20
16359.86192014516
 30
0.0
 11
11764.85833900246
 21
16359.86192014516
 31
0.0
  0
LINE
  5
1A5D5
102
{ACAD_REACTORS
330
1A725
102
}
330
1F
100
AcDbEntity
  8
02製品
  6
ByBlock
100
AcDbLine
 10
11770.35833900247
 20
16373.66754429318
 30
0.0
 11
11770.35833900247
 21
16361.0674482646
 31
0.0
  0
ARC
  5
1A5D6
102
{ACAD_REACTORS
330
1A725
102
}
330
1F
100
AcDbEntity
  8
02製品
  6
ByBlock
100
AcDbCircle
 10
11758.35833900246
 20
16367.36745908559
 30
0.0
 40
12.0
100
AcDbArc
 50
341.7762176856132
 51
18.22401954975472
  0
LINE
  5
1A5D7
102
{ACAD_REACTORS
330
1A725
102
}
330
1F
100
AcDbEntity
  8
02製品
  6
ByBlock
100
AcDbLine
 10
11769.75644080911
 20
16363.61471250356
 30
0.0
 11
11764.85833900246
 21
16363.61471250356
 31
0.0
  0
LINE
  5
1A5D8
102
{ACAD_REACTORS
330
1A725
102
}
330
1F
100
AcDbEntity
  8
02製品
  6
ByBlock
100
AcDbLine
 10
11769.75642555031
 20
16371.12026670278
 30
0.0
 11
11764.85833900246
 21
16371.12026670278
 31
0.0
  0
LINE
  5
1A5D9
102
{ACAD_REACTORS
330
1A725
102
}
330
1F
100
AcDbEntity
  8
02製品
  6
ByBlock
100
AcDbLine
 10
11769.66230933938
 20
16374.87302854359
 30
0.0
 11
11764.85833900246
 21
16374.87302854359
 31
0.0
  0
LINE
  5
1A5DA
102
{ACAD_REACTORS
330
1A725
102
}
330
1F
100
AcDbEntity
  8
02製品
  6
ByBlock
100
AcDbLine
 10
11769.75643723952
 20
16371.1202903579
 30
0.0
 11
11770.35833900247
 21
16373.66754429318
 31
0.0
  0
LINE
  5
1A5DB
102
{ACAD_REACTORS
330
1A725
102
}
330
1F
100
AcDbEntity
  8
02製品
  6
ByBlock
100
AcDbLine
 10
11770.35833900247
 20
16361.0674482646
 30
0.0
 11
11769.75646296902
 21
16363.6147596369
 31
0.0
  0
LINE
  5
1A5DC
102
{ACAD_REACTORS
330
1A725
102
}
330
1F
100
AcDbEntity
  8
02製品
  6
ByBlock
100
AcDbLine
 10
11770.35833900247
 20
16361.0674482646
 30
0.0
 11
11769.6623414113
 21
16359.86194494157
 31
0.0
  0
LINE
  5
1A5DD
102
{ACAD_REACTORS
330
1A725
102
}
330
1F
100
AcDbEntity
  8
02製品
  6
ByBlock
100
AcDbLine
 10
11769.66232021589
 20
16374.87308432774
 30
0.0
 11
11770.35833900247
 21
16373.66754429318
 31
0.0
  0
LINE
  5
1A5DE
102
{ACAD_REACTORS
330
1A725
102
}
330
1F
100
AcDbEntity
  8
02製品
  6
ByBlock
100
AcDbLine
 10
11764.85833900246
 20
16298.86745908559
 30
0.0
 11
11763.25833899895
 21
16298.86745908559
 31
0.0
  0
LINE
  5
1A5DF
102
{ACAD_REACTORS
330
1A725
102
}
330
1F
100
AcDbEntity
  8
02製品
  6
ByBlock
100
AcDbLine
 10
11764.85833900246
 20
16315.86745908559
 30
0.0
 11
11763.25833899895
 21
16315.86745908559
 31
0.0
  0
LINE
  5
1A5E0
102
{ACAD_REACTORS
330
1A725
102
}
330
1F
100
AcDbEntity
  8
02製品
  6
ByBlock
100
AcDbLine
 10
11763.25833899895
 20
16315.86745908559
 30
0.0
 11
11763.25833899895
 21
16298.86745908559
 31
0.0
  0
LINE
  5
1A5E1
102
{ACAD_REACTORS
330
1A725
102
}
330
1F
100
AcDbEntity
  8
02製品
  6
ByBlock
100
AcDbLine
 10
11764.85833900246
 20
16315.86745908559
 30
0.0
 11
11764.85833900246
 21
16298.86745908559
 31
0.0
  0
LINE
  5
1A5E2
102
{ACAD_REACTORS
330
1A725
102
}
330
1F
100
AcDbEntity
  8
02製品
  6
ByBlock
100
AcDbLine
 10
11769.66230933938
 20
16299.86192014516
 30
0.0
 11
11764.85833900246
 21
16299.86192014516
 31
0.0
  0
LINE
  5
1A5E3
102
{ACAD_REACTORS
330
1A725
102
}
330
1F
100
AcDbEntity
  8
02製品
  6
ByBlock
100
AcDbLine
 10
11770.35833900247
 20
16313.66754429318
 30
0.0
 11
11770.35833900247
 21
16301.0674482646
 31
0.0
  0
ARC
  5
1A5E4
102
{ACAD_REACTORS
330
1A725
102
}
330
1F
100
AcDbEntity
  8
02製品
  6
ByBlock
100
AcDbCircle
 10
11758.35833900246
 20
16307.36745908559
 30
0.0
 40
12.0
100
AcDbArc
 50
341.7762176856132
 51
18.22401954975472
  0
LINE
  5
1A5E5
102
{ACAD_REACTORS
330
1A725
102
}
330
1F
100
AcDbEntity
  8
02製品
  6
ByBlock
100
AcDbLine
 10
11769.75644080911
 20
16303.61471250356
 30
0.0
 11
11764.85833900246
 21
16303.61471250356
 31
0.0
  0
LINE
  5
1A5E6
102
{ACAD_REACTORS
330
1A725
102
}
330
1F
100
AcDbEntity
  8
02製品
  6
ByBlock
100
AcDbLine
 10
11769.75642555031
 20
16311.12026670278
 30
0.0
 11
11764.85833900246
 21
16311.12026670278
 31
0.0
  0
LINE
  5
1A5E7
102
{ACAD_REACTORS
330
1A725
102
}
330
1F
100
AcDbEntity
  8
02製品
  6
ByBlock
100
AcDbLine
 10
11769.66230933938
 20
16314.87302854359
 30
0.0
 11
11764.85833900246
 21
16314.87302854359
 31
0.0
  0
LINE
  5
1A5E8
102
{ACAD_REACTORS
330
1A725
102
}
330
1F
100
AcDbEntity
  8
02製品
  6
ByBlock
100
AcDbLine
 10
11769.75643723952
 20
16311.1202903579
 30
0.0
 11
11770.35833900247
 21
16313.66754429318
 31
0.0
  0
LINE
  5
1A5E9
102
{ACAD_REACTORS
330
1A725
102
}
330
1F
100
AcDbEntity
  8
02製品
  6
ByBlock
100
AcDbLine
 10
11770.35833900247
 20
16301.0674482646
 30
0.0
 11
11769.75646296902
 21
16303.6147596369
 31
0.0
  0
LINE
  5
1A5EA
102
{ACAD_REACTORS
330
1A725
102
}
330
1F
100
AcDbEntity
  8
02製品
  6
ByBlock
100
AcDbLine
 10
11770.35833900247
 20
16301.0674482646
 30
0.0
 11
11769.6623414113
 21
16299.86194494157
 31
0.0
  0
LINE
  5
1A5EB
102
{ACAD_REACTORS
330
1A725
102
}
330
1F
100
AcDbEntity
  8
02製品
  6
ByBlock
100
AcDbLine
 10
11769.66232021589
 20
16314.87308432774
 30
0.0
 11
11770.35833900247
 21
16313.66754429318
 31
0.0
  0
INSERT
  5
1A86E
330
1F
100
AcDbEntity
  8
01注記寸法
100
AcDbBlockReference
  2
A$C17355
 10
10534.25835746334
 20
16897.1244302503
 30
0.0
  0
INSERT
  5
1A9AC
330
1F
100
AcDbEntity
  8
01注記寸法
100
AcDbBlockReference
  2
A$C9827
 10
12186.70193605152
 20
15869.36746284068
 30
0.0
  0
ENDSEC
  0
SECTION
  2
OBJECTS
  0
DICTIONARY
  5
C
330
0
100
AcDbDictionary
281
     1
  3
ACAD_DETAILVIEWSTYLE
350
ADAF
  3
ACAD_GROUP
350
D
  3
ACAD_IMAGE_VARS
350
6A88
  3
ACAD_LAYOUT
350
1A
  3
ACAD_MLINESTYLE
350
17
  3
ACAD_PLOTSETTINGS
350
19
  3
ACAD_PLOTSTYLENAME
350
E
  3
ACAD_SCALELIST
350
6A4E
  3
ACAD_SECTIONVIEWSTYLE
350
ADB0
  3
AcadDim
350
813A
  3
AcDbVariableDictionary
350
79E
  3
AEC_DISP_REPS
350
8259
  3
AEC_DISPLAY_PROPS_DEFAULTS
350
825B
  3
AEC_VARS
350
8257
  3
APPDATA
350
6A87
  3
DWGPROPS
350
1A9B1
  0
DICTIONARY
  5
7A6F
330
2
100
AcDbDictionary
280
     1
281
     1
  3
ACAD_LAYERFILTERS
360
A22F
  3
ACAD_LAYERSTATES
360
7A70
  3
ACLYDICTIONARY
360
163AB
  0
DICTIONARY
  5
CBD6
330
1F
100
AcDbDictionary
280
     1
281
     1
  3
ACAD_SORTENTS
360
CBD7
  0
DICTIONARY
  5
1A7EC
330
1A7C2
100
AcDbDictionary
280
     1
281
     1
  3
ACAD_SORTENTS
360
1A7ED
  0
DICTIONARY
  5
1A89A
330
1A86F
100
AcDbDictionary
280
     1
281
     1
  3
ACAD_SORTENTS
360
1A89B
  0
DICTIONARY
  5
ADAF
102
{ACAD_REACTORS
330
C
102
}
330
C
100
AcDbDictionary
281
     1
  0
DICTIONARY
  5
D
102
{ACAD_REACTORS
330
C
102
}
330
C
100
AcDbDictionary
281
     1
  3
*A1
350
1A725
  0
RASTERVARIABLES
  5
6A88
102
{ACAD_REACTORS
330
C
102
}
330
C
100
AcDbRasterVariables
 90
        0
 70
     1
 71
     1
 72
     1
  0
DICTIONARY
  5
1A
102
{ACAD_REACTORS
330
C
102
}
330
C
100
AcDbDictionary
281
     1
  3
Layout1
350
1E
  3
Layout2
350
26
  3
Model
350
22
  0
DICTIONARY
  5
17
102
{ACAD_REACTORS
330
C
102
}
330
C
100
AcDbDictionary
281
     1
  3
Standard
350
18
  0
DICTIONARY
  5
19
102
{ACAD_REACTORS
330
C
102
}
330
C
100
AcDbDictionary
281
     1
  0
ACDBDICTIONARYWDFLT
  5
E
102
{ACAD_REACTORS
330
C
102
}
330
C
100
AcDbDictionary
281
     1
  3
Normal
350
F
100
AcDbDictionaryWithDefault
340
F
  0
DICTIONARY
  5
6A4E
102
{ACAD_REACTORS
330
C
102
}
330
C
100
AcDbDictionary
281
     1
  3
A0
350
6A4F
  3
A1
350
6A50
  3
A2
350
6A51
  3
A3
350
6A52
  3
A4
350
6A53
  3
A5
350
6A54
  3
A6
350
6A55
  3
A7
350
6A56
  3
A8
350
6A57
  3
A9
350
6A58
  3
B0
350
6A59
  3
B1
350
6A5A
  3
B2
350
6A5B
  3
B3
350
6A5C
  3
B4
350
6A5D
  3
B5
350
6A5E
  3
B6
350
6A5F
  3
B7
350
6A60
  3
B8
350
6A61
  3
B9
350
6A62
  3
C0
350
6A63
  3
C1
350
6A64
  3
C2
350
6A65
  3
C3
350
6A66
  3
C4
350
6A67
  3
C5
350
6A68
  3
C6
350
6A69
  3
C7
350
6A6A
  3
C8
350
6A6B
  3
C9
350
6A6C
  3
D0
350
6A6D
  3
D1
350
6A6E
  3
D2
350
6A6F
  0
DICTIONARY
  5
ADB0
102
{ACAD_REACTORS
330
C
102
}
330
C
100
AcDbDictionary
281
     1
  0
XRECORD
  5
813A
102
{ACAD_REACTORS
330
C
102
}
330
C
100
AcDbXrecord
280
     1
340
0
 72
     0
 71
     0
 70
     0
 69
     0
 68
     1
 67
     3
 66
     0
 65
     0
 64
     0
 63
     3
 62
     1
 61
     0
 60
     0
 40
0.0
  0
DICTIONARY
  5
79E
102
{ACAD_REACTORS
330
C
102
}
330
C
100
AcDbDictionary
281
     1
  3
DIMASSOC
350
79F
  3
SORTENTS
350
264F
  0
DICTIONARY
  5
8259
102
{ACAD_REACTORS
330
C
102
}
330
C
100
AcDbDictionary
281
     1
  3
AecDbDispRep2dSection
350
825A
  3
AecDbDispRepAnchor
350
8294
  3
AecDbDispRepAnchorEntToNode
350
8295
  3
AecDbDispRepClipVolModel
350
8261
  3
AecDbDispRepClipVolPlan
350
8263
  3
AecDbDispRepClipVolResSubDiv
350
8266
  3
AecDbDispRepClipVolResult
350
8265
  3
AecDbDispRepDisplayTheme
350
8268
  3
AecDbDispRepEditInPlaceProfile
350
8299
  3
AecDbDispRepEntRef
350
826A
  3
AecDbDispRepLayoutCurve
350
826C
  3
AecDbDispRepLayoutGrid2d
350
826E
  3
AecDbDispRepLayoutGrid3d
350
8270
  3
AecDbDispRepMaskBlockRef
350
8272
  3
AecDbDispRepMaskBlockRefRcp
350
8274
  3
AecDbDispRepMassElemModel
350
8276
  3
AecDbDispRepMassElemPlan100
350
827C
  3
AecDbDispRepMassElemPlan50
350
827A
  3
AecDbDispRepMassElemRcp
350
827E
  3
AecDbDispRepMassElemSchem
350
8278
  3
AecDbDispRepMassGroupModel
350
8280
  3
AecDbDispRepMassGroupPlan
350
8282
  3
AecDbDispRepMassGroupPlan100
350
8286
  3
AecDbDispRepMassGroupPlan50
350
8284
  3
AecDbDispRepMassGroupRcp
350
8288
  3
AecDbDispRepMaterial
350
8297
  3
AecDbDispRepMvBlockRef
350
828A
  3
AecDbDispRepMvBlockRefModel
350
828B
  3
AecDbDispRepMvBlockRefPlan100
350
828C
  3
AecDbDispRepMvBlockRefPlan50
350
828D
  3
AecDbDispRepPolygonModel
350
828E
  3
AecDbDispRepPolygonTrueColour
350
8290
  3
AecDbDispRepSlice
350
8292
  0
DICTIONARY
  5
825B
102
{ACAD_REACTORS
330
C
102
}
330
C
100
AcDbDictionary
281
     1
  3
*A1
350
825C
  3
*A10
350
827D
  3
*A11
350
827F
  3
*A12
350
8296
  3
*A13
350
8281
  3
*A14
350
8285
  3
*A15
350
8262
  3
*A16
350
8287
  3
*A17
350
8289
  3
*A18
350
828F
  3
*A19
350
8291
  3
*A2
350
826D
  3
*A20
350
8293
  3
*A21
350
8298
  3
*A22
350
8273
  3
*A23
350
829A
  3
*A24
350
8264
  3
*A25
350
8267
  3
*A26
350
8269
  3
*A27
350
826B
  3
*A3
350
826F
  3
*A4
350
8283
  3
*A5
350
8271
  3
*A6
350
8275
  3
*A7
350
8277
  3
*A8
350
8279
  3
*A9
350
827B
  0
DICTIONARY
  5
8257
102
{ACAD_REACTORS
330
C
102
}
330
C
100
AcDbDictionary
281
     1
  3
AEC_VARS_DWG_SETUP
350
8258
  0
DICTIONARY
  5
6A87
102
{ACAD_REACTORS
330
C
102
}
330
C
100
AcDbDictionary
281
     1
  0
XRECORD
  5
1A9B1
102
{ACAD_REACTORS
330
C
102
}
330
C
100
AcDbXrecord
280
     1
  1
DWGPROPS COOKIE
  2

  3

  4

  6

  7

  8
Sales
  9

300
=
301
=
302
=
303
=
304
=
305
=
306
=
307
=
308
=
309
=
 40
0.0
 41
2455859.030048461
 42
2458970.320904583
  1

 90
        0
  0
DICTIONARY
  5
A22F
102
{ACAD_REACTORS
330
7A6F
102
}
330
7A6F
100
AcDbDictionary
280
     1
281
     1
  0
DICTIONARY
  5
7A70
102
{ACAD_REACTORS
330
7A6F
102
}
330
7A6F
100
AcDbDictionary
281
     1
  0
DICTIONARY
  5
163AB
102
{ACAD_REACTORS
330
7A6F
102
}
330
7A6F
100
AcDbDictionary
281
     1
1001
ACAD
1000
<All
  0
SORTENTSTABLE
  5
CBD7
102
{ACAD_REACTORS
330
CBD6
102
}
330
CBD6
100
AcDbSortentsTable
330
1F
331
0
  5
98EA
  0
SORTENTSTABLE
  5
1A7ED
102
{ACAD_REACTORS
330
1A7EC
102
}
330
1A7EC
100
AcDbSortentsTable
330
1A7C2
  0
SORTENTSTABLE
  5
1A89B
102
{ACAD_REACTORS
330
1A89A
102
}
330
1A89A
100
AcDbSortentsTable
330
1A86F
  0
GROUP
  5
1A725
102
{ACAD_REACTORS
330
D
102
}
330
D
100
AcDbGroup
300

 70
     1
 71
     1
340
1A08E
340
1A08F
340
1A090
340
1A091
340
1A092
340
1A093
340
1A094
340
1A095
340
1A096
340
1A097
340
1A098
340
1A099
340
1A09A
340
1A09B
340
1A09C
340
1A09D
340
1A09E
340
1A09F
340
1A0A0
340
1A0A1
340
1A0A2
340
1A0A3
340
1A0A4
340
1A0A5
340
1A0A6
340
1A0A7
340
1A0A8
340
1A0A9
340
1A0AA
340
1A0AB
340
1A0AC
340
1A0AD
340
1A0AE
340
1A0AF
340
1A0B0
340
1A0B1
340
1A0B2
340
1A0B3
340
1A0B4
340
1A0B5
340
1A0B6
340
1A0B7
340
1A0B8
340
1A0B9
340
1A0BA
340
1A0BB
340
1A0BC
340
1A0BD
340
1A0BE
340
1A0BF
340
1A0C0
340
1A0C1
340
1A0C2
340
1A0C3
340
1A0C4
340
1A0C5
340
1A0C6
340
1A0C7
340
1A0C8
340
1A0C9
340
1A0CA
340
1A0CB
340
1A0CC
340
1A0CD
340
1A0CE
340
1A0CF
340
1A0D0
340
1A0D1
340
1A0D2
340
1A0D3
340
1A0D4
340
1A0D5
340
1A0D6
340
1A0D7
340
1A0D8
340
1A0D9
340
1A0DA
340
1A0DB
340
1A0DC
340
1A0DD
340
1A0DE
340
1A0DF
340
1A44E
340
1A453
340
1A455
340
1A458
340
1A45A
340
1A476
340
1A477
340
1A478
340
1A479
340
1A47A
340
1A47B
340
1A47C
340
1A47D
340
1A47E
340
1A47F
340
1A480
340
1A481
340
1A482
340
1A483
340
1A484
340
1A485
340
1A486
340
1A487
340
1A488
340
1A489
340
1A48A
340
1A48B
340
1A48C
340
1A48D
340
1A48E
340
1A48F
340
1A490
340
1A491
340
1A492
340
1A493
340
1A494
340
1A495
340
1A496
340
1A497
340
1A498
340
1A499
340
1A49A
340
1A49B
340
1A49C
340
1A49D
340
1A49E
340
1A49F
340
1A4A0
340
1A4A1
340
1A4A2
340
1A4A3
340
1A4A4
340
1A4A5
340
1A4A6
340
1A4A7
340
1A4A8
340
1A4A9
340
1A4AA
340
1A4AB
340
1A4AC
340
1A4AD
340
1A4AE
340
1A4AF
340
1A4B0
340
1A4B1
340
1A4B2
340
1A4B3
340
1A4B4
340
1A4B5
340
1A4B6
340
1A4B7
340
1A4B8
340
1A4B9
340
1A4BA
340
1A4BB
340
1A4BC
340
1A4BD
340
1A4BE
340
1A4BF
340
1A4C0
340
1A4C1
340
1A4C2
340
1A4C3
340
1A4C4
340
1A4C5
340
1A4C6
340
1A4C7
340
1A4C8
340
1A4C9
340
1A4CA
340
1A4CB
340
1A4CC
340
1A4CD
340
1A4CE
340
1A4CF
340
1A4D0
340
1A4D1
340
1A4D2
340
1A4D3
340
1A4D4
340
1A4D5
340
1A4D6
340
1A4D7
340
1A4D8
340
1A4D9
340
1A4DA
340
1A4DB
340
1A4DC
340
1A4DD
340
1A4DE
340
1A4DF
340
1A4E0
340
1A4E1
340
1A4E2
340
1A4E3
340
1A4E4
340
1A4E5
340
1A4E6
340
1A4E7
340
1A4E8
340
1A4E9
340
1A4EA
340
1A4EB
340
1A4EC
340
1A4ED
340
1A4EE
340
1A4EF
340
1A4F0
340
1A4F1
340
1A4F2
340
1A4F3
340
1A4F4
340
1A4F5
340
1A4F6
340
1A4F7
340
1A4F8
340
1A4F9
340
1A4FA
340
1A4FB
340
1A4FC
340
1A4FD
340
1A4FE
340
1A4FF
340
1A500
340
1A501
340
1A502
340
1A503
340
1A504
340
1A505
340
1A506
340
1A507
340
1A508
340
1A509
340
1A50A
340
1A50B
340
1A50C
340
1A50D
340
1A50E
340
1A50F
340
1A510
340
1A511
340
1A522
340
1A523
340
1A524
340
1A525
340
1A526
340
1A527
340
1A528
340
1A598
340
1A599
340
1A59A
340
1A59B
340
1A59C
340
1A59D
340
1A59E
340
1A59F
340
1A5A0
340
1A5A1
340
1A5A2
340
1A5A3
340
1A5A4
340
1A5A5
340
1A5A6
340
1A5A7
340
1A5A8
340
1A5A9
340
1A5AA
340
1A5AB
340
1A5AC
340
1A5AD
340
1A5AE
340
1A5AF
340
1A5B0
340
1A5B1
340
1A5B2
340
1A5B3
340
1A5B4
340
1A5B5
340
1A5B6
340
1A5B7
340
1A5B8
340
1A5B9
340
1A5BA
340
1A5BB
340
1A5BC
340
1A5BD
340
1A5BE
340
1A5BF
340
1A5C0
340
1A5C1
340
1A5C2
340
1A5C3
340
1A5C4
340
1A5C5
340
1A5C6
340
1A5C7
340
1A5C8
340
1A5C9
340
1A5CA
340
1A5CB
340
1A5CC
340
1A5CD
340
1A5CE
340
1A5CF
340
1A5D0
340
1A5D1
340
1A5D2
340
1A5D3
340
1A5D4
340
1A5D5
340
1A5D6
340
1A5D7
340
1A5D8
340
1A5D9
340
1A5DA
340
1A5DB
340
1A5DC
340
1A5DD
340
1A5DE
340
1A5DF
340
1A5E0
340
1A5E1
340
1A5E2
340
1A5E3
340
1A5E4
340
1A5E5
340
1A5E6
340
1A5E7
340
1A5E8
340
1A5E9
340
1A5EA
340
1A5EB
  0
LAYOUT
  5
1E
102
{ACAD_REACTORS
330
1A
102
}
330
1A
100
AcDbPlotSettings
  1

  2

  4

  6

 40
0.0
 41
0.0
 42
0.0
 43
0.0
 44
0.0
 45
0.0
 46
0.0
 47
0.0
 48
0.0
 49
0.0
140
0.0
141
0.0
142
1.0
143
1.0
 70
   688
 72
     0
 73
     0
 74
     5
  7
monochrome.ctb
 75
    16
147
1.0
148
0.0
149
0.0
100
AcDbLayout
  1
Layout1
 70
     1
 71
     1
 10
0.0
 20
0.0
 11
420.0
 21
297.0
 12
0.0
 22
0.0
 32
0.0
 14
1.000000000000000E+20
 24
1.000000000000000E+20
 34
1.000000000000000E+20
 15
-1.000000000000000E+20
 25
-1.000000000000000E+20
 35
-1.000000000000000E+20
146
0.0
 13
0.0
 23
0.0
 33
0.0
 16
1.0
 26
0.0
 36
0.0
 17
0.0
 27
1.0
 37
0.0
 76
     0
330
1B
  0
LAYOUT
  5
26
102
{ACAD_REACTORS
330
1A
102
}
330
1A
100
AcDbPlotSettings
  1

  2

  4

  6

 40
0.0
 41
0.0
 42
0.0
 43
0.0
 44
0.0
 45
0.0
 46
0.0
 47
0.0
 48
0.0
 49
0.0
140
0.0
141
0.0
142
1.0
143
1.0
 70
   688
 72
     0
 73
     0
 74
     5
  7
monochrome.ctb
 75
    16
147
1.0
148
0.0
149
0.0
100
AcDbLayout
  1
Layout2
 70
     1
 71
     2
 10
0.0
 20
0.0
 11
12.0
 21
9.0
 12
0.0
 22
0.0
 32
0.0
 14
0.0
 24
0.0
 34
0.0
 15
0.0
 25
0.0
 35
0.0
146
0.0
 13
0.0
 23
0.0
 33
0.0
 16
1.0
 26
0.0
 36
0.0
 17
0.0
 27
1.0
 37
0.0
 76
     0
330
23
  0
LAYOUT
  5
22
102
{ACAD_REACTORS
330
1A
102
}
330
1A
100
AcDbPlotSettings
  1

  2
none_device
  4
A3
  6

 40
3.174999952316284
 41
3.174999952316284
 42
3.17498779296875
 43
3.17498779296875
 44
297.0318298339844
 45
420.1583251953125
 46
-3.16
 47
-3.1
 48
-90.0
 49
-90.0
140
329.9999999999998
141
207.0
142
1.0
143
1.0
 70
 11940
 72
     1
 73
     1
 74
     4
  7
monochrome.ctb
 75
     0
147
1.0
148
90.0
149
90.0
100
AcDbLayout
  1
Model
 70
     1
 71
     0
 10
10013.47136339573
 20
15257.67456349717
 11
14213.47136339573
 21
18227.67456349717
 12
0.0
 22
0.0
 32
0.0
 14
10528.15836169363
 24
15869.36746284068
 34
0.0
 15
12947.90190716147
 25
17644.12443044029
 35
0.0
146
0.0
 13
0.0
 23
0.0
 33
0.0
 16
1.0
 26
0.0
 36
0.0
 17
0.0
 27
1.0
 37
0.0
 76
     0
330
1F
331
A2A1
  0
MLINESTYLE
  5
18
102
{ACAD_REACTORS
330
17
102
}
330
17
100
AcDbMlineStyle
  2
STANDARD
 70
     0
  3

 62
   256
 51
90.0
 52
90.0
 71
     2
 49
0.5
 62
   256
  6
BYLAYER
 49
-0.5
 62
   256
  6
BYLAYER
  0
ACDBPLACEHOLDER
  5
F
102
{ACAD_REACTORS
330
E
102
}
330
E
  0
SCALE
  5
6A4F
102
{ACAD_REACTORS
330
6A4E
102
}
330
6A4E
100
AcDbScale
 70
     0
300
1:1
140
1.0
141
1.0
290
     1
  0
SCALE
  5
6A50
102
{ACAD_REACTORS
330
6A4E
102
}
330
6A4E
100
AcDbScale
 70
     0
300
1:2
140
1.0
141
2.0
290
     0
  0
SCALE
  5
6A51
102
{ACAD_REACTORS
330
6A4E
102
}
330
6A4E
100
AcDbScale
 70
     0
300
1:4
140
1.0
141
4.0
290
     0
  0
SCALE
  5
6A52
102
{ACAD_REACTORS
330
6A4E
102
}
330
6A4E
100
AcDbScale
 70
     0
300
1:5
140
1.0
141
5.0
290
     0
  0
SCALE
  5
6A53
102
{ACAD_REACTORS
330
6A4E
102
}
330
6A4E
100
AcDbScale
 70
     0
300
1:8
140
1.0
141
8.0
290
     0
  0
SCALE
  5
6A54
102
{ACAD_REACTORS
330
6A4E
102
}
330
6A4E
100
AcDbScale
 70
     0
300
1:10
140
1.0
141
10.0
290
     0
  0
SCALE
  5
6A55
102
{ACAD_REACTORS
330
6A4E
102
}
330
6A4E
100
AcDbScale
 70
     0
300
1:16
140
1.0
141
16.0
290
     0
  0
SCALE
  5
6A56
102
{ACAD_REACTORS
330
6A4E
102
}
330
6A4E
100
AcDbScale
 70
     0
300
1:20
140
1.0
141
20.0
290
     0
  0
SCALE
  5
6A57
102
{ACAD_REACTORS
330
6A4E
102
}
330
6A4E
100
AcDbScale
 70
     0
300
1:30
140
1.0
141
30.0
290
     0
  0
SCALE
  5
6A58
102
{ACAD_REACTORS
330
6A4E
102
}
330
6A4E
100
AcDbScale
 70
     0
300
1:40
140
1.0
141
40.0
290
     0
  0
SCALE
  5
6A59
102
{ACAD_REACTORS
330
6A4E
102
}
330
6A4E
100
AcDbScale
 70
     0
300
1:50
140
1.0
141
50.0
290
     0
  0
SCALE
  5
6A5A
102
{ACAD_REACTORS
330
6A4E
102
}
330
6A4E
100
AcDbScale
 70
     0
300
1:100
140
1.0
141
100.0
290
     0
  0
SCALE
  5
6A5B
102
{ACAD_REACTORS
330
6A4E
102
}
330
6A4E
100
AcDbScale
 70
     0
300
2:1
140
2.0
141
1.0
290
     0
  0
SCALE
  5
6A5C
102
{ACAD_REACTORS
330
6A4E
102
}
330
6A4E
100
AcDbScale
 70
     0
300
4:1
140
4.0
141
1.0
290
     0
  0
SCALE
  5
6A5D
102
{ACAD_REACTORS
330
6A4E
102
}
330
6A4E
100
AcDbScale
 70
     0
300
8:1
140
8.0
141
1.0
290
     0
  0
SCALE
  5
6A5E
102
{ACAD_REACTORS
330
6A4E
102
}
330
6A4E
100
AcDbScale
 70
     0
300
10:1
140
10.0
141
1.0
290
     0
  0
SCALE
  5
6A5F
102
{ACAD_REACTORS
330
6A4E
102
}
330
6A4E
100
AcDbScale
 70
     0
300
100:1
140
100.0
141
1.0
290
     0
  0
SCALE
  5
6A60
102
{ACAD_REACTORS
330
6A4E
102
}
330
6A4E
100
AcDbScale
 70
     0
300
1/128" = 1'-0"
140
0.0078125
141
12.0
290
     0
  0
SCALE
  5
6A61
102
{ACAD_REACTORS
330
6A4E
102
}
330
6A4E
100
AcDbScale
 70
     0
300
1/64" = 1'-0"
140
0.015625
141
12.0
290
     0
  0
SCALE
  5
6A62
102
{ACAD_REACTORS
330
6A4E
102
}
330
6A4E
100
AcDbScale
 70
     0
300
1/32" = 1'-0"
140
0.03125
141
12.0
290
     0
  0
SCALE
  5
6A63
102
{ACAD_REACTORS
330
6A4E
102
}
330
6A4E
100
AcDbScale
 70
     0
300
1/16" = 1'-0"
140
0.0625
141
12.0
290
     0
  0
SCALE
  5
6A64
102
{ACAD_REACTORS
330
6A4E
102
}
330
6A4E
100
AcDbScale
 70
     0
300
3/32" = 1'-0"
140
0.09375
141
12.0
290
     0
  0
SCALE
  5
6A65
102
{ACAD_REACTORS
330
6A4E
102
}
330
6A4E
100
AcDbScale
 70
     0
300
1/8" = 1'-0"
140
0.125
141
12.0
290
     0
  0
SCALE
  5
6A66
102
{ACAD_REACTORS
330
6A4E
102
}
330
6A4E
100
AcDbScale
 70
     0
300
3/16" = 1'-0"
140
0.1875
141
12.0
290
     0
  0
SCALE
  5
6A67
102
{ACAD_REACTORS
330
6A4E
102
}
330
6A4E
100
AcDbScale
 70
     0
300
1/4" = 1'-0"
140
0.25
141
12.0
290
     0
  0
SCALE
  5
6A68
102
{ACAD_REACTORS
330
6A4E
102
}
330
6A4E
100
AcDbScale
 70
     0
300
3/8" = 1'-0"
140
0.375
141
12.0
290
     0
  0
SCALE
  5
6A69
102
{ACAD_REACTORS
330
6A4E
102
}
330
6A4E
100
AcDbScale
 70
     0
300
1/2" = 1'-0"
140
0.5
141
12.0
290
     0
  0
SCALE
  5
6A6A
102
{ACAD_REACTORS
330
6A4E
102
}
330
6A4E
100
AcDbScale
 70
     0
300
3/4" = 1'-0"
140
0.75
141
12.0
290
     0
  0
SCALE
  5
6A6B
102
{ACAD_REACTORS
330
6A4E
102
}
330
6A4E
100
AcDbScale
 70
     0
300
1" = 1'-0"
140
1.0
141
12.0
290
     0
  0
SCALE
  5
6A6C
102
{ACAD_REACTORS
330
6A4E
102
}
330
6A4E
100
AcDbScale
 70
     0
300
1-1/2" = 1'-0"
140
1.5
141
12.0
290
     0
  0
SCALE
  5
6A6D
102
{ACAD_REACTORS
330
6A4E
102
}
330
6A4E
100
AcDbScale
 70
     0
300
3" = 1'-0"
140
3.0
141
12.0
290
     0
  0
SCALE
  5
6A6E
102
{ACAD_REACTORS
330
6A4E
102
}
330
6A4E
100
AcDbScale
 70
     0
300
6" = 1'-0"
140
6.0
141
12.0
290
     0
  0
SCALE
  5
6A6F
102
{ACAD_REACTORS
330
6A4E
102
}
330
6A4E
100
AcDbScale
 70
     0
300
1'-0" = 1'-0"
140
12.0
141
12.0
290
     0
  0
DICTIONARYVAR
  5
79F
102
{ACAD_REACTORS
330
79E
102
}
330
79E
100
DictionaryVariables
280
     0
  1
1
  0
DICTIONARYVAR
  5
264F
102
{ACAD_REACTORS
330
79E
102
}
330
79E
100
DictionaryVariables
280
     0
  1
96
  0
ACAD_PROXY_OBJECT
  5
8258
102
{ACAD_REACTORS
330
8257
102
}
330
8257
100
AcDbProxyObject
 90
      499
 91
      509
 95
   262177
 70
     0
 93
     1864
310
5434D15054000541505428FC812095550000000000000B08000000000000008200000000000001807E8F2048F205000200001204000000000000581F8000000000000B0807EC3FA6DEBC0E99F8000000000001C07FE8FCC029594224E2D20CA600E2005C008C00E8005C008321803A80170023003A00170020898006200640
310
06001202DA008C2080248020801000140019001A801B00100021803780360037803900148010001000100010002080220019001A801B0021082008600820088008200A4008600900087A08032803180260030803C803280390029803A003200170032003B80338049C09
330
0
 94
        0
  0
ENDSEC
  0
EOF
