  0
SECTION
  2
HEADER
  9
$ACADVER
  1
AC1015
  9
$ACADMAINTVER
 70
     6
  9
$DWGCODEPAGE
  3
ANSI_932
  9
$INSBASE
 10
0.0
 20
0.0
 30
0.0
  9
$EXTMIN
 10
10683.15836288572
 20
15869.36746284068
 30
0.0
  9
$EXTMAX
 10
12947.90190716147
 20
17644.12443044029
 30
0.0
  9
$LIMMIN
 10
10013.47136339573
 20
15257.67456349717
  9
$LIMMAX
 10
14213.47136339573
 20
18227.67456349717
  9
$ORTHOMODE
 70
     0
  9
$REGENMODE
 70
     1
  9
$FILLMODE
 70
     1
  9
$QTEXTMODE
 70
     0
  9
$MIRRTEXT
 70
     1
  9
$LTSCALE
 40
3.0
  9
$ATTMODE
 70
     1
  9
$TEXTSIZE
 40
3.0
  9
$TRACEWID
 40
1.0
  9
$TEXTSTYLE
  7
Standard
  9
$CLAYER
  8
01注記寸法
  9
$CELTYPE
  6
ByLayer
  9
$CECOLOR
 62
   256
  9
$CELTSCALE
 40
1.0
  9
$DISPSILH
 70
     0
  9
$DIMSCALE
 40
10.0
  9
$DIMASZ
 40
3.0
  9
$DIMEXO
 40
1.5
  9
$DIMDLI
 40
10.0
  9
$DIMRND
 40
0.0
  9
$DIMDLE
 40
0.0
  9
$DIMEXE
 40
1.0
  9
$DIMTP
 40
0.0
  9
$DIMTM
 40
0.0
  9
$DIMTXT
 40
3.0
  9
$DIMCEN
 40
1.5
  9
$DIMTSZ
 40
0.0
  9
$DIMTOL
 70
     0
  9
$DIMLIM
 70
     0
  9
$DIMTIH
 70
     0
  9
$DIMTOH
 70
     0
  9
$DIMSE1
 70
     0
  9
$DIMSE2
 70
     0
  9
$DIMTAD
 70
     1
  9
$DIMZIN
 70
     8
  9
$DIMBLK
  1
Open
  9
$DIMASO
 70
     1
  9
$DIMSHO
 70
     1
  9
$DIMPOST
  1

  9
$DIMAPOST
  1

  9
$DIMALT
 70
     0
  9
$DIMALTD
 70
     3
  9
$DIMALTF
 40
0.03937007874016
  9
$DIMLFAC
 40
1.0
  9
$DIMTOFL
 70
     1
  9
$DIMTVP
 40
0.0
  9
$DIMTIX
 70
     0
  9
$DIMSOXD
 70
     0
  9
$DIMSAH
 70
     0
  9
$DIMBLK1
  1

  9
$DIMBLK2
  1

  9
$DIMSTYLE
  2
NEMY-10
  9
$DIMCLRD
 70
     0
  9
$DIMCLRE
 70
     0
  9
$DIMCLRT
 70
     0
  9
$DIMTFAC
 40
1.0
  9
$DIMGAP
 40
1.0
  9
$DIMJUST
 70
     0
  9
$DIMSD1
 70
     0
  9
$DIMSD2
 70
     0
  9
$DIMTOLJ
 70
     0
  9
$DIMTZIN
 70
     8
  9
$DIMALTZ
 70
     0
  9
$DIMALTTZ
 70
     0
  9
$DIMUPT
 70
     0
  9
$DIMDEC
 70
     1
  9
$DIMTDEC
 70
     1
  9
$DIMALTU
 70
     2
  9
$DIMALTTD
 70
     3
  9
$DIMTXSTY
  7
Standard
  9
$DIMAUNIT
 70
     0
  9
$DIMADEC
 70
     0
  9
$DIMALTRND
 40
0.0
  9
$DIMAZIN
 70
     0
  9
$DIMDSEP
 70
    46
  9
$DIMATFIT
 70
     3
  9
$DIMFRAC
 70
     0
  9
$DIMLDRBLK
  1
Open
  9
$DIMLUNIT
 70
     2
  9
$DIMLWD
 70
    -2
  9
$DIMLWE
 70
    -2
  9
$DIMTMOVE
 70
     0
  9
$LUNITS
 70
     2
  9
$LUPREC
 70
     4
  9
$SKETCHINC
 40
1.0
  9
$FILLETRAD
 40
0.0
  9
$AUNITS
 70
     0
  9
$AUPREC
 70
     0
  9
$MENU
  1
.
  9
$ELEVATION
 40
0.0
  9
$PELEVATION
 40
0.0
  9
$THICKNESS
 40
0.0
  9
$LIMCHECK
 70
     0
  9
$CHAMFERA
 40
10.0
  9
$CHAMFERB
 40
10.0
  9
$CHAMFERC
 40
20.0
  9
$CHAMFERD
 40
0.0
  9
$SKPOLY
 70
     0
  9
$TDCREATE
 40
2455859.405048461
  9
$TDUCREATE
 40
2455859.030048461
  9
$TDUPDATE
 40
2458970.698095533
  9
$TDUUPDATE
 40
2458970.323095533
  9
$TDINDWG
 40
2.0099680093
  9
$TDUSRTIMER
 40
0.0006809375
  9
$USRTIMER
 70
     1
  9
$ANGBASE
 50
0.0
  9
$ANGDIR
 70
     0
  9
$PDMODE
 70
     0
  9
$PDSIZE
 40
0.0
  9
$PLINEWID
 40
0.0
  9
$SPLFRAME
 70
     0
  9
$SPLINETYPE
 70
     6
  9
$SPLINESEGS
 70
     8
  9
$HANDSEED
  5
19AFF
  9
$SURFTAB1
 70
     6
  9
$SURFTAB2
 70
     6
  9
$SURFTYPE
 70
     6
  9
$SURFU
 70
     6
  9
$SURFV
 70
     6
  9
$UCSBASE
  2

  9
$UCSNAME
  2

  9
$UCSORG
 10
0.0
 20
0.0
 30
0.0
  9
$UCSXDIR
 10
1.0
 20
0.0
 30
0.0
  9
$UCSYDIR
 10
0.0
 20
1.0
 30
0.0
  9
$UCSORTHOREF
  2

  9
$UCSORTHOVIEW
 70
     0
  9
$UCSORGTOP
 10
0.0
 20
0.0
 30
0.0
  9
$UCSORGBOTTOM
 10
0.0
 20
0.0
 30
0.0
  9
$UCSORGLEFT
 10
0.0
 20
0.0
 30
0.0
  9
$UCSORGRIGHT
 10
0.0
 20
0.0
 30
0.0
  9
$UCSORGFRONT
 10
0.0
 20
0.0
 30
0.0
  9
$UCSORGBACK
 10
0.0
 20
0.0
 30
0.0
  9
$PUCSBASE
  2

  9
$PUCSNAME
  2

  9
$PUCSORG
 10
0.0
 20
0.0
 30
0.0
  9
$PUCSXDIR
 10
1.0
 20
0.0
 30
0.0
  9
$PUCSYDIR
 10
0.0
 20
1.0
 30
0.0
  9
$PUCSORTHOREF
  2

  9
$PUCSORTHOVIEW
 70
     0
  9
$PUCSORGTOP
 10
0.0
 20
0.0
 30
0.0
  9
$PUCSORGBOTTOM
 10
0.0
 20
0.0
 30
0.0
  9
$PUCSORGLEFT
 10
0.0
 20
0.0
 30
0.0
  9
$PUCSORGRIGHT
 10
0.0
 20
0.0
 30
0.0
  9
$PUCSORGFRONT
 10
0.0
 20
0.0
 30
0.0
  9
$PUCSORGBACK
 10
0.0
 20
0.0
 30
0.0
  9
$USERI1
 70
     0
  9
$USERI2
 70
     0
  9
$USERI3
 70
     0
  9
$USERI4
 70
     0
  9
$USERI5
 70
     0
  9
$USERR1
 40
0.0
  9
$USERR2
 40
0.0
  9
$USERR3
 40
0.0
  9
$USERR4
 40
0.0
  9
$USERR5
 40
0.0
  9
$WORLDVIEW
 70
     1
  9
$SHADEDGE
 70
     3
  9
$SHADEDIF
 70
    70
  9
$TILEMODE
 70
     1
  9
$MAXACTVP
 70
    64
  9
$PINSBASE
 10
0.0
 20
0.0
 30
0.0
  9
$PLIMCHECK
 70
     0
  9
$PEXTMIN
 10
1.000000000000000E+20
 20
1.000000000000000E+20
 30
1.000000000000000E+20
  9
$PEXTMAX
 10
-1.000000000000000E+20
 20
-1.000000000000000E+20
 30
-1.000000000000000E+20
  9
$PLIMMIN
 10
0.0
 20
0.0
  9
$PLIMMAX
 10
0.0
 20
0.0
  9
$UNITMODE
 70
     0
  9
$VISRETAIN
 70
     1
  9
$PLINEGEN
 70
     0
  9
$PSLTSCALE
 70
     1
  9
$TREEDEPTH
 70
  3020
  9
$CMLSTYLE
  2
Standard
  9
$CMLJUST
 70
     0
  9
$CMLSCALE
 40
20.0
  9
$PROXYGRAPHICS
 70
     1
  9
$MEASUREMENT
 70
     1
  9
$CELWEIGHT
370
    -1
  9
$ENDCAPS
280
     0
  9
$JOINSTYLE
280
     0
  9
$LWDISPLAY
290
     0
  9
$INSUNITS
 70
     4
  9
$HYPERLINKBASE
  1

  9
$STYLESHEET
  1
monochrome.ctb
  9
$XEDIT
290
     1
  9
$CEPSNTYPE
380
     0
  9
$PSTYLEMODE
290
     1
  9
$FINGERPRINTGUID
  2
{FDEAD578-A652-11D2-9A35-0060089B3A3F}
  9
$VERSIONGUID
  2
{FF53CD4B-1AF9-4F2F-ABC0-CA7DF949A403}
  9
$EXTNAMES
290
     1
  9
$PSVPSCALE
 40
0.0
  9
$OLESTARTUP
290
     0
  0
ENDSEC
  0
SECTION
  2
CLASSES
  0
CLASS
  1
ACDBDICTIONARYWDFLT
  2
AcDbDictionaryWithDefault
  3
ObjectDBX Classes
 90
        0
280
     0
281
     0
  0
CLASS
  1
ACDBPLACEHOLDER
  2
AcDbPlaceHolder
  3
ObjectDBX Classes
 90
        0
280
     0
281
     0
  0
CLASS
  1
LAYOUT
  2
AcDbLayout
  3
ObjectDBX Classes
 90
        0
280
     0
281
     0
  0
CLASS
  1
DICTIONARYVAR
  2
AcDbDictionaryVar
  3
ObjectDBX Classes
 90
        0
280
     0
281
     0
  0
CLASS
  1
SCALE
  2
AcDbScale
  3
ObjectDBX Classes
 90
     1153
280
     0
281
     0
  0
CLASS
  1
MATERIAL
  2
AcDbMaterial
  3
ObjectDBX Classes
 90
     1153
280
     0
281
     0
  0
CLASS
  1
VISUALSTYLE
  2
AcDbVisualStyle
  3
ObjectDBX Classes
 90
     4095
280
     0
281
     0
  0
CLASS
  1
TABLESTYLE
  2
AcDbTableStyle
  3
ObjectDBX Classes
 90
     4095
280
     0
281
     0
  0
CLASS
  1
RASTERVARIABLES
  2
AcDbRasterVariables
  3
ISM
 90
        0
280
     0
281
     0
  0
CLASS
  1
AEC_VARS_DWG_SETUP
  2
AecDbVarsDwgSetup
  3
AecBase60
 90
      129
280
     0
281
     0
  0
CLASS
  1
AEC_DISP_REP_2D_SECTION
  2
AecDbDispRep2dSection
  3
AecBase60
 90
      129
280
     0
281
     0
  0
CLASS
  1
AEC_DISP_PROPS_2D_SECTION
  2
AecDbDispProps2dSection
  3
AecBase60
 90
      129
280
     0
281
     0
  0
CLASS
  1
AEC_DISP_REP_CLIP_VOLUME_MODEL
  2
AecDbDispRepClipVolModel
  3
AecBase60
 90
      129
280
     0
281
     0
  0
CLASS
  1
AEC_DISP_PROPS_CLIP_VOLUME
  2
AecDbDispPropsClipVol
  3
AecBase60
 90
      129
280
     0
281
     0
  0
CLASS
  1
AEC_DISP_REP_CLIP_VOLUME_PLAN
  2
AecDbDispRepClipVolPlan
  3
AecBase60
 90
      129
280
     0
281
     0
  0
CLASS
  1
AEC_DISP_REP_CLIP_VOLUME_RESULT
  2
AecDbDispRepClipVolResult
  3
AecBase60
 90
      129
280
     0
281
     0
  0
CLASS
  1
AEC_DISP_REP_CLIP_VOLUME_RESULT_SUBDIV
  2
AecDbDispRepClipVolResSubDiv
  3
AecBase60
 90
      129
280
     0
281
     0
  0
CLASS
  1
AEC_DISP_PROPS_CLIP_VOLUME_RESULT
  2
AecDbDispPropsClipVolResSubDiv
  3
AecBase60
 90
      129
280
     0
281
     0
  0
CLASS
  1
AEC_DISP_REP_DISPLAYTHEME
  2
AecDbDispRepDisplayTheme
  3
AecBase60
 90
      129
280
     0
281
     0
  0
CLASS
  1
AEC_DISP_PROPS_DISPLAYTHEME
  2
AecDbDispPropsDisplayTheme
  3
AecBase60
 90
      129
280
     0
281
     0
  0
CLASS
  1
AEC_DISP_REP_ENT_REF
  2
AecDbDispRepEntRef
  3
AecBase60
 90
      129
280
     0
281
     0
  0
CLASS
  1
AEC_DISP_PROPS_ENT_REF
  2
AecDbDispPropsEntRef
  3
AecBase60
 90
      129
280
     0
281
     0
  0
CLASS
  1
AEC_DISP_REP_LAYOUT_CURVE
  2
AecDbDispRepLayoutCurve
  3
AecBase60
 90
      129
280
     0
281
     0
  0
CLASS
  1
AEC_DISP_PROPS_LAYOUT_CURVE
  2
AecDbDispPropsLayoutCurve
  3
AecBase60
 90
      129
280
     0
281
     0
  0
CLASS
  1
AEC_DISP_REP_LAYOUT_GRID2D
  2
AecDbDispRepLayoutGrid2d
  3
AecBase60
 90
      129
280
     0
281
     0
  0
CLASS
  1
AEC_DISP_PROPS_LAYOUT_GRID2D
  2
AecDbDispPropsLayoutGrid2d
  3
AecBase60
 90
      129
280
     0
281
     0
  0
CLASS
  1
AEC_DISP_REP_LAYOUT_GRID3D
  2
AecDbDispRepLayoutGrid3d
  3
AecBase60
 90
      129
280
     0
281
     0
  0
CLASS
  1
AEC_DISP_PROPS_LAYOUT_GRID3D
  2
AecDbDispPropsLayoutGrid3d
  3
AecBase60
 90
      129
280
     0
281
     0
  0
CLASS
  1
AEC_DISP_REP_MASKBLOCK_REF
  2
AecDbDispRepMaskBlockRef
  3
AecBase60
 90
      129
280
     0
281
     0
  0
CLASS
  1
AEC_DISP_PROPS_MASKBLOCK
  2
AecDbDispPropsMaskBlock
  3
AecBase60
 90
      129
280
     0
281
     0
  0
CLASS
  1
AEC_DISP_REP_MASKBLOCK_REF_RCP
  2
AecDbDispRepMaskBlockRefRcp
  3
AecArchBase60
 90
      129
280
     0
281
     0
  0
CLASS
  1
AEC_DISP_REP_MASS_ELEM_MODEL
  2
AecDbDispRepMassElemModel
  3
AecBase60
 90
      129
280
     0
281
     0
  0
CLASS
  1
AEC_DISP_PROPS_MASS_ELEM_MODEL
  2
AecDbDispPropsMassElem
  3
AecBase60
 90
      129
280
     0
281
     0
  0
CLASS
  1
AEC_DISP_REP_MASS_ELEM_SCHEM
  2
AecDbDispRepMassElemSchem
  3
AecBase60
 90
      129
280
     0
281
     0
  0
CLASS
  1
AEC_DISPREPAECDBDISPREPMASSELEMPLAN50
  2
AecDbDispRepMassElemPlan50
  3
AecArchDACHBase60
 90
      129
280
     0
281
     0
  0
CLASS
  1
AEC_DISPROPSMASSELEMPLANCOMMON
  2
AecDbDispPropsMassElemPlanCommon
  3
AecArchDACHBase60
 90
      129
280
     0
281
     0
  0
CLASS
  1
AEC_DISPREPAECDBDISPREPMASSELEMPLAN100
  2
AecDbDispRepMassElemPlan100
  3
AecArchDACHBase60
 90
      129
280
     0
281
     0
  0
CLASS
  1
AEC_DISP_REP_MASS_ELEM_RCP
  2
AecDbDispRepMassElemRcp
  3
AecArchBase60
 90
      129
280
     0
281
     0
  0
CLASS
  1
AEC_DISP_REP_MASS_GROUP_MODEL
  2
AecDbDispRepMassGroupModel
  3
AecBase60
 90
      129
280
     0
281
     0
  0
CLASS
  1
AEC_DISP_PROPS_MASS_GROUP
  2
AecDbDispPropsMassGroup
  3
AecBase60
 90
      129
280
     0
281
     0
  0
CLASS
  1
AEC_DISP_REP_MASS_GROUP_PLAN
  2
AecDbDispRepMassGroupPlan
  3
AecBase60
 90
      129
280
     0
281
     0
  0
CLASS
  1
AEC_DISPREPAECDBDISPREPMASSGROUPPLAN50
  2
AecDbDispRepMassGroupPlan50
  3
AecArchDACHBase60
 90
      129
280
     0
281
     0
  0
CLASS
  1
AEC_DISPROPSMASSGROUPPLANCOMMON
  2
AecDbDispPropsMassGroupPlanCommon
  3
AecArchDACHBase60
 90
      129
280
     0
281
     0
  0
CLASS
  1
AEC_DISPREPAECDBDISPREPMASSGROUPPLAN100
  2
AecDbDispRepMassGroupPlan100
  3
AecArchDACHBase60
 90
      129
280
     0
281
     0
  0
CLASS
  1
AEC_DISP_REP_MASS_GROUP_RCP
  2
AecDbDispRepMassGroupRcp
  3
AecArchBase60
 90
      129
280
     0
281
     0
  0
CLASS
  1
AEC_DISP_REP_MVBLOCK_REF
  2
AecDbDispRepMvBlockRef
  3
AecBase60
 90
      129
280
     0
281
     0
  0
CLASS
  1
AEC_DISP_REP_MVBLOCK_REF_MODEL
  2
AecDbDispRepMvBlockRefModel
  3
AecBase60
 90
      129
280
     0
281
     0
  0
CLASS
  1
AEC_AECDBDISPREPMVBLOCKREFPLAN100
  2
AecDbDispRepMvBlockRefPlan100
  3
AecBase60
 90
      129
280
     0
281
     0
  0
CLASS
  1
AEC_AECDBDISPREPMVBLOCKREFPLAN50
  2
AecDbDispRepMvBlockRefPlan50
  3
AecBase60
 90
      129
280
     0
281
     0
  0
CLASS
  1
AEC_DISP_REP_POLYGON_MODEL
  2
AecDbDispRepPolygonModel
  3
AecBase60
 90
      129
280
     0
281
     0
  0
CLASS
  1
AEC_DISP_PROPS_POLYGON_MODEL
  2
AecDbDispPropsPolygonModel
  3
AecBase60
 90
      129
280
     0
281
     0
  0
CLASS
  1
AEC_DISP_REP_POLYGON_TRUECOLOUR
  2
AecDbDispRepPolygonTrueColour
  3
AecBase60
 90
      129
280
     0
281
     0
  0
CLASS
  1
AEC_DISP_PROPS_POLYGON_TRUECOLOUR
  2
AecDbDispPropsPolygonTrueColour
  3
AecBase60
 90
      129
280
     0
281
     0
  0
CLASS
  1
AEC_DISP_REP_SLICE
  2
AecDbDispRepSlice
  3
AecBase60
 90
      129
280
     0
281
     0
  0
CLASS
  1
AEC_DISP_PROPS_SLICE
  2
AecDbDispPropsSlice
  3
AecBase60
 90
      129
280
     0
281
     0
  0
CLASS
  1
AEC_DISP_REP_ANCHOR
  2
AecDbDispRepAnchor
  3
AecBase60
 90
      129
280
     0
281
     0
  0
CLASS
  1
AEC_DISP_REP_ANCHOR_ENT_TO_NODE
  2
AecDbDispRepAnchorEntToNode
  3
AecBase60
 90
      129
280
     0
281
     0
  0
CLASS
  1
AEC_DISP_PROPS_ENT
  2
AecDbDispPropsEnt
  3
AecBase60
 90
      129
280
     0
281
     0
  0
CLASS
  1
AEC_DISP_REP_MATERIAL
  2
AecDbDispRepMaterial
  3
AecBase60
 90
      129
280
     0
281
     0
  0
CLASS
  1
AEC_DISP_PROPS_MATERIAL
  2
AecDbDispPropsMaterial
  3
AecBase60
 90
      129
280
     0
281
     0
  0
CLASS
  1
AEC_DISP_REP_EDITINPLACEPROFILE
  2
AecDbDispRepEditInPlaceProfile
  3
AecBase60
 90
      129
280
     0
281
     0
  0
CLASS
  1
AEC_DISP_PROPS_EDITINPLACEPROFILE_MODEL
  2
AecDbDispPropsEditInPlaceProfile
  3
AecBase60
 90
      129
280
     0
281
     0
  0
CLASS
  1
SUN
  2
AcDbSun
  3
SCENEOE
 90
     1153
280
     0
281
     0
  0
CLASS
  1
SORTENTSTABLE
  2
AcDbSortentsTable
  3
ObjectDBX Classes
 90
        0
280
     0
281
     0
  0
CLASS
  1
MLEADERSTYLE
  2
AcDbMLeaderStyle
  3
ACDB_MLEADERSTYLE_CLASS
 90
     4095
280
     0
281
     0
  0
ENDSEC
  0
SECTION
  2
TABLES
  0
TABLE
  2
VPORT
  5
8
330
0
100
AcDbSymbolTable
 70
     1
  0
VPORT
  5
A2A1
330
8
100
AcDbSymbolTableRecord
100
AcDbViewportTableRecord
  2
*Active
 70
     0
 10
0.0
 20
0.0
 11
1.0
 21
1.0
 12
9719.36176996713
 22
15719.03331701814
 13
0.0
 23
0.0
 14
10.0
 24
10.0
 15
10.0
 25
10.0
 16
0.0
 26
0.0
 36
1.0
 17
1964.929891105101
 27
911.4954656945774
 37
0.0
 40
2581.920132286469
 41
1.479876160990712
 42
50.0
 43
0.0
 44
0.0
 50
0.0
 51
0.0
 71
    16
 72
   100
 73
     1
 74
     2
 75
     0
 76
     0
 77
     0
 78
     0
281
     0
 65
     1
110
0.0
120
0.0
130
0.0
111
1.0
121
0.0
131
0.0
112
0.0
122
1.0
132
0.0
 79
     0
146
0.0
  0
ENDTAB
  0
TABLE
  2
LTYPE
  5
5
330
0
100
AcDbSymbolTable
 70
     2
  0
LTYPE
  5
14
330
5
100
AcDbSymbolTableRecord
100
AcDbLinetypeTableRecord
  2
ByBlock
 70
     0
  3

 72
    65
 73
     0
 40
0.0
  0
LTYPE
  5
15
330
5
100
AcDbSymbolTableRecord
100
AcDbLinetypeTableRecord
  2
ByLayer
 70
     0
  3
Solid line
 72
    65
 73
     0
 40
0.0
  0
LTYPE
  5
16
330
5
100
AcDbSymbolTableRecord
100
AcDbLinetypeTableRecord
  2
Continuous
 70
     0
  3
Solid line
 72
    65
 73
     0
 40
0.0
  0
LTYPE
  5
18C2C
330
5
100
AcDbSymbolTableRecord
100
AcDbLinetypeTableRecord
  2
CENTERX2
 70
     0
  3
Center (2x) ________  __  ________  __  _____
 72
    65
 73
     4
 40
20.32
 49
12.7
 74
     0
 49
-2.54
 74
     0
 49
2.54
 74
     0
 49
-2.54
 74
     0
  0
ENDTAB
  0
TABLE
  2
LAYER
  5
2
102
{ACAD_XDICTIONARY
360
7A6F
102
}
330
0
100
AcDbSymbolTable
 70
     3
  0
LAYER
  5
10
330
2
100
AcDbSymbolTableRecord
100
AcDbLayerTableRecord
  2
0
 70
     0
 62
     7
  6
Continuous
370
    -3
390
F
  0
LAYER
  5
45
330
2
100
AcDbSymbolTableRecord
100
AcDbLayerTableRecord
  2
01注記寸法
 70
     0
 62
     7
  6
Continuous
370
     9
390
F
  0
LAYER
  5
82BC
330
2
100
AcDbSymbolTableRecord
100
AcDbLayerTableRecord
  2
02製品
 70
     0
 62
     2
  6
Continuous
370
    15
390
F
  0
ENDTAB
  0
TABLE
  2
STYLE
  5
3
330
0
100
AcDbSymbolTable
 70
     1
  0
STYLE
  5
11
330
3
100
AcDbSymbolTableRecord
100
AcDbTextStyleTableRecord
  2
Standard
 70
     0
 40
0.0
 41
1.0
 50
0.0
 71
     0
 42
3.0
  3
MS Gothic.ttf
  4

1001
ACAD
1000
MS Gothic
1071
    32817
  0
ENDTAB
  0
TABLE
  2
VIEW
  5
6
330
0
100
AcDbSymbolTable
 70
     0
  0
ENDTAB
  0
TABLE
  2
UCS
  5
7
330
0
100
AcDbSymbolTable
 70
     0
  0
ENDTAB
  0
TABLE
  2
APPID
  5
9
330
0
100
AcDbSymbolTable
 70
    13
  0
APPID
  5
12
330
9
100
AcDbSymbolTableRecord
100
AcDbRegAppTableRecord
  2
ACAD
 70
     0
  0
APPID
  5
6A9E
330
9
100
AcDbSymbolTableRecord
100
AcDbRegAppTableRecord
  2
ACAD_DSTYLE_DIMRADIAL_EXTENSION
 70
     0
  0
APPID
  5
742C
330
9
100
AcDbSymbolTableRecord
100
AcDbRegAppTableRecord
  2
ACAD_PSEXT
 70
     0
  0
APPID
  5
742D
330
9
100
AcDbSymbolTableRecord
100
AcDbRegAppTableRecord
  2
ACAD_DSTYLE_DIMJAG
 70
     0
  0
APPID
  5
742E
330
9
100
AcDbSymbolTableRecord
100
AcDbRegAppTableRecord
  2
ACAD_DSTYLE_DIMTALN
 70
     0
  0
APPID
  5
8254
330
9
100
AcDbSymbolTableRecord
100
AcDbRegAppTableRecord
  2
AECBASE
 70
     0
  0
APPID
  5
8255
330
9
100
AcDbSymbolTableRecord
100
AcDbRegAppTableRecord
  2
AEC_2DSECTION_XDATA
 70
     0
  0
APPID
  5
8256
330
9
100
AcDbSymbolTableRecord
100
AcDbRegAppTableRecord
  2
AEC_MASSGROUP_XDADA
 70
     0
  0
APPID
  5
B0E5
330
9
100
AcDbSymbolTableRecord
100
AcDbRegAppTableRecord
  2
PE_DIMMEASUREMENT
 70
     0
  0
APPID
  5
147E0
330
9
100
AcDbSymbolTableRecord
100
AcDbRegAppTableRecord
  2
AcAecLayerStandard
 70
     0
  0
APPID
  5
15094
330
9
100
AcDbSymbolTableRecord
100
AcDbRegAppTableRecord
  2
PLOTTRANSPARENCY
 70
     0
  0
APPID
  5
185A3
330
9
100
AcDbSymbolTableRecord
100
AcDbRegAppTableRecord
  2
PE_URL
 70
     0
  0
APPID
  5
1870F
330
9
100
AcDbSymbolTableRecord
100
AcDbRegAppTableRecord
  2
AcadAnnotative
 70
     0
  0
ENDTAB
  0
TABLE
  2
DIMSTYLE
  5
A
330
0
100
AcDbSymbolTable
 70
     1
100
AcDbDimStyleTable
  0
DIMSTYLE
105
4DD3
102
{ACAD_REACTORS
330
14016
330
14023
330
14030
102
}
330
A
100
AcDbSymbolTableRecord
100
AcDbDimStyleTableRecord
  2
NEMY-10
 70
     0
 40
10.0
 41
3.0
 42
1.5
 43
10.0
 44
1.0
 73
     0
 74
     0
 77
     1
 78
     8
140
3.0
141
1.5
143
0.03937007874016
147
1.0
171
     3
172
     1
178
     0
271
     1
272
     1
274
     3
283
     0
284
     8
340
11
341
8F
342
8F
  0
ENDTAB
  0
TABLE
  2
BLOCK_RECORD
  5
1
330
0
100
AcDbSymbolTable
 70
     2
  0
BLOCK_RECORD
  5
1F
102
{ACAD_XDICTIONARY
360
CBD6
102
}
330
1
100
AcDbSymbolTableRecord
100
AcDbBlockTableRecord
  2
*Model_Space
340
22
  0
BLOCK_RECORD
  5
1B
330
1
100
AcDbSymbolTableRecord
100
AcDbBlockTableRecord
  2
*Paper_Space
340
1E
  0
BLOCK_RECORD
  5
23
330
1
100
AcDbSymbolTableRecord
100
AcDbBlockTableRecord
  2
*Paper_Space0
340
26
  0
BLOCK_RECORD
  5
8F
330
1
100
AcDbSymbolTableRecord
100
AcDbBlockTableRecord
  2
_Open
340
0
102
{BLKREFS
331
1401C
331
1401D
331
14029
331
1402A
331
14036
331
14037
331
141AC
331
141AD
331
141B2
331
141B3
331
141B8
331
141B9
331
141BE
331
141BF
331
141C4
331
141C5
331
141CA
331
141CB
331
141D0
331
141D1
331
141D6
331
141D7
331
14596
331
14597
331
145A3
331
145A4
331
145B0
331
145B1
331
145BD
331
145BE
331
145CA
331
145CB
331
145D7
331
145D8
331
145E4
331
145E5
331
145F1
331
145F2
331
14600
331
14601
331
1478E
331
1478F
331
14794
331
14795
331
1479A
331
1479B
331
147A0
331
147A1
331
147A6
331
147A7
331
147AC
331
147AD
331
147B2
331
147B3
331
147B8
331
147B9
331
147BE
331
147BF
331
147C7
331
147C8
331
147CD
331
147CE
331
147D6
331
147D7
331
15C74
331
15C75
331
15C90
331
15C91
331
15CA0
331
15CA1
331
15DEA
331
15DEB
331
15DF7
331
15DF8
331
19A48
331
19A49
331
19A62
331
19A63
331
19A6F
331
19A70
331
19ACD
331
19ACE
331
19ADF
331
19AE0
331
19AEE
331
19AEF
102
}
  0
ENDTAB
  0
ENDSEC
  0
SECTION
  2
BLOCKS
  0
BLOCK
  5
20
330
1F
100
AcDbEntity
  8
0
100
AcDbBlockBegin
  2
*Model_Space
 70
     0
 10
0.0
 20
0.0
 30
0.0
  3
*Model_Space
  1

  0
ENDBLK
  5
21
330
1F
100
AcDbEntity
  8
0
100
AcDbBlockEnd
  0
BLOCK
  5
1C
330
1B
100
AcDbEntity
 67
     1
  8
0
100
AcDbBlockBegin
  2
*Paper_Space
 70
     0
 10
0.0
 20
0.0
 30
0.0
  3
*Paper_Space
  1

  0
ENDBLK
  5
1D
330
1B
100
AcDbEntity
 67
     1
  8
0
100
AcDbBlockEnd
  0
BLOCK
  5
24
330
23
100
AcDbEntity
  8
0
100
AcDbBlockBegin
  2
*Paper_Space0
 70
     0
 10
0.0
 20
0.0
 30
0.0
  3
*Paper_Space0
  1

  0
ENDBLK
  5
25
330
23
100
AcDbEntity
  8
0
100
AcDbBlockEnd
  0
BLOCK
  5
93
330
8F
100
AcDbEntity
  8
0
100
AcDbBlockBegin
  2
_Open
 70
     0
 10
0.0
 20
0.0
 30
0.0
  3
_Open
  1

  0
LINE
  5
90
330
8F
100
AcDbEntity
  8
01注記寸法
 62
     0
370
    -2
100
AcDbLine
 10
-1.0
 20
0.1666666666666667
 30
0.0
 11
0.0
 21
0.0
 31
0.0
  0
LINE
  5
91
330
8F
100
AcDbEntity
  8
01注記寸法
 62
     0
370
    -2
100
AcDbLine
 10
-1.0
 20
-0.1666666666666667
 30
0.0
 11
0.0
 21
0.0
 31
0.0
  0
LINE
  5
92
330
8F
100
AcDbEntity
  8
01注記寸法
 62
     0
370
    -2
100
AcDbLine
 10
0.0
 20
0.0
 30
0.0
 11
-1.0
 21
0.0
 31
0.0
  0
ENDBLK
  5
94
330
8F
100
AcDbEntity
  8
0
100
AcDbBlockEnd
  0
ENDSEC
  0
SECTION
  2
ENTITIES
  0
LINE
  5
19265
102
{ACAD_REACTORS
330
19A87
102
}
330
1F
100
AcDbEntity
  8
02製品
  6
Continuous
370
    15
100
AcDbLine
 10
10693.25836303173
 20
16022.36745997965
 30
0.0
 11
10734.25836218516
 21
16022.36745997965
 31
0.0
  0
LINE
  5
19266
102
{ACAD_REACTORS
330
19A87
102
}
330
1F
100
AcDbEntity
  8
02製品
  6
Continuous
370
    15
100
AcDbLine
 10
10734.25836218516
 20
16022.36745997965
 30
0.0
 11
10769.19586313883
 21
15957.36746236384
 31
0.0
  0
LINE
  5
19267
102
{ACAD_REACTORS
330
19A87
102
}
330
1F
100
AcDbEntity
  8
02製品
  6
Continuous
370
    15
100
AcDbLine
 10
10722.25836394349
 20
15942.36744686663
 30
0.0
 11
10693.25836303173
 21
15942.36744686663
 31
0.0
  0
CIRCLE
  5
19268
102
{ACAD_REACTORS
330
19A87
102
}
330
1F
100
AcDbEntity
  8
02製品
  6
Continuous
370
    15
100
AcDbCircle
 10
10714.25836307923
 20
15962.36745997965
 30
0.0
 40
5.499999999999972
  0
CIRCLE
  5
19269
102
{ACAD_REACTORS
330
19A87
102
}
330
1F
100
AcDbEntity
  8
02製品
  6
Continuous
370
    15
100
AcDbCircle
 10
10714.25836307923
 20
16002.36745997965
 30
0.0
 40
5.499999999999972
  0
LINE
  5
1926A
102
{ACAD_REACTORS
330
19A87
102
}
330
1F
100
AcDbEntity
  8
02製品
  6
Continuous
370
    15
100
AcDbLine
 10
10689.25836319098
 20
16022.36745997965
 30
0.0
 11
10689.25836319098
 21
15942.36744686663
 31
0.0
  0
LINE
  5
1926B
102
{ACAD_REACTORS
330
19A87
102
}
330
1F
100
AcDbEntity
  8
02製品
  6
Continuous
370
    15
100
AcDbLine
 10
10693.25836303173
 20
16022.36745997965
 30
0.0
 11
10689.25836319098
 21
16022.36745997965
 31
0.0
  0
LINE
  5
1926C
102
{ACAD_REACTORS
330
19A87
102
}
330
1F
100
AcDbEntity
  8
02製品
  6
Continuous
370
    15
100
AcDbLine
 10
10689.25836319098
 20
15942.36744686663
 30
0.0
 11
10693.25836303173
 21
15942.36744686663
 31
0.0
  0
LINE
  5
1926D
102
{ACAD_REACTORS
330
19A87
102
}
330
1F
100
AcDbEntity
  8
02製品
  6
Continuous
370
    15
100
AcDbLine
 10
10777.25835992018
 20
15942.36744686663
 30
0.0
 11
10777.25835992018
 21
15896.36747285426
 31
0.0
  0
LINE
  5
1926E
102
{ACAD_REACTORS
330
19A87
102
}
330
1F
100
AcDbEntity
  8
02製品
  6
Continuous
370
    15
100
AcDbLine
 10
10777.25835992018
 20
15896.36747285426
 30
0.0
 11
10758.25836611906
 21
15896.36747285426
 31
0.0
  0
LINE
  5
1926F
102
{ACAD_REACTORS
330
19A87
102
}
330
1F
100
AcDbEntity
  8
02製品
  6
Continuous
370
    15
100
AcDbLine
 10
10758.25836611906
 20
15896.36747285426
 30
0.0
 11
10758.25836611906
 21
15869.36746284068
 31
0.0
  0
LINE
  5
19270
102
{ACAD_REACTORS
330
19A87
102
}
330
1F
100
AcDbEntity
  8
02製品
  6
Continuous
370
    15
100
AcDbLine
 10
10758.25836611906
 20
15869.36746284068
 30
0.0
 11
10722.25836394349
 21
15869.36746284068
 31
0.0
  0
LINE
  5
19271
102
{ACAD_REACTORS
330
19A87
102
}
330
1F
100
AcDbEntity
  8
02製品
  6
Continuous
370
    15
100
AcDbLine
 10
10722.25836394349
 20
15869.36746284068
 30
0.0
 11
10722.25836394349
 21
15957.36746236384
 31
0.0
  0
LINE
  5
19272
102
{ACAD_REACTORS
330
19A87
102
}
330
1F
100
AcDbEntity
  8
02製品
  6
Continuous
370
    15
100
AcDbLine
 10
10722.25836394349
 20
15957.36746236384
 30
0.0
 11
10769.19586313883
 21
15957.36746236384
 31
0.0
  0
CIRCLE
  5
19273
102
{ACAD_REACTORS
330
19A87
102
}
330
1F
100
AcDbEntity
  8
02製品
  6
Continuous
370
    15
100
AcDbCircle
 10
10732.25836307923
 20
15911.36745997965
 30
0.0
 40
3.499999999999943
  0
CIRCLE
  5
19274
102
{ACAD_REACTORS
330
19A87
102
}
330
1F
100
AcDbEntity
  8
02製品
  6
Continuous
370
    15
100
AcDbCircle
 10
10768.25836307923
 20
15905.36745997965
 30
0.0
 40
3.499999999999943
  0
CIRCLE
  5
19275
102
{ACAD_REACTORS
330
19A87
102
}
330
1F
100
AcDbEntity
  8
02製品
  6
Continuous
370
    15
100
AcDbCircle
 10
10732.25836307923
 20
15876.36745997965
 30
0.0
 40
3.499999999999943
  0
LINE
  5
19276
102
{ACAD_REACTORS
330
19A87
102
}
330
1F
100
AcDbEntity
  8
02製品
  6
Continuous
370
    15
100
AcDbLine
 10
10769.19586313883
 20
15957.36746236384
 30
0.0
 11
10777.25835992018
 21
15942.36744686663
 31
0.0
  0
LINE
  5
19277
102
{ACAD_REACTORS
330
19A87
102
}
330
1F
100
AcDbEntity
  8
02製品
  6
Continuous
370
    15
100
AcDbLine
 10
11521.25838501373
 20
15942.36744686663
 30
0.0
 11
11521.25838501373
 21
15896.36747285426
 31
0.0
  0
LINE
  5
19278
102
{ACAD_REACTORS
330
19A87
102
}
330
1F
100
AcDbEntity
  8
02製品
  6
Continuous
370
    15
100
AcDbLine
 10
11529.32086689392
 20
15957.36746236384
 30
0.0
 11
11521.25838501373
 21
15942.36744686663
 31
0.0
  0
LINE
  5
19279
102
{ACAD_REACTORS
330
19A87
102
}
330
1F
100
AcDbEntity
  8
02製品
  6
Continuous
370
    15
100
AcDbLine
 10
11576.25839216629
 20
15957.36746236384
 30
0.0
 11
11529.32086689392
 21
15957.36746236384
 31
0.0
  0
CIRCLE
  5
1927A
102
{ACAD_REACTORS
330
19A87
102
}
330
1F
100
AcDbEntity
  8
02製品
  6
Continuous
370
    15
100
AcDbCircle
 10
11566.25836307923
 20
15911.36745997965
 30
0.0
 40
3.499999999999943
  0
CIRCLE
  5
1927B
102
{ACAD_REACTORS
330
19A87
102
}
330
1F
100
AcDbEntity
  8
02製品
  6
Continuous
370
    15
100
AcDbCircle
 10
11530.25836307923
 20
15905.36745997965
 30
0.0
 40
3.500000000000227
  0
CIRCLE
  5
1927C
102
{ACAD_REACTORS
330
19A87
102
}
330
1F
100
AcDbEntity
  8
02製品
  6
Continuous
370
    15
100
AcDbCircle
 10
11566.25836307923
 20
15876.36745997965
 30
0.0
 40
3.499999999999943
  0
LINE
  5
1927D
102
{ACAD_REACTORS
330
19A87
102
}
330
1F
100
AcDbEntity
  8
02製品
  6
Continuous
370
    15
100
AcDbLine
 10
11576.25839216629
 20
15869.36746284068
 30
0.0
 11
11576.25839216629
 21
15957.36746236384
 31
0.0
  0
LINE
  5
1927E
102
{ACAD_REACTORS
330
19A87
102
}
330
1F
100
AcDbEntity
  8
02製品
  6
Continuous
370
    15
100
AcDbLine
 10
11540.25837881485
 20
15869.36746284068
 30
0.0
 11
11576.25839216629
 21
15869.36746284068
 31
0.0
  0
LINE
  5
1927F
102
{ACAD_REACTORS
330
19A87
102
}
330
1F
100
AcDbEntity
  8
02製品
  6
Continuous
370
    15
100
AcDbLine
 10
11540.25837881485
 20
15896.36747285426
 30
0.0
 11
11540.25837881485
 21
15869.36746284068
 31
0.0
  0
LINE
  5
19280
102
{ACAD_REACTORS
330
19A87
102
}
330
1F
100
AcDbEntity
  8
02製品
  6
Continuous
370
    15
100
AcDbLine
 10
11521.25838501373
 20
15896.36747285426
 30
0.0
 11
11540.25837881485
 21
15896.36747285426
 31
0.0
  0
LINE
  5
19281
102
{ACAD_REACTORS
330
19A87
102
}
330
1F
100
AcDbEntity
  8
02製品
  6
Continuous
370
    15
100
AcDbLine
 10
10730.2583615295
 20
16287.3674605757
 30
0.0
 11
10696.65836319322
 21
16287.3674605757
 31
0.0
  0
LINE
  5
19282
102
{ACAD_REACTORS
330
19A87
102
}
330
1F
100
AcDbEntity
  8
02製品
  6
Continuous
370
    15
100
AcDbLine
 10
10840.25836093346
 20
16437.36745908558
 30
0.0
 11
10696.65836319322
 21
16437.36745908558
 31
0.0
  0
LINE
  5
19283
102
{ACAD_REACTORS
330
19A87
102
}
330
1F
100
AcDbEntity
  8
02製品
  6
Continuous
370
    15
100
AcDbLine
 10
10730.2583615295
 20
16287.3674605757
 30
0.0
 11
10840.25836093346
 21
16397.36745997965
 31
0.0
  0
CIRCLE
  5
19284
102
{ACAD_REACTORS
330
19A87
102
}
330
1F
100
AcDbEntity
  8
02製品
  6
Continuous
370
    15
100
AcDbCircle
 10
10819.25836307923
 20
16417.36745997965
 30
0.0
 40
5.0
  0
CIRCLE
  5
19285
102
{ACAD_REACTORS
330
19A87
102
}
330
1F
100
AcDbEntity
  8
02製品
  6
Continuous
370
    15
100
AcDbCircle
 10
10724.25836307923
 20
16417.36745997965
 30
0.0
 40
5.0
  0
CIRCLE
  5
19286
102
{ACAD_REACTORS
330
19A87
102
}
330
1F
100
AcDbEntity
  8
02製品
  6
Continuous
370
    15
100
AcDbCircle
 10
10719.25836307923
 20
16367.36745997965
 30
0.0
 40
5.0
  0
CIRCLE
  5
19287
102
{ACAD_REACTORS
330
19A87
102
}
330
1F
100
AcDbEntity
  8
02製品
  6
Continuous
370
    15
100
AcDbCircle
 10
10719.25836307923
 20
16307.36745997965
 30
0.0
 40
5.0
  0
LINE
  5
19288
102
{ACAD_REACTORS
330
19A87
102
}
330
1F
100
AcDbEntity
  8
02製品
  6
Continuous
370
    15
100
AcDbLine
 10
10840.25836093346
 20
16397.36745997965
 30
0.0
 11
10840.25836093346
 21
16437.36745908558
 31
0.0
  0
LINE
  5
19289
102
{ACAD_REACTORS
330
19A87
102
}
330
1F
100
AcDbEntity
  8
02製品
  6
Continuous
370
    15
100
AcDbLine
 10
10690.25836288924
 20
16287.3674605757
 30
0.0
 11
10690.25836288924
 21
16437.36745908558
 31
0.0
  0
LINE
  5
1928A
102
{ACAD_REACTORS
330
19A87
102
}
330
1F
100
AcDbEntity
  8
02製品
  6
Continuous
370
    15
100
AcDbLine
 10
10696.65836319322
 20
16287.3674605757
 30
0.0
 11
10690.25836288924
 21
16287.3674605757
 31
0.0
  0
LINE
  5
1928B
102
{ACAD_REACTORS
330
19A87
102
}
330
1F
100
AcDbEntity
  8
02製品
  6
Continuous
370
    15
100
AcDbLine
 10
10696.65836319322
 20
16437.36745908558
 30
0.0
 11
10690.25836288924
 21
16437.36745908558
 31
0.0
  0
LINE
  5
1928C
102
{ACAD_REACTORS
330
19A87
102
}
330
1F
100
AcDbEntity
  8
02製品
  6
Continuous
370
    15
100
AcDbLine
 10
11458.25836164871
 20
16397.36745997965
 30
0.0
 11
11458.25836164871
 21
16437.36745908558
 31
0.0
  0
LINE
  5
1928D
102
{ACAD_REACTORS
330
19A87
102
}
330
1F
100
AcDbEntity
  8
02製品
  6
Continuous
370
    15
100
AcDbLine
 10
11568.25837595383
 20
16287.3674605757
 30
0.0
 11
11601.85834867874
 21
16287.3674605757
 31
0.0
  0
LINE
  5
1928E
102
{ACAD_REACTORS
330
19A87
102
}
330
1F
100
AcDbEntity
  8
02製品
  6
Continuous
370
    15
100
AcDbLine
 10
11568.25837595383
 20
16287.3674605757
 30
0.0
 11
11458.25836164871
 21
16397.36745997965
 31
0.0
  0
CIRCLE
  5
1928F
102
{ACAD_REACTORS
330
19A87
102
}
330
1F
100
AcDbEntity
  8
02製品
  6
Continuous
370
    15
100
AcDbCircle
 10
11479.25836307923
 20
16417.36745997965
 30
0.0
 40
5.0
  0
CIRCLE
  5
19290
102
{ACAD_REACTORS
330
19A87
102
}
330
1F
100
AcDbEntity
  8
02製品
  6
Continuous
370
    15
100
AcDbCircle
 10
11574.25836307923
 20
16417.36745997965
 30
0.0
 40
5.0
  0
CIRCLE
  5
19291
102
{ACAD_REACTORS
330
19A87
102
}
330
1F
100
AcDbEntity
  8
02製品
  6
Continuous
370
    15
100
AcDbCircle
 10
11579.25836307923
 20
16367.36745997965
 30
0.0
 40
5.0
  0
CIRCLE
  5
19292
102
{ACAD_REACTORS
330
19A87
102
}
330
1F
100
AcDbEntity
  8
02製品
  6
Continuous
370
    15
100
AcDbCircle
 10
11579.25836307923
 20
16307.36745997965
 30
0.0
 40
5.0
  0
LINE
  5
19293
102
{ACAD_REACTORS
330
19A87
102
}
330
1F
100
AcDbEntity
  8
02製品
  6
Continuous
370
    15
100
AcDbLine
 10
11458.25836164871
 20
16437.36745908558
 30
0.0
 11
11601.85834867874
 21
16437.36745908558
 31
0.0
  0
LINE
  5
19294
102
{ACAD_REACTORS
330
19A87
102
}
330
1F
100
AcDbEntity
  8
02製品
  6
Continuous
370
    15
100
AcDbLine
 10
11608.25833780686
 20
16287.3674605757
 30
0.0
 11
11608.25833780686
 21
16437.36745908558
 31
0.0
  0
LINE
  5
19295
102
{ACAD_REACTORS
330
19A87
102
}
330
1F
100
AcDbEntity
  8
02製品
  6
Continuous
370
    15
100
AcDbLine
 10
11601.85834867874
 20
16287.3674605757
 30
0.0
 11
11608.25833780686
 21
16287.3674605757
 31
0.0
  0
LINE
  5
19296
102
{ACAD_REACTORS
330
19A87
102
}
330
1F
100
AcDbEntity
  8
02製品
  6
Continuous
370
    15
100
AcDbLine
 10
11601.85834867874
 20
16437.36745908558
 30
0.0
 11
11608.25833780686
 21
16437.36745908558
 31
0.0
  0
LINE
  5
19297
102
{ACAD_REACTORS
330
19A87
102
}
330
1F
100
AcDbEntity
  8
02製品
  6
Continuous
370
    15
100
AcDbLine
 10
10697.2583631053
 20
16282.36745789349
 30
0.0
 11
10697.2583631053
 21
16287.3674605757
 31
0.0
  0
LINE
  5
19298
102
{ACAD_REACTORS
330
19A87
102
}
330
1F
100
AcDbEntity
  8
02製品
  6
Continuous
370
    15
100
AcDbLine
 10
10722.25836394349
 20
15940.36747261584
 30
0.0
 11
10694.25836307923
 21
15940.36747261584
 31
0.0
  0
LINE
  5
19299
102
{ACAD_REACTORS
330
19A87
102
}
330
1F
100
AcDbEntity
  8
02製品
  6
Continuous
370
    15
100
AcDbLine
 10
10694.25836307923
 20
16282.36745789349
 30
0.0
 11
10694.25836307923
 21
16022.36745997965
 31
0.0
  0
LINE
  5
1929A
102
{ACAD_REACTORS
330
19A87
102
}
330
1F
100
AcDbEntity
  8
02製品
  6
Continuous
370
    15
100
AcDbLine
 10
10694.25836307923
 20
15942.36744686663
 30
0.0
 11
10694.25836307923
 21
15940.36747261584
 31
0.0
  0
LINE
  5
1929B
102
{ACAD_REACTORS
330
19A87
102
}
330
1F
100
AcDbEntity
  8
02製品
  6
Continuous
370
    15
100
AcDbLine
 10
10697.2583631053
 20
16282.36745789349
 30
0.0
 11
10694.25836307923
 21
16282.36745789349
 31
0.0
  0
CIRCLE
  5
1929C
102
{ACAD_REACTORS
330
19A87
102
}
330
1F
100
AcDbEntity
  8
02製品
  6
Continuous
370
    15
100
AcDbCircle
 10
10714.25836307923
 20
16002.36745997965
 30
0.0
 40
5.0
  0
CIRCLE
  5
1929D
102
{ACAD_REACTORS
330
19A87
102
}
330
1F
100
AcDbEntity
  8
02製品
  6
Continuous
370
    15
100
AcDbCircle
 10
10714.25836307923
 20
15962.36745997965
 30
0.0
 40
5.0
  0
LINE
  5
1929E
102
{ACAD_REACTORS
330
19A87
102
}
330
1F
100
AcDbEntity
  8
02製品
  6
Continuous
370
    15
100
AcDbLine
 10
10734.25836218516
 20
16291.36746123135
 30
0.0
 11
10734.25836218516
 21
16022.36745997965
 31
0.0
  0
LINE
  5
1929F
102
{ACAD_REACTORS
330
19A87
102
}
330
1F
100
AcDbEntity
  8
02製品
  6
Continuous
370
    15
100
AcDbLine
 10
10694.25836307923
 20
16282.36745789349
 30
0.0
 11
10694.25836307923
 21
16287.3674605757
 31
0.0
  0
LINE
  5
192A0
102
{ACAD_REACTORS
330
19A87
102
}
330
1F
100
AcDbEntity
  8
02製品
  6
Continuous
370
    15
100
AcDbLine
 10
10722.25836394349
 20
15937.367451635
 30
0.0
 11
10694.25836307923
 21
15937.367451635
 31
0.0
  0
LINE
  5
192A1
102
{ACAD_REACTORS
330
19A87
102
}
330
1F
100
AcDbEntity
  8
02製品
  6
Continuous
370
    15
100
AcDbLine
 10
10694.25836307923
 20
15937.367451635
 30
0.0
 11
10694.25836307923
 21
15940.36747261584
 31
0.0
  0
LINE
  5
192A2
102
{ACAD_REACTORS
330
19A87
102
}
330
1F
100
AcDbEntity
  8
02製品
  6
Continuous
370
    15
100
AcDbLine
 10
11604.25838930527
 20
15940.36747261584
 30
0.0
 11
11604.25838930527
 21
15937.367451635
 31
0.0
  0
LINE
  5
192A3
102
{ACAD_REACTORS
330
19A87
102
}
330
1F
100
AcDbEntity
  8
02製品
  6
Continuous
370
    15
100
AcDbLine
 10
11576.25839216629
 20
15940.36747261584
 30
0.0
 11
11604.25838930527
 21
15940.36747261584
 31
0.0
  0
LINE
  5
192A4
102
{ACAD_REACTORS
330
19A87
102
}
330
1F
100
AcDbEntity
  8
02製品
  6
Continuous
370
    15
100
AcDbLine
 10
11576.25839216629
 20
15937.367451635
 30
0.0
 11
11604.25838930527
 21
15937.367451635
 31
0.0
  0
LINE
  5
192A5
102
{ACAD_REACTORS
330
19A87
102
}
330
1F
100
AcDbEntity
  8
02製品
  6
Continuous
370
    15
100
AcDbLine
 10
11604.25838930527
 20
16282.36745789349
 30
0.0
 11
11604.25838930527
 21
16022.36745997965
 31
0.0
  0
LINE
  5
192A6
102
{ACAD_REACTORS
330
19A87
102
}
330
1F
100
AcDbEntity
  8
02製品
  6
Continuous
370
    15
100
AcDbLine
 10
11604.25838930527
 20
15942.36744686663
 30
0.0
 11
11604.25838930527
 21
15940.36747261584
 31
0.0
  0
LINE
  5
192A7
102
{ACAD_REACTORS
330
19A87
102
}
330
1F
100
AcDbEntity
  8
02製品
  6
Continuous
370
    15
100
AcDbLine
 10
11601.25836832443
 20
16282.36745789349
 30
0.0
 11
11601.25836832443
 21
16287.3674605757
 31
0.0
  0
LINE
  5
192A8
102
{ACAD_REACTORS
330
19A87
102
}
330
1F
100
AcDbEntity
  8
02製品
  6
Continuous
370
    15
100
AcDbLine
 10
11601.25836832443
 20
16282.36745789349
 30
0.0
 11
11604.25838930527
 21
16282.36745789349
 31
0.0
  0
CIRCLE
  5
192A9
102
{ACAD_REACTORS
330
19A87
102
}
330
1F
100
AcDbEntity
  8
02製品
  6
Continuous
370
    15
100
AcDbCircle
 10
11584.25836307923
 20
16002.36745997965
 30
0.0
 40
5.0
  0
CIRCLE
  5
192AA
102
{ACAD_REACTORS
330
19A87
102
}
330
1F
100
AcDbEntity
  8
02製品
  6
Continuous
370
    15
100
AcDbCircle
 10
11584.25836307923
 20
15962.36745997965
 30
0.0
 40
5.0
  0
LINE
  5
192AB
102
{ACAD_REACTORS
330
19A87
102
}
330
1F
100
AcDbEntity
  8
02製品
  6
Continuous
370
    15
100
AcDbLine
 10
11564.2583678476
 20
16291.36746123135
 30
0.0
 11
11564.2583678476
 21
16022.36745997965
 31
0.0
  0
LINE
  5
192AC
102
{ACAD_REACTORS
330
19A87
102
}
330
1F
100
AcDbEntity
  8
02製品
  6
Continuous
370
    15
100
AcDbLine
 10
11604.25838930527
 20
16282.36745789349
 30
0.0
 11
11604.25838930527
 21
16287.3674605757
 31
0.0
  0
LINE
  5
192AD
102
{ACAD_REACTORS
330
19A87
102
}
330
1F
100
AcDbEntity
  8
02製品
  6
Continuous
370
    15
100
AcDbLine
 10
11458.25836164871
 20
16437.36745908558
 30
0.0
 11
10840.25836093346
 21
16437.36745908558
 31
0.0
  0
LINE
  5
192AE
102
{ACAD_REACTORS
330
19A87
102
}
330
1F
100
AcDbEntity
  8
02製品
  6
Continuous
370
    15
100
AcDbLine
 10
11458.25836164871
 20
16397.36745997965
 30
0.0
 11
10840.25836093346
 21
16397.36745997965
 31
0.0
  0
LINE
  5
192AF
102
{ACAD_REACTORS
330
19A87
102
}
330
1F
100
AcDbEntity
  8
02製品
  6
Continuous
370
    15
100
AcDbLine
 10
11605.25837643067
 20
16022.36745997965
 30
0.0
 11
11609.2583845369
 21
16022.36745997965
 31
0.0
  0
LINE
  5
192B0
102
{ACAD_REACTORS
330
19A87
102
}
330
1F
100
AcDbEntity
  8
02製品
  6
Continuous
370
    15
100
AcDbLine
 10
11609.2583845369
 20
16022.36745997965
 30
0.0
 11
11609.2583845369
 21
15942.36744686663
 31
0.0
  0
LINE
  5
192B1
102
{ACAD_REACTORS
330
19A87
102
}
330
1F
100
AcDbEntity
  8
02製品
  6
Continuous
370
    15
100
AcDbLine
 10
11609.2583845369
 20
15942.36744686663
 30
0.0
 11
11605.25837643067
 21
15942.36744686663
 31
0.0
  0
LINE
  5
192B2
102
{ACAD_REACTORS
330
19A87
102
}
330
1F
100
AcDbEntity
  8
02製品
  6
Continuous
370
    15
100
AcDbLine
 10
11605.25837643067
 20
16022.36745997965
 30
0.0
 11
11564.2583678476
 21
16022.36745997965
 31
0.0
  0
LINE
  5
192B3
102
{ACAD_REACTORS
330
19A87
102
}
330
1F
100
AcDbEntity
  8
02製品
  6
Continuous
370
    15
100
AcDbLine
 10
11576.25839216629
 20
15942.36744686663
 30
0.0
 11
11605.25837643067
 21
15942.36744686663
 31
0.0
  0
CIRCLE
  5
192B4
102
{ACAD_REACTORS
330
19A87
102
}
330
1F
100
AcDbEntity
  8
02製品
  6
Continuous
370
    15
100
AcDbCircle
 10
11584.25836307923
 20
16002.36745997965
 30
0.0
 40
5.499999999999829
  0
CIRCLE
  5
192B5
102
{ACAD_REACTORS
330
19A87
102
}
330
1F
100
AcDbEntity
  8
02製品
  6
Continuous
370
    15
100
AcDbCircle
 10
11584.25836307923
 20
15962.36745997965
 30
0.0
 40
5.499999999999829
  0
LINE
  5
192B6
102
{ACAD_REACTORS
330
19A87
102
}
330
1F
100
AcDbEntity
  8
02製品
  6
Continuous
370
    15
100
AcDbLine
 10
11564.2583678476
 20
16022.36745997965
 30
0.0
 11
11529.32086689392
 21
15957.36746236384
 31
0.0
  0
LINE
  5
1934F
102
{ACAD_REACTORS
330
19A86
102
}
330
1F
100
AcDbEntity
  8
02製品
  6
Continuous
370
    15
100
AcDbLine
 10
11521.25838501373
 20
17640.92440678916
 30
0.0
 11
11521.25838501373
 21
17640.12445285163
 31
0.0
  0
LINE
  5
19350
102
{ACAD_REACTORS
330
19A86
102
}
330
1F
100
AcDbEntity
  8
02製品
  6
Continuous
370
    15
100
AcDbLine
 10
11564.2583678476
 20
17640.92440678916
 30
0.0
 11
11564.2583678476
 21
17640.12445285163
 31
0.0
  0
LINE
  5
19351
102
{ACAD_REACTORS
330
19A86
102
}
330
1F
100
AcDbEntity
  8
02製品
  6
Continuous
370
    15
100
AcDbLine
 10
11609.2583845369
 20
17638.12441899619
 30
0.0
 11
11609.2583845369
 21
17620.12441232047
 31
0.0
  0
LINE
  5
19352
102
{ACAD_REACTORS
330
19A86
102
}
330
1F
100
AcDbEntity
  8
02製品
  6
Continuous
370
    15
100
AcDbLine
 10
11608.25833780686
 20
17620.12441232047
 30
0.0
 11
11609.2583845369
 21
17620.12441232047
 31
0.0
  0
ARC
  5
19353
102
{ACAD_REACTORS
330
19A86
102
}
330
1F
100
AcDbEntity
  8
02製品
  6
Continuous
370
    15
100
AcDbCircle
 10
11605.25836307923
 20
17638.12443044032
 30
0.0
 40
4.000000000000257
100
AcDbArc
 50
0.0
 51
67.8001385729561
  0
ARC
  5
19354
102
{ACAD_REACTORS
330
19A86
102
}
330
1F
100
AcDbEntity
  8
02製品
  6
Continuous
370
    15
100
AcDbCircle
 10
10693.25836307923
 20
16903.12443044032
 30
0.0
 40
4.000000000000057
100
AcDbArc
 50
180.0
 51
247.8001320939959
  0
LINE
  5
19355
102
{ACAD_REACTORS
330
19A86
102
}
330
1F
100
AcDbEntity
  8
02製品
  6
Continuous
370
    15
100
AcDbLine
 10
10689.25836319098
 20
16903.12443053528
 30
0.0
 11
10689.25836319098
 21
16921.12442999325
 31
0.0
  0
LINE
  5
19356
102
{ACAD_REACTORS
330
19A86
102
}
330
1F
100
AcDbEntity
  8
02製品
  6
Continuous
370
    15
100
AcDbLine
 10
10690.25836288924
 20
16921.12442999325
 30
0.0
 11
10689.25836319098
 21
16921.12442999325
 31
0.0
  0
LINE
  5
19357
102
{ACAD_REACTORS
330
19A86
102
}
330
1F
100
AcDbEntity
  8
02製品
  6
Continuous
370
    15
100
AcDbLine
 10
10734.25836218516
 20
16900.3244304605
 30
0.0
 11
10734.25836218516
 21
16901.12443044029
 31
0.0
  0
LINE
  5
19358
102
{ACAD_REACTORS
330
19A86
102
}
330
1F
100
AcDbEntity
  8
02製品
  6
Continuous
370
    15
100
AcDbLine
 10
10777.25835992018
 20
16900.3244304605
 30
0.0
 11
10777.25835992018
 21
16901.12443044029
 31
0.0
  0
LINE
  5
19359
102
{ACAD_REACTORS
330
19A86
102
}
330
1F
100
AcDbEntity
  8
02製品
  6
Continuous
370
    15
100
AcDbLine
 10
11605.0583432428
 20
17594.12444903694
 30
0.0
 11
11605.0583432428
 21
17637.72441222511
 31
0.0
  0
ARC
  5
1935A
102
{ACAD_REACTORS
330
19A86
102
}
330
1F
100
AcDbEntity
  8
02製品
  6
Continuous
370
    15
100
AcDbCircle
 10
11601.85836307922
 20
17637.72443044029
 30
0.0
 40
3.200000000000216
100
AcDbArc
 50
0.0
 51
90.0
  0
LINE
  5
1935B
102
{ACAD_REACTORS
330
19A86
102
}
330
1F
100
AcDbEntity
  8
02製品
  6
Continuous
370
    15
100
AcDbLine
 10
11601.85834867874
 20
17640.92440678916
 30
0.0
 11
11458.25836164871
 21
17640.92440678916
 31
0.0
  0
LINE
  5
1935C
102
{ACAD_REACTORS
330
19A86
102
}
330
1F
100
AcDbEntity
  8
02製品
  6
Continuous
370
    15
100
AcDbLine
 10
11458.25836164871
 20
17640.92440678916
 30
0.0
 11
11458.25836164871
 21
17644.12440135322
 31
0.0
  0
LINE
  5
1935D
102
{ACAD_REACTORS
330
19A86
102
}
330
1F
100
AcDbEntity
  8
02製品
  6
Continuous
370
    15
100
AcDbLine
 10
11458.25836164871
 20
17644.12440135322
 30
0.0
 11
11601.85834867874
 21
17644.12440135322
 31
0.0
  0
ARC
  5
1935E
102
{ACAD_REACTORS
330
19A86
102
}
330
1F
100
AcDbEntity
  8
02製品
  6
Continuous
370
    15
100
AcDbCircle
 10
11601.85836307922
 20
17637.72443044029
 30
0.0
 40
6.400000000000148
100
AcDbArc
 50
0.0
 51
90.0
  0
LINE
  5
1935F
102
{ACAD_REACTORS
330
19A86
102
}
330
1F
100
AcDbEntity
  8
02製品
  6
Continuous
370
    15
100
AcDbLine
 10
11608.25833780686
 20
17637.72441222511
 30
0.0
 11
11608.25833780686
 21
17594.12444903694
 31
0.0
  0
LINE
  5
19360
102
{ACAD_REACTORS
330
19A86
102
}
330
1F
100
AcDbEntity
  8
02製品
  6
Continuous
370
    15
100
AcDbLine
 10
11608.25833780686
 20
17594.12444903694
 30
0.0
 11
11605.0583432428
 21
17594.12444903694
 31
0.0
  0
LINE
  5
19361
102
{ACAD_REACTORS
330
19A86
102
}
330
1F
100
AcDbEntity
  8
02製品
  6
Continuous
370
    15
100
AcDbLine
 10
10693.45836309943
 20
16947.12443052969
 30
0.0
 11
10693.45836309943
 21
16903.52443055428
 31
0.0
  0
ARC
  5
19362
102
{ACAD_REACTORS
330
19A86
102
}
330
1F
100
AcDbEntity
  8
02製品
  6
Continuous
370
    15
100
AcDbCircle
 10
10696.65836307923
 20
16903.52443044031
 30
0.0
 40
3.200000000000216
100
AcDbArc
 50
180.0
 51
270.0
  0
LINE
  5
19363
102
{ACAD_REACTORS
330
19A86
102
}
330
1F
100
AcDbEntity
  8
02製品
  6
Continuous
370
    15
100
AcDbLine
 10
10696.65836319322
 20
16900.3244304605
 30
0.0
 11
10840.25836093346
 21
16900.3244304605
 31
0.0
  0
LINE
  5
19364
102
{ACAD_REACTORS
330
19A86
102
}
330
1F
100
AcDbEntity
  8
02製品
  6
Continuous
370
    15
100
AcDbLine
 10
10840.25836093346
 20
16900.3244304605
 30
0.0
 11
10840.25836093346
 21
16897.1244302503
 31
0.0
  0
LINE
  5
19365
102
{ACAD_REACTORS
330
19A86
102
}
330
1F
100
AcDbEntity
  8
02製品
  6
Continuous
370
    15
100
AcDbLine
 10
10840.25836093346
 20
16897.1244302503
 30
0.0
 11
10696.65836319322
 21
16897.1244302503
 31
0.0
  0
ARC
  5
19366
102
{ACAD_REACTORS
330
19A86
102
}
330
1F
100
AcDbEntity
  8
02製品
  6
Continuous
370
    15
100
AcDbCircle
 10
10696.65836307923
 20
16903.52443044031
 30
0.0
 40
6.400000000000148
100
AcDbArc
 50
180.0
 51
270.0
  0
LINE
  5
19367
102
{ACAD_REACTORS
330
19A86
102
}
330
1F
100
AcDbEntity
  8
02製品
  6
Continuous
370
    15
100
AcDbLine
 10
10690.25836288924
 20
16903.52443055428
 30
0.0
 11
10690.25836288924
 21
16947.12443052969
 31
0.0
  0
LINE
  5
19368
102
{ACAD_REACTORS
330
19A86
102
}
330
1F
100
AcDbEntity
  8
02製品
  6
Continuous
370
    15
100
AcDbLine
 10
10690.25836288924
 20
16947.12443052969
 30
0.0
 11
10693.45836309943
 21
16947.12443052969
 31
0.0
  0
LINE
  5
19369
102
{ACAD_REACTORS
330
19A86
102
}
330
1F
100
AcDbEntity
  8
02製品
  6
Continuous
370
    15
100
AcDbLine
 10
10690.25836288924
 20
17637.72441222511
 30
0.0
 11
10690.25836288924
 21
17594.12444903694
 31
0.0
  0
ARC
  5
1936A
102
{ACAD_REACTORS
330
19A86
102
}
330
1F
100
AcDbEntity
  8
02製品
  6
Continuous
370
    15
100
AcDbCircle
 10
10696.65836307923
 20
17637.72443044029
 30
0.0
 40
6.400000000000006
100
AcDbArc
 50
90.0
 51
180.0
  0
LINE
  5
1936B
102
{ACAD_REACTORS
330
19A86
102
}
330
1F
100
AcDbEntity
  8
02製品
  6
Continuous
370
    15
100
AcDbLine
 10
10840.25836093346
 20
17644.12440135322
 30
0.0
 11
10696.65836319322
 21
17644.12440135322
 31
0.0
  0
LINE
  5
1936C
102
{ACAD_REACTORS
330
19A86
102
}
330
1F
100
AcDbEntity
  8
02製品
  6
Continuous
370
    15
100
AcDbLine
 10
10840.25836093346
 20
17640.92440678916
 30
0.0
 11
10840.25836093346
 21
17644.12440135322
 31
0.0
  0
LINE
  5
1936D
102
{ACAD_REACTORS
330
19A86
102
}
330
1F
100
AcDbEntity
  8
02製品
  6
Continuous
370
    15
100
AcDbLine
 10
10696.65836319322
 20
17640.92440678916
 30
0.0
 11
10840.25836093346
 21
17640.92440678916
 31
0.0
  0
ARC
  5
1936E
102
{ACAD_REACTORS
330
19A86
102
}
330
1F
100
AcDbEntity
  8
02製品
  6
Continuous
370
    15
100
AcDbCircle
 10
10696.65836307923
 20
17637.72443044029
 30
0.0
 40
3.199999999999932
100
AcDbArc
 50
90.0
 51
180.0
  0
LINE
  5
1936F
102
{ACAD_REACTORS
330
19A86
102
}
330
1F
100
AcDbEntity
  8
02製品
  6
Continuous
370
    15
100
AcDbLine
 10
10693.45836309943
 20
17594.12444903694
 30
0.0
 11
10693.45836309943
 21
17637.72441222511
 31
0.0
  0
LINE
  5
19370
102
{ACAD_REACTORS
330
19A86
102
}
330
1F
100
AcDbEntity
  8
02製品
  6
Continuous
370
    15
100
AcDbLine
 10
10690.25836288924
 20
17594.12444903694
 30
0.0
 11
10693.45836309943
 21
17594.12444903694
 31
0.0
  0
LINE
  5
19371
102
{ACAD_REACTORS
330
19A86
102
}
330
1F
100
AcDbEntity
  8
02製品
  6
Continuous
370
    15
100
AcDbLine
 10
11608.25833780686
 20
16903.52443055428
 30
0.0
 11
11608.25833780686
 21
16947.12443052969
 31
0.0
  0
ARC
  5
19372
102
{ACAD_REACTORS
330
19A86
102
}
330
1F
100
AcDbEntity
  8
02製品
  6
Continuous
370
    15
100
AcDbCircle
 10
11601.85836307922
 20
16903.52443044031
 30
0.0
 40
6.400000000000148
100
AcDbArc
 50
270.0
 51
0.0
  0
LINE
  5
19373
102
{ACAD_REACTORS
330
19A86
102
}
330
1F
100
AcDbEntity
  8
02製品
  6
Continuous
370
    15
100
AcDbLine
 10
11458.25836164871
 20
16897.1244302503
 30
0.0
 11
11601.85834867874
 21
16897.1244302503
 31
0.0
  0
LINE
  5
19374
102
{ACAD_REACTORS
330
19A86
102
}
330
1F
100
AcDbEntity
  8
02製品
  6
Continuous
370
    15
100
AcDbLine
 10
11458.25836164871
 20
16900.3244304605
 30
0.0
 11
11458.25836164871
 21
16897.1244302503
 31
0.0
  0
LINE
  5
19375
102
{ACAD_REACTORS
330
19A86
102
}
330
1F
100
AcDbEntity
  8
02製品
  6
Continuous
370
    15
100
AcDbLine
 10
11601.85834867874
 20
16900.3244304605
 30
0.0
 11
11458.25836164871
 21
16900.3244304605
 31
0.0
  0
ARC
  5
19376
102
{ACAD_REACTORS
330
19A86
102
}
330
1F
100
AcDbEntity
  8
02製品
  6
Continuous
370
    15
100
AcDbCircle
 10
11601.85836307922
 20
16903.52443044031
 30
0.0
 40
3.200000000000216
100
AcDbArc
 50
270.0
 51
0.0
  0
LINE
  5
19377
102
{ACAD_REACTORS
330
19A86
102
}
330
1F
100
AcDbEntity
  8
02製品
  6
Continuous
370
    15
100
AcDbLine
 10
11605.0583432428
 20
16947.12443052969
 30
0.0
 11
11605.0583432428
 21
16903.52443055428
 31
0.0
  0
LINE
  5
19378
102
{ACAD_REACTORS
330
19A86
102
}
330
1F
100
AcDbEntity
  8
02製品
  6
Continuous
370
    15
100
AcDbLine
 10
11608.25833780686
 20
16947.12443052969
 30
0.0
 11
11605.0583432428
 21
16947.12443052969
 31
0.0
  0
LINE
  5
19379
102
{ACAD_REACTORS
330
19A86
102
}
330
1F
100
AcDbEntity
  8
02製品
  6
Continuous
370
    15
100
AcDbLine
 10
11604.25838930527
 20
17639.84103276573
 30
0.0
 11
11604.25838930527
 21
17637.1244318708
 31
0.0
  0
LINE
  5
1937A
102
{ACAD_REACTORS
330
19A86
102
}
330
1F
100
AcDbEntity
  8
02製品
  6
Continuous
370
    15
100
AcDbLine
 10
11601.25836832443
 20
17640.12445285163
 30
0.0
 11
11603.97496921936
 21
17640.12445285163
 31
0.0
  0
LINE
  5
1937B
102
{ACAD_REACTORS
330
19A86
102
}
330
1F
100
AcDbEntity
  8
02製品
  6
Continuous
370
    15
100
AcDbLine
 10
10697.2583631053
 20
16901.12443044029
 30
0.0
 11
10694.54176203575
 21
16901.12443044029
 31
0.0
  0
LINE
  5
1937C
102
{ACAD_REACTORS
330
19A86
102
}
330
1F
100
AcDbEntity
  8
02製品
  6
Continuous
370
    15
100
AcDbLine
 10
10694.25836307923
 20
16901.40782939681
 30
0.0
 11
10694.25836307923
 21
16904.12443046636
 31
0.0
  0
LINE
  5
1937D
102
{ACAD_REACTORS
330
19A86
102
}
330
1F
100
AcDbEntity
  8
02製品
  6
Continuous
370
    15
100
AcDbLine
 10
11601.25836832443
 20
16901.12443044029
 30
0.0
 11
11603.97496921936
 21
16901.12443044029
 31
0.0
  0
LINE
  5
1937E
102
{ACAD_REACTORS
330
19A86
102
}
330
1F
100
AcDbEntity
  8
02製品
  6
Continuous
370
    15
100
AcDbLine
 10
11604.25838930527
 20
16901.40782939681
 30
0.0
 11
11604.25838930527
 21
16904.12443046636
 31
0.0
  0
LINE
  5
1937F
102
{ACAD_REACTORS
330
19A86
102
}
330
1F
100
AcDbEntity
  8
02製品
  6
Continuous
370
    15
100
AcDbLine
 10
10697.2583631053
 20
17640.12445285163
 30
0.0
 11
10694.54176203575
 21
17640.12445285163
 31
0.0
  0
LINE
  5
19380
102
{ACAD_REACTORS
330
19A86
102
}
330
1F
100
AcDbEntity
  8
02製品
  6
Continuous
370
    15
100
AcDbLine
 10
10694.25836307923
 20
17639.84103276573
 30
0.0
 11
10694.25836307923
 21
17637.1244318708
 31
0.0
  0
LINE
  5
19381
102
{ACAD_REACTORS
330
19A86
102
}
330
1F
100
AcDbEntity
  8
02製品
  6
Continuous
370
    15
100
AcDbLine
 10
11134.25836069504
 20
17600.12443139396
 30
0.0
 11
11134.25836069504
 21
16941.12442954622
 31
0.0
  0
LINE
  5
19382
102
{ACAD_REACTORS
330
19A86
102
}
330
1F
100
AcDbEntity
  8
02製品
  6
Continuous
370
    15
100
AcDbLine
 10
11164.25836188713
 20
17600.12443139396
 30
0.0
 11
11164.25836188713
 21
16941.12442954622
 31
0.0
  0
LINE
  5
19383
102
{ACAD_REACTORS
330
19A86
102
}
330
1F
100
AcDbEntity
  8
02製品
  6
Continuous
370
    15
100
AcDbLine
 10
11604.25838930527
 20
16941.12442954622
 30
0.0
 11
11564.2583678476
 21
16941.12442954622
 31
0.0
  0
LINE
  5
19384
102
{ACAD_REACTORS
330
19A86
102
}
330
1F
100
AcDbEntity
  8
02製品
  6
Continuous
370
    15
100
AcDbLine
 10
11564.2583678476
 20
17600.12443139396
 30
0.0
 11
11564.2583678476
 21
16941.12442954622
 31
0.0
  0
LINE
  5
19385
102
{ACAD_REACTORS
330
19A86
102
}
330
1F
100
AcDbEntity
  8
02製品
  6
Continuous
370
    15
100
AcDbLine
 10
11564.2583678476
 20
17600.12443139396
 30
0.0
 11
11604.25838930527
 21
17600.12443139396
 31
0.0
  0
LINE
  5
19386
102
{ACAD_REACTORS
330
19A86
102
}
330
1F
100
AcDbEntity
  8
02製品
  6
Continuous
370
    15
100
AcDbLine
 10
11604.25838930527
 20
17600.12443139396
 30
0.0
 11
11604.25838930527
 21
16941.12442954622
 31
0.0
  0
LINE
  5
19387
102
{ACAD_REACTORS
330
19A86
102
}
330
1F
100
AcDbEntity
  8
02製品
  6
Continuous
370
    15
100
AcDbLine
 10
10694.25836307923
 20
17600.12443139396
 30
0.0
 11
10734.25836218516
 21
17600.12443139396
 31
0.0
  0
LINE
  5
19388
102
{ACAD_REACTORS
330
19A86
102
}
330
1F
100
AcDbEntity
  8
02製品
  6
Continuous
370
    15
100
AcDbLine
 10
10734.25836218516
 20
16941.12442954622
 30
0.0
 11
10734.25836218516
 21
17600.12443139396
 31
0.0
  0
LINE
  5
19389
102
{ACAD_REACTORS
330
19A86
102
}
330
1F
100
AcDbEntity
  8
02製品
  6
Continuous
370
    15
100
AcDbLine
 10
10734.25836218516
 20
16941.12442954622
 30
0.0
 11
10694.25836307923
 21
16941.12442954622
 31
0.0
  0
LINE
  5
1938A
102
{ACAD_REACTORS
330
19A86
102
}
330
1F
100
AcDbEntity
  8
02製品
  6
Continuous
370
    15
100
AcDbLine
 10
10694.25836307923
 20
16941.12442954622
 30
0.0
 11
10694.25836307923
 21
17600.12443139396
 31
0.0
  0
LINE
  5
1938B
102
{ACAD_REACTORS
330
19A86
102
}
330
1F
100
AcDbEntity
  8
02製品
  6
Continuous
370
    15
100
AcDbLine
 10
10694.25836307923
 20
16904.12443046636
 30
0.0
 11
10697.2583631053
 21
16901.12443044029
 31
0.0
  0
LINE
  5
1938C
102
{ACAD_REACTORS
330
19A86
102
}
330
1F
100
AcDbEntity
  8
02製品
  6
Continuous
370
    15
100
AcDbLine
 10
10694.25836307923
 20
16941.12442954622
 30
0.0
 11
10694.25836307923
 21
16904.12443046636
 31
0.0
  0
LINE
  5
1938D
102
{ACAD_REACTORS
330
19A86
102
}
330
1F
100
AcDbEntity
  8
02製品
  6
Continuous
370
    15
100
AcDbLine
 10
11604.25838930527
 20
16941.12442954622
 30
0.0
 11
10694.25836307923
 21
16941.12442954622
 31
0.0
  0
LINE
  5
1938E
102
{ACAD_REACTORS
330
19A86
102
}
330
1F
100
AcDbEntity
  8
02製品
  6
Continuous
370
    15
100
AcDbLine
 10
11601.25836832443
 20
16901.12443044029
 30
0.0
 11
11604.25838930527
 21
16904.12443046636
 31
0.0
  0
LINE
  5
1938F
102
{ACAD_REACTORS
330
19A86
102
}
330
1F
100
AcDbEntity
  8
02製品
  6
Continuous
370
    15
100
AcDbLine
 10
11601.25836832443
 20
16901.12443044029
 30
0.0
 11
10697.2583631053
 21
16901.12443044029
 31
0.0
  0
LINE
  5
19390
102
{ACAD_REACTORS
330
19A86
102
}
330
1F
100
AcDbEntity
  8
02製品
  6
Continuous
370
    15
100
AcDbLine
 10
11604.25838930527
 20
16941.12442954622
 30
0.0
 11
11604.25838930527
 21
16904.12443046636
 31
0.0
  0
LINE
  5
19391
102
{ACAD_REACTORS
330
19A86
102
}
330
1F
100
AcDbEntity
  8
02製品
  6
Continuous
370
    15
100
AcDbLine
 10
11604.25838930527
 20
17637.1244318708
 30
0.0
 11
11601.25836832443
 21
17640.12445285163
 31
0.0
  0
LINE
  5
19392
102
{ACAD_REACTORS
330
19A86
102
}
330
1F
100
AcDbEntity
  8
02製品
  6
Continuous
370
    15
100
AcDbLine
 10
11604.25838930527
 20
17600.12443139396
 30
0.0
 11
11604.25838930527
 21
17637.1244318708
 31
0.0
  0
LINE
  5
19393
102
{ACAD_REACTORS
330
19A86
102
}
330
1F
100
AcDbEntity
  8
02製品
  6
Continuous
370
    15
100
AcDbLine
 10
10694.25836307923
 20
17600.12443139396
 30
0.0
 11
11604.25838930527
 21
17600.12443139396
 31
0.0
  0
LINE
  5
19394
102
{ACAD_REACTORS
330
19A86
102
}
330
1F
100
AcDbEntity
  8
02製品
  6
Continuous
370
    15
100
AcDbLine
 10
10694.25836307923
 20
17600.12443139396
 30
0.0
 11
10694.25836307923
 21
17637.1244318708
 31
0.0
  0
LINE
  5
19395
102
{ACAD_REACTORS
330
19A86
102
}
330
1F
100
AcDbEntity
  8
02製品
  6
Continuous
370
    15
100
AcDbLine
 10
10697.2583631053
 20
17640.12445285163
 30
0.0
 11
10694.25836307923
 21
17637.1244318708
 31
0.0
  0
LINE
  5
19396
102
{ACAD_REACTORS
330
19A86
102
}
330
1F
100
AcDbEntity
  8
02製品
  6
Continuous
370
    15
100
AcDbLine
 10
10697.2583631053
 20
17640.12445285163
 30
0.0
 11
11601.25836832443
 21
17640.12445285163
 31
0.0
  0
LINE
  5
19397
102
{ACAD_REACTORS
330
19A86
102
}
330
1F
100
AcDbEntity
  8
02製品
  6
Continuous
370
    15
100
AcDbLine
 10
11564.2583678476
 20
16900.3244304605
 30
0.0
 11
11564.2583678476
 21
16901.12443044029
 31
0.0
  0
LINE
  5
19398
102
{ACAD_REACTORS
330
19A86
102
}
330
1F
100
AcDbEntity
  8
02製品
  6
Continuous
370
    15
100
AcDbLine
 10
11609.2583845369
 20
16903.12443053528
 30
0.0
 11
11609.2583845369
 21
16921.12442999325
 31
0.0
  0
ARC
  5
19399
102
{ACAD_REACTORS
330
19A86
102
}
330
1F
100
AcDbEntity
  8
02製品
  6
Continuous
370
    15
100
AcDbCircle
 10
11605.25836307923
 20
16903.12443044032
 30
0.0
 40
4.000000000000259
100
AcDbArc
 50
292.1998679058156
 51
0.0
  0
LINE
  5
1939A
102
{ACAD_REACTORS
330
19A86
102
}
330
1F
100
AcDbEntity
  8
02製品
  6
Continuous
370
    15
100
AcDbLine
 10
11608.25833780686
 20
16921.12442999325
 30
0.0
 11
11609.2583845369
 21
16921.12442999325
 31
0.0
  0
LINE
  5
1939B
102
{ACAD_REACTORS
330
19A86
102
}
330
1F
100
AcDbEntity
  8
02製品
  6
Continuous
370
    15
100
AcDbLine
 10
11521.25838501373
 20
16900.3244304605
 30
0.0
 11
11521.25838501373
 21
16901.12443044029
 31
0.0
  0
LINE
  5
1939C
102
{ACAD_REACTORS
330
19A86
102
}
330
1F
100
AcDbEntity
  8
02製品
  6
Continuous
370
    15
100
AcDbLine
 10
10734.25836218516
 20
17640.92440678916
 30
0.0
 11
10734.25836218516
 21
17640.12445285163
 31
0.0
  0
LINE
  5
1939D
102
{ACAD_REACTORS
330
19A86
102
}
330
1F
100
AcDbEntity
  8
02製品
  6
Continuous
370
    15
100
AcDbLine
 10
10777.25835992018
 20
17640.92440678916
 30
0.0
 11
10777.25835992018
 21
17640.12445285163
 31
0.0
  0
LINE
  5
1939E
102
{ACAD_REACTORS
330
19A86
102
}
330
1F
100
AcDbEntity
  8
02製品
  6
Continuous
370
    15
100
AcDbLine
 10
10690.25836288924
 20
17620.12441232047
 30
0.0
 11
10689.25836319098
 21
17620.12441232047
 31
0.0
  0
LINE
  5
1939F
102
{ACAD_REACTORS
330
19A86
102
}
330
1F
100
AcDbEntity
  8
02製品
  6
Continuous
370
    15
100
AcDbLine
 10
10689.25836319098
 20
17638.12441899619
 30
0.0
 11
10689.25836319098
 21
17620.12441232047
 31
0.0
  0
ARC
  5
193A0
102
{ACAD_REACTORS
330
19A86
102
}
330
1F
100
AcDbEntity
  8
02製品
  6
Continuous
370
    15
100
AcDbCircle
 10
10693.25836307923
 20
17638.12443044032
 30
0.0
 40
4.000000000000106
100
AcDbArc
 50
112.1998745436842
 51
180.0
  0
LINE
  5
194BF
102
{ACAD_REACTORS
330
19AC5
102
}
330
1F
100
AcDbEntity
  8
02製品
  6
Continuous
370
    15
100
AcDbLine
 10
12916.80191812521
 20
16022.36745997965
 30
0.0
 11
12916.80191812521
 21
15942.36744686663
 31
0.0
  0
LINE
  5
194C0
102
{ACAD_REACTORS
330
19AC5
102
}
330
1F
100
AcDbEntity
  8
02製品
  6
Continuous
370
    15
100
AcDbLine
 10
12934.80192480093
 20
15942.36744686663
 30
0.0
 11
12916.80191812521
 21
15942.36744686663
 31
0.0
  0
LINE
  5
194C1
102
{ACAD_REACTORS
330
19AC5
102
}
330
1F
100
AcDbEntity
  8
02製品
  6
Continuous
370
    15
100
AcDbLine
 10
12934.80192480093
 20
16022.36745997965
 30
0.0
 11
12916.80191812521
 21
16022.36745997965
 31
0.0
  0
LINE
  5
194C2
102
{ACAD_REACTORS
330
19AC5
102
}
330
1F
100
AcDbEntity
  8
02製品
  6
Continuous
370
    15
100
AcDbLine
 10
12938.80193290716
 20
15942.36744686663
 30
0.0
 11
12938.80193290716
 21
16022.36745997965
 31
0.0
  0
LINE
  5
194C3
102
{ACAD_REACTORS
330
19AC5
102
}
330
1F
100
AcDbEntity
  8
02製品
  6
Continuous
370
    15
100
AcDbLine
 10
12934.80192480093
 20
15942.36744686663
 30
0.0
 11
12938.80193290716
 21
15942.36744686663
 31
0.0
  0
LINE
  5
194C4
102
{ACAD_REACTORS
330
19AC5
102
}
330
1F
100
AcDbEntity
  8
02製品
  6
Continuous
370
    15
100
AcDbLine
 10
12938.80193290716
 20
16022.36745997965
 30
0.0
 11
12934.80192480093
 21
16022.36745997965
 31
0.0
  0
LINE
  5
194C5
102
{ACAD_REACTORS
330
19AC5
102
}
330
1F
100
AcDbEntity
  8
02製品
  6
Continuous
370
    15
100
AcDbLine
 10
12938.80193290716
 20
15869.36746284068
 30
0.0
 11
12936.80195865637
 21
15869.36746284068
 31
0.0
  0
LINE
  5
194C6
102
{ACAD_REACTORS
330
19AC5
102
}
330
1F
100
AcDbEntity
  8
02製品
  6
Continuous
370
    15
100
AcDbLine
 10
12936.80195865637
 20
15869.36746284068
 30
0.0
 11
12936.80195865637
 21
15937.367451635
 31
0.0
  0
LINE
  5
194C8
102
{ACAD_REACTORS
330
19AC5
102
}
330
1F
100
AcDbEntity
  8
02製品
  6
Continuous
370
    15
100
AcDbLine
 10
12940.80190715796
 20
15869.36746284068
 30
0.0
 11
12940.80190715796
 21
15954.86192103922
 31
0.0
  0
LINE
  5
194C9
102
{ACAD_REACTORS
330
19AC5
102
}
330
1F
100
AcDbEntity
  8
02製品
  6
Continuous
370
    15
100
AcDbLine
 10
12938.80193290716
 20
15869.36746284068
 30
0.0
 11
12938.80193290716
 21
15942.36744686663
 31
0.0
  0
LINE
  5
194CA
102
{ACAD_REACTORS
330
19AC5
102
}
330
1F
100
AcDbEntity
  8
02製品
  6
Continuous
370
    15
100
AcDbLine
 10
12940.80190715796
 20
15869.36746284068
 30
0.0
 11
12938.80193290716
 21
15869.36746284068
 31
0.0
  0
LINE
  5
194CB
102
{ACAD_REACTORS
330
19AC5
102
}
330
1F
100
AcDbEntity
  8
02製品
  6
Continuous
370
    15
100
AcDbLine
 10
12193.80193605503
 20
15869.36746284068
 30
0.0
 11
12195.80193615003
 21
15869.36746284068
 31
0.0
  0
LINE
  5
194CC
102
{ACAD_REACTORS
330
19AC5
102
}
330
1F
100
AcDbEntity
  8
02製品
  6
Continuous
370
    15
100
AcDbLine
 10
12193.80193605503
 20
15869.36746284068
 30
0.0
 11
12193.80193605503
 21
15954.86192103922
 31
0.0
  0
LINE
  5
194CE
102
{ACAD_REACTORS
330
19AC5
102
}
330
1F
100
AcDbEntity
  8
02製品
  6
Continuous
370
    15
100
AcDbLine
 10
12195.80193615003
 20
15869.36746284068
 30
0.0
 11
12195.80193615003
 21
15942.36744686663
 31
0.0
  0
LINE
  5
194CF
102
{ACAD_REACTORS
330
19AC5
102
}
330
1F
100
AcDbEntity
  8
02製品
  6
Continuous
370
    15
100
AcDbLine
 10
12934.40191802984
 20
16287.3674605757
 30
0.0
 11
12890.80195484167
 21
16287.3674605757
 31
0.0
  0
LINE
  5
194D0
102
{ACAD_REACTORS
330
19AC5
102
}
330
1F
100
AcDbEntity
  8
02製品
  6
Continuous
370
    15
100
AcDbLine
 10
12890.80195484167
 20
16287.3674605757
 30
0.0
 11
12890.80195484167
 21
16437.36745908558
 31
0.0
  0
LINE
  5
194D1
102
{ACAD_REACTORS
330
19AC5
102
}
330
1F
100
AcDbEntity
  8
02製品
  6
Continuous
370
    15
100
AcDbLine
 10
12934.40191802984
 20
16437.36745908558
 30
0.0
 11
12890.80195484167
 21
16437.36745908558
 31
0.0
  0
CIRCLE
  5
194D2
102
{ACAD_REACTORS
330
19AC5
102
}
330
1F
100
AcDbEntity
  8
02製品
  6
Continuous
370
    15
100
AcDbCircle
 10
12911.80193624502
 20
16307.36745997965
 30
0.0
 40
5.0
  0
CIRCLE
  5
194D3
102
{ACAD_REACTORS
330
19AC5
102
}
330
1F
100
AcDbEntity
  8
02製品
  6
Continuous
370
    15
100
AcDbCircle
 10
12911.80193624502
 20
16367.36745997965
 30
0.0
 40
4.999999999999432
  0
ARC
  5
194D4
102
{ACAD_REACTORS
330
19AC5
102
}
330
1F
100
AcDbEntity
  8
02製品
  6
Continuous
370
    15
100
AcDbCircle
 10
12905.80193624504
 20
16417.36745997965
 30
0.0
 40
5.1
100
AcDbArc
 50
78.63512303305144
 51
101.3648769671088
  0
LINE
  5
194D5
102
{ACAD_REACTORS
330
19AC5
102
}
330
1F
100
AcDbEntity
  8
02製品
  6
Continuous
370
    15
100
AcDbLine
 10
12900.80194530493
 20
16422.36746035218
 30
0.0
 11
12904.796946621
 21
16422.36746035218
 31
0.0
  0
ARC
  5
194D6
102
{ACAD_REACTORS
330
19AC5
102
}
330
1F
100
AcDbEntity
  8
02製品
  6
Continuous
370
    15
100
AcDbCircle
 10
12900.80193624504
 20
16417.36745997965
 30
0.0
 40
5.0
100
AcDbArc
 50
90.0
 51
270.0
  0
LINE
  5
194D7
102
{ACAD_REACTORS
330
19AC5
102
}
330
1F
100
AcDbEntity
  8
02製品
  6
Continuous
370
    15
100
AcDbLine
 10
12904.796946621
 20
16412.36745964438
 30
0.0
 11
12900.80194530493
 21
16412.36745964438
 31
0.0
  0
ARC
  5
194D8
102
{ACAD_REACTORS
330
19AC5
102
}
330
1F
100
AcDbEntity
  8
02製品
  6
Continuous
370
    15
100
AcDbCircle
 10
12905.80193624504
 20
16417.36745997965
 30
0.0
 40
5.1
100
AcDbArc
 50
258.6351230328912
 51
281.3648769669485
  0
LINE
  5
194D9
102
{ACAD_REACTORS
330
19AC5
102
}
330
1F
100
AcDbEntity
  8
02製品
  6
Continuous
370
    15
100
AcDbLine
 10
12910.80193576819
 20
16412.36745964438
 30
0.0
 11
12906.80693445212
 21
16412.36745964438
 31
0.0
  0
ARC
  5
194DA
102
{ACAD_REACTORS
330
19AC5
102
}
330
1F
100
AcDbEntity
  8
02製品
  6
Continuous
370
    15
100
AcDbCircle
 10
12910.80193624504
 20
16417.36745997965
 30
0.0
 40
5.0
100
AcDbArc
 50
270.0
 51
90.0
  0
LINE
  5
194DB
102
{ACAD_REACTORS
330
19AC5
102
}
330
1F
100
AcDbEntity
  8
02製品
  6
Continuous
370
    15
100
AcDbLine
 10
12906.80693445212
 20
16422.36746035218
 30
0.0
 11
12910.80193576819
 21
16422.36746035218
 31
0.0
  0
LINE
  5
194DC
102
{ACAD_REACTORS
330
19AC5
102
}
330
1F
100
AcDbEntity
  8
02製品
  6
Continuous
370
    15
100
AcDbLine
 10
12940.80190715796
 20
16287.3674605757
 30
0.0
 11
12940.80190715796
 21
16437.36745908558
 31
0.0
  0
LINE
  5
194DD
102
{ACAD_REACTORS
330
19AC5
102
}
330
1F
100
AcDbEntity
  8
02製品
  6
Continuous
370
    15
100
AcDbLine
 10
12940.80190715796
 20
16287.3674605757
 30
0.0
 11
12934.40191802984
 21
16287.3674605757
 31
0.0
  0
LINE
  5
194DE
102
{ACAD_REACTORS
330
19AC5
102
}
330
1F
100
AcDbEntity
  8
02製品
  6
Continuous
370
    15
100
AcDbLine
 10
12940.80190715796
 20
16437.36745908558
 30
0.0
 11
12934.40191802984
 21
16437.36745908558
 31
0.0
  0
LINE
  5
194DF
102
{ACAD_REACTORS
330
19AC5
102
}
330
1F
100
AcDbEntity
  8
02製品
  6
Continuous
370
    15
100
AcDbLine
 10
12229.80692220336
 20
16412.36745964438
 30
0.0
 11
12233.8019346953
 21
16412.36745964438
 31
0.0
  0
ARC
  5
194E0
102
{ACAD_REACTORS
330
19AC5
102
}
330
1F
100
AcDbEntity
  8
02製品
  6
Continuous
370
    15
100
AcDbCircle
 10
12233.80193624502
 20
16417.36745997965
 30
0.0
 40
5.0
100
AcDbArc
 50
270.0
 51
90.0
  0
LINE
  5
194E1
102
{ACAD_REACTORS
330
19AC5
102
}
330
1F
100
AcDbEntity
  8
02製品
  6
Continuous
370
    15
100
AcDbLine
 10
12233.8019346953
 20
16422.36746035218
 30
0.0
 11
12229.80692220336
 21
16422.36746035218
 31
0.0
  0
LINE
  5
194E2
102
{ACAD_REACTORS
330
19AC5
102
}
330
1F
100
AcDbEntity
  8
02製品
  6
Continuous
370
    15
100
AcDbLine
 10
12227.79694927341
 20
16422.36746035218
 30
0.0
 11
12223.80193678146
 21
16422.36746035218
 31
0.0
  0
CIRCLE
  5
194E3
102
{ACAD_REACTORS
330
19AC5
102
}
330
1F
100
AcDbEntity
  8
02製品
  6
Continuous
370
    15
100
AcDbCircle
 10
12222.80193624502
 20
16307.36745997965
 30
0.0
 40
4.999999999999432
  0
LINE
  5
194E4
102
{ACAD_REACTORS
330
19AC5
102
}
330
1F
100
AcDbEntity
  8
02製品
  6
Continuous
370
    15
100
AcDbLine
 10
12200.20193635902
 20
16287.3674605757
 30
0.0
 11
12243.80193633443
 21
16287.3674605757
 31
0.0
  0
ARC
  5
194E5
102
{ACAD_REACTORS
330
19AC5
102
}
330
1F
100
AcDbEntity
  8
02製品
  6
Continuous
370
    15
100
AcDbCircle
 10
12228.80193624502
 20
16417.36745997965
 30
0.0
 40
5.1
100
AcDbArc
 50
78.63512303289117
 51
101.3648769671088
  0
LINE
  5
194E6
102
{ACAD_REACTORS
330
19AC5
102
}
330
1F
100
AcDbEntity
  8
02製品
  6
Continuous
370
    15
100
AcDbLine
 10
12243.80193633443
 20
16287.3674605757
 30
0.0
 11
12243.80193633443
 21
16437.36745908558
 31
0.0
  0
ARC
  5
194E7
102
{ACAD_REACTORS
330
19AC5
102
}
330
1F
100
AcDbEntity
  8
02製品
  6
Continuous
370
    15
100
AcDbCircle
 10
12223.80193624502
 20
16417.36745997965
 30
0.0
 40
5.0
100
AcDbArc
 50
90.0
 51
270.0
  0
LINE
  5
194E8
102
{ACAD_REACTORS
330
19AC5
102
}
330
1F
100
AcDbEntity
  8
02製品
  6
Continuous
370
    15
100
AcDbLine
 10
12223.80193678146
 20
16412.36745964438
 30
0.0
 11
12227.79694927341
 21
16412.36745964438
 31
0.0
  0
ARC
  5
194E9
102
{ACAD_REACTORS
330
19AC5
102
}
330
1F
100
AcDbEntity
  8
02製品
  6
Continuous
370
    15
100
AcDbCircle
 10
12228.80193624502
 20
16417.36745997965
 30
0.0
 40
5.1
100
AcDbArc
 50
258.6351230328912
 51
281.3648769671088
  0
CIRCLE
  5
194EA
102
{ACAD_REACTORS
330
19AC5
102
}
330
1F
100
AcDbEntity
  8
02製品
  6
Continuous
370
    15
100
AcDbCircle
 10
12222.80193624502
 20
16367.36745997965
 30
0.0
 40
4.999999999999432
  0
LINE
  5
194EB
102
{ACAD_REACTORS
330
19AC5
102
}
330
1F
100
AcDbEntity
  8
02製品
  6
Continuous
370
    15
100
AcDbLine
 10
12200.20193635902
 20
16437.36745908558
 30
0.0
 11
12243.80193633443
 21
16437.36745908558
 31
0.0
  0
LINE
  5
194EC
102
{ACAD_REACTORS
330
19AC5
102
}
330
1F
100
AcDbEntity
  8
02製品
  6
Continuous
370
    15
100
AcDbLine
 10
12193.80193605503
 20
16287.3674605757
 30
0.0
 11
12193.80193605503
 21
16437.36745908558
 31
0.0
  0
LINE
  5
194ED
102
{ACAD_REACTORS
330
19AC5
102
}
330
1F
100
AcDbEntity
  8
02製品
  6
Continuous
370
    15
100
AcDbLine
 10
12193.80193605503
 20
16287.3674605757
 30
0.0
 11
12200.20193635902
 21
16287.3674605757
 31
0.0
  0
LINE
  5
194EE
102
{ACAD_REACTORS
330
19AC5
102
}
330
1F
100
AcDbEntity
  8
02製品
  6
Continuous
370
    15
100
AcDbLine
 10
12193.80193605503
 20
16437.36745908558
 30
0.0
 11
12200.20193635902
 21
16437.36745908558
 31
0.0
  0
LINE
  5
194EF
102
{ACAD_REACTORS
330
19AC5
102
}
330
1F
100
AcDbEntity
  8
02製品
  6
Continuous
370
    15
100
AcDbLine
 10
12933.80193767553
 20
16282.36745789349
 30
0.0
 11
12933.80193767553
 21
16287.3674605757
 31
0.0
  0
LINE
  5
194F0
102
{ACAD_REACTORS
330
19AC5
102
}
330
1F
100
AcDbEntity
  8
02製品
  6
Continuous
370
    15
100
AcDbLine
 10
12936.80195865637
 20
16282.36745789349
 30
0.0
 11
12936.80195865637
 21
16022.36745997965
 31
0.0
  0
LINE
  5
194F1
102
{ACAD_REACTORS
330
19AC5
102
}
330
1F
100
AcDbEntity
  8
02製品
  6
Continuous
370
    15
100
AcDbLine
 10
12936.80195865637
 20
15942.36744686663
 30
0.0
 11
12936.80195865637
 21
15940.36747261584
 31
0.0
  0
LINE
  5
194F2
102
{ACAD_REACTORS
330
19AC5
102
}
330
1F
100
AcDbEntity
  8
02製品
  6
Continuous
370
    15
100
AcDbLine
 10
12896.8019371987
 20
16287.3674605757
 30
0.0
 11
12896.8019371987
 21
15940.36747261584
 31
0.0
  0
LINE
  5
194F3
102
{ACAD_REACTORS
330
19AC5
102
}
330
1F
100
AcDbEntity
  8
02製品
  6
Continuous
370
    15
100
AcDbLine
 10
12936.80195865637
 20
15940.36747261584
 30
0.0
 11
12896.8019371987
 21
15940.36747261584
 31
0.0
  0
LINE
  5
194F4
102
{ACAD_REACTORS
330
19AC5
102
}
330
1F
100
AcDbEntity
  8
02製品
  6
Continuous
370
    15
100
AcDbLine
 10
12936.80195865637
 20
16282.36745789349
 30
0.0
 11
12933.80193767553
 21
16282.36745789349
 31
0.0
  0
LINE
  5
194F5
102
{ACAD_REACTORS
330
19AC5
102
}
330
1F
100
AcDbEntity
  8
02製品
  6
Continuous
370
    15
100
AcDbLine
 10
12936.80195865637
 20
16282.36745789349
 30
0.0
 11
12936.80195865637
 21
16287.3674605757
 31
0.0
  0
LINE
  5
194F6
102
{ACAD_REACTORS
330
19AC5
102
}
330
1F
100
AcDbEntity
  8
02製品
  6
Continuous
370
    15
100
AcDbLine
 10
12197.80193624502
 20
15940.36747261584
 30
0.0
 11
12197.80193624502
 21
15937.367451635
 31
0.0
  0
LINE
  5
194F7
102
{ACAD_REACTORS
330
19AC5
102
}
330
1F
100
AcDbEntity
  8
02製品
  6
Continuous
370
    15
100
AcDbLine
 10
12197.80193624502
 20
15940.36747261584
 30
0.0
 11
12237.80193535095
 21
15940.36747261584
 31
0.0
  0
LINE
  5
194F8
102
{ACAD_REACTORS
330
19AC5
102
}
330
1F
100
AcDbEntity
  8
02製品
  6
Continuous
370
    15
100
AcDbLine
 10
12197.80193624502
 20
15937.367451635
 30
0.0
 11
12237.80193535095
 21
15937.367451635
 31
0.0
  0
LINE
  5
194F9
102
{ACAD_REACTORS
330
19AC5
102
}
330
1F
100
AcDbEntity
  8
02製品
  6
Continuous
370
    15
100
AcDbLine
 10
12237.80193535095
 20
15940.36747261584
 30
0.0
 11
12237.80193535095
 21
15937.367451635
 31
0.0
  0
LINE
  5
194FA
102
{ACAD_REACTORS
330
19AC5
102
}
330
1F
100
AcDbEntity
  8
02製品
  6
Continuous
370
    15
100
AcDbLine
 10
12936.80195865637
 20
15937.367451635
 30
0.0
 11
12936.80195865637
 21
15940.36747261584
 31
0.0
  0
LINE
  5
194FB
102
{ACAD_REACTORS
330
19AC5
102
}
330
1F
100
AcDbEntity
  8
02製品
  6
Continuous
370
    15
100
AcDbLine
 10
12936.80195865637
 20
15937.367451635
 30
0.0
 11
12896.8019371987
 21
15937.367451635
 31
0.0
  0
LINE
  5
194FC
102
{ACAD_REACTORS
330
19AC5
102
}
330
1F
100
AcDbEntity
  8
02製品
  6
Continuous
370
    15
100
AcDbLine
 10
12896.8019371987
 20
15937.367451635
 30
0.0
 11
12896.8019371987
 21
15940.36747261584
 31
0.0
  0
LINE
  5
194FD
102
{ACAD_REACTORS
330
19AC5
102
}
330
1F
100
AcDbEntity
  8
02製品
  6
Continuous
370
    15
100
AcDbLine
 10
12197.80193624502
 20
16282.36745789349
 30
0.0
 11
12197.80193624502
 21
16022.36745997965
 31
0.0
  0
LINE
  5
194FE
102
{ACAD_REACTORS
330
19AC5
102
}
330
1F
100
AcDbEntity
  8
02製品
  6
Continuous
370
    15
100
AcDbLine
 10
12197.80193624502
 20
15942.36744686663
 30
0.0
 11
12197.80193624502
 21
15940.36747261584
 31
0.0
  0
LINE
  5
194FF
102
{ACAD_REACTORS
330
19AC5
102
}
330
1F
100
AcDbEntity
  8
02製品
  6
Continuous
370
    15
100
AcDbLine
 10
12197.80193624502
 20
16282.36745789349
 30
0.0
 11
12200.8019362711
 21
16282.36745789349
 31
0.0
  0
LINE
  5
19500
102
{ACAD_REACTORS
330
19AC5
102
}
330
1F
100
AcDbEntity
  8
02製品
  6
Continuous
370
    15
100
AcDbLine
 10
12200.8019362711
 20
16282.36745789349
 30
0.0
 11
12200.8019362711
 21
16287.3674605757
 31
0.0
  0
LINE
  5
19501
102
{ACAD_REACTORS
330
19AC5
102
}
330
1F
100
AcDbEntity
  8
02製品
  6
Continuous
370
    15
100
AcDbLine
 10
12237.80193535095
 20
16287.3674605757
 30
0.0
 11
12237.80193535095
 21
15940.36747261584
 31
0.0
  0
LINE
  5
19502
102
{ACAD_REACTORS
330
19AC5
102
}
330
1F
100
AcDbEntity
  8
02製品
  6
Continuous
370
    15
100
AcDbLine
 10
12197.80193624502
 20
16282.36745789349
 30
0.0
 11
12197.80193624502
 21
16287.3674605757
 31
0.0
  0
LINE
  5
19503
102
{ACAD_REACTORS
330
19AC5
102
}
330
1F
100
AcDbEntity
  8
02製品
  6
Continuous
370
    15
100
AcDbLine
 10
12890.80195484167
 20
16437.36745908558
 30
0.0
 11
12243.80193633443
 21
16437.36745908558
 31
0.0
  0
CIRCLE
  5
19504
102
{ACAD_REACTORS
330
19AC5
102
}
330
1F
100
AcDbEntity
  8
02製品
  6
Continuous
370
    15
100
AcDbCircle
 10
12227.80193624502
 20
16417.36745997965
 30
0.0
 40
5.0
  0
CIRCLE
  5
19505
102
{ACAD_REACTORS
330
19AC5
102
}
330
1F
100
AcDbEntity
  8
02製品
  6
Continuous
370
    15
100
AcDbCircle
 10
12906.80193624502
 20
16417.36745997965
 30
0.0
 40
5.0
  0
LINE
  5
19506
102
{ACAD_REACTORS
330
19AC5
102
}
330
1F
100
AcDbEntity
  8
02製品
  6
Continuous
370
    15
100
AcDbLine
 10
12890.80195484167
 20
16397.36745997965
 30
0.0
 11
12243.80193633443
 21
16397.36745997965
 31
0.0
  0
LINE
  5
19507
102
{ACAD_REACTORS
330
19AC5
102
}
330
1F
100
AcDbEntity
  8
02製品
  6
Continuous
370
    15
100
AcDbLine
 10
12217.80193579799
 20
16022.36745997965
 30
0.0
 11
12217.80193579799
 21
15942.36744686663
 31
0.0
  0
LINE
  5
19508
102
{ACAD_REACTORS
330
19AC5
102
}
330
1F
100
AcDbEntity
  8
02製品
  6
Continuous
370
    15
100
AcDbLine
 10
12199.80193634002
 20
15942.36744686663
 30
0.0
 11
12217.80193579799
 21
15942.36744686663
 31
0.0
  0
LINE
  5
19509
102
{ACAD_REACTORS
330
19AC5
102
}
330
1F
100
AcDbEntity
  8
02製品
  6
Continuous
370
    15
100
AcDbLine
 10
12199.80193634002
 20
16022.36745997965
 30
0.0
 11
12217.80193579799
 21
16022.36745997965
 31
0.0
  0
LINE
  5
1950A
102
{ACAD_REACTORS
330
19AC5
102
}
330
1F
100
AcDbEntity
  8
02製品
  6
Continuous
370
    15
100
AcDbLine
 10
12195.80193615003
 20
15942.36744686663
 30
0.0
 11
12195.80193615003
 21
16022.36745997965
 31
0.0
  0
LINE
  5
1950B
102
{ACAD_REACTORS
330
19AC5
102
}
330
1F
100
AcDbEntity
  8
02製品
  6
Continuous
370
    15
100
AcDbLine
 10
12199.80193634002
 20
15942.36744686663
 30
0.0
 11
12195.80193615003
 21
15942.36744686663
 31
0.0
  0
LINE
  5
1950C
102
{ACAD_REACTORS
330
19AC5
102
}
330
1F
100
AcDbEntity
  8
02製品
  6
Continuous
370
    15
100
AcDbLine
 10
12195.80193615003
 20
16022.36745997965
 30
0.0
 11
12199.80193634002
 21
16022.36745997965
 31
0.0
  0
LINE
  5
1950D
102
{ACAD_REACTORS
330
19AC5
102
}
330
1F
100
AcDbEntity
  8
02製品
  6
Continuous
370
    15
100
AcDbLine
 10
12195.80193615003
 20
15869.36746284068
 30
0.0
 11
12197.80193624502
 21
15869.36746284068
 31
0.0
  0
LINE
  5
1950E
102
{ACAD_REACTORS
330
19AC5
102
}
330
1F
100
AcDbEntity
  8
02製品
  6
Continuous
370
    15
100
AcDbLine
 10
12197.80193624502
 20
15869.36746284068
 30
0.0
 11
12197.80193624502
 21
15937.367451635
 31
0.0
  0
LINE
  5
195A2
102
{ACAD_REACTORS
330
19AC5
102
}
330
1F
100
AcDbEntity
  8
02製品
  6
CENTERX2
 48
0.1
370
     0
100
AcDbLine
 10
12193.80193624502
 20
15879.36745997965
 30
0.0
 11
12195.80193624504
 21
15879.36745997965
 31
0.0
  0
LINE
  5
195B7
102
{ACAD_REACTORS
330
19AC5
102
}
330
1F
100
AcDbEntity
  8
02製品
  6
CENTERX2
 48
0.1
370
     0
100
AcDbLine
 10
12195.80193624504
 20
15880.36745997965
 30
0.0
 11
12193.80193624502
 21
15880.36745997965
 31
0.0
  0
LINE
  5
1962E
102
{ACAD_REACTORS
330
19A86
102
}
330
1F
100
AcDbEntity
  8
02製品
  6
Continuous
100
AcDbLine
 10
11247.94982676576
 20
17283.84380355325
 30
0.0
 11
11118.76175271453
 21
17339.85342151466
 31
0.0
  0
LINE
  5
1962F
102
{ACAD_REACTORS
330
19A86
102
}
330
1F
100
AcDbEntity
  8
02製品
  6
Continuous
100
AcDbLine
 10
11222.35532760972
 20
17272.09701487711
 30
0.0
 11
11093.16725355848
 21
17328.10663283852
 31
0.0
  0
LINE
  5
19630
102
{ACAD_REACTORS
330
19A86
102
}
330
1F
100
AcDbEntity
  8
02製品
  6
Continuous
100
AcDbLine
 10
11170.1938666808
 20
17340.39828659851
 30
0.0
 11
11042.22137090063
 21
17281.66434321784
 31
0.0
  0
LINE
  5
19631
102
{ACAD_REACTORS
330
19A86
102
}
330
1F
100
AcDbEntity
  8
02製品
  6
Continuous
100
AcDbLine
 10
11196.03148149105
 20
17329.19636300623
 30
0.0
 11
11068.05898571088
 21
17270.46241962555
 31
0.0
  0
LINE
  5
19632
102
{ACAD_REACTORS
330
19A86
102
}
330
1F
100
AcDbEntity
  8
02製品
  6
Continuous
100
AcDbLine
 10
11221.86909630129
 20
17317.99443941395
 30
0.0
 11
11093.89660052112
 21
17259.26049603327
 31
0.0
  0
LINE
  5
19633
102
{ACAD_REACTORS
330
19A86
102
}
330
1F
100
AcDbEntity
  8
02製品
  6
Continuous
100
AcDbLine
 10
11247.70671111154
 20
17306.79251582166
 30
0.0
 11
11119.73421533138
 21
17248.05857244099
 31
0.0
  0
LINE
  5
19634
102
{ACAD_REACTORS
330
19A86
102
}
330
1F
100
AcDbEntity
  8
02製品
  6
Continuous
100
AcDbLine
 10
11196.76082845368
 20
17260.35022620097
 30
0.0
 11
11067.57275440245
 21
17316.35984416239
 31
0.0
  0
LINE
  5
19635
102
{ACAD_REACTORS
330
19A86
102
}
330
1F
100
AcDbEntity
  8
02製品
  6
Continuous
100
AcDbLine
 10
11171.16632929765
 20
17248.60343752484
 30
0.0
 11
11041.97825524642
 21
17304.61305548625
 31
0.0
  0
LINE
  5
19636
102
{ACAD_REACTORS
330
19A86
102
}
330
1F
100
AcDbEntity
  8
02製品
100
AcDbLine
 10
10734.25836307923
 20
17491.32443042952
 30
0.0
 11
10734.25836307923
 21
17600.1244304403
 31
0.0
  0
LINE
  5
19637
102
{ACAD_REACTORS
330
19A86
102
}
330
1F
100
AcDbEntity
  8
02製品
  6
Continuous
100
AcDbLine
 10
10734.25836307923
 20
17513.08443042994
 30
0.0
 11
10758.64236307874
 21
17502.2044304306
 31
0.0
  0
LINE
  5
19639
102
{ACAD_REACTORS
330
19A86
102
}
330
1F
100
AcDbEntity
  8
02製品
  6
Continuous
100
AcDbLine
 10
10929.33036307441
 20
17600.12443043815
 30
0.0
 11
10953.71436307488
 21
17589.24443043923
 31
0.0
  0
LINE
  5
1963A
102
{ACAD_REACTORS
330
19A86
102
}
330
1F
100
AcDbEntity
  8
02製品
  6
Continuous
100
AcDbLine
 10
10734.25836307923
 20
17578.36443043124
 30
0.0
 11
10831.79436308212
 21
17534.84443044461
 31
0.0
  0
LINE
  5
1963B
102
{ACAD_REACTORS
330
19A86
102
}
330
1F
100
AcDbEntity
  8
02製品
  6
Continuous
100
AcDbLine
 10
10734.25836307923
 20
17578.36443043124
 30
0.0
 11
10783.02636308889
 21
17600.12443043814
 31
0.0
  0
LINE
  5
1963C
102
{ACAD_REACTORS
330
19A86
102
}
330
1F
100
AcDbEntity
  8
02製品
  6
Continuous
100
AcDbLine
 10
10734.25836307923
 20
17556.6044304308
 30
0.0
 11
10831.79436307443
 21
17600.12443043384
 31
0.0
  0
LINE
  5
1963E
102
{ACAD_REACTORS
330
19A86
102
}
330
1F
100
AcDbEntity
  8
02製品
  6
Continuous
100
AcDbLine
 10
10831.79436307443
 20
17600.12443043384
 30
0.0
 11
10904.94636307584
 21
17567.48443043708
 31
0.0
  0
LINE
  5
1963F
102
{ACAD_REACTORS
330
19A86
102
}
330
1F
100
AcDbEntity
  8
02製品
  6
Continuous
100
AcDbLine
 10
10880.56236307441
 20
17600.12443043599
 30
0.0
 11
10929.33036307537
 21
17578.36443043815
 31
0.0
  0
LINE
  5
19640
102
{ACAD_REACTORS
330
19A86
102
}
330
1F
100
AcDbEntity
  8
02製品
  6
Continuous
100
AcDbLine
 10
10734.25836307923
 20
17600.1244304403
 30
0.0
 11
10856.17836308261
 21
17545.7244304457
 31
0.0
  0
LINE
  5
19641
102
{ACAD_REACTORS
330
19A86
102
}
330
1F
100
AcDbEntity
  8
02製品
  6
Continuous
100
AcDbLine
 10
10734.25836307923
 20
17534.84443043038
 30
0.0
 11
10880.56236307441
 21
17600.12443043599
 31
0.0
  0
LINE
  5
19642
102
{ACAD_REACTORS
330
19A86
102
}
330
1F
100
AcDbEntity
  8
02製品
  6
Continuous
100
AcDbLine
 10
10783.02636308889
 20
17600.12443043814
 30
0.0
 11
10880.56236308115
 21
17556.60443044677
 31
0.0
  0
LINE
  5
19644
102
{ACAD_REACTORS
330
19A86
102
}
330
1F
100
AcDbEntity
  8
02製品
  6
Continuous
100
AcDbLine
 10
10734.25836307923
 20
17556.6044304308
 30
0.0
 11
10807.41036307778
 21
17523.96443043275
 31
0.0
  0
LINE
  5
19645
102
{ACAD_REACTORS
330
19A86
102
}
330
1F
100
AcDbEntity
  8
02製品
  6
Continuous
100
AcDbLine
 10
10734.25836307923
 20
17534.84443043038
 30
0.0
 11
10783.02636307826
 21
17513.08443043167
 31
0.0
  0
LINE
  5
19646
102
{ACAD_REACTORS
330
19A86
102
}
330
1F
100
AcDbEntity
  8
02製品
  6
Continuous
100
AcDbLine
 10
10734.25836307923
 20
17513.08443042994
 30
0.0
 11
10929.33036307441
 21
17600.12443043815
 31
0.0
  0
LINE
  5
19647
102
{ACAD_REACTORS
330
19A86
102
}
330
1F
100
AcDbEntity
  8
02製品
100
AcDbLine
 10
10734.25836307923
 20
17600.1244304403
 30
0.0
 11
10978.09836307441
 21
17600.1244304403
 31
0.0
  0
LINE
  5
1964B
102
{ACAD_REACTORS
330
19A86
102
}
330
1F
100
AcDbEntity
  8
02製品
100
AcDbLine
 10
10734.25836307923
 20
17534.84443043038
 30
0.0
 11
10734.30599030575
 21
17534.45388694788
 31
0.0
  0
LINE
  5
1964D
102
{ACAD_REACTORS
330
19A86
102
}
330
1F
100
AcDbEntity
  8
02製品
100
AcDbLine
 10
10734.25836307923
 20
17534.84443043038
 30
0.0
 11
10733.79754448019
 21
17534.96233277344
 31
0.0
  0
LINE
  5
1965B
102
{ACAD_REACTORS
330
19A86
102
}
330
1F
100
AcDbEntity
  8
02製品
  6
Continuous
100
AcDbLine
 10
11564.25836308019
 20
17028.16443045106
 30
0.0
 11
11515.49036307923
 21
17049.9244304489
 31
0.0
  0
LINE
  5
1965C
102
{ACAD_REACTORS
330
19A86
102
}
330
1F
100
AcDbEntity
  8
02製品
  6
Continuous
100
AcDbLine
 10
11564.25836307923
 20
17049.92443045106
 30
0.0
 11
11539.87436307875
 21
17060.80443044998
 31
0.0
  0
LINE
  5
1965D
102
{ACAD_REACTORS
330
19A86
102
}
330
1F
100
AcDbEntity
  8
02製品
  6
Continuous
100
AcDbLine
 10
11369.18636308405
 20
16941.12443044243
 30
0.0
 11
11320.41836308309
 21
16962.88443044027
 31
0.0
  0
LINE
  5
1965E
102
{ACAD_REACTORS
330
19A86
102
}
330
1F
100
AcDbEntity
  8
02製品
  6
Continuous
100
AcDbLine
 10
11564.25836308308
 20
16962.88443045105
 30
0.0
 11
11442.33836308067
 21
17017.28443044567
 31
0.0
  0
LINE
  5
1965F
102
{ACAD_REACTORS
330
19A86
102
}
330
1F
100
AcDbEntity
  8
02製品
  6
Continuous
100
AcDbLine
 10
11564.25836308211
 20
16984.64443045107
 30
0.0
 11
11466.72236308403
 21
16941.12443044675
 31
0.0
  0
LINE
  5
19660
102
{ACAD_REACTORS
330
19A86
102
}
330
1F
100
AcDbEntity
  8
02製品
  6
Continuous
100
AcDbLine
 10
11564.25836308114
 20
17006.40443045106
 30
0.0
 11
11417.95436308404
 21
16941.12443044459
 31
0.0
  0
LINE
  5
19661
102
{ACAD_REACTORS
330
19A86
102
}
330
1F
100
AcDbEntity
  8
02製品
  6
Continuous
100
AcDbLine
 10
11564.25836308308
 20
16962.88443045105
 30
0.0
 11
11515.49036308404
 21
16941.1244304489
 31
0.0
  0
LINE
  5
19662
102
{ACAD_REACTORS
330
19A86
102
}
330
1F
100
AcDbEntity
  8
02製品
  6
Continuous
100
AcDbLine
 10
11466.72236308403
 20
16941.12443044675
 30
0.0
 11
11369.18636308212
 21
16984.64443044244
 31
0.0
  0
LINE
  5
19663
102
{ACAD_REACTORS
330
19A86
102
}
330
1F
100
AcDbEntity
  8
02製品
  6
Continuous
100
AcDbLine
 10
11417.95436308404
 20
16941.12443044459
 30
0.0
 11
11344.8023630826
 21
16973.76443044135
 31
0.0
  0
LINE
  5
19664
102
{ACAD_REACTORS
330
19A86
102
}
330
1F
100
AcDbEntity
  8
02製品
  6
Continuous
100
AcDbLine
 10
11564.25836307923
 20
16941.12443044028
 30
0.0
 11
11417.95436307633
 21
17006.4044304338
 31
0.0
  0
LINE
  5
19665
102
{ACAD_REACTORS
330
19A86
102
}
330
1F
100
AcDbEntity
  8
02製品
  6
Continuous
100
AcDbLine
 10
11564.25836308019
 20
17028.16443045106
 30
0.0
 11
11369.18636308405
 21
16941.12443044243
 31
0.0
  0
LINE
  5
19666
102
{ACAD_REACTORS
330
19A86
102
}
330
1F
100
AcDbEntity
  8
02製品
  6
Continuous
100
AcDbLine
 10
11515.49036308404
 20
16941.1244304489
 30
0.0
 11
11393.57036308164
 21
16995.52443044351
 31
0.0
  0
LINE
  5
19667
102
{ACAD_REACTORS
330
19A86
102
}
330
1F
100
AcDbEntity
  8
02製品
  6
Continuous
100
AcDbLine
 10
11320.41836308405
 20
16941.12443044028
 30
0.0
 11
11296.03436308356
 21
16952.0044304392
 31
0.0
  0
LINE
  5
19668
102
{ACAD_REACTORS
330
19A86
102
}
330
1F
100
AcDbEntity
  8
02製品
  6
Continuous
100
AcDbLine
 10
11564.25836308211
 20
16984.64443045107
 30
0.0
 11
11466.72236308019
 21
17028.16443044676
 31
0.0
  0
LINE
  5
19669
102
{ACAD_REACTORS
330
19A86
102
}
330
1F
100
AcDbEntity
  8
02製品
  6
Continuous
100
AcDbLine
 10
11564.25836308114
 20
17006.40443045106
 30
0.0
 11
11491.1063630797
 21
17039.04443044784
 31
0.0
  0
LINE
  5
1966A
102
{ACAD_REACTORS
330
19A86
102
}
330
1F
100
AcDbEntity
  8
02製品
  6
Continuous
100
AcDbLine
 10
11564.25836307923
 20
17049.92443045106
 30
0.0
 11
11320.41836308405
 21
16941.12443044028
 31
0.0
  0
LINE
  5
1966B
102
{ACAD_REACTORS
330
19A86
102
}
330
1F
100
AcDbEntity
  8
02製品
  6
Continuous
100
AcDbLine
 10
11320.41836308405
 20
16941.12443044028
 30
0.0
 11
11564.25836307923
 21
16941.12443044028
 31
0.0
  0
LINE
  5
1966C
102
{ACAD_REACTORS
330
19A86
102
}
330
1F
100
AcDbEntity
  8
02製品
  6
Continuous
100
AcDbLine
 10
11564.25836307923
 20
16941.12443044028
 30
0.0
 11
11564.25836307923
 21
17049.92443045106
 31
0.0
  0
LINE
  5
19677
102
{ACAD_REACTORS
330
19A87
102
}
330
1F
100
AcDbEntity
  8
02製品
100
AcDbLine
 10
11576.72495976944
 20
16303.05679092835
 30
0.0
 11
11576.72495976944
 21
16303.05679092835
 31
0.0
  0
LINE
  5
1967C
102
{ACAD_REACTORS
330
19A87
102
}
330
1F
100
AcDbEntity
  8
02製品
100
AcDbLine
 10
11564.67600257212
 20
15873.24557990097
 30
0.0
 11
11564.67600257212
 21
15873.24557990097
 31
0.0
  0
LINE
  5
19681
102
{ACAD_REACTORS
330
19A87
102
}
330
1F
100
AcDbEntity
  8
02製品
100
AcDbLine
 10
10765.87443115563
 20
15902.8048697698
 30
0.0
 11
10765.87443115563
 21
15902.8048697698
 31
0.0
  0
LINE
  5
196C1
102
{ACAD_REACTORS
330
19A87
102
}
330
1F
100
AcDbEntity
  8
02製品
100
AcDbLine
 10
10724.25836307923
 20
16417.36745997965
 30
0.0
 11
10724.25836307923
 21
16419.86745997965
 31
0.0
  0
LINE
  5
196C2
102
{ACAD_REACTORS
330
19A87
102
}
330
1F
100
AcDbEntity
  8
02製品
100
AcDbLine
 10
10724.25836307923
 20
16417.36745997965
 30
0.0
 11
10721.75836307923
 21
16417.36745997965
 31
0.0
  0
LINE
  5
196C3
102
{ACAD_REACTORS
330
19A87
102
}
330
1F
100
AcDbEntity
  8
02製品
100
AcDbLine
 10
10724.25836307923
 20
16417.36745997965
 30
0.0
 11
10724.25836307923
 21
16414.86745997965
 31
0.0
  0
LINE
  5
196C4
102
{ACAD_REACTORS
330
19A87
102
}
330
1F
100
AcDbEntity
  8
02製品
100
AcDbLine
 10
10724.25836307923
 20
16417.36745997965
 30
0.0
 11
10726.75836307923
 21
16417.36745997965
 31
0.0
  0
LINE
  5
196C5
102
{ACAD_REACTORS
330
19A87
102
}
330
1F
100
AcDbEntity
  8
02製品
100
AcDbLine
 10
10724.25836307923
 20
16422.36745997965
 30
0.0
 11
10724.25836307923
 21
16424.86745997965
 31
0.0
  0
LINE
  5
196C6
102
{ACAD_REACTORS
330
19A87
102
}
330
1F
100
AcDbEntity
  8
02製品
100
AcDbLine
 10
10719.25836307923
 20
16417.36745997965
 30
0.0
 11
10716.75836307923
 21
16417.36745997965
 31
0.0
  0
LINE
  5
196C7
102
{ACAD_REACTORS
330
19A87
102
}
330
1F
100
AcDbEntity
  8
02製品
100
AcDbLine
 10
10724.25836307923
 20
16412.36745997965
 30
0.0
 11
10724.25836307923
 21
16409.86745997965
 31
0.0
  0
LINE
  5
196C8
102
{ACAD_REACTORS
330
19A87
102
}
330
1F
100
AcDbEntity
  8
02製品
100
AcDbLine
 10
10729.25836307923
 20
16417.36745997965
 30
0.0
 11
10731.75836307923
 21
16417.36745997965
 31
0.0
  0
LINE
  5
196C9
102
{ACAD_REACTORS
330
19A87
102
}
330
1F
100
AcDbEntity
  8
02製品
100
AcDbLine
 10
10819.25836307923
 20
16417.36745997965
 30
0.0
 11
10819.25836307923
 21
16419.86745997965
 31
0.0
  0
LINE
  5
196CA
102
{ACAD_REACTORS
330
19A87
102
}
330
1F
100
AcDbEntity
  8
02製品
100
AcDbLine
 10
10819.25836307923
 20
16417.36745997965
 30
0.0
 11
10816.75836307923
 21
16417.36745997965
 31
0.0
  0
LINE
  5
196CB
102
{ACAD_REACTORS
330
19A87
102
}
330
1F
100
AcDbEntity
  8
02製品
100
AcDbLine
 10
10819.25836307923
 20
16417.36745997965
 30
0.0
 11
10819.25836307923
 21
16414.86745997965
 31
0.0
  0
LINE
  5
196CC
102
{ACAD_REACTORS
330
19A87
102
}
330
1F
100
AcDbEntity
  8
02製品
100
AcDbLine
 10
10819.25836307923
 20
16417.36745997965
 30
0.0
 11
10821.75836307923
 21
16417.36745997965
 31
0.0
  0
LINE
  5
196CD
102
{ACAD_REACTORS
330
19A87
102
}
330
1F
100
AcDbEntity
  8
02製品
100
AcDbLine
 10
10819.25836307923
 20
16422.36745997965
 30
0.0
 11
10819.25836307923
 21
16424.86745997965
 31
0.0
  0
LINE
  5
196CE
102
{ACAD_REACTORS
330
19A87
102
}
330
1F
100
AcDbEntity
  8
02製品
100
AcDbLine
 10
10814.25836307923
 20
16417.36745997965
 30
0.0
 11
10811.75836307923
 21
16417.36745997965
 31
0.0
  0
LINE
  5
196CF
102
{ACAD_REACTORS
330
19A87
102
}
330
1F
100
AcDbEntity
  8
02製品
100
AcDbLine
 10
10819.25836307923
 20
16412.36745997965
 30
0.0
 11
10819.25836307923
 21
16409.86745997965
 31
0.0
  0
LINE
  5
196D0
102
{ACAD_REACTORS
330
19A87
102
}
330
1F
100
AcDbEntity
  8
02製品
100
AcDbLine
 10
10824.25836307923
 20
16417.36745997965
 30
0.0
 11
10826.75836307923
 21
16417.36745997965
 31
0.0
  0
LINE
  5
196D1
102
{ACAD_REACTORS
330
19A87
102
}
330
1F
100
AcDbEntity
  8
02製品
100
AcDbLine
 10
10719.25836307923
 20
16367.36745997965
 30
0.0
 11
10719.25836307923
 21
16369.86745997965
 31
0.0
  0
LINE
  5
196D2
102
{ACAD_REACTORS
330
19A87
102
}
330
1F
100
AcDbEntity
  8
02製品
100
AcDbLine
 10
10719.25836307923
 20
16367.36745997965
 30
0.0
 11
10716.75836307923
 21
16367.36745997965
 31
0.0
  0
LINE
  5
196D3
102
{ACAD_REACTORS
330
19A87
102
}
330
1F
100
AcDbEntity
  8
02製品
100
AcDbLine
 10
10719.25836307923
 20
16367.36745997965
 30
0.0
 11
10719.25836307923
 21
16364.86745997965
 31
0.0
  0
LINE
  5
196D4
102
{ACAD_REACTORS
330
19A87
102
}
330
1F
100
AcDbEntity
  8
02製品
100
AcDbLine
 10
10719.25836307923
 20
16367.36745997965
 30
0.0
 11
10721.75836307923
 21
16367.36745997965
 31
0.0
  0
LINE
  5
196D5
102
{ACAD_REACTORS
330
19A87
102
}
330
1F
100
AcDbEntity
  8
02製品
100
AcDbLine
 10
10719.25836307923
 20
16372.36745997965
 30
0.0
 11
10719.25836307923
 21
16374.86745997965
 31
0.0
  0
LINE
  5
196D6
102
{ACAD_REACTORS
330
19A87
102
}
330
1F
100
AcDbEntity
  8
02製品
100
AcDbLine
 10
10714.25836307923
 20
16367.36745997965
 30
0.0
 11
10711.75836307923
 21
16367.36745997965
 31
0.0
  0
LINE
  5
196D7
102
{ACAD_REACTORS
330
19A87
102
}
330
1F
100
AcDbEntity
  8
02製品
100
AcDbLine
 10
10719.25836307923
 20
16362.36745997965
 30
0.0
 11
10719.25836307923
 21
16359.86745997965
 31
0.0
  0
LINE
  5
196D8
102
{ACAD_REACTORS
330
19A87
102
}
330
1F
100
AcDbEntity
  8
02製品
100
AcDbLine
 10
10724.25836307923
 20
16367.36745997965
 30
0.0
 11
10726.75836307923
 21
16367.36745997965
 31
0.0
  0
LINE
  5
196D9
102
{ACAD_REACTORS
330
19A87
102
}
330
1F
100
AcDbEntity
  8
02製品
100
AcDbLine
 10
10719.25836307923
 20
16307.36745997965
 30
0.0
 11
10719.25836307923
 21
16309.86745997965
 31
0.0
  0
LINE
  5
196DA
102
{ACAD_REACTORS
330
19A87
102
}
330
1F
100
AcDbEntity
  8
02製品
100
AcDbLine
 10
10719.25836307923
 20
16307.36745997965
 30
0.0
 11
10716.75836307923
 21
16307.36745997965
 31
0.0
  0
LINE
  5
196DB
102
{ACAD_REACTORS
330
19A87
102
}
330
1F
100
AcDbEntity
  8
02製品
100
AcDbLine
 10
10719.25836307923
 20
16307.36745997965
 30
0.0
 11
10719.25836307923
 21
16304.86745997965
 31
0.0
  0
LINE
  5
196DC
102
{ACAD_REACTORS
330
19A87
102
}
330
1F
100
AcDbEntity
  8
02製品
100
AcDbLine
 10
10719.25836307923
 20
16307.36745997965
 30
0.0
 11
10721.75836307923
 21
16307.36745997965
 31
0.0
  0
LINE
  5
196DD
102
{ACAD_REACTORS
330
19A87
102
}
330
1F
100
AcDbEntity
  8
02製品
100
AcDbLine
 10
10719.25836307923
 20
16312.36745997965
 30
0.0
 11
10719.25836307923
 21
16314.86745997965
 31
0.0
  0
LINE
  5
196DE
102
{ACAD_REACTORS
330
19A87
102
}
330
1F
100
AcDbEntity
  8
02製品
100
AcDbLine
 10
10714.25836307923
 20
16307.36745997965
 30
0.0
 11
10711.75836307923
 21
16307.36745997965
 31
0.0
  0
LINE
  5
196DF
102
{ACAD_REACTORS
330
19A87
102
}
330
1F
100
AcDbEntity
  8
02製品
100
AcDbLine
 10
10719.25836307923
 20
16302.36745997965
 30
0.0
 11
10719.25836307923
 21
16299.86745997965
 31
0.0
  0
LINE
  5
196E0
102
{ACAD_REACTORS
330
19A87
102
}
330
1F
100
AcDbEntity
  8
02製品
100
AcDbLine
 10
10724.25836307923
 20
16307.36745997965
 30
0.0
 11
10726.75836307923
 21
16307.36745997965
 31
0.0
  0
LINE
  5
196E1
102
{ACAD_REACTORS
330
19A87
102
}
330
1F
100
AcDbEntity
  8
02製品
100
AcDbLine
 10
10714.25836307923
 20
15962.36745997965
 30
0.0
 11
10714.25836307923
 21
15964.86745997965
 31
0.0
  0
LINE
  5
196E2
102
{ACAD_REACTORS
330
19A87
102
}
330
1F
100
AcDbEntity
  8
02製品
100
AcDbLine
 10
10714.25836307923
 20
15962.36745997965
 30
0.0
 11
10711.75836307923
 21
15962.36745997965
 31
0.0
  0
LINE
  5
196E3
102
{ACAD_REACTORS
330
19A87
102
}
330
1F
100
AcDbEntity
  8
02製品
100
AcDbLine
 10
10714.25836307923
 20
15962.36745997965
 30
0.0
 11
10714.25836307923
 21
15959.86745997965
 31
0.0
  0
LINE
  5
196E4
102
{ACAD_REACTORS
330
19A87
102
}
330
1F
100
AcDbEntity
  8
02製品
100
AcDbLine
 10
10714.25836307923
 20
15962.36745997965
 30
0.0
 11
10716.75836307923
 21
15962.36745997965
 31
0.0
  0
LINE
  5
196E5
102
{ACAD_REACTORS
330
19A87
102
}
330
1F
100
AcDbEntity
  8
02製品
100
AcDbLine
 10
10714.25836307923
 20
15967.36745997965
 30
0.0
 11
10714.25836307923
 21
15969.86745997965
 31
0.0
  0
LINE
  5
196E6
102
{ACAD_REACTORS
330
19A87
102
}
330
1F
100
AcDbEntity
  8
02製品
100
AcDbLine
 10
10709.25836307923
 20
15962.36745997965
 30
0.0
 11
10706.75836307923
 21
15962.36745997965
 31
0.0
  0
LINE
  5
196E7
102
{ACAD_REACTORS
330
19A87
102
}
330
1F
100
AcDbEntity
  8
02製品
100
AcDbLine
 10
10714.25836307923
 20
15957.36745997965
 30
0.0
 11
10714.25836307923
 21
15954.86745997965
 31
0.0
  0
LINE
  5
196E8
102
{ACAD_REACTORS
330
19A87
102
}
330
1F
100
AcDbEntity
  8
02製品
100
AcDbLine
 10
10719.25836307923
 20
15962.36745997965
 30
0.0
 11
10721.75836307923
 21
15962.36745997965
 31
0.0
  0
LINE
  5
196E9
102
{ACAD_REACTORS
330
19A87
102
}
330
1F
100
AcDbEntity
  8
02製品
100
AcDbLine
 10
10714.25836307923
 20
16002.36745997965
 30
0.0
 11
10714.25836307923
 21
16004.86745997965
 31
0.0
  0
LINE
  5
196EA
102
{ACAD_REACTORS
330
19A87
102
}
330
1F
100
AcDbEntity
  8
02製品
100
AcDbLine
 10
10714.25836307923
 20
16002.36745997965
 30
0.0
 11
10711.75836307923
 21
16002.36745997965
 31
0.0
  0
LINE
  5
196EB
102
{ACAD_REACTORS
330
19A87
102
}
330
1F
100
AcDbEntity
  8
02製品
100
AcDbLine
 10
10714.25836307923
 20
16002.36745997965
 30
0.0
 11
10714.25836307923
 21
15999.86745997965
 31
0.0
  0
LINE
  5
196EC
102
{ACAD_REACTORS
330
19A87
102
}
330
1F
100
AcDbEntity
  8
02製品
100
AcDbLine
 10
10714.25836307923
 20
16002.36745997965
 30
0.0
 11
10716.75836307923
 21
16002.36745997965
 31
0.0
  0
LINE
  5
196ED
102
{ACAD_REACTORS
330
19A87
102
}
330
1F
100
AcDbEntity
  8
02製品
100
AcDbLine
 10
10714.25836307923
 20
16007.36745997965
 30
0.0
 11
10714.25836307923
 21
16009.86745997965
 31
0.0
  0
LINE
  5
196EE
102
{ACAD_REACTORS
330
19A87
102
}
330
1F
100
AcDbEntity
  8
02製品
100
AcDbLine
 10
10709.25836307923
 20
16002.36745997965
 30
0.0
 11
10706.75836307923
 21
16002.36745997965
 31
0.0
  0
LINE
  5
196EF
102
{ACAD_REACTORS
330
19A87
102
}
330
1F
100
AcDbEntity
  8
02製品
100
AcDbLine
 10
10714.25836307923
 20
15997.36745997965
 30
0.0
 11
10714.25836307923
 21
15994.86745997965
 31
0.0
  0
LINE
  5
196F0
102
{ACAD_REACTORS
330
19A87
102
}
330
1F
100
AcDbEntity
  8
02製品
100
AcDbLine
 10
10719.25836307923
 20
16002.36745997965
 30
0.0
 11
10721.75836307923
 21
16002.36745997965
 31
0.0
  0
LINE
  5
196F1
102
{ACAD_REACTORS
330
19A87
102
}
330
1F
100
AcDbEntity
  8
02製品
100
AcDbLine
 10
11584.25836307923
 20
16002.36745997965
 30
0.0
 11
11584.25836307923
 21
16004.86745997965
 31
0.0
  0
LINE
  5
196F2
102
{ACAD_REACTORS
330
19A87
102
}
330
1F
100
AcDbEntity
  8
02製品
100
AcDbLine
 10
11584.25836307923
 20
16002.36745997965
 30
0.0
 11
11581.75836307923
 21
16002.36745997965
 31
0.0
  0
LINE
  5
196F3
102
{ACAD_REACTORS
330
19A87
102
}
330
1F
100
AcDbEntity
  8
02製品
100
AcDbLine
 10
11584.25836307923
 20
16002.36745997965
 30
0.0
 11
11584.25836307923
 21
15999.86745997965
 31
0.0
  0
LINE
  5
196F4
102
{ACAD_REACTORS
330
19A87
102
}
330
1F
100
AcDbEntity
  8
02製品
100
AcDbLine
 10
11584.25836307923
 20
16002.36745997965
 30
0.0
 11
11586.75836307923
 21
16002.36745997965
 31
0.0
  0
LINE
  5
196F5
102
{ACAD_REACTORS
330
19A87
102
}
330
1F
100
AcDbEntity
  8
02製品
100
AcDbLine
 10
11584.25836307923
 20
16007.36745997965
 30
0.0
 11
11584.25836307923
 21
16009.86745997965
 31
0.0
  0
LINE
  5
196F6
102
{ACAD_REACTORS
330
19A87
102
}
330
1F
100
AcDbEntity
  8
02製品
100
AcDbLine
 10
11579.25836307923
 20
16002.36745997965
 30
0.0
 11
11576.75836307923
 21
16002.36745997965
 31
0.0
  0
LINE
  5
196F7
102
{ACAD_REACTORS
330
19A87
102
}
330
1F
100
AcDbEntity
  8
02製品
100
AcDbLine
 10
11584.25836307923
 20
15997.36745997965
 30
0.0
 11
11584.25836307923
 21
15994.86745997965
 31
0.0
  0
LINE
  5
196F8
102
{ACAD_REACTORS
330
19A87
102
}
330
1F
100
AcDbEntity
  8
02製品
100
AcDbLine
 10
11589.25836307923
 20
16002.36745997965
 30
0.0
 11
11591.75836307923
 21
16002.36745997965
 31
0.0
  0
LINE
  5
196F9
102
{ACAD_REACTORS
330
19A87
102
}
330
1F
100
AcDbEntity
  8
02製品
100
AcDbLine
 10
11584.25836307923
 20
15962.36745997965
 30
0.0
 11
11584.25836307923
 21
15964.86745997965
 31
0.0
  0
LINE
  5
196FA
102
{ACAD_REACTORS
330
19A87
102
}
330
1F
100
AcDbEntity
  8
02製品
100
AcDbLine
 10
11584.25836307923
 20
15962.36745997965
 30
0.0
 11
11581.75836307923
 21
15962.36745997965
 31
0.0
  0
LINE
  5
196FB
102
{ACAD_REACTORS
330
19A87
102
}
330
1F
100
AcDbEntity
  8
02製品
100
AcDbLine
 10
11584.25836307923
 20
15962.36745997965
 30
0.0
 11
11584.25836307923
 21
15959.86745997965
 31
0.0
  0
LINE
  5
196FC
102
{ACAD_REACTORS
330
19A87
102
}
330
1F
100
AcDbEntity
  8
02製品
100
AcDbLine
 10
11584.25836307923
 20
15962.36745997965
 30
0.0
 11
11586.75836307923
 21
15962.36745997965
 31
0.0
  0
LINE
  5
196FD
102
{ACAD_REACTORS
330
19A87
102
}
330
1F
100
AcDbEntity
  8
02製品
100
AcDbLine
 10
11584.25836307923
 20
15967.36745997965
 30
0.0
 11
11584.25836307923
 21
15969.86745997965
 31
0.0
  0
LINE
  5
196FE
102
{ACAD_REACTORS
330
19A87
102
}
330
1F
100
AcDbEntity
  8
02製品
100
AcDbLine
 10
11579.25836307923
 20
15962.36745997965
 30
0.0
 11
11576.75836307923
 21
15962.36745997965
 31
0.0
  0
LINE
  5
196FF
102
{ACAD_REACTORS
330
19A87
102
}
330
1F
100
AcDbEntity
  8
02製品
100
AcDbLine
 10
11584.25836307923
 20
15957.36745997965
 30
0.0
 11
11584.25836307923
 21
15954.86745997965
 31
0.0
  0
LINE
  5
19700
102
{ACAD_REACTORS
330
19A87
102
}
330
1F
100
AcDbEntity
  8
02製品
100
AcDbLine
 10
11589.25836307923
 20
15962.36745997965
 30
0.0
 11
11591.75836307923
 21
15962.36745997965
 31
0.0
  0
LINE
  5
19701
102
{ACAD_REACTORS
330
19A87
102
}
330
1F
100
AcDbEntity
  8
02製品
100
AcDbLine
 10
11579.25836307923
 20
16307.36745997965
 30
0.0
 11
11579.25836307923
 21
16309.86745997965
 31
0.0
  0
LINE
  5
19702
102
{ACAD_REACTORS
330
19A87
102
}
330
1F
100
AcDbEntity
  8
02製品
100
AcDbLine
 10
11579.25836307923
 20
16307.36745997965
 30
0.0
 11
11576.75836307923
 21
16307.36745997965
 31
0.0
  0
LINE
  5
19703
102
{ACAD_REACTORS
330
19A87
102
}
330
1F
100
AcDbEntity
  8
02製品
100
AcDbLine
 10
11579.25836307923
 20
16307.36745997965
 30
0.0
 11
11579.25836307923
 21
16304.86745997965
 31
0.0
  0
LINE
  5
19704
102
{ACAD_REACTORS
330
19A87
102
}
330
1F
100
AcDbEntity
  8
02製品
100
AcDbLine
 10
11579.25836307923
 20
16307.36745997965
 30
0.0
 11
11581.75836307923
 21
16307.36745997965
 31
0.0
  0
LINE
  5
19705
102
{ACAD_REACTORS
330
19A87
102
}
330
1F
100
AcDbEntity
  8
02製品
100
AcDbLine
 10
11579.25836307923
 20
16312.36745997965
 30
0.0
 11
11579.25836307923
 21
16314.86745997965
 31
0.0
  0
LINE
  5
19706
102
{ACAD_REACTORS
330
19A87
102
}
330
1F
100
AcDbEntity
  8
02製品
100
AcDbLine
 10
11574.25836307923
 20
16307.36745997965
 30
0.0
 11
11571.75836307923
 21
16307.36745997965
 31
0.0
  0
LINE
  5
19707
102
{ACAD_REACTORS
330
19A87
102
}
330
1F
100
AcDbEntity
  8
02製品
100
AcDbLine
 10
11579.25836307923
 20
16302.36745997965
 30
0.0
 11
11579.25836307923
 21
16299.86745997965
 31
0.0
  0
LINE
  5
19708
102
{ACAD_REACTORS
330
19A87
102
}
330
1F
100
AcDbEntity
  8
02製品
100
AcDbLine
 10
11584.25836307923
 20
16307.36745997965
 30
0.0
 11
11586.75836307923
 21
16307.36745997965
 31
0.0
  0
LINE
  5
19709
102
{ACAD_REACTORS
330
19A87
102
}
330
1F
100
AcDbEntity
  8
02製品
100
AcDbLine
 10
11579.25836307923
 20
16367.36745997965
 30
0.0
 11
11579.25836307923
 21
16369.86745997965
 31
0.0
  0
LINE
  5
1970A
102
{ACAD_REACTORS
330
19A87
102
}
330
1F
100
AcDbEntity
  8
02製品
100
AcDbLine
 10
11579.25836307923
 20
16367.36745997965
 30
0.0
 11
11576.75836307923
 21
16367.36745997965
 31
0.0
  0
LINE
  5
1970B
102
{ACAD_REACTORS
330
19A87
102
}
330
1F
100
AcDbEntity
  8
02製品
100
AcDbLine
 10
11579.25836307923
 20
16367.36745997965
 30
0.0
 11
11579.25836307923
 21
16364.86745997965
 31
0.0
  0
LINE
  5
1970C
102
{ACAD_REACTORS
330
19A87
102
}
330
1F
100
AcDbEntity
  8
02製品
100
AcDbLine
 10
11579.25836307923
 20
16367.36745997965
 30
0.0
 11
11581.75836307923
 21
16367.36745997965
 31
0.0
  0
LINE
  5
1970D
102
{ACAD_REACTORS
330
19A87
102
}
330
1F
100
AcDbEntity
  8
02製品
100
AcDbLine
 10
11579.25836307923
 20
16372.36745997965
 30
0.0
 11
11579.25836307923
 21
16374.86745997965
 31
0.0
  0
LINE
  5
1970E
102
{ACAD_REACTORS
330
19A87
102
}
330
1F
100
AcDbEntity
  8
02製品
100
AcDbLine
 10
11574.25836307923
 20
16367.36745997965
 30
0.0
 11
11571.75836307923
 21
16367.36745997965
 31
0.0
  0
LINE
  5
1970F
102
{ACAD_REACTORS
330
19A87
102
}
330
1F
100
AcDbEntity
  8
02製品
100
AcDbLine
 10
11579.25836307923
 20
16362.36745997965
 30
0.0
 11
11579.25836307923
 21
16359.86745997965
 31
0.0
  0
LINE
  5
19710
102
{ACAD_REACTORS
330
19A87
102
}
330
1F
100
AcDbEntity
  8
02製品
100
AcDbLine
 10
11584.25836307923
 20
16367.36745997965
 30
0.0
 11
11586.75836307923
 21
16367.36745997965
 31
0.0
  0
LINE
  5
19711
102
{ACAD_REACTORS
330
19A87
102
}
330
1F
100
AcDbEntity
  8
02製品
100
AcDbLine
 10
11574.25836307923
 20
16417.36745997965
 30
0.0
 11
11574.25836307923
 21
16419.86745997965
 31
0.0
  0
LINE
  5
19712
102
{ACAD_REACTORS
330
19A87
102
}
330
1F
100
AcDbEntity
  8
02製品
100
AcDbLine
 10
11574.25836307923
 20
16417.36745997965
 30
0.0
 11
11571.75836307923
 21
16417.36745997965
 31
0.0
  0
LINE
  5
19713
102
{ACAD_REACTORS
330
19A87
102
}
330
1F
100
AcDbEntity
  8
02製品
100
AcDbLine
 10
11574.25836307923
 20
16417.36745997965
 30
0.0
 11
11574.25836307923
 21
16414.86745997965
 31
0.0
  0
LINE
  5
19714
102
{ACAD_REACTORS
330
19A87
102
}
330
1F
100
AcDbEntity
  8
02製品
100
AcDbLine
 10
11574.25836307923
 20
16417.36745997965
 30
0.0
 11
11576.75836307923
 21
16417.36745997965
 31
0.0
  0
LINE
  5
19715
102
{ACAD_REACTORS
330
19A87
102
}
330
1F
100
AcDbEntity
  8
02製品
100
AcDbLine
 10
11574.25836307923
 20
16422.36745997965
 30
0.0
 11
11574.25836307923
 21
16424.86745997965
 31
0.0
  0
LINE
  5
19716
102
{ACAD_REACTORS
330
19A87
102
}
330
1F
100
AcDbEntity
  8
02製品
100
AcDbLine
 10
11569.25836307923
 20
16417.36745997965
 30
0.0
 11
11566.75836307923
 21
16417.36745997965
 31
0.0
  0
LINE
  5
19717
102
{ACAD_REACTORS
330
19A87
102
}
330
1F
100
AcDbEntity
  8
02製品
100
AcDbLine
 10
11574.25836307923
 20
16412.36745997965
 30
0.0
 11
11574.25836307923
 21
16409.86745997965
 31
0.0
  0
LINE
  5
19718
102
{ACAD_REACTORS
330
19A87
102
}
330
1F
100
AcDbEntity
  8
02製品
100
AcDbLine
 10
11579.25836307923
 20
16417.36745997965
 30
0.0
 11
11581.75836307923
 21
16417.36745997965
 31
0.0
  0
LINE
  5
19719
102
{ACAD_REACTORS
330
19A87
102
}
330
1F
100
AcDbEntity
  8
02製品
100
AcDbLine
 10
11479.25836307923
 20
16417.36745997965
 30
0.0
 11
11479.25836307923
 21
16419.86745997965
 31
0.0
  0
LINE
  5
1971A
102
{ACAD_REACTORS
330
19A87
102
}
330
1F
100
AcDbEntity
  8
02製品
100
AcDbLine
 10
11479.25836307923
 20
16417.36745997965
 30
0.0
 11
11476.75836307923
 21
16417.36745997965
 31
0.0
  0
LINE
  5
1971B
102
{ACAD_REACTORS
330
19A87
102
}
330
1F
100
AcDbEntity
  8
02製品
100
AcDbLine
 10
11479.25836307923
 20
16417.36745997965
 30
0.0
 11
11479.25836307923
 21
16414.86745997965
 31
0.0
  0
LINE
  5
1971C
102
{ACAD_REACTORS
330
19A87
102
}
330
1F
100
AcDbEntity
  8
02製品
100
AcDbLine
 10
11479.25836307923
 20
16417.36745997965
 30
0.0
 11
11481.75836307923
 21
16417.36745997965
 31
0.0
  0
LINE
  5
1971D
102
{ACAD_REACTORS
330
19A87
102
}
330
1F
100
AcDbEntity
  8
02製品
100
AcDbLine
 10
11479.25836307923
 20
16422.36745997965
 30
0.0
 11
11479.25836307923
 21
16424.86745997965
 31
0.0
  0
LINE
  5
1971E
102
{ACAD_REACTORS
330
19A87
102
}
330
1F
100
AcDbEntity
  8
02製品
100
AcDbLine
 10
11474.25836307923
 20
16417.36745997965
 30
0.0
 11
11471.75836307923
 21
16417.36745997965
 31
0.0
  0
LINE
  5
1971F
102
{ACAD_REACTORS
330
19A87
102
}
330
1F
100
AcDbEntity
  8
02製品
100
AcDbLine
 10
11479.25836307923
 20
16412.36745997965
 30
0.0
 11
11479.25836307923
 21
16409.86745997965
 31
0.0
  0
LINE
  5
19720
102
{ACAD_REACTORS
330
19A87
102
}
330
1F
100
AcDbEntity
  8
02製品
100
AcDbLine
 10
11484.25836307923
 20
16417.36745997965
 30
0.0
 11
11486.75836307923
 21
16417.36745997965
 31
0.0
  0
LINE
  5
19721
102
{ACAD_REACTORS
330
19A87
102
}
330
1F
100
AcDbEntity
  8
02製品
100
AcDbLine
 10
11566.25836307923
 20
15911.36745997965
 30
0.0
 11
11566.25836307923
 21
15913.86745997965
 31
0.0
  0
LINE
  5
19722
102
{ACAD_REACTORS
330
19A87
102
}
330
1F
100
AcDbEntity
  8
02製品
100
AcDbLine
 10
11566.25836307923
 20
15911.36745997965
 30
0.0
 11
11563.75836307923
 21
15911.36745997965
 31
0.0
  0
LINE
  5
19723
102
{ACAD_REACTORS
330
19A87
102
}
330
1F
100
AcDbEntity
  8
02製品
100
AcDbLine
 10
11566.25836307923
 20
15911.36745997965
 30
0.0
 11
11566.25836307923
 21
15908.86745997965
 31
0.0
  0
LINE
  5
19724
102
{ACAD_REACTORS
330
19A87
102
}
330
1F
100
AcDbEntity
  8
02製品
100
AcDbLine
 10
11566.25836307923
 20
15911.36745997965
 30
0.0
 11
11568.75836307923
 21
15911.36745997965
 31
0.0
  0
LINE
  5
19725
102
{ACAD_REACTORS
330
19A87
102
}
330
1F
100
AcDbEntity
  8
02製品
100
AcDbLine
 10
11566.25836307923
 20
15916.36745997965
 30
0.0
 11
11566.25836307923
 21
15917.36745997965
 31
0.0
  0
LINE
  5
19726
102
{ACAD_REACTORS
330
19A87
102
}
330
1F
100
AcDbEntity
  8
02製品
100
AcDbLine
 10
11561.25836307923
 20
15911.36745997965
 30
0.0
 11
11560.25836307923
 21
15911.36745997965
 31
0.0
  0
LINE
  5
19727
102
{ACAD_REACTORS
330
19A87
102
}
330
1F
100
AcDbEntity
  8
02製品
100
AcDbLine
 10
11566.25836307923
 20
15906.36745997965
 30
0.0
 11
11566.25836307923
 21
15905.36745997965
 31
0.0
  0
LINE
  5
19728
102
{ACAD_REACTORS
330
19A87
102
}
330
1F
100
AcDbEntity
  8
02製品
100
AcDbLine
 10
11571.25836307923
 20
15911.36745997965
 30
0.0
 11
11572.25836307923
 21
15911.36745997965
 31
0.0
  0
LINE
  5
19729
102
{ACAD_REACTORS
330
19A87
102
}
330
1F
100
AcDbEntity
  8
02製品
100
AcDbLine
 10
11530.25836307923
 20
15905.36745997965
 30
0.0
 11
11530.25836307923
 21
15907.86745997965
 31
0.0
  0
LINE
  5
1972A
102
{ACAD_REACTORS
330
19A87
102
}
330
1F
100
AcDbEntity
  8
02製品
100
AcDbLine
 10
11530.25836307923
 20
15905.36745997965
 30
0.0
 11
11527.75836307923
 21
15905.36745997965
 31
0.0
  0
LINE
  5
1972B
102
{ACAD_REACTORS
330
19A87
102
}
330
1F
100
AcDbEntity
  8
02製品
100
AcDbLine
 10
11530.25836307923
 20
15905.36745997965
 30
0.0
 11
11530.25836307923
 21
15902.86745997965
 31
0.0
  0
LINE
  5
1972C
102
{ACAD_REACTORS
330
19A87
102
}
330
1F
100
AcDbEntity
  8
02製品
100
AcDbLine
 10
11530.25836307923
 20
15905.36745997965
 30
0.0
 11
11532.75836307923
 21
15905.36745997965
 31
0.0
  0
LINE
  5
1972D
102
{ACAD_REACTORS
330
19A87
102
}
330
1F
100
AcDbEntity
  8
02製品
100
AcDbLine
 10
11530.25836307923
 20
15910.36745997965
 30
0.0
 11
11530.25836307923
 21
15911.36745997965
 31
0.0
  0
LINE
  5
1972E
102
{ACAD_REACTORS
330
19A87
102
}
330
1F
100
AcDbEntity
  8
02製品
100
AcDbLine
 10
11525.25836307923
 20
15905.36745997965
 30
0.0
 11
11524.25836307923
 21
15905.36745997965
 31
0.0
  0
LINE
  5
1972F
102
{ACAD_REACTORS
330
19A87
102
}
330
1F
100
AcDbEntity
  8
02製品
100
AcDbLine
 10
11530.25836307923
 20
15900.36745997965
 30
0.0
 11
11530.25836307923
 21
15899.36745997965
 31
0.0
  0
LINE
  5
19730
102
{ACAD_REACTORS
330
19A87
102
}
330
1F
100
AcDbEntity
  8
02製品
100
AcDbLine
 10
11535.25836307923
 20
15905.36745997965
 30
0.0
 11
11536.25836307923
 21
15905.36745997965
 31
0.0
  0
LINE
  5
19731
102
{ACAD_REACTORS
330
19A87
102
}
330
1F
100
AcDbEntity
  8
02製品
100
AcDbLine
 10
11566.25836307923
 20
15876.36745997965
 30
0.0
 11
11566.25836307923
 21
15878.86745997965
 31
0.0
  0
LINE
  5
19732
102
{ACAD_REACTORS
330
19A87
102
}
330
1F
100
AcDbEntity
  8
02製品
100
AcDbLine
 10
11566.25836307923
 20
15876.36745997965
 30
0.0
 11
11563.75836307923
 21
15876.36745997965
 31
0.0
  0
LINE
  5
19733
102
{ACAD_REACTORS
330
19A87
102
}
330
1F
100
AcDbEntity
  8
02製品
100
AcDbLine
 10
11566.25836307923
 20
15876.36745997965
 30
0.0
 11
11566.25836307923
 21
15873.86745997965
 31
0.0
  0
LINE
  5
19734
102
{ACAD_REACTORS
330
19A87
102
}
330
1F
100
AcDbEntity
  8
02製品
100
AcDbLine
 10
11566.25836307923
 20
15876.36745997965
 30
0.0
 11
11568.75836307923
 21
15876.36745997965
 31
0.0
  0
LINE
  5
19735
102
{ACAD_REACTORS
330
19A87
102
}
330
1F
100
AcDbEntity
  8
02製品
100
AcDbLine
 10
11566.25836307923
 20
15881.36745997965
 30
0.0
 11
11566.25836307923
 21
15882.36745997965
 31
0.0
  0
LINE
  5
19736
102
{ACAD_REACTORS
330
19A87
102
}
330
1F
100
AcDbEntity
  8
02製品
100
AcDbLine
 10
11561.25836307923
 20
15876.36745997965
 30
0.0
 11
11560.25836307923
 21
15876.36745997965
 31
0.0
  0
LINE
  5
19737
102
{ACAD_REACTORS
330
19A87
102
}
330
1F
100
AcDbEntity
  8
02製品
100
AcDbLine
 10
11566.25836307923
 20
15871.36745997965
 30
0.0
 11
11566.25836307923
 21
15870.36745997965
 31
0.0
  0
LINE
  5
19738
102
{ACAD_REACTORS
330
19A87
102
}
330
1F
100
AcDbEntity
  8
02製品
100
AcDbLine
 10
11571.25836307923
 20
15876.36745997965
 30
0.0
 11
11572.25836307923
 21
15876.36745997965
 31
0.0
  0
LINE
  5
19739
102
{ACAD_REACTORS
330
19A87
102
}
330
1F
100
AcDbEntity
  8
02製品
100
AcDbLine
 10
10732.25836307923
 20
15876.36745997965
 30
0.0
 11
10732.25836307923
 21
15878.86745997965
 31
0.0
  0
LINE
  5
1973A
102
{ACAD_REACTORS
330
19A87
102
}
330
1F
100
AcDbEntity
  8
02製品
100
AcDbLine
 10
10732.25836307923
 20
15876.36745997965
 30
0.0
 11
10729.75836307923
 21
15876.36745997965
 31
0.0
  0
LINE
  5
1973B
102
{ACAD_REACTORS
330
19A87
102
}
330
1F
100
AcDbEntity
  8
02製品
100
AcDbLine
 10
10732.25836307923
 20
15876.36745997965
 30
0.0
 11
10732.25836307923
 21
15873.86745997965
 31
0.0
  0
LINE
  5
1973C
102
{ACAD_REACTORS
330
19A87
102
}
330
1F
100
AcDbEntity
  8
02製品
100
AcDbLine
 10
10732.25836307923
 20
15876.36745997965
 30
0.0
 11
10734.75836307923
 21
15876.36745997965
 31
0.0
  0
LINE
  5
1973D
102
{ACAD_REACTORS
330
19A87
102
}
330
1F
100
AcDbEntity
  8
02製品
100
AcDbLine
 10
10732.25836307923
 20
15881.36745997965
 30
0.0
 11
10732.25836307923
 21
15882.36745997965
 31
0.0
  0
LINE
  5
1973E
102
{ACAD_REACTORS
330
19A87
102
}
330
1F
100
AcDbEntity
  8
02製品
100
AcDbLine
 10
10727.25836307923
 20
15876.36745997965
 30
0.0
 11
10726.25836307923
 21
15876.36745997965
 31
0.0
  0
LINE
  5
1973F
102
{ACAD_REACTORS
330
19A87
102
}
330
1F
100
AcDbEntity
  8
02製品
100
AcDbLine
 10
10732.25836307923
 20
15871.36745997965
 30
0.0
 11
10732.25836307923
 21
15870.36745997965
 31
0.0
  0
LINE
  5
19740
102
{ACAD_REACTORS
330
19A87
102
}
330
1F
100
AcDbEntity
  8
02製品
100
AcDbLine
 10
10737.25836307923
 20
15876.36745997965
 30
0.0
 11
10738.25836307923
 21
15876.36745997965
 31
0.0
  0
LINE
  5
19741
102
{ACAD_REACTORS
330
19A87
102
}
330
1F
100
AcDbEntity
  8
02製品
100
AcDbLine
 10
10732.25836307923
 20
15911.36745997965
 30
0.0
 11
10732.25836307923
 21
15913.86745997965
 31
0.0
  0
LINE
  5
19742
102
{ACAD_REACTORS
330
19A87
102
}
330
1F
100
AcDbEntity
  8
02製品
100
AcDbLine
 10
10732.25836307923
 20
15911.36745997965
 30
0.0
 11
10729.75836307923
 21
15911.36745997965
 31
0.0
  0
LINE
  5
19743
102
{ACAD_REACTORS
330
19A87
102
}
330
1F
100
AcDbEntity
  8
02製品
100
AcDbLine
 10
10732.25836307923
 20
15911.36745997965
 30
0.0
 11
10732.25836307923
 21
15908.86745997965
 31
0.0
  0
LINE
  5
19744
102
{ACAD_REACTORS
330
19A87
102
}
330
1F
100
AcDbEntity
  8
02製品
100
AcDbLine
 10
10732.25836307923
 20
15911.36745997965
 30
0.0
 11
10734.75836307923
 21
15911.36745997965
 31
0.0
  0
LINE
  5
19745
102
{ACAD_REACTORS
330
19A87
102
}
330
1F
100
AcDbEntity
  8
02製品
100
AcDbLine
 10
10732.25836307923
 20
15916.36745997965
 30
0.0
 11
10732.25836307923
 21
15917.36745997965
 31
0.0
  0
LINE
  5
19746
102
{ACAD_REACTORS
330
19A87
102
}
330
1F
100
AcDbEntity
  8
02製品
100
AcDbLine
 10
10727.25836307923
 20
15911.36745997965
 30
0.0
 11
10726.25836307923
 21
15911.36745997965
 31
0.0
  0
LINE
  5
19747
102
{ACAD_REACTORS
330
19A87
102
}
330
1F
100
AcDbEntity
  8
02製品
100
AcDbLine
 10
10732.25836307923
 20
15906.36745997965
 30
0.0
 11
10732.25836307923
 21
15905.36745997965
 31
0.0
  0
LINE
  5
19748
102
{ACAD_REACTORS
330
19A87
102
}
330
1F
100
AcDbEntity
  8
02製品
100
AcDbLine
 10
10737.25836307923
 20
15911.36745997965
 30
0.0
 11
10738.25836307923
 21
15911.36745997965
 31
0.0
  0
LINE
  5
19749
102
{ACAD_REACTORS
330
19A87
102
}
330
1F
100
AcDbEntity
  8
02製品
100
AcDbLine
 10
10768.25836307923
 20
15905.36745997965
 30
0.0
 11
10768.25836307923
 21
15907.86745997965
 31
0.0
  0
LINE
  5
1974A
102
{ACAD_REACTORS
330
19A87
102
}
330
1F
100
AcDbEntity
  8
02製品
100
AcDbLine
 10
10768.25836307923
 20
15905.36745997965
 30
0.0
 11
10765.75836307923
 21
15905.36745997965
 31
0.0
  0
LINE
  5
1974B
102
{ACAD_REACTORS
330
19A87
102
}
330
1F
100
AcDbEntity
  8
02製品
100
AcDbLine
 10
10768.25836307923
 20
15905.36745997965
 30
0.0
 11
10768.25836307923
 21
15902.86745997965
 31
0.0
  0
LINE
  5
1974C
102
{ACAD_REACTORS
330
19A87
102
}
330
1F
100
AcDbEntity
  8
02製品
100
AcDbLine
 10
10768.25836307923
 20
15905.36745997965
 30
0.0
 11
10770.75836307923
 21
15905.36745997965
 31
0.0
  0
LINE
  5
1974D
102
{ACAD_REACTORS
330
19A87
102
}
330
1F
100
AcDbEntity
  8
02製品
100
AcDbLine
 10
10768.25836307923
 20
15910.36745997965
 30
0.0
 11
10768.25836307923
 21
15911.36745997965
 31
0.0
  0
LINE
  5
1974E
102
{ACAD_REACTORS
330
19A87
102
}
330
1F
100
AcDbEntity
  8
02製品
100
AcDbLine
 10
10763.25836307923
 20
15905.36745997965
 30
0.0
 11
10762.25836307923
 21
15905.36745997965
 31
0.0
  0
LINE
  5
1974F
102
{ACAD_REACTORS
330
19A87
102
}
330
1F
100
AcDbEntity
  8
02製品
100
AcDbLine
 10
10768.25836307923
 20
15900.36745997965
 30
0.0
 11
10768.25836307923
 21
15899.36745997965
 31
0.0
  0
LINE
  5
19750
102
{ACAD_REACTORS
330
19A87
102
}
330
1F
100
AcDbEntity
  8
02製品
100
AcDbLine
 10
10773.25836307923
 20
15905.36745997965
 30
0.0
 11
10774.25836307923
 21
15905.36745997965
 31
0.0
  0
LINE
  5
19751
102
{ACAD_REACTORS
330
19A87
102
}
330
1F
100
AcDbEntity
  8
02製品
100
AcDbLine
 10
10732.25836307923
 20
15911.36745997965
 30
0.0
 11
10734.75836307923
 21
15911.36745997965
 31
0.0
  0
LINE
  5
19752
102
{ACAD_REACTORS
330
19A87
102
}
330
1F
100
AcDbEntity
  8
02製品
100
AcDbLine
 10
10732.25836307923
 20
15911.36745997965
 30
0.0
 11
10732.25836307923
 21
15913.86745997965
 31
0.0
  0
LINE
  5
19753
102
{ACAD_REACTORS
330
19A87
102
}
330
1F
100
AcDbEntity
  8
02製品
100
AcDbLine
 10
10732.25836307923
 20
15911.36745997965
 30
0.0
 11
10729.75836307923
 21
15911.36745997965
 31
0.0
  0
LINE
  5
19754
102
{ACAD_REACTORS
330
19A87
102
}
330
1F
100
AcDbEntity
  8
02製品
100
AcDbLine
 10
10732.25836307923
 20
15911.36745997965
 30
0.0
 11
10732.25836307923
 21
15908.86745997965
 31
0.0
  0
LINE
  5
19755
102
{ACAD_REACTORS
330
19A87
102
}
330
1F
100
AcDbEntity
  8
02製品
100
AcDbLine
 10
10732.25836307923
 20
15916.36745997965
 30
0.0
 11
10732.25836307923
 21
15917.36745997965
 31
0.0
  0
LINE
  5
19756
102
{ACAD_REACTORS
330
19A87
102
}
330
1F
100
AcDbEntity
  8
02製品
100
AcDbLine
 10
10727.25836307923
 20
15911.36745997965
 30
0.0
 11
10726.25836307923
 21
15911.36745997965
 31
0.0
  0
LINE
  5
19757
102
{ACAD_REACTORS
330
19A87
102
}
330
1F
100
AcDbEntity
  8
02製品
100
AcDbLine
 10
10732.25836307923
 20
15876.36745997965
 30
0.0
 11
10734.75836307923
 21
15876.36745997965
 31
0.0
  0
LINE
  5
19758
102
{ACAD_REACTORS
330
19A87
102
}
330
1F
100
AcDbEntity
  8
02製品
100
AcDbLine
 10
10732.25836307923
 20
15876.36745997965
 30
0.0
 11
10732.25836307923
 21
15878.86745997965
 31
0.0
  0
LINE
  5
19759
102
{ACAD_REACTORS
330
19A87
102
}
330
1F
100
AcDbEntity
  8
02製品
100
AcDbLine
 10
10732.25836307923
 20
15876.36745997965
 30
0.0
 11
10729.75836307923
 21
15876.36745997965
 31
0.0
  0
LINE
  5
1975A
102
{ACAD_REACTORS
330
19A87
102
}
330
1F
100
AcDbEntity
  8
02製品
100
AcDbLine
 10
10732.25836307923
 20
15876.36745997965
 30
0.0
 11
10732.25836307923
 21
15873.86745997965
 31
0.0
  0
LINE
  5
1975B
102
{ACAD_REACTORS
330
19A87
102
}
330
1F
100
AcDbEntity
  8
02製品
100
AcDbLine
 10
10727.25836307923
 20
15876.36745997965
 30
0.0
 11
10726.25836307923
 21
15876.36745997965
 31
0.0
  0
LINE
  5
1975C
102
{ACAD_REACTORS
330
19A87
102
}
330
1F
100
AcDbEntity
  8
02製品
100
AcDbLine
 10
10732.25836307923
 20
15871.36745997965
 30
0.0
 11
10732.25836307923
 21
15870.36745997965
 31
0.0
  0
LINE
  5
1975D
102
{ACAD_REACTORS
330
19A87
102
}
330
1F
100
AcDbEntity
  8
02製品
100
AcDbLine
 10
11566.25836307923
 20
15911.36745997965
 30
0.0
 11
11568.75836307923
 21
15911.36745997965
 31
0.0
  0
LINE
  5
1975E
102
{ACAD_REACTORS
330
19A87
102
}
330
1F
100
AcDbEntity
  8
02製品
100
AcDbLine
 10
11566.25836307923
 20
15911.36745997965
 30
0.0
 11
11566.25836307923
 21
15913.86745997965
 31
0.0
  0
LINE
  5
1975F
102
{ACAD_REACTORS
330
19A87
102
}
330
1F
100
AcDbEntity
  8
02製品
100
AcDbLine
 10
11566.25836307923
 20
15911.36745997965
 30
0.0
 11
11563.75836307923
 21
15911.36745997965
 31
0.0
  0
LINE
  5
19760
102
{ACAD_REACTORS
330
19A87
102
}
330
1F
100
AcDbEntity
  8
02製品
100
AcDbLine
 10
11566.25836307923
 20
15911.36745997965
 30
0.0
 11
11566.25836307923
 21
15908.86745997965
 31
0.0
  0
LINE
  5
19761
102
{ACAD_REACTORS
330
19A87
102
}
330
1F
100
AcDbEntity
  8
02製品
100
AcDbLine
 10
11571.25836307923
 20
15911.36745997965
 30
0.0
 11
11572.25836307923
 21
15911.36745997965
 31
0.0
  0
LINE
  5
19762
102
{ACAD_REACTORS
330
19A87
102
}
330
1F
100
AcDbEntity
  8
02製品
100
AcDbLine
 10
11566.25836307922
 20
15916.36745997965
 30
0.0
 11
11566.25836307922
 21
15917.36745997965
 31
0.0
  0
LINE
  5
19763
102
{ACAD_REACTORS
330
19A87
102
}
330
1F
100
AcDbEntity
  8
02製品
100
AcDbLine
 10
11566.25836307923
 20
15876.36745997965
 30
0.0
 11
11568.75836307923
 21
15876.36745997965
 31
0.0
  0
LINE
  5
19764
102
{ACAD_REACTORS
330
19A87
102
}
330
1F
100
AcDbEntity
  8
02製品
100
AcDbLine
 10
11566.25836307923
 20
15876.36745997965
 30
0.0
 11
11566.25836307923
 21
15878.86745997965
 31
0.0
  0
LINE
  5
19765
102
{ACAD_REACTORS
330
19A87
102
}
330
1F
100
AcDbEntity
  8
02製品
100
AcDbLine
 10
11566.25836307923
 20
15876.36745997965
 30
0.0
 11
11563.75836307923
 21
15876.36745997965
 31
0.0
  0
LINE
  5
19766
102
{ACAD_REACTORS
330
19A87
102
}
330
1F
100
AcDbEntity
  8
02製品
100
AcDbLine
 10
11566.25836307923
 20
15876.36745997965
 30
0.0
 11
11566.25836307923
 21
15873.86745997965
 31
0.0
  0
LINE
  5
19767
102
{ACAD_REACTORS
330
19A87
102
}
330
1F
100
AcDbEntity
  8
02製品
100
AcDbLine
 10
11571.25836307923
 20
15876.36745997965
 30
0.0
 11
11572.25836307923
 21
15876.36745997965
 31
0.0
  0
LINE
  5
19768
102
{ACAD_REACTORS
330
19A87
102
}
330
1F
100
AcDbEntity
  8
02製品
100
AcDbLine
 10
11566.25836307923
 20
15871.36745997965
 30
0.0
 11
11566.25836307923
 21
15870.36745997965
 31
0.0
  0
LINE
  5
1976D
102
{ACAD_REACTORS
330
19A87
102
}
330
1F
100
AcDbEntity
  8
02製品
100
AcDbLine
 10
10768.25836307923
 20
15905.36745997965
 30
0.0
 11
10768.25836307923
 21
15907.86745997965
 31
0.0
  0
LINE
  5
1976E
102
{ACAD_REACTORS
330
19A87
102
}
330
1F
100
AcDbEntity
  8
02製品
100
AcDbLine
 10
10768.25836307923
 20
15905.36745997965
 30
0.0
 11
10765.75836307923
 21
15905.36745997965
 31
0.0
  0
LINE
  5
1976F
102
{ACAD_REACTORS
330
19A87
102
}
330
1F
100
AcDbEntity
  8
02製品
100
AcDbLine
 10
10768.25836307923
 20
15905.36745997965
 30
0.0
 11
10768.25836307923
 21
15902.86745997965
 31
0.0
  0
LINE
  5
19770
102
{ACAD_REACTORS
330
19A87
102
}
330
1F
100
AcDbEntity
  8
02製品
100
AcDbLine
 10
10768.25836307923
 20
15905.36745997965
 30
0.0
 11
10770.75836307923
 21
15905.36745997965
 31
0.0
  0
LINE
  5
19771
102
{ACAD_REACTORS
330
19A87
102
}
330
1F
100
AcDbEntity
  8
02製品
100
AcDbLine
 10
10768.25836307923
 20
15910.36745997965
 30
0.0
 11
10768.25836307923
 21
15911.36745997965
 31
0.0
  0
LINE
  5
19772
102
{ACAD_REACTORS
330
19A87
102
}
330
1F
100
AcDbEntity
  8
02製品
100
AcDbLine
 10
10763.25836307923
 20
15905.36745997965
 30
0.0
 11
10762.25836307923
 21
15905.36745997965
 31
0.0
  0
LINE
  5
19773
102
{ACAD_REACTORS
330
19A87
102
}
330
1F
100
AcDbEntity
  8
02製品
100
AcDbLine
 10
10768.25836307923
 20
15900.36745997965
 30
0.0
 11
10768.25836307923
 21
15899.36745997965
 31
0.0
  0
LINE
  5
19774
102
{ACAD_REACTORS
330
19A87
102
}
330
1F
100
AcDbEntity
  8
02製品
100
AcDbLine
 10
11530.25836307922
 20
15905.36745997965
 30
0.0
 11
11530.25836307922
 21
15907.86745997965
 31
0.0
  0
LINE
  5
19775
102
{ACAD_REACTORS
330
19A87
102
}
330
1F
100
AcDbEntity
  8
02製品
100
AcDbLine
 10
11530.25836307922
 20
15905.36745997965
 30
0.0
 11
11527.75836307923
 21
15905.36745997965
 31
0.0
  0
LINE
  5
19776
102
{ACAD_REACTORS
330
19A87
102
}
330
1F
100
AcDbEntity
  8
02製品
100
AcDbLine
 10
11530.25836307922
 20
15905.36745997965
 30
0.0
 11
11530.25836307922
 21
15902.86745997965
 31
0.0
  0
LINE
  5
19777
102
{ACAD_REACTORS
330
19A87
102
}
330
1F
100
AcDbEntity
  8
02製品
100
AcDbLine
 10
11530.25836307922
 20
15905.36745997965
 30
0.0
 11
11532.75836307923
 21
15905.36745997965
 31
0.0
  0
LINE
  5
19778
102
{ACAD_REACTORS
330
19A87
102
}
330
1F
100
AcDbEntity
  8
02製品
100
AcDbLine
 10
11530.25836307922
 20
15910.36745997965
 30
0.0
 11
11530.25836307922
 21
15911.36745997965
 31
0.0
  0
LINE
  5
19779
102
{ACAD_REACTORS
330
19A87
102
}
330
1F
100
AcDbEntity
  8
02製品
100
AcDbLine
 10
11530.25836307922
 20
15900.36745997965
 30
0.0
 11
11530.25836307922
 21
15899.36745997965
 31
0.0
  0
LINE
  5
1977A
102
{ACAD_REACTORS
330
19A87
102
}
330
1F
100
AcDbEntity
  8
02製品
100
AcDbLine
 10
11535.25836307922
 20
15905.36745997965
 30
0.0
 11
11536.25836307923
 21
15905.36745997965
 31
0.0
  0
LINE
  5
19796
102
{ACAD_REACTORS
330
19AC5
102
}
330
1F
100
AcDbEntity
  8
02製品
100
AcDbLine
 10
12222.80193624502
 20
16307.36745997965
 30
0.0
 11
12222.80193624502
 21
16309.86745997965
 31
0.0
  0
LINE
  5
19797
102
{ACAD_REACTORS
330
19AC5
102
}
330
1F
100
AcDbEntity
  8
02製品
100
AcDbLine
 10
12222.80193624502
 20
16307.36745997965
 30
0.0
 11
12220.30193624502
 21
16307.36745997965
 31
0.0
  0
LINE
  5
19798
102
{ACAD_REACTORS
330
19AC5
102
}
330
1F
100
AcDbEntity
  8
02製品
100
AcDbLine
 10
12222.80193624502
 20
16307.36745997965
 30
0.0
 11
12222.80193624502
 21
16304.86745997965
 31
0.0
  0
LINE
  5
19799
102
{ACAD_REACTORS
330
19AC5
102
}
330
1F
100
AcDbEntity
  8
02製品
100
AcDbLine
 10
12222.80193624502
 20
16307.36745997965
 30
0.0
 11
12225.30193624502
 21
16307.36745997965
 31
0.0
  0
LINE
  5
1979A
102
{ACAD_REACTORS
330
19AC5
102
}
330
1F
100
AcDbEntity
  8
02製品
100
AcDbLine
 10
12222.80193624502
 20
16312.36745997965
 30
0.0
 11
12222.80193624502
 21
16314.86745997965
 31
0.0
  0
LINE
  5
1979B
102
{ACAD_REACTORS
330
19AC5
102
}
330
1F
100
AcDbEntity
  8
02製品
100
AcDbLine
 10
12217.80193624502
 20
16307.36745997965
 30
0.0
 11
12215.30193624502
 21
16307.36745997965
 31
0.0
  0
LINE
  5
1979C
102
{ACAD_REACTORS
330
19AC5
102
}
330
1F
100
AcDbEntity
  8
02製品
100
AcDbLine
 10
12222.80193624502
 20
16302.36745997965
 30
0.0
 11
12222.80193624502
 21
16299.86745997965
 31
0.0
  0
LINE
  5
1979D
102
{ACAD_REACTORS
330
19AC5
102
}
330
1F
100
AcDbEntity
  8
02製品
100
AcDbLine
 10
12227.80193624502
 20
16307.36745997965
 30
0.0
 11
12230.30193624502
 21
16307.36745997965
 31
0.0
  0
LINE
  5
1979E
102
{ACAD_REACTORS
330
19AC5
102
}
330
1F
100
AcDbEntity
  8
02製品
100
AcDbLine
 10
12222.80193624502
 20
16367.36745997965
 30
0.0
 11
12222.80193624502
 21
16369.86745997965
 31
0.0
  0
LINE
  5
1979F
102
{ACAD_REACTORS
330
19AC5
102
}
330
1F
100
AcDbEntity
  8
02製品
100
AcDbLine
 10
12222.80193624502
 20
16367.36745997965
 30
0.0
 11
12220.30193624502
 21
16367.36745997965
 31
0.0
  0
LINE
  5
197A0
102
{ACAD_REACTORS
330
19AC5
102
}
330
1F
100
AcDbEntity
  8
02製品
100
AcDbLine
 10
12222.80193624502
 20
16367.36745997965
 30
0.0
 11
12222.80193624502
 21
16364.86745997965
 31
0.0
  0
LINE
  5
197A1
102
{ACAD_REACTORS
330
19AC5
102
}
330
1F
100
AcDbEntity
  8
02製品
100
AcDbLine
 10
12222.80193624502
 20
16367.36745997965
 30
0.0
 11
12225.30193624502
 21
16367.36745997965
 31
0.0
  0
LINE
  5
197A2
102
{ACAD_REACTORS
330
19AC5
102
}
330
1F
100
AcDbEntity
  8
02製品
100
AcDbLine
 10
12222.80193624502
 20
16372.36745997965
 30
0.0
 11
12222.80193624502
 21
16374.86745997965
 31
0.0
  0
LINE
  5
197A3
102
{ACAD_REACTORS
330
19AC5
102
}
330
1F
100
AcDbEntity
  8
02製品
100
AcDbLine
 10
12217.80193624502
 20
16367.36745997965
 30
0.0
 11
12215.30193624502
 21
16367.36745997965
 31
0.0
  0
LINE
  5
197A4
102
{ACAD_REACTORS
330
19AC5
102
}
330
1F
100
AcDbEntity
  8
02製品
100
AcDbLine
 10
12222.80193624502
 20
16362.36745997965
 30
0.0
 11
12222.80193624502
 21
16359.86745997965
 31
0.0
  0
LINE
  5
197A5
102
{ACAD_REACTORS
330
19AC5
102
}
330
1F
100
AcDbEntity
  8
02製品
100
AcDbLine
 10
12227.80193624502
 20
16367.36745997965
 30
0.0
 11
12230.30193624502
 21
16367.36745997965
 31
0.0
  0
LINE
  5
197A6
102
{ACAD_REACTORS
330
19AC5
102
}
330
1F
100
AcDbEntity
  8
02製品
100
AcDbLine
 10
12227.80193624502
 20
16417.36745997965
 30
0.0
 11
12227.80193624502
 21
16419.86745997965
 31
0.0
  0
LINE
  5
197A7
102
{ACAD_REACTORS
330
19AC5
102
}
330
1F
100
AcDbEntity
  8
02製品
100
AcDbLine
 10
12227.80193624502
 20
16417.36745997965
 30
0.0
 11
12225.30193624502
 21
16417.36745997965
 31
0.0
  0
LINE
  5
197A8
102
{ACAD_REACTORS
330
19AC5
102
}
330
1F
100
AcDbEntity
  8
02製品
100
AcDbLine
 10
12227.80193624502
 20
16417.36745997965
 30
0.0
 11
12227.80193624502
 21
16414.86745997965
 31
0.0
  0
LINE
  5
197A9
102
{ACAD_REACTORS
330
19AC5
102
}
330
1F
100
AcDbEntity
  8
02製品
100
AcDbLine
 10
12227.80193624502
 20
16417.36745997965
 30
0.0
 11
12230.30193624502
 21
16417.36745997965
 31
0.0
  0
LINE
  5
197AA
102
{ACAD_REACTORS
330
19AC5
102
}
330
1F
100
AcDbEntity
  8
02製品
100
AcDbLine
 10
12227.80193624502
 20
16422.36745997965
 30
0.0
 11
12227.80193624502
 21
16424.86745997965
 31
0.0
  0
LINE
  5
197AB
102
{ACAD_REACTORS
330
19AC5
102
}
330
1F
100
AcDbEntity
  8
02製品
100
AcDbLine
 10
12222.80193624502
 20
16417.36745997965
 30
0.0
 11
12220.30193624502
 21
16417.36745997965
 31
0.0
  0
LINE
  5
197AC
102
{ACAD_REACTORS
330
19AC5
102
}
330
1F
100
AcDbEntity
  8
02製品
100
AcDbLine
 10
12227.80193624502
 20
16412.36745997965
 30
0.0
 11
12227.80193624502
 21
16409.86745997965
 31
0.0
  0
LINE
  5
197AD
102
{ACAD_REACTORS
330
19AC5
102
}
330
1F
100
AcDbEntity
  8
02製品
100
AcDbLine
 10
12232.80193624502
 20
16417.36745997965
 30
0.0
 11
12235.30193624502
 21
16417.36745997965
 31
0.0
  0
LINE
  5
197AE
102
{ACAD_REACTORS
330
19AC5
102
}
330
1F
100
AcDbEntity
  8
02製品
100
AcDbLine
 10
12906.80193624502
 20
16417.36745997965
 30
0.0
 11
12906.80193624502
 21
16419.86745997965
 31
0.0
  0
LINE
  5
197AF
102
{ACAD_REACTORS
330
19AC5
102
}
330
1F
100
AcDbEntity
  8
02製品
100
AcDbLine
 10
12906.80193624502
 20
16417.36745997965
 30
0.0
 11
12904.30193624502
 21
16417.36745997965
 31
0.0
  0
LINE
  5
197B0
102
{ACAD_REACTORS
330
19AC5
102
}
330
1F
100
AcDbEntity
  8
02製品
100
AcDbLine
 10
12906.80193624502
 20
16417.36745997965
 30
0.0
 11
12906.80193624502
 21
16414.86745997965
 31
0.0
  0
LINE
  5
197B1
102
{ACAD_REACTORS
330
19AC5
102
}
330
1F
100
AcDbEntity
  8
02製品
100
AcDbLine
 10
12906.80193624502
 20
16417.36745997965
 30
0.0
 11
12909.30193624502
 21
16417.36745997965
 31
0.0
  0
LINE
  5
197B2
102
{ACAD_REACTORS
330
19AC5
102
}
330
1F
100
AcDbEntity
  8
02製品
100
AcDbLine
 10
12906.80193624502
 20
16422.36745997965
 30
0.0
 11
12906.80193624502
 21
16424.86745997965
 31
0.0
  0
LINE
  5
197B3
102
{ACAD_REACTORS
330
19AC5
102
}
330
1F
100
AcDbEntity
  8
02製品
100
AcDbLine
 10
12901.80193624502
 20
16417.36745997965
 30
0.0
 11
12899.30193624502
 21
16417.36745997965
 31
0.0
  0
LINE
  5
197B4
102
{ACAD_REACTORS
330
19AC5
102
}
330
1F
100
AcDbEntity
  8
02製品
100
AcDbLine
 10
12906.80193624502
 20
16412.36745997965
 30
0.0
 11
12906.80193624502
 21
16409.86745997965
 31
0.0
  0
LINE
  5
197B5
102
{ACAD_REACTORS
330
19AC5
102
}
330
1F
100
AcDbEntity
  8
02製品
100
AcDbLine
 10
12911.80193624502
 20
16417.36745997965
 30
0.0
 11
12914.30193624502
 21
16417.36745997965
 31
0.0
  0
LINE
  5
197B6
102
{ACAD_REACTORS
330
19AC5
102
}
330
1F
100
AcDbEntity
  8
02製品
100
AcDbLine
 10
12911.80193624502
 20
16367.36745997965
 30
0.0
 11
12911.80193624502
 21
16369.86745997965
 31
0.0
  0
LINE
  5
197B7
102
{ACAD_REACTORS
330
19AC5
102
}
330
1F
100
AcDbEntity
  8
02製品
100
AcDbLine
 10
12911.80193624502
 20
16367.36745997965
 30
0.0
 11
12909.30193624502
 21
16367.36745997965
 31
0.0
  0
LINE
  5
197B8
102
{ACAD_REACTORS
330
19AC5
102
}
330
1F
100
AcDbEntity
  8
02製品
100
AcDbLine
 10
12911.80193624502
 20
16367.36745997965
 30
0.0
 11
12911.80193624502
 21
16364.86745997965
 31
0.0
  0
LINE
  5
197B9
102
{ACAD_REACTORS
330
19AC5
102
}
330
1F
100
AcDbEntity
  8
02製品
100
AcDbLine
 10
12911.80193624502
 20
16367.36745997965
 30
0.0
 11
12914.30193624502
 21
16367.36745997965
 31
0.0
  0
LINE
  5
197BA
102
{ACAD_REACTORS
330
19AC5
102
}
330
1F
100
AcDbEntity
  8
02製品
100
AcDbLine
 10
12911.80193624502
 20
16372.36745997965
 30
0.0
 11
12911.80193624502
 21
16374.86745997965
 31
0.0
  0
LINE
  5
197BB
102
{ACAD_REACTORS
330
19AC5
102
}
330
1F
100
AcDbEntity
  8
02製品
100
AcDbLine
 10
12906.80193624502
 20
16367.36745997965
 30
0.0
 11
12904.30193624502
 21
16367.36745997965
 31
0.0
  0
LINE
  5
197BC
102
{ACAD_REACTORS
330
19AC5
102
}
330
1F
100
AcDbEntity
  8
02製品
100
AcDbLine
 10
12911.80193624502
 20
16362.36745997965
 30
0.0
 11
12911.80193624502
 21
16359.86745997965
 31
0.0
  0
LINE
  5
197BD
102
{ACAD_REACTORS
330
19AC5
102
}
330
1F
100
AcDbEntity
  8
02製品
100
AcDbLine
 10
12916.80193624502
 20
16367.36745997965
 30
0.0
 11
12919.30193624502
 21
16367.36745997965
 31
0.0
  0
LINE
  5
197BE
102
{ACAD_REACTORS
330
19AC5
102
}
330
1F
100
AcDbEntity
  8
02製品
100
AcDbLine
 10
12911.80193624502
 20
16307.36745997965
 30
0.0
 11
12911.80193624502
 21
16309.86745997965
 31
0.0
  0
LINE
  5
197BF
102
{ACAD_REACTORS
330
19AC5
102
}
330
1F
100
AcDbEntity
  8
02製品
100
AcDbLine
 10
12911.80193624502
 20
16307.36745997965
 30
0.0
 11
12909.30193624502
 21
16307.36745997965
 31
0.0
  0
LINE
  5
197C0
102
{ACAD_REACTORS
330
19AC5
102
}
330
1F
100
AcDbEntity
  8
02製品
100
AcDbLine
 10
12911.80193624502
 20
16307.36745997965
 30
0.0
 11
12911.80193624502
 21
16304.86745997965
 31
0.0
  0
LINE
  5
197C1
102
{ACAD_REACTORS
330
19AC5
102
}
330
1F
100
AcDbEntity
  8
02製品
100
AcDbLine
 10
12911.80193624502
 20
16307.36745997965
 30
0.0
 11
12914.30193624502
 21
16307.36745997965
 31
0.0
  0
LINE
  5
197C2
102
{ACAD_REACTORS
330
19AC5
102
}
330
1F
100
AcDbEntity
  8
02製品
100
AcDbLine
 10
12911.80193624502
 20
16312.36745997965
 30
0.0
 11
12911.80193624502
 21
16314.86745997965
 31
0.0
  0
LINE
  5
197C3
102
{ACAD_REACTORS
330
19AC5
102
}
330
1F
100
AcDbEntity
  8
02製品
100
AcDbLine
 10
12906.80193624502
 20
16307.36745997965
 30
0.0
 11
12904.30193624502
 21
16307.36745997965
 31
0.0
  0
LINE
  5
197C4
102
{ACAD_REACTORS
330
19AC5
102
}
330
1F
100
AcDbEntity
  8
02製品
100
AcDbLine
 10
12911.80193624502
 20
16302.36745997965
 30
0.0
 11
12911.80193624502
 21
16299.86745997965
 31
0.0
  0
LINE
  5
197C5
102
{ACAD_REACTORS
330
19AC5
102
}
330
1F
100
AcDbEntity
  8
02製品
100
AcDbLine
 10
12916.80193624502
 20
16307.36745997965
 30
0.0
 11
12919.30193624502
 21
16307.36745997965
 31
0.0
  0
LINE
  5
19831
102
{ACAD_REACTORS
330
19A87
102
}
330
1F
100
AcDbEntity
  8
02製品
  6
ByBlock
100
AcDbLine
 10
10688.65836288572
 20
16408.86745908559
 30
0.0
 11
10690.25836288924
 21
16408.86745908559
 31
0.0
  0
LINE
  5
19832
102
{ACAD_REACTORS
330
19A87
102
}
330
1F
100
AcDbEntity
  8
02製品
  6
ByBlock
100
AcDbLine
 10
10688.65836288572
 20
16425.86745908559
 30
0.0
 11
10690.25836288924
 21
16425.86745908559
 31
0.0
  0
LINE
  5
19833
102
{ACAD_REACTORS
330
19A87
102
}
330
1F
100
AcDbEntity
  8
02製品
  6
ByBlock
100
AcDbLine
 10
10690.25836288924
 20
16425.86745908559
 30
0.0
 11
10690.25836288924
 21
16408.86745908559
 31
0.0
  0
LINE
  5
19834
102
{ACAD_REACTORS
330
19A87
102
}
330
1F
100
AcDbEntity
  8
02製品
  6
ByBlock
100
AcDbLine
 10
10688.65836288572
 20
16425.86745908559
 30
0.0
 11
10688.65836288572
 21
16408.86745908559
 31
0.0
  0
LINE
  5
19835
102
{ACAD_REACTORS
330
19A87
102
}
330
1F
100
AcDbEntity
  8
02製品
  6
ByBlock
100
AcDbLine
 10
10683.8543925488
 20
16409.86192014516
 30
0.0
 11
10688.65836288572
 21
16409.86192014516
 31
0.0
  0
LINE
  5
19836
102
{ACAD_REACTORS
330
19A87
102
}
330
1F
100
AcDbEntity
  8
02製品
  6
ByBlock
100
AcDbLine
 10
10683.15836288572
 20
16423.66754429318
 30
0.0
 11
10683.15836288572
 21
16411.0674482646
 31
0.0
  0
ARC
  5
19837
102
{ACAD_REACTORS
330
19A87
102
}
330
1F
100
AcDbEntity
  8
02製品
  6
ByBlock
100
AcDbCircle
 10
10695.15836288572
 20
16417.36745908559
 30
0.0
 40
12.0
100
AcDbArc
 50
161.7759804502453
 51
198.2237823143868
  0
LINE
  5
19838
102
{ACAD_REACTORS
330
19A87
102
}
330
1F
100
AcDbEntity
  8
02製品
  6
ByBlock
100
AcDbLine
 10
10683.76026107908
 20
16413.61471250356
 30
0.0
 11
10688.65836288572
 21
16413.61471250356
 31
0.0
  0
LINE
  5
19839
102
{ACAD_REACTORS
330
19A87
102
}
330
1F
100
AcDbEntity
  8
02製品
  6
ByBlock
100
AcDbLine
 10
10683.76027633787
 20
16421.12026670278
 30
0.0
 11
10688.65836288572
 21
16421.12026670278
 31
0.0
  0
LINE
  5
1983A
102
{ACAD_REACTORS
330
19A87
102
}
330
1F
100
AcDbEntity
  8
02製品
  6
ByBlock
100
AcDbLine
 10
10683.8543925488
 20
16424.87302854359
 30
0.0
 11
10688.65836288572
 21
16424.87302854359
 31
0.0
  0
LINE
  5
1983B
102
{ACAD_REACTORS
330
19A87
102
}
330
1F
100
AcDbEntity
  8
02製品
  6
ByBlock
100
AcDbLine
 10
10683.76026464867
 20
16421.1202903579
 30
0.0
 11
10683.15836288572
 21
16423.66754429318
 31
0.0
  0
LINE
  5
1983C
102
{ACAD_REACTORS
330
19A87
102
}
330
1F
100
AcDbEntity
  8
02製品
  6
ByBlock
100
AcDbLine
 10
10683.15836288572
 20
16411.0674482646
 30
0.0
 11
10683.76023891917
 21
16413.6147596369
 31
0.0
  0
LINE
  5
1983D
102
{ACAD_REACTORS
330
19A87
102
}
330
1F
100
AcDbEntity
  8
02製品
  6
ByBlock
100
AcDbLine
 10
10683.15836288572
 20
16411.0674482646
 30
0.0
 11
10683.85436047688
 21
16409.86194494157
 31
0.0
  0
LINE
  5
1983E
102
{ACAD_REACTORS
330
19A87
102
}
330
1F
100
AcDbEntity
  8
02製品
  6
ByBlock
100
AcDbLine
 10
10683.8543816723
 20
16424.87308432774
 30
0.0
 11
10683.15836288572
 21
16423.66754429318
 31
0.0
  0
LINE
  5
1983F
102
{ACAD_REACTORS
330
19A87
102
}
330
1F
100
AcDbEntity
  8
02製品
  6
ByBlock
100
AcDbLine
 10
10688.65836288572
 20
16358.86745908559
 30
0.0
 11
10690.25836288924
 21
16358.86745908559
 31
0.0
  0
LINE
  5
19840
102
{ACAD_REACTORS
330
19A87
102
}
330
1F
100
AcDbEntity
  8
02製品
  6
ByBlock
100
AcDbLine
 10
10688.65836288572
 20
16375.86745908559
 30
0.0
 11
10690.25836288924
 21
16375.86745908559
 31
0.0
  0
LINE
  5
19841
102
{ACAD_REACTORS
330
19A87
102
}
330
1F
100
AcDbEntity
  8
02製品
  6
ByBlock
100
AcDbLine
 10
10690.25836288924
 20
16375.86745908559
 30
0.0
 11
10690.25836288924
 21
16358.86745908559
 31
0.0
  0
LINE
  5
19842
102
{ACAD_REACTORS
330
19A87
102
}
330
1F
100
AcDbEntity
  8
02製品
  6
ByBlock
100
AcDbLine
 10
10688.65836288572
 20
16375.86745908559
 30
0.0
 11
10688.65836288572
 21
16358.86745908559
 31
0.0
  0
LINE
  5
19843
102
{ACAD_REACTORS
330
19A87
102
}
330
1F
100
AcDbEntity
  8
02製品
  6
ByBlock
100
AcDbLine
 10
10683.8543925488
 20
16359.86192014516
 30
0.0
 11
10688.65836288572
 21
16359.86192014516
 31
0.0
  0
LINE
  5
19844
102
{ACAD_REACTORS
330
19A87
102
}
330
1F
100
AcDbEntity
  8
02製品
  6
ByBlock
100
AcDbLine
 10
10683.15836288572
 20
16373.66754429318
 30
0.0
 11
10683.15836288572
 21
16361.0674482646
 31
0.0
  0
ARC
  5
19845
102
{ACAD_REACTORS
330
19A87
102
}
330
1F
100
AcDbEntity
  8
02製品
  6
ByBlock
100
AcDbCircle
 10
10695.15836288572
 20
16367.36745908559
 30
0.0
 40
12.0
100
AcDbArc
 50
161.7759804502453
 51
198.2237823143868
  0
LINE
  5
19846
102
{ACAD_REACTORS
330
19A87
102
}
330
1F
100
AcDbEntity
  8
02製品
  6
ByBlock
100
AcDbLine
 10
10683.76026107908
 20
16363.61471250356
 30
0.0
 11
10688.65836288572
 21
16363.61471250356
 31
0.0
  0
LINE
  5
19847
102
{ACAD_REACTORS
330
19A87
102
}
330
1F
100
AcDbEntity
  8
02製品
  6
ByBlock
100
AcDbLine
 10
10683.76027633787
 20
16371.12026670278
 30
0.0
 11
10688.65836288572
 21
16371.12026670278
 31
0.0
  0
LINE
  5
19848
102
{ACAD_REACTORS
330
19A87
102
}
330
1F
100
AcDbEntity
  8
02製品
  6
ByBlock
100
AcDbLine
 10
10683.8543925488
 20
16374.87302854359
 30
0.0
 11
10688.65836288572
 21
16374.87302854359
 31
0.0
  0
LINE
  5
19849
102
{ACAD_REACTORS
330
19A87
102
}
330
1F
100
AcDbEntity
  8
02製品
  6
ByBlock
100
AcDbLine
 10
10683.76026464867
 20
16371.1202903579
 30
0.0
 11
10683.15836288572
 21
16373.66754429318
 31
0.0
  0
LINE
  5
1984A
102
{ACAD_REACTORS
330
19A87
102
}
330
1F
100
AcDbEntity
  8
02製品
  6
ByBlock
100
AcDbLine
 10
10683.15836288572
 20
16361.0674482646
 30
0.0
 11
10683.76023891917
 21
16363.6147596369
 31
0.0
  0
LINE
  5
1984B
102
{ACAD_REACTORS
330
19A87
102
}
330
1F
100
AcDbEntity
  8
02製品
  6
ByBlock
100
AcDbLine
 10
10683.15836288572
 20
16361.0674482646
 30
0.0
 11
10683.85436047688
 21
16359.86194494157
 31
0.0
  0
LINE
  5
1984C
102
{ACAD_REACTORS
330
19A87
102
}
330
1F
100
AcDbEntity
  8
02製品
  6
ByBlock
100
AcDbLine
 10
10683.8543816723
 20
16374.87308432774
 30
0.0
 11
10683.15836288572
 21
16373.66754429318
 31
0.0
  0
LINE
  5
1984D
102
{ACAD_REACTORS
330
19A87
102
}
330
1F
100
AcDbEntity
  8
02製品
  6
ByBlock
100
AcDbLine
 10
10688.65836288572
 20
16315.86745908559
 30
0.0
 11
10690.25836288924
 21
16315.86745908559
 31
0.0
  0
LINE
  5
1984E
102
{ACAD_REACTORS
330
19A87
102
}
330
1F
100
AcDbEntity
  8
02製品
  6
ByBlock
100
AcDbLine
 10
10683.8543925488
 20
16299.86192014516
 30
0.0
 11
10688.65836288572
 21
16299.86192014516
 31
0.0
  0
LINE
  5
1984F
102
{ACAD_REACTORS
330
19A87
102
}
330
1F
100
AcDbEntity
  8
02製品
  6
ByBlock
100
AcDbLine
 10
10683.15836288572
 20
16313.66754429318
 30
0.0
 11
10683.15836288572
 21
16301.0674482646
 31
0.0
  0
ARC
  5
19850
102
{ACAD_REACTORS
330
19A87
102
}
330
1F
100
AcDbEntity
  8
02製品
  6
ByBlock
100
AcDbCircle
 10
10695.15836288572
 20
16307.36745908559
 30
0.0
 40
12.0
100
AcDbArc
 50
161.7759804502453
 51
198.2237823143868
  0
LINE
  5
19851
102
{ACAD_REACTORS
330
19A87
102
}
330
1F
100
AcDbEntity
  8
02製品
  6
ByBlock
100
AcDbLine
 10
10683.76026107908
 20
16303.61471250356
 30
0.0
 11
10688.65836288572
 21
16303.61471250356
 31
0.0
  0
LINE
  5
19852
102
{ACAD_REACTORS
330
19A87
102
}
330
1F
100
AcDbEntity
  8
02製品
  6
ByBlock
100
AcDbLine
 10
10683.76027633787
 20
16311.12026670278
 30
0.0
 11
10688.65836288572
 21
16311.12026670278
 31
0.0
  0
LINE
  5
19853
102
{ACAD_REACTORS
330
19A87
102
}
330
1F
100
AcDbEntity
  8
02製品
  6
ByBlock
100
AcDbLine
 10
10683.8543925488
 20
16314.87302854359
 30
0.0
 11
10688.65836288572
 21
16314.87302854359
 31
0.0
  0
LINE
  5
19854
102
{ACAD_REACTORS
330
19A87
102
}
330
1F
100
AcDbEntity
  8
02製品
  6
ByBlock
100
AcDbLine
 10
10683.76026464867
 20
16311.1202903579
 30
0.0
 11
10683.15836288572
 21
16313.66754429318
 31
0.0
  0
LINE
  5
19855
102
{ACAD_REACTORS
330
19A87
102
}
330
1F
100
AcDbEntity
  8
02製品
  6
ByBlock
100
AcDbLine
 10
10683.15836288572
 20
16301.0674482646
 30
0.0
 11
10683.76023891917
 21
16303.6147596369
 31
0.0
  0
LINE
  5
19856
102
{ACAD_REACTORS
330
19A87
102
}
330
1F
100
AcDbEntity
  8
02製品
  6
ByBlock
100
AcDbLine
 10
10683.15836288572
 20
16301.0674482646
 30
0.0
 11
10683.85436047688
 21
16299.86194494157
 31
0.0
  0
LINE
  5
19857
102
{ACAD_REACTORS
330
19A87
102
}
330
1F
100
AcDbEntity
  8
02製品
  6
ByBlock
100
AcDbLine
 10
10683.8543816723
 20
16314.87308432774
 30
0.0
 11
10683.15836288572
 21
16313.66754429318
 31
0.0
  0
LINE
  5
19858
102
{ACAD_REACTORS
330
19A87
102
}
330
1F
100
AcDbEntity
  8
02製品
  6
ByBlock
100
AcDbLine
 10
10688.65836288572
 20
16315.86745908559
 30
0.0
 11
10688.65836288572
 21
16298.86745908559
 31
0.0
  0
LINE
  5
19859
102
{ACAD_REACTORS
330
19A87
102
}
330
1F
100
AcDbEntity
  8
02製品
  6
ByBlock
100
AcDbLine
 10
10688.65836288572
 20
16298.86745908559
 30
0.0
 11
10690.25836288924
 21
16298.86745908559
 31
0.0
  0
LINE
  5
1985A
102
{ACAD_REACTORS
330
19A87
102
}
330
1F
100
AcDbEntity
  8
02製品
  6
ByBlock
100
AcDbLine
 10
10690.25836288924
 20
16315.86745908559
 30
0.0
 11
10690.25836288924
 21
16298.86745908559
 31
0.0
  0
LINE
  5
198B5
102
{ACAD_REACTORS
330
19AC5
102
}
330
1F
100
AcDbEntity
  8
02製品
  6
ByBlock
100
AcDbLine
 10
12192.20193605152
 20
16408.86745908559
 30
0.0
 11
12193.80193605503
 21
16408.86745908559
 31
0.0
  0
LINE
  5
198B6
102
{ACAD_REACTORS
330
19AC5
102
}
330
1F
100
AcDbEntity
  8
02製品
  6
ByBlock
100
AcDbLine
 10
12192.20193605152
 20
16425.86745908559
 30
0.0
 11
12193.80193605503
 21
16425.86745908559
 31
0.0
  0
LINE
  5
198B7
102
{ACAD_REACTORS
330
19AC5
102
}
330
1F
100
AcDbEntity
  8
02製品
  6
ByBlock
100
AcDbLine
 10
12193.80193605503
 20
16425.86745908559
 30
0.0
 11
12193.80193605503
 21
16408.86745908559
 31
0.0
  0
LINE
  5
198B8
102
{ACAD_REACTORS
330
19AC5
102
}
330
1F
100
AcDbEntity
  8
02製品
  6
ByBlock
100
AcDbLine
 10
12192.20193605152
 20
16425.86745908559
 30
0.0
 11
12192.20193605152
 21
16408.86745908559
 31
0.0
  0
LINE
  5
198B9
102
{ACAD_REACTORS
330
19AC5
102
}
330
1F
100
AcDbEntity
  8
02製品
  6
ByBlock
100
AcDbLine
 10
12187.3979657146
 20
16409.86192014516
 30
0.0
 11
12192.20193605152
 21
16409.86192014516
 31
0.0
  0
LINE
  5
198BA
102
{ACAD_REACTORS
330
19AC5
102
}
330
1F
100
AcDbEntity
  8
02製品
  6
ByBlock
100
AcDbLine
 10
12186.70193605152
 20
16423.66754429318
 30
0.0
 11
12186.70193605152
 21
16411.0674482646
 31
0.0
  0
ARC
  5
198BB
102
{ACAD_REACTORS
330
19AC5
102
}
330
1F
100
AcDbEntity
  8
02製品
  6
ByBlock
100
AcDbCircle
 10
12198.70193605152
 20
16417.36745908559
 30
0.0
 40
12.0
100
AcDbArc
 50
161.7759804502453
 51
198.2237823143868
  0
LINE
  5
198BC
102
{ACAD_REACTORS
330
19AC5
102
}
330
1F
100
AcDbEntity
  8
02製品
  6
ByBlock
100
AcDbLine
 10
12187.30383424488
 20
16413.61471250356
 30
0.0
 11
12192.20193605152
 21
16413.61471250356
 31
0.0
  0
LINE
  5
198BD
102
{ACAD_REACTORS
330
19AC5
102
}
330
1F
100
AcDbEntity
  8
02製品
  6
ByBlock
100
AcDbLine
 10
12187.30384950367
 20
16421.12026670278
 30
0.0
 11
12192.20193605152
 21
16421.12026670278
 31
0.0
  0
LINE
  5
198BE
102
{ACAD_REACTORS
330
19AC5
102
}
330
1F
100
AcDbEntity
  8
02製品
  6
ByBlock
100
AcDbLine
 10
12187.3979657146
 20
16424.87302854359
 30
0.0
 11
12192.20193605152
 21
16424.87302854359
 31
0.0
  0
LINE
  5
198BF
102
{ACAD_REACTORS
330
19AC5
102
}
330
1F
100
AcDbEntity
  8
02製品
  6
ByBlock
100
AcDbLine
 10
12187.30383781447
 20
16421.1202903579
 30
0.0
 11
12186.70193605152
 21
16423.66754429318
 31
0.0
  0
LINE
  5
198C0
102
{ACAD_REACTORS
330
19AC5
102
}
330
1F
100
AcDbEntity
  8
02製品
  6
ByBlock
100
AcDbLine
 10
12186.70193605152
 20
16411.0674482646
 30
0.0
 11
12187.30381208497
 21
16413.6147596369
 31
0.0
  0
LINE
  5
198C1
102
{ACAD_REACTORS
330
19AC5
102
}
330
1F
100
AcDbEntity
  8
02製品
  6
ByBlock
100
AcDbLine
 10
12186.70193605152
 20
16411.0674482646
 30
0.0
 11
12187.39793364268
 21
16409.86194494157
 31
0.0
  0
LINE
  5
198C2
102
{ACAD_REACTORS
330
19AC5
102
}
330
1F
100
AcDbEntity
  8
02製品
  6
ByBlock
100
AcDbLine
 10
12187.39795483809
 20
16424.87308432774
 30
0.0
 11
12186.70193605152
 21
16423.66754429318
 31
0.0
  0
LINE
  5
198C3
102
{ACAD_REACTORS
330
19AC5
102
}
330
1F
100
AcDbEntity
  8
02製品
  6
ByBlock
100
AcDbLine
 10
12192.20193605152
 20
16358.86745908559
 30
0.0
 11
12193.80193605503
 21
16358.86745908559
 31
0.0
  0
LINE
  5
198C4
102
{ACAD_REACTORS
330
19AC5
102
}
330
1F
100
AcDbEntity
  8
02製品
  6
ByBlock
100
AcDbLine
 10
12192.20193605152
 20
16375.86745908559
 30
0.0
 11
12193.80193605503
 21
16375.86745908559
 31
0.0
  0
LINE
  5
198C5
102
{ACAD_REACTORS
330
19AC5
102
}
330
1F
100
AcDbEntity
  8
02製品
  6
ByBlock
100
AcDbLine
 10
12193.80193605503
 20
16375.86745908559
 30
0.0
 11
12193.80193605503
 21
16358.86745908559
 31
0.0
  0
LINE
  5
198C6
102
{ACAD_REACTORS
330
19AC5
102
}
330
1F
100
AcDbEntity
  8
02製品
  6
ByBlock
100
AcDbLine
 10
12192.20193605152
 20
16375.86745908559
 30
0.0
 11
12192.20193605152
 21
16358.86745908559
 31
0.0
  0
LINE
  5
198C7
102
{ACAD_REACTORS
330
19AC5
102
}
330
1F
100
AcDbEntity
  8
02製品
  6
ByBlock
100
AcDbLine
 10
12187.3979657146
 20
16359.86192014516
 30
0.0
 11
12192.20193605152
 21
16359.86192014516
 31
0.0
  0
LINE
  5
198C8
102
{ACAD_REACTORS
330
19AC5
102
}
330
1F
100
AcDbEntity
  8
02製品
  6
ByBlock
100
AcDbLine
 10
12186.70193605152
 20
16373.66754429318
 30
0.0
 11
12186.70193605152
 21
16361.0674482646
 31
0.0
  0
ARC
  5
198C9
102
{ACAD_REACTORS
330
19AC5
102
}
330
1F
100
AcDbEntity
  8
02製品
  6
ByBlock
100
AcDbCircle
 10
12198.70193605152
 20
16367.36745908559
 30
0.0
 40
12.0
100
AcDbArc
 50
161.7759804502453
 51
198.2237823143868
  0
LINE
  5
198CA
102
{ACAD_REACTORS
330
19AC5
102
}
330
1F
100
AcDbEntity
  8
02製品
  6
ByBlock
100
AcDbLine
 10
12187.30383424488
 20
16363.61471250356
 30
0.0
 11
12192.20193605152
 21
16363.61471250356
 31
0.0
  0
LINE
  5
198CB
102
{ACAD_REACTORS
330
19AC5
102
}
330
1F
100
AcDbEntity
  8
02製品
  6
ByBlock
100
AcDbLine
 10
12187.30384950367
 20
16371.12026670278
 30
0.0
 11
12192.20193605152
 21
16371.12026670278
 31
0.0
  0
LINE
  5
198CC
102
{ACAD_REACTORS
330
19AC5
102
}
330
1F
100
AcDbEntity
  8
02製品
  6
ByBlock
100
AcDbLine
 10
12187.3979657146
 20
16374.87302854359
 30
0.0
 11
12192.20193605152
 21
16374.87302854359
 31
0.0
  0
LINE
  5
198CD
102
{ACAD_REACTORS
330
19AC5
102
}
330
1F
100
AcDbEntity
  8
02製品
  6
ByBlock
100
AcDbLine
 10
12187.30383781447
 20
16371.1202903579
 30
0.0
 11
12186.70193605152
 21
16373.66754429318
 31
0.0
  0
LINE
  5
198CE
102
{ACAD_REACTORS
330
19AC5
102
}
330
1F
100
AcDbEntity
  8
02製品
  6
ByBlock
100
AcDbLine
 10
12186.70193605152
 20
16361.0674482646
 30
0.0
 11
12187.30381208497
 21
16363.6147596369
 31
0.0
  0
LINE
  5
198CF
102
{ACAD_REACTORS
330
19AC5
102
}
330
1F
100
AcDbEntity
  8
02製品
  6
ByBlock
100
AcDbLine
 10
12186.70193605152
 20
16361.0674482646
 30
0.0
 11
12187.39793364268
 21
16359.86194494157
 31
0.0
  0
LINE
  5
198D0
102
{ACAD_REACTORS
330
19AC5
102
}
330
1F
100
AcDbEntity
  8
02製品
  6
ByBlock
100
AcDbLine
 10
12187.39795483809
 20
16374.87308432774
 30
0.0
 11
12186.70193605152
 21
16373.66754429318
 31
0.0
  0
LINE
  5
198D1
102
{ACAD_REACTORS
330
19AC5
102
}
330
1F
100
AcDbEntity
  8
02製品
  6
ByBlock
100
AcDbLine
 10
12192.20193605152
 20
16315.86745908559
 30
0.0
 11
12193.80193605503
 21
16315.86745908559
 31
0.0
  0
LINE
  5
198D2
102
{ACAD_REACTORS
330
19AC5
102
}
330
1F
100
AcDbEntity
  8
02製品
  6
ByBlock
100
AcDbLine
 10
12187.3979657146
 20
16299.86192014516
 30
0.0
 11
12192.20193605152
 21
16299.86192014516
 31
0.0
  0
LINE
  5
198D3
102
{ACAD_REACTORS
330
19AC5
102
}
330
1F
100
AcDbEntity
  8
02製品
  6
ByBlock
100
AcDbLine
 10
12186.70193605152
 20
16313.66754429318
 30
0.0
 11
12186.70193605152
 21
16301.0674482646
 31
0.0
  0
ARC
  5
198D4
102
{ACAD_REACTORS
330
19AC5
102
}
330
1F
100
AcDbEntity
  8
02製品
  6
ByBlock
100
AcDbCircle
 10
12198.70193605152
 20
16307.36745908559
 30
0.0
 40
12.0
100
AcDbArc
 50
161.7759804502453
 51
198.2237823143868
  0
LINE
  5
198D5
102
{ACAD_REACTORS
330
19AC5
102
}
330
1F
100
AcDbEntity
  8
02製品
  6
ByBlock
100
AcDbLine
 10
12187.30383424488
 20
16303.61471250356
 30
0.0
 11
12192.20193605152
 21
16303.61471250356
 31
0.0
  0
LINE
  5
198D6
102
{ACAD_REACTORS
330
19AC5
102
}
330
1F
100
AcDbEntity
  8
02製品
  6
ByBlock
100
AcDbLine
 10
12187.30384950367
 20
16311.12026670278
 30
0.0
 11
12192.20193605152
 21
16311.12026670278
 31
0.0
  0
LINE
  5
198D7
102
{ACAD_REACTORS
330
19AC5
102
}
330
1F
100
AcDbEntity
  8
02製品
  6
ByBlock
100
AcDbLine
 10
12187.3979657146
 20
16314.87302854359
 30
0.0
 11
12192.20193605152
 21
16314.87302854359
 31
0.0
  0
LINE
  5
198D8
102
{ACAD_REACTORS
330
19AC5
102
}
330
1F
100
AcDbEntity
  8
02製品
  6
ByBlock
100
AcDbLine
 10
12187.30383781447
 20
16311.1202903579
 30
0.0
 11
12186.70193605152
 21
16313.66754429318
 31
0.0
  0
LINE
  5
198D9
102
{ACAD_REACTORS
330
19AC5
102
}
330
1F
100
AcDbEntity
  8
02製品
  6
ByBlock
100
AcDbLine
 10
12186.70193605152
 20
16301.0674482646
 30
0.0
 11
12187.30381208497
 21
16303.6147596369
 31
0.0
  0
LINE
  5
198DA
102
{ACAD_REACTORS
330
19AC5
102
}
330
1F
100
AcDbEntity
  8
02製品
  6
ByBlock
100
AcDbLine
 10
12186.70193605152
 20
16301.0674482646
 30
0.0
 11
12187.39793364268
 21
16299.86194494157
 31
0.0
  0
LINE
  5
198DB
102
{ACAD_REACTORS
330
19AC5
102
}
330
1F
100
AcDbEntity
  8
02製品
  6
ByBlock
100
AcDbLine
 10
12187.39795483809
 20
16314.87308432774
 30
0.0
 11
12186.70193605152
 21
16313.66754429318
 31
0.0
  0
LINE
  5
198DC
102
{ACAD_REACTORS
330
19AC5
102
}
330
1F
100
AcDbEntity
  8
02製品
  6
ByBlock
100
AcDbLine
 10
12192.20193605152
 20
16315.86745908559
 30
0.0
 11
12192.20193605152
 21
16298.86745908559
 31
0.0
  0
LINE
  5
198DD
102
{ACAD_REACTORS
330
19AC5
102
}
330
1F
100
AcDbEntity
  8
02製品
  6
ByBlock
100
AcDbLine
 10
12192.20193605152
 20
16298.86745908559
 30
0.0
 11
12193.80193605503
 21
16298.86745908559
 31
0.0
  0
LINE
  5
198DE
102
{ACAD_REACTORS
330
19AC5
102
}
330
1F
100
AcDbEntity
  8
02製品
  6
ByBlock
100
AcDbLine
 10
12193.80193605503
 20
16315.86745908559
 30
0.0
 11
12193.80193605503
 21
16298.86745908559
 31
0.0
  0
LINE
  5
19992
102
{ACAD_REACTORS
330
19A87
102
}
330
1F
100
AcDbEntity
  8
02製品
  6
ByBlock
100
AcDbLine
 10
11609.85833781037
 20
16408.86745908559
 30
0.0
 11
11608.25833780686
 21
16408.86745908559
 31
0.0
  0
LINE
  5
19993
102
{ACAD_REACTORS
330
19A87
102
}
330
1F
100
AcDbEntity
  8
02製品
  6
ByBlock
100
AcDbLine
 10
11609.85833781037
 20
16425.86745908559
 30
0.0
 11
11608.25833780686
 21
16425.86745908559
 31
0.0
  0
LINE
  5
19994
102
{ACAD_REACTORS
330
19A87
102
}
330
1F
100
AcDbEntity
  8
02製品
  6
ByBlock
100
AcDbLine
 10
11608.25833780686
 20
16425.86745908559
 30
0.0
 11
11608.25833780686
 21
16408.86745908559
 31
0.0
  0
LINE
  5
19995
102
{ACAD_REACTORS
330
19A87
102
}
330
1F
100
AcDbEntity
  8
02製品
  6
ByBlock
100
AcDbLine
 10
11609.85833781037
 20
16425.86745908559
 30
0.0
 11
11609.85833781037
 21
16408.86745908559
 31
0.0
  0
LINE
  5
19996
102
{ACAD_REACTORS
330
19A87
102
}
330
1F
100
AcDbEntity
  8
02製品
  6
ByBlock
100
AcDbLine
 10
11614.66230814729
 20
16409.86192014516
 30
0.0
 11
11609.85833781037
 21
16409.86192014516
 31
0.0
  0
LINE
  5
19997
102
{ACAD_REACTORS
330
19A87
102
}
330
1F
100
AcDbEntity
  8
02製品
  6
ByBlock
100
AcDbLine
 10
11615.35833781037
 20
16423.66754429318
 30
0.0
 11
11615.35833781037
 21
16411.0674482646
 31
0.0
  0
LINE
  5
19998
102
{ACAD_REACTORS
330
19A87
102
}
330
1F
100
AcDbEntity
  8
02製品
  6
ByBlock
100
AcDbLine
 10
11615.35833781037
 20
16411.0674482646
 30
0.0
 11
11614.75646177692
 21
16413.6147596369
 31
0.0
  0
ARC
  5
19999
102
{ACAD_REACTORS
330
19A87
102
}
330
1F
100
AcDbEntity
  8
02製品
  6
ByBlock
100
AcDbCircle
 10
11603.35833781037
 20
16417.36745908559
 30
0.0
 40
12.0
100
AcDbArc
 50
341.7762176856132
 51
18.22401954975472
  0
LINE
  5
1999A
102
{ACAD_REACTORS
330
19A87
102
}
330
1F
100
AcDbEntity
  8
02製品
  6
ByBlock
100
AcDbLine
 10
11615.35833781037
 20
16411.0674482646
 30
0.0
 11
11614.66234021921
 21
16409.86194494157
 31
0.0
  0
LINE
  5
1999B
102
{ACAD_REACTORS
330
19A87
102
}
330
1F
100
AcDbEntity
  8
02製品
  6
ByBlock
100
AcDbLine
 10
11614.75643961701
 20
16413.61471250356
 30
0.0
 11
11609.85833781037
 21
16413.61471250356
 31
0.0
  0
LINE
  5
1999C
102
{ACAD_REACTORS
330
19A87
102
}
330
1F
100
AcDbEntity
  8
02製品
  6
ByBlock
100
AcDbLine
 10
11614.75642435822
 20
16421.12026670278
 30
0.0
 11
11609.85833781037
 21
16421.12026670278
 31
0.0
  0
LINE
  5
1999D
102
{ACAD_REACTORS
330
19A87
102
}
330
1F
100
AcDbEntity
  8
02製品
  6
ByBlock
100
AcDbLine
 10
11614.66230814729
 20
16424.87302854359
 30
0.0
 11
11609.85833781037
 21
16424.87302854359
 31
0.0
  0
LINE
  5
1999E
102
{ACAD_REACTORS
330
19A87
102
}
330
1F
100
AcDbEntity
  8
02製品
  6
ByBlock
100
AcDbLine
 10
11614.75643604742
 20
16421.1202903579
 30
0.0
 11
11615.35833781037
 21
16423.66754429318
 31
0.0
  0
LINE
  5
1999F
102
{ACAD_REACTORS
330
19A87
102
}
330
1F
100
AcDbEntity
  8
02製品
  6
ByBlock
100
AcDbLine
 10
11614.6623190238
 20
16424.87308432774
 30
0.0
 11
11615.35833781037
 21
16423.66754429318
 31
0.0
  0
LINE
  5
199A0
102
{ACAD_REACTORS
330
19A87
102
}
330
1F
100
AcDbEntity
  8
02製品
  6
ByBlock
100
AcDbLine
 10
11609.85833781037
 20
16358.86745908559
 30
0.0
 11
11608.25833780686
 21
16358.86745908559
 31
0.0
  0
LINE
  5
199A1
102
{ACAD_REACTORS
330
19A87
102
}
330
1F
100
AcDbEntity
  8
02製品
  6
ByBlock
100
AcDbLine
 10
11609.85833781037
 20
16375.86745908559
 30
0.0
 11
11608.25833780686
 21
16375.86745908559
 31
0.0
  0
LINE
  5
199A2
102
{ACAD_REACTORS
330
19A87
102
}
330
1F
100
AcDbEntity
  8
02製品
  6
ByBlock
100
AcDbLine
 10
11608.25833780686
 20
16375.86745908559
 30
0.0
 11
11608.25833780686
 21
16358.86745908559
 31
0.0
  0
LINE
  5
199A3
102
{ACAD_REACTORS
330
19A87
102
}
330
1F
100
AcDbEntity
  8
02製品
  6
ByBlock
100
AcDbLine
 10
11609.85833781037
 20
16375.86745908559
 30
0.0
 11
11609.85833781037
 21
16358.86745908559
 31
0.0
  0
LINE
  5
199A4
102
{ACAD_REACTORS
330
19A87
102
}
330
1F
100
AcDbEntity
  8
02製品
  6
ByBlock
100
AcDbLine
 10
11614.66230814729
 20
16359.86192014516
 30
0.0
 11
11609.85833781037
 21
16359.86192014516
 31
0.0
  0
LINE
  5
199A5
102
{ACAD_REACTORS
330
19A87
102
}
330
1F
100
AcDbEntity
  8
02製品
  6
ByBlock
100
AcDbLine
 10
11615.35833781037
 20
16373.66754429318
 30
0.0
 11
11615.35833781037
 21
16361.0674482646
 31
0.0
  0
ARC
  5
199A6
102
{ACAD_REACTORS
330
19A87
102
}
330
1F
100
AcDbEntity
  8
02製品
  6
ByBlock
100
AcDbCircle
 10
11603.35833781037
 20
16367.36745908559
 30
0.0
 40
12.0
100
AcDbArc
 50
341.7762176856132
 51
18.22401954975472
  0
LINE
  5
199A7
102
{ACAD_REACTORS
330
19A87
102
}
330
1F
100
AcDbEntity
  8
02製品
  6
ByBlock
100
AcDbLine
 10
11614.75643961701
 20
16363.61471250356
 30
0.0
 11
11609.85833781037
 21
16363.61471250356
 31
0.0
  0
LINE
  5
199A8
102
{ACAD_REACTORS
330
19A87
102
}
330
1F
100
AcDbEntity
  8
02製品
  6
ByBlock
100
AcDbLine
 10
11614.75642435822
 20
16371.12026670278
 30
0.0
 11
11609.85833781037
 21
16371.12026670278
 31
0.0
  0
LINE
  5
199A9
102
{ACAD_REACTORS
330
19A87
102
}
330
1F
100
AcDbEntity
  8
02製品
  6
ByBlock
100
AcDbLine
 10
11614.66230814729
 20
16374.87302854359
 30
0.0
 11
11609.85833781037
 21
16374.87302854359
 31
0.0
  0
LINE
  5
199AA
102
{ACAD_REACTORS
330
19A87
102
}
330
1F
100
AcDbEntity
  8
02製品
  6
ByBlock
100
AcDbLine
 10
11614.75643604742
 20
16371.1202903579
 30
0.0
 11
11615.35833781037
 21
16373.66754429318
 31
0.0
  0
LINE
  5
199AB
102
{ACAD_REACTORS
330
19A87
102
}
330
1F
100
AcDbEntity
  8
02製品
  6
ByBlock
100
AcDbLine
 10
11615.35833781037
 20
16361.0674482646
 30
0.0
 11
11614.75646177692
 21
16363.6147596369
 31
0.0
  0
LINE
  5
199AC
102
{ACAD_REACTORS
330
19A87
102
}
330
1F
100
AcDbEntity
  8
02製品
  6
ByBlock
100
AcDbLine
 10
11615.35833781037
 20
16361.0674482646
 30
0.0
 11
11614.66234021921
 21
16359.86194494157
 31
0.0
  0
LINE
  5
199AD
102
{ACAD_REACTORS
330
19A87
102
}
330
1F
100
AcDbEntity
  8
02製品
  6
ByBlock
100
AcDbLine
 10
11614.6623190238
 20
16374.87308432774
 30
0.0
 11
11615.35833781037
 21
16373.66754429318
 31
0.0
  0
LINE
  5
199AE
102
{ACAD_REACTORS
330
19A87
102
}
330
1F
100
AcDbEntity
  8
02製品
  6
ByBlock
100
AcDbLine
 10
11609.85833781037
 20
16298.86745908559
 30
0.0
 11
11608.25833780686
 21
16298.86745908559
 31
0.0
  0
LINE
  5
199AF
102
{ACAD_REACTORS
330
19A87
102
}
330
1F
100
AcDbEntity
  8
02製品
  6
ByBlock
100
AcDbLine
 10
11609.85833781037
 20
16315.86745908559
 30
0.0
 11
11608.25833780686
 21
16315.86745908559
 31
0.0
  0
LINE
  5
199B0
102
{ACAD_REACTORS
330
19A87
102
}
330
1F
100
AcDbEntity
  8
02製品
  6
ByBlock
100
AcDbLine
 10
11608.25833780686
 20
16315.86745908559
 30
0.0
 11
11608.25833780686
 21
16298.86745908559
 31
0.0
  0
LINE
  5
199B1
102
{ACAD_REACTORS
330
19A87
102
}
330
1F
100
AcDbEntity
  8
02製品
  6
ByBlock
100
AcDbLine
 10
11609.85833781037
 20
16315.86745908559
 30
0.0
 11
11609.85833781037
 21
16298.86745908559
 31
0.0
  0
LINE
  5
199B2
102
{ACAD_REACTORS
330
19A87
102
}
330
1F
100
AcDbEntity
  8
02製品
  6
ByBlock
100
AcDbLine
 10
11614.66230814729
 20
16299.86192014516
 30
0.0
 11
11609.85833781037
 21
16299.86192014516
 31
0.0
  0
LINE
  5
199B3
102
{ACAD_REACTORS
330
19A87
102
}
330
1F
100
AcDbEntity
  8
02製品
  6
ByBlock
100
AcDbLine
 10
11615.35833781037
 20
16313.66754429318
 30
0.0
 11
11615.35833781037
 21
16301.0674482646
 31
0.0
  0
ARC
  5
199B4
102
{ACAD_REACTORS
330
19A87
102
}
330
1F
100
AcDbEntity
  8
02製品
  6
ByBlock
100
AcDbCircle
 10
11603.35833781037
 20
16307.36745908559
 30
0.0
 40
12.0
100
AcDbArc
 50
341.7762176856132
 51
18.22401954975472
  0
LINE
  5
199B5
102
{ACAD_REACTORS
330
19A87
102
}
330
1F
100
AcDbEntity
  8
02製品
  6
ByBlock
100
AcDbLine
 10
11614.75643961701
 20
16303.61471250356
 30
0.0
 11
11609.85833781037
 21
16303.61471250356
 31
0.0
  0
LINE
  5
199B6
102
{ACAD_REACTORS
330
19A87
102
}
330
1F
100
AcDbEntity
  8
02製品
  6
ByBlock
100
AcDbLine
 10
11614.75642435822
 20
16311.12026670278
 30
0.0
 11
11609.85833781037
 21
16311.12026670278
 31
0.0
  0
LINE
  5
199B7
102
{ACAD_REACTORS
330
19A87
102
}
330
1F
100
AcDbEntity
  8
02製品
  6
ByBlock
100
AcDbLine
 10
11614.66230814729
 20
16314.87302854359
 30
0.0
 11
11609.85833781037
 21
16314.87302854359
 31
0.0
  0
LINE
  5
199B8
102
{ACAD_REACTORS
330
19A87
102
}
330
1F
100
AcDbEntity
  8
02製品
  6
ByBlock
100
AcDbLine
 10
11614.75643604742
 20
16311.1202903579
 30
0.0
 11
11615.35833781037
 21
16313.66754429318
 31
0.0
  0
LINE
  5
199B9
102
{ACAD_REACTORS
330
19A87
102
}
330
1F
100
AcDbEntity
  8
02製品
  6
ByBlock
100
AcDbLine
 10
11615.35833781037
 20
16301.0674482646
 30
0.0
 11
11614.75646177692
 21
16303.6147596369
 31
0.0
  0
LINE
  5
199BA
102
{ACAD_REACTORS
330
19A87
102
}
330
1F
100
AcDbEntity
  8
02製品
  6
ByBlock
100
AcDbLine
 10
11615.35833781037
 20
16301.0674482646
 30
0.0
 11
11614.66234021921
 21
16299.86194494157
 31
0.0
  0
LINE
  5
199BB
102
{ACAD_REACTORS
330
19A87
102
}
330
1F
100
AcDbEntity
  8
02製品
  6
ByBlock
100
AcDbLine
 10
11614.6623190238
 20
16314.87308432774
 30
0.0
 11
11615.35833781037
 21
16313.66754429318
 31
0.0
  0
LINE
  5
19A16
102
{ACAD_REACTORS
330
19AC5
102
}
330
1F
100
AcDbEntity
  8
02製品
  6
ByBlock
100
AcDbLine
 10
12942.40190716147
 20
16408.86745908559
 30
0.0
 11
12940.80190715796
 21
16408.86745908559
 31
0.0
  0
LINE
  5
19A17
102
{ACAD_REACTORS
330
19AC5
102
}
330
1F
100
AcDbEntity
  8
02製品
  6
ByBlock
100
AcDbLine
 10
12942.40190716147
 20
16425.86745908559
 30
0.0
 11
12940.80190715796
 21
16425.86745908559
 31
0.0
  0
LINE
  5
19A18
102
{ACAD_REACTORS
330
19AC5
102
}
330
1F
100
AcDbEntity
  8
02製品
  6
ByBlock
100
AcDbLine
 10
12940.80190715796
 20
16425.86745908559
 30
0.0
 11
12940.80190715796
 21
16408.86745908559
 31
0.0
  0
LINE
  5
19A19
102
{ACAD_REACTORS
330
19AC5
102
}
330
1F
100
AcDbEntity
  8
02製品
  6
ByBlock
100
AcDbLine
 10
12942.40190716147
 20
16425.86745908559
 30
0.0
 11
12942.40190716147
 21
16408.86745908559
 31
0.0
  0
LINE
  5
19A1A
102
{ACAD_REACTORS
330
19AC5
102
}
330
1F
100
AcDbEntity
  8
02製品
  6
ByBlock
100
AcDbLine
 10
12947.20587749839
 20
16409.86192014516
 30
0.0
 11
12942.40190716147
 21
16409.86192014516
 31
0.0
  0
LINE
  5
19A1B
102
{ACAD_REACTORS
330
19AC5
102
}
330
1F
100
AcDbEntity
  8
02製品
  6
ByBlock
100
AcDbLine
 10
12947.90190716147
 20
16423.66754429318
 30
0.0
 11
12947.90190716147
 21
16411.0674482646
 31
0.0
  0
LINE
  5
19A1C
102
{ACAD_REACTORS
330
19AC5
102
}
330
1F
100
AcDbEntity
  8
02製品
  6
ByBlock
100
AcDbLine
 10
12947.90190716147
 20
16411.0674482646
 30
0.0
 11
12947.30003112802
 21
16413.6147596369
 31
0.0
  0
ARC
  5
19A1D
102
{ACAD_REACTORS
330
19AC5
102
}
330
1F
100
AcDbEntity
  8
02製品
  6
ByBlock
100
AcDbCircle
 10
12935.90190716147
 20
16417.36745908559
 30
0.0
 40
12.0
100
AcDbArc
 50
341.7762176856132
 51
18.22401954975472
  0
LINE
  5
19A1E
102
{ACAD_REACTORS
330
19AC5
102
}
330
1F
100
AcDbEntity
  8
02製品
  6
ByBlock
100
AcDbLine
 10
12947.90190716147
 20
16411.0674482646
 30
0.0
 11
12947.20590957031
 21
16409.86194494157
 31
0.0
  0
LINE
  5
19A1F
102
{ACAD_REACTORS
330
19AC5
102
}
330
1F
100
AcDbEntity
  8
02製品
  6
ByBlock
100
AcDbLine
 10
12947.30000896811
 20
16413.61471250356
 30
0.0
 11
12942.40190716147
 21
16413.61471250356
 31
0.0
  0
LINE
  5
19A20
102
{ACAD_REACTORS
330
19AC5
102
}
330
1F
100
AcDbEntity
  8
02製品
  6
ByBlock
100
AcDbLine
 10
12947.29999370932
 20
16421.12026670278
 30
0.0
 11
12942.40190716147
 21
16421.12026670278
 31
0.0
  0
LINE
  5
19A21
102
{ACAD_REACTORS
330
19AC5
102
}
330
1F
100
AcDbEntity
  8
02製品
  6
ByBlock
100
AcDbLine
 10
12947.20587749839
 20
16424.87302854359
 30
0.0
 11
12942.40190716147
 21
16424.87302854359
 31
0.0
  0
LINE
  5
19A22
102
{ACAD_REACTORS
330
19AC5
102
}
330
1F
100
AcDbEntity
  8
02製品
  6
ByBlock
100
AcDbLine
 10
12947.30000539852
 20
16421.1202903579
 30
0.0
 11
12947.90190716147
 21
16423.66754429318
 31
0.0
  0
LINE
  5
19A23
102
{ACAD_REACTORS
330
19AC5
102
}
330
1F
100
AcDbEntity
  8
02製品
  6
ByBlock
100
AcDbLine
 10
12947.2058883749
 20
16424.87308432774
 30
0.0
 11
12947.90190716147
 21
16423.66754429318
 31
0.0
  0
LINE
  5
19A24
102
{ACAD_REACTORS
330
19AC5
102
}
330
1F
100
AcDbEntity
  8
02製品
  6
ByBlock
100
AcDbLine
 10
12942.40190716147
 20
16358.86745908559
 30
0.0
 11
12940.80190715796
 21
16358.86745908559
 31
0.0
  0
LINE
  5
19A25
102
{ACAD_REACTORS
330
19AC5
102
}
330
1F
100
AcDbEntity
  8
02製品
  6
ByBlock
100
AcDbLine
 10
12942.40190716147
 20
16375.86745908559
 30
0.0
 11
12940.80190715796
 21
16375.86745908559
 31
0.0
  0
LINE
  5
19A26
102
{ACAD_REACTORS
330
19AC5
102
}
330
1F
100
AcDbEntity
  8
02製品
  6
ByBlock
100
AcDbLine
 10
12940.80190715796
 20
16375.86745908559
 30
0.0
 11
12940.80190715796
 21
16358.86745908559
 31
0.0
  0
LINE
  5
19A27
102
{ACAD_REACTORS
330
19AC5
102
}
330
1F
100
AcDbEntity
  8
02製品
  6
ByBlock
100
AcDbLine
 10
12942.40190716147
 20
16375.86745908559
 30
0.0
 11
12942.40190716147
 21
16358.86745908559
 31
0.0
  0
LINE
  5
19A28
102
{ACAD_REACTORS
330
19AC5
102
}
330
1F
100
AcDbEntity
  8
02製品
  6
ByBlock
100
AcDbLine
 10
12947.20587749839
 20
16359.86192014516
 30
0.0
 11
12942.40190716147
 21
16359.86192014516
 31
0.0
  0
LINE
  5
19A29
102
{ACAD_REACTORS
330
19AC5
102
}
330
1F
100
AcDbEntity
  8
02製品
  6
ByBlock
100
AcDbLine
 10
12947.90190716147
 20
16373.66754429318
 30
0.0
 11
12947.90190716147
 21
16361.0674482646
 31
0.0
  0
ARC
  5
19A2A
102
{ACAD_REACTORS
330
19AC5
102
}
330
1F
100
AcDbEntity
  8
02製品
  6
ByBlock
100
AcDbCircle
 10
12935.90190716147
 20
16367.36745908559
 30
0.0
 40
12.0
100
AcDbArc
 50
341.7762176856132
 51
18.22401954975472
  0
LINE
  5
19A2B
102
{ACAD_REACTORS
330
19AC5
102
}
330
1F
100
AcDbEntity
  8
02製品
  6
ByBlock
100
AcDbLine
 10
12947.30000896811
 20
16363.61471250356
 30
0.0
 11
12942.40190716147
 21
16363.61471250356
 31
0.0
  0
LINE
  5
19A2C
102
{ACAD_REACTORS
330
19AC5
102
}
330
1F
100
AcDbEntity
  8
02製品
  6
ByBlock
100
AcDbLine
 10
12947.29999370932
 20
16371.12026670278
 30
0.0
 11
12942.40190716147
 21
16371.12026670278
 31
0.0
  0
LINE
  5
19A2D
102
{ACAD_REACTORS
330
19AC5
102
}
330
1F
100
AcDbEntity
  8
02製品
  6
ByBlock
100
AcDbLine
 10
12947.20587749839
 20
16374.87302854359
 30
0.0
 11
12942.40190716147
 21
16374.87302854359
 31
0.0
  0
LINE
  5
19A2E
102
{ACAD_REACTORS
330
19AC5
102
}
330
1F
100
AcDbEntity
  8
02製品
  6
ByBlock
100
AcDbLine
 10
12947.30000539852
 20
16371.1202903579
 30
0.0
 11
12947.90190716147
 21
16373.66754429318
 31
0.0
  0
LINE
  5
19A2F
102
{ACAD_REACTORS
330
19AC5
102
}
330
1F
100
AcDbEntity
  8
02製品
  6
ByBlock
100
AcDbLine
 10
12947.90190716147
 20
16361.0674482646
 30
0.0
 11
12947.30003112802
 21
16363.6147596369
 31
0.0
  0
LINE
  5
19A30
102
{ACAD_REACTORS
330
19AC5
102
}
330
1F
100
AcDbEntity
  8
02製品
  6
ByBlock
100
AcDbLine
 10
12947.90190716147
 20
16361.0674482646
 30
0.0
 11
12947.20590957031
 21
16359.86194494157
 31
0.0
  0
LINE
  5
19A31
102
{ACAD_REACTORS
330
19AC5
102
}
330
1F
100
AcDbEntity
  8
02製品
  6
ByBlock
100
AcDbLine
 10
12947.2058883749
 20
16374.87308432774
 30
0.0
 11
12947.90190716147
 21
16373.66754429318
 31
0.0
  0
LINE
  5
19A32
102
{ACAD_REACTORS
330
19AC5
102
}
330
1F
100
AcDbEntity
  8
02製品
  6
ByBlock
100
AcDbLine
 10
12942.40190716147
 20
16298.86745908559
 30
0.0
 11
12940.80190715796
 21
16298.86745908559
 31
0.0
  0
LINE
  5
19A33
102
{ACAD_REACTORS
330
19AC5
102
}
330
1F
100
AcDbEntity
  8
02製品
  6
ByBlock
100
AcDbLine
 10
12942.40190716147
 20
16315.86745908559
 30
0.0
 11
12940.80190715796
 21
16315.86745908559
 31
0.0
  0
LINE
  5
19A34
102
{ACAD_REACTORS
330
19AC5
102
}
330
1F
100
AcDbEntity
  8
02製品
  6
ByBlock
100
AcDbLine
 10
12940.80190715796
 20
16315.86745908559
 30
0.0
 11
12940.80190715796
 21
16298.86745908559
 31
0.0
  0
LINE
  5
19A35
102
{ACAD_REACTORS
330
19AC5
102
}
330
1F
100
AcDbEntity
  8
02製品
  6
ByBlock
100
AcDbLine
 10
12942.40190716147
 20
16315.86745908559
 30
0.0
 11
12942.40190716147
 21
16298.86745908559
 31
0.0
  0
LINE
  5
19A36
102
{ACAD_REACTORS
330
19AC5
102
}
330
1F
100
AcDbEntity
  8
02製品
  6
ByBlock
100
AcDbLine
 10
12947.20587749839
 20
16299.86192014516
 30
0.0
 11
12942.40190716147
 21
16299.86192014516
 31
0.0
  0
LINE
  5
19A37
102
{ACAD_REACTORS
330
19AC5
102
}
330
1F
100
AcDbEntity
  8
02製品
  6
ByBlock
100
AcDbLine
 10
12947.90190716147
 20
16313.66754429318
 30
0.0
 11
12947.90190716147
 21
16301.0674482646
 31
0.0
  0
ARC
  5
19A38
102
{ACAD_REACTORS
330
19AC5
102
}
330
1F
100
AcDbEntity
  8
02製品
  6
ByBlock
100
AcDbCircle
 10
12935.90190716147
 20
16307.36745908559
 30
0.0
 40
12.0
100
AcDbArc
 50
341.7762176856132
 51
18.22401954975472
  0
LINE
  5
19A39
102
{ACAD_REACTORS
330
19AC5
102
}
330
1F
100
AcDbEntity
  8
02製品
  6
ByBlock
100
AcDbLine
 10
12947.30000896811
 20
16303.61471250356
 30
0.0
 11
12942.40190716147
 21
16303.61471250356
 31
0.0
  0
LINE
  5
19A3A
102
{ACAD_REACTORS
330
19AC5
102
}
330
1F
100
AcDbEntity
  8
02製品
  6
ByBlock
100
AcDbLine
 10
12947.29999370932
 20
16311.12026670278
 30
0.0
 11
12942.40190716147
 21
16311.12026670278
 31
0.0
  0
LINE
  5
19A3B
102
{ACAD_REACTORS
330
19AC5
102
}
330
1F
100
AcDbEntity
  8
02製品
  6
ByBlock
100
AcDbLine
 10
12947.20587749839
 20
16314.87302854359
 30
0.0
 11
12942.40190716147
 21
16314.87302854359
 31
0.0
  0
LINE
  5
19A3C
102
{ACAD_REACTORS
330
19AC5
102
}
330
1F
100
AcDbEntity
  8
02製品
  6
ByBlock
100
AcDbLine
 10
12947.30000539852
 20
16311.1202903579
 30
0.0
 11
12947.90190716147
 21
16313.66754429318
 31
0.0
  0
LINE
  5
19A3D
102
{ACAD_REACTORS
330
19AC5
102
}
330
1F
100
AcDbEntity
  8
02製品
  6
ByBlock
100
AcDbLine
 10
12947.90190716147
 20
16301.0674482646
 30
0.0
 11
12947.30003112802
 21
16303.6147596369
 31
0.0
  0
LINE
  5
19A3E
102
{ACAD_REACTORS
330
19AC5
102
}
330
1F
100
AcDbEntity
  8
02製品
  6
ByBlock
100
AcDbLine
 10
12947.90190716147
 20
16301.0674482646
 30
0.0
 11
12947.20590957031
 21
16299.86194494157
 31
0.0
  0
LINE
  5
19A3F
102
{ACAD_REACTORS
330
19AC5
102
}
330
1F
100
AcDbEntity
  8
02製品
  6
ByBlock
100
AcDbLine
 10
12947.2058883749
 20
16314.87308432774
 30
0.0
 11
12947.90190716147
 21
16313.66754429318
 31
0.0
  0
LINE
  5
19A8D
102
{ACAD_REACTORS
330
19AC5
102
}
330
1F
100
AcDbEntity
  8
02製品
  6
ByBlock
100
AcDbLine
 10
12194.20193614651
 20
16010.86745997965
 30
0.0
 11
12195.80193615003
 21
16010.86745997965
 31
0.0
  0
LINE
  5
19A8E
102
{ACAD_REACTORS
330
19AC5
102
}
330
1F
100
AcDbEntity
  8
02製品
  6
ByBlock
100
AcDbLine
 10
12189.3979658096
 20
15994.86192103922
 30
0.0
 11
12194.20193614651
 21
15994.86192103922
 31
0.0
  0
LINE
  5
19A8F
102
{ACAD_REACTORS
330
19AC5
102
}
330
1F
100
AcDbEntity
  8
02製品
  6
ByBlock
100
AcDbLine
 10
12188.70193614651
 20
16008.66754518725
 30
0.0
 11
12188.70193614651
 21
15996.06744915867
 31
0.0
  0
ARC
  5
19A90
102
{ACAD_REACTORS
330
19AC5
102
}
330
1F
100
AcDbEntity
  8
02製品
  6
ByBlock
100
AcDbCircle
 10
12200.70193614652
 20
16002.36745997965
 30
0.0
 40
12.0
100
AcDbArc
 50
161.7759804502453
 51
198.2237823143868
  0
LINE
  5
19A91
102
{ACAD_REACTORS
330
19AC5
102
}
330
1F
100
AcDbEntity
  8
02製品
  6
ByBlock
100
AcDbLine
 10
12189.30383433987
 20
15998.61471339762
 30
0.0
 11
12194.20193614651
 21
15998.61471339762
 31
0.0
  0
LINE
  5
19A92
102
{ACAD_REACTORS
330
19AC5
102
}
330
1F
100
AcDbEntity
  8
02製品
  6
ByBlock
100
AcDbLine
 10
12189.30384959866
 20
16006.12026759684
 30
0.0
 11
12194.20193614651
 21
16006.12026759684
 31
0.0
  0
LINE
  5
19A93
102
{ACAD_REACTORS
330
19AC5
102
}
330
1F
100
AcDbEntity
  8
02製品
  6
ByBlock
100
AcDbLine
 10
12189.3979658096
 20
16009.87302943766
 30
0.0
 11
12194.20193614651
 21
16009.87302943766
 31
0.0
  0
LINE
  5
19A94
102
{ACAD_REACTORS
330
19AC5
102
}
330
1F
100
AcDbEntity
  8
02製品
  6
ByBlock
100
AcDbLine
 10
12189.30383790946
 20
16006.12029125196
 30
0.0
 11
12188.70193614651
 21
16008.66754518725
 31
0.0
  0
LINE
  5
19A95
102
{ACAD_REACTORS
330
19AC5
102
}
330
1F
100
AcDbEntity
  8
02製品
  6
ByBlock
100
AcDbLine
 10
12188.70193614651
 20
15996.06744915867
 30
0.0
 11
12189.30381217996
 21
15998.61476053096
 31
0.0
  0
LINE
  5
19A96
102
{ACAD_REACTORS
330
19AC5
102
}
330
1F
100
AcDbEntity
  8
02製品
  6
ByBlock
100
AcDbLine
 10
12188.70193614651
 20
15996.06744915867
 30
0.0
 11
12189.39793373767
 21
15994.86194583564
 31
0.0
  0
LINE
  5
19A97
102
{ACAD_REACTORS
330
19AC5
102
}
330
1F
100
AcDbEntity
  8
02製品
  6
ByBlock
100
AcDbLine
 10
12189.39795493309
 20
16009.87308522181
 30
0.0
 11
12188.70193614651
 21
16008.66754518725
 31
0.0
  0
LINE
  5
19A98
102
{ACAD_REACTORS
330
19AC5
102
}
330
1F
100
AcDbEntity
  8
02製品
  6
ByBlock
100
AcDbLine
 10
12194.20193614651
 20
16010.86745997965
 30
0.0
 11
12194.20193614651
 21
15993.86745997965
 31
0.0
  0
LINE
  5
19A99
102
{ACAD_REACTORS
330
19AC5
102
}
330
1F
100
AcDbEntity
  8
02製品
  6
ByBlock
100
AcDbLine
 10
12194.20193614651
 20
15993.86745997965
 30
0.0
 11
12195.80193615003
 21
15993.86745997965
 31
0.0
  0
LINE
  5
19A9A
102
{ACAD_REACTORS
330
19AC5
102
}
330
1F
100
AcDbEntity
  8
02製品
  6
ByBlock
100
AcDbLine
 10
12195.80193615003
 20
16010.86745997965
 30
0.0
 11
12195.80193615003
 21
15993.86745997965
 31
0.0
  0
LINE
  5
19A9B
102
{ACAD_REACTORS
330
19AC5
102
}
330
1F
100
AcDbEntity
  8
02製品
  6
ByBlock
100
AcDbLine
 10
12194.20193614651
 20
15970.86745997965
 30
0.0
 11
12195.80193615003
 21
15970.86745997965
 31
0.0
  0
LINE
  5
19A9C
102
{ACAD_REACTORS
330
19AC5
102
}
330
1F
100
AcDbEntity
  8
02製品
  6
ByBlock
100
AcDbLine
 10
12189.3979658096
 20
15954.86192103922
 30
0.0
 11
12194.20193614651
 21
15954.86192103922
 31
0.0
  0
LINE
  5
19A9D
102
{ACAD_REACTORS
330
19AC5
102
}
330
1F
100
AcDbEntity
  8
02製品
  6
ByBlock
100
AcDbLine
 10
12188.70193614651
 20
15968.66754518725
 30
0.0
 11
12188.70193614651
 21
15956.06744915867
 31
0.0
  0
ARC
  5
19A9E
102
{ACAD_REACTORS
330
19AC5
102
}
330
1F
100
AcDbEntity
  8
02製品
  6
ByBlock
100
AcDbCircle
 10
12200.70193614652
 20
15962.36745997965
 30
0.0
 40
12.0
100
AcDbArc
 50
161.7759804502453
 51
198.2237823143868
  0
LINE
  5
19A9F
102
{ACAD_REACTORS
330
19AC5
102
}
330
1F
100
AcDbEntity
  8
02製品
  6
ByBlock
100
AcDbLine
 10
12189.30383433987
 20
15958.61471339762
 30
0.0
 11
12194.20193614651
 21
15958.61471339762
 31
0.0
  0
LINE
  5
19AA0
102
{ACAD_REACTORS
330
19AC5
102
}
330
1F
100
AcDbEntity
  8
02製品
  6
ByBlock
100
AcDbLine
 10
12189.30384959866
 20
15966.12026759684
 30
0.0
 11
12194.20193614651
 21
15966.12026759684
 31
0.0
  0
LINE
  5
19AA1
102
{ACAD_REACTORS
330
19AC5
102
}
330
1F
100
AcDbEntity
  8
02製品
  6
ByBlock
100
AcDbLine
 10
12189.3979658096
 20
15969.87302943766
 30
0.0
 11
12194.20193614651
 21
15969.87302943766
 31
0.0
  0
LINE
  5
19AA2
102
{ACAD_REACTORS
330
19AC5
102
}
330
1F
100
AcDbEntity
  8
02製品
  6
ByBlock
100
AcDbLine
 10
12189.30383790946
 20
15966.12029125196
 30
0.0
 11
12188.70193614651
 21
15968.66754518725
 31
0.0
  0
LINE
  5
19AA3
102
{ACAD_REACTORS
330
19AC5
102
}
330
1F
100
AcDbEntity
  8
02製品
  6
ByBlock
100
AcDbLine
 10
12188.70193614651
 20
15956.06744915867
 30
0.0
 11
12189.30381217996
 21
15958.61476053096
 31
0.0
  0
LINE
  5
19AA4
102
{ACAD_REACTORS
330
19AC5
102
}
330
1F
100
AcDbEntity
  8
02製品
  6
ByBlock
100
AcDbLine
 10
12188.70193614651
 20
15956.06744915867
 30
0.0
 11
12189.39793373767
 21
15954.86194583564
 31
0.0
  0
LINE
  5
19AA5
102
{ACAD_REACTORS
330
19AC5
102
}
330
1F
100
AcDbEntity
  8
02製品
  6
ByBlock
100
AcDbLine
 10
12189.39795493309
 20
15969.87308522181
 30
0.0
 11
12188.70193614651
 21
15968.66754518725
 31
0.0
  0
LINE
  5
19AA6
102
{ACAD_REACTORS
330
19AC5
102
}
330
1F
100
AcDbEntity
  8
02製品
  6
ByBlock
100
AcDbLine
 10
12194.20193614651
 20
15970.86745997965
 30
0.0
 11
12194.20193614651
 21
15953.86745997965
 31
0.0
  0
LINE
  5
19AA7
102
{ACAD_REACTORS
330
19AC5
102
}
330
1F
100
AcDbEntity
  8
02製品
  6
ByBlock
100
AcDbLine
 10
12194.20193614651
 20
15953.86745997965
 30
0.0
 11
12195.80193615003
 21
15953.86745997965
 31
0.0
  0
LINE
  5
19AA8
102
{ACAD_REACTORS
330
19AC5
102
}
330
1F
100
AcDbEntity
  8
02製品
  6
ByBlock
100
AcDbLine
 10
12195.80193615003
 20
15970.86745997965
 30
0.0
 11
12195.80193615003
 21
15953.86745997965
 31
0.0
  0
LINE
  5
19AA9
102
{ACAD_REACTORS
330
19AC5
102
}
330
1F
100
AcDbEntity
  8
02製品
  6
ByBlock
100
AcDbLine
 10
12940.40193291068
 20
15993.86745997965
 30
0.0
 11
12938.80193290716
 21
15993.86745997965
 31
0.0
  0
LINE
  5
19AAA
102
{ACAD_REACTORS
330
19AC5
102
}
330
1F
100
AcDbEntity
  8
02製品
  6
ByBlock
100
AcDbLine
 10
12940.40193291068
 20
16010.86745997965
 30
0.0
 11
12938.80193290716
 21
16010.86745997965
 31
0.0
  0
LINE
  5
19AAB
102
{ACAD_REACTORS
330
19AC5
102
}
330
1F
100
AcDbEntity
  8
02製品
  6
ByBlock
100
AcDbLine
 10
12938.80193290716
 20
16010.86745997965
 30
0.0
 11
12938.80193290716
 21
15993.86745997965
 31
0.0
  0
LINE
  5
19AAC
102
{ACAD_REACTORS
330
19AC5
102
}
330
1F
100
AcDbEntity
  8
02製品
  6
ByBlock
100
AcDbLine
 10
12940.40193291068
 20
16010.86745997965
 30
0.0
 11
12940.40193291068
 21
15993.86745997965
 31
0.0
  0
LINE
  5
19AAD
102
{ACAD_REACTORS
330
19AC5
102
}
330
1F
100
AcDbEntity
  8
02製品
  6
ByBlock
100
AcDbLine
 10
12945.20590324759
 20
15994.86192103922
 30
0.0
 11
12940.40193291068
 21
15994.86192103922
 31
0.0
  0
LINE
  5
19AAE
102
{ACAD_REACTORS
330
19AC5
102
}
330
1F
100
AcDbEntity
  8
02製品
  6
ByBlock
100
AcDbLine
 10
12945.90193291068
 20
16008.66754518725
 30
0.0
 11
12945.90193291068
 21
15996.06744915867
 31
0.0
  0
ARC
  5
19AAF
102
{ACAD_REACTORS
330
19AC5
102
}
330
1F
100
AcDbEntity
  8
02製品
  6
ByBlock
100
AcDbCircle
 10
12933.90193291068
 20
16002.36745997965
 30
0.0
 40
12.0
100
AcDbArc
 50
341.7762176856132
 51
18.22401954975472
  0
LINE
  5
19AB0
102
{ACAD_REACTORS
330
19AC5
102
}
330
1F
100
AcDbEntity
  8
02製品
  6
ByBlock
100
AcDbLine
 10
12945.30003471732
 20
15998.61471339762
 30
0.0
 11
12940.40193291068
 21
15998.61471339762
 31
0.0
  0
LINE
  5
19AB1
102
{ACAD_REACTORS
330
19AC5
102
}
330
1F
100
AcDbEntity
  8
02製品
  6
ByBlock
100
AcDbLine
 10
12945.30001945853
 20
16006.12026759684
 30
0.0
 11
12940.40193291068
 21
16006.12026759684
 31
0.0
  0
LINE
  5
19AB2
102
{ACAD_REACTORS
330
19AC5
102
}
330
1F
100
AcDbEntity
  8
02製品
  6
ByBlock
100
AcDbLine
 10
12945.20590324759
 20
16009.87302943766
 30
0.0
 11
12940.40193291068
 21
16009.87302943766
 31
0.0
  0
LINE
  5
19AB3
102
{ACAD_REACTORS
330
19AC5
102
}
330
1F
100
AcDbEntity
  8
02製品
  6
ByBlock
100
AcDbLine
 10
12945.30003114773
 20
16006.12029125196
 30
0.0
 11
12945.90193291068
 21
16008.66754518725
 31
0.0
  0
LINE
  5
19AB4
102
{ACAD_REACTORS
330
19AC5
102
}
330
1F
100
AcDbEntity
  8
02製品
  6
ByBlock
100
AcDbLine
 10
12945.90193291068
 20
15996.06744915867
 30
0.0
 11
12945.30005687723
 21
15998.61476053096
 31
0.0
  0
LINE
  5
19AB5
102
{ACAD_REACTORS
330
19AC5
102
}
330
1F
100
AcDbEntity
  8
02製品
  6
ByBlock
100
AcDbLine
 10
12945.90193291068
 20
15996.06744915867
 30
0.0
 11
12945.20593531952
 21
15994.86194583564
 31
0.0
  0
LINE
  5
19AB6
102
{ACAD_REACTORS
330
19AC5
102
}
330
1F
100
AcDbEntity
  8
02製品
  6
ByBlock
100
AcDbLine
 10
12945.2059141241
 20
16009.87308522181
 30
0.0
 11
12945.90193291068
 21
16008.66754518725
 31
0.0
  0
LINE
  5
19AB7
102
{ACAD_REACTORS
330
19AC5
102
}
330
1F
100
AcDbEntity
  8
02製品
  6
ByBlock
100
AcDbLine
 10
12940.40193291068
 20
15953.86745997965
 30
0.0
 11
12938.80193290716
 21
15953.86745997965
 31
0.0
  0
LINE
  5
19AB8
102
{ACAD_REACTORS
330
19AC5
102
}
330
1F
100
AcDbEntity
  8
02製品
  6
ByBlock
100
AcDbLine
 10
12940.40193291068
 20
15970.86745997965
 30
0.0
 11
12938.80193290716
 21
15970.86745997965
 31
0.0
  0
LINE
  5
19AB9
102
{ACAD_REACTORS
330
19AC5
102
}
330
1F
100
AcDbEntity
  8
02製品
  6
ByBlock
100
AcDbLine
 10
12938.80193290716
 20
15970.86745997965
 30
0.0
 11
12938.80193290716
 21
15953.86745997965
 31
0.0
  0
LINE
  5
19ABA
102
{ACAD_REACTORS
330
19AC5
102
}
330
1F
100
AcDbEntity
  8
02製品
  6
ByBlock
100
AcDbLine
 10
12940.40193291068
 20
15970.86745997965
 30
0.0
 11
12940.40193291068
 21
15953.86745997965
 31
0.0
  0
LINE
  5
19ABB
102
{ACAD_REACTORS
330
19AC5
102
}
330
1F
100
AcDbEntity
  8
02製品
  6
ByBlock
100
AcDbLine
 10
12945.20590324759
 20
15954.86192103922
 30
0.0
 11
12940.40193291068
 21
15954.86192103922
 31
0.0
  0
LINE
  5
19ABC
102
{ACAD_REACTORS
330
19AC5
102
}
330
1F
100
AcDbEntity
  8
02製品
  6
ByBlock
100
AcDbLine
 10
12945.90193291068
 20
15968.66754518725
 30
0.0
 11
12945.90193291068
 21
15956.06744915867
 31
0.0
  0
ARC
  5
19ABD
102
{ACAD_REACTORS
330
19AC5
102
}
330
1F
100
AcDbEntity
  8
02製品
  6
ByBlock
100
AcDbCircle
 10
12933.90193291068
 20
15962.36745997965
 30
0.0
 40
12.0
100
AcDbArc
 50
341.7762176856132
 51
18.22401954975472
  0
LINE
  5
19ABE
102
{ACAD_REACTORS
330
19AC5
102
}
330
1F
100
AcDbEntity
  8
02製品
  6
ByBlock
100
AcDbLine
 10
12945.30003471732
 20
15958.61471339762
 30
0.0
 11
12940.40193291068
 21
15958.61471339762
 31
0.0
  0
LINE
  5
19ABF
102
{ACAD_REACTORS
330
19AC5
102
}
330
1F
100
AcDbEntity
  8
02製品
  6
ByBlock
100
AcDbLine
 10
12945.30001945853
 20
15966.12026759684
 30
0.0
 11
12940.40193291068
 21
15966.12026759684
 31
0.0
  0
LINE
  5
19AC0
102
{ACAD_REACTORS
330
19AC5
102
}
330
1F
100
AcDbEntity
  8
02製品
  6
ByBlock
100
AcDbLine
 10
12945.20590324759
 20
15969.87302943766
 30
0.0
 11
12940.40193291068
 21
15969.87302943766
 31
0.0
  0
LINE
  5
19AC1
102
{ACAD_REACTORS
330
19AC5
102
}
330
1F
100
AcDbEntity
  8
02製品
  6
ByBlock
100
AcDbLine
 10
12945.30003114773
 20
15966.12029125196
 30
0.0
 11
12945.90193291068
 21
15968.66754518725
 31
0.0
  0
LINE
  5
19AC2
102
{ACAD_REACTORS
330
19AC5
102
}
330
1F
100
AcDbEntity
  8
02製品
  6
ByBlock
100
AcDbLine
 10
12945.90193291068
 20
15956.06744915867
 30
0.0
 11
12945.30005687723
 21
15958.61476053096
 31
0.0
  0
LINE
  5
19AC3
102
{ACAD_REACTORS
330
19AC5
102
}
330
1F
100
AcDbEntity
  8
02製品
  6
ByBlock
100
AcDbLine
 10
12945.90193291068
 20
15956.06744915867
 30
0.0
 11
12945.20593531952
 21
15954.86194583564
 31
0.0
  0
LINE
  5
19AC4
102
{ACAD_REACTORS
330
19AC5
102
}
330
1F
100
AcDbEntity
  8
02製品
  6
ByBlock
100
AcDbLine
 10
12945.2059141241
 20
15969.87308522181
 30
0.0
 11
12945.90193291068
 21
15968.66754518725
 31
0.0
  0
ENDSEC
  0
SECTION
  2
OBJECTS
  0
DICTIONARY
  5
C
330
0
100
AcDbDictionary
281
     1
  3
ACAD_DETAILVIEWSTYLE
350
ADAF
  3
ACAD_GROUP
350
D
  3
ACAD_IMAGE_VARS
350
6A88
  3
ACAD_LAYOUT
350
1A
  3
ACAD_MLINESTYLE
350
17
  3
ACAD_PLOTSETTINGS
350
19
  3
ACAD_PLOTSTYLENAME
350
E
  3
ACAD_SCALELIST
350
6A4E
  3
ACAD_SECTIONVIEWSTYLE
350
ADB0
  3
AcadDim
350
813A
  3
AcDbVariableDictionary
350
79E
  3
AEC_DISP_REPS
350
8259
  3
AEC_DISPLAY_PROPS_DEFAULTS
350
825B
  3
AEC_VARS
350
8257
  3
APPDATA
350
6A87
  3
DWGPROPS
350
19AFE
  0
DICTIONARY
  5
7A6F
330
2
100
AcDbDictionary
280
     1
281
     1
  3
ACAD_LAYERFILTERS
360
A22F
  3
ACAD_LAYERSTATES
360
7A70
  3
ACLYDICTIONARY
360
163AB
  0
DICTIONARY
  5
CBD6
330
1F
100
AcDbDictionary
280
     1
281
     1
  3
ACAD_SORTENTS
360
CBD7
  0
DICTIONARY
  5
ADAF
102
{ACAD_REACTORS
330
C
102
}
330
C
100
AcDbDictionary
281
     1
  0
DICTIONARY
  5
D
102
{ACAD_REACTORS
330
C
102
}
330
C
100
AcDbDictionary
281
     1
  3
*A1
350
19A86
  3
*A2
350
19A87
  3
*A3
350
19AC5
  0
RASTERVARIABLES
  5
6A88
102
{ACAD_REACTORS
330
C
102
}
330
C
100
AcDbRasterVariables
 90
        0
 70
     1
 71
     1
 72
     1
  0
DICTIONARY
  5
1A
102
{ACAD_REACTORS
330
C
102
}
330
C
100
AcDbDictionary
281
     1
  3
Layout1
350
1E
  3
Layout2
350
26
  3
Model
350
22
  0
DICTIONARY
  5
17
102
{ACAD_REACTORS
330
C
102
}
330
C
100
AcDbDictionary
281
     1
  3
Standard
350
18
  0
DICTIONARY
  5
19
102
{ACAD_REACTORS
330
C
102
}
330
C
100
AcDbDictionary
281
     1
  0
ACDBDICTIONARYWDFLT
  5
E
102
{ACAD_REACTORS
330
C
102
}
330
C
100
AcDbDictionary
281
     1
  3
Normal
350
F
100
AcDbDictionaryWithDefault
340
F
  0
DICTIONARY
  5
6A4E
102
{ACAD_REACTORS
330
C
102
}
330
C
100
AcDbDictionary
281
     1
  3
A0
350
6A4F
  3
A1
350
6A50
  3
A2
350
6A51
  3
A3
350
6A52
  3
A4
350
6A53
  3
A5
350
6A54
  3
A6
350
6A55
  3
A7
350
6A56
  3
A8
350
6A57
  3
A9
350
6A58
  3
B0
350
6A59
  3
B1
350
6A5A
  3
B2
350
6A5B
  3
B3
350
6A5C
  3
B4
350
6A5D
  3
B5
350
6A5E
  3
B6
350
6A5F
  3
B7
350
6A60
  3
B8
350
6A61
  3
B9
350
6A62
  3
C0
350
6A63
  3
C1
350
6A64
  3
C2
350
6A65
  3
C3
350
6A66
  3
C4
350
6A67
  3
C5
350
6A68
  3
C6
350
6A69
  3
C7
350
6A6A
  3
C8
350
6A6B
  3
C9
350
6A6C
  3
D0
350
6A6D
  3
D1
350
6A6E
  3
D2
350
6A6F
  0
DICTIONARY
  5
ADB0
102
{ACAD_REACTORS
330
C
102
}
330
C
100
AcDbDictionary
281
     1
  0
XRECORD
  5
813A
102
{ACAD_REACTORS
330
C
102
}
330
C
100
AcDbXrecord
280
     1
340
0
 72
     0
 71
     0
 70
     0
 69
     0
 68
     1
 67
     3
 66
     0
 65
     0
 64
     0
 63
     3
 62
     1
 61
     0
 60
     0
 40
0.0
  0
DICTIONARY
  5
79E
102
{ACAD_REACTORS
330
C
102
}
330
C
100
AcDbDictionary
281
     1
  3
DIMASSOC
350
79F
  3
SORTENTS
350
264F
  0
DICTIONARY
  5
8259
102
{ACAD_REACTORS
330
C
102
}
330
C
100
AcDbDictionary
281
     1
  3
AecDbDispRep2dSection
350
825A
  3
AecDbDispRepAnchor
350
8294
  3
AecDbDispRepAnchorEntToNode
350
8295
  3
AecDbDispRepClipVolModel
350
8261
  3
AecDbDispRepClipVolPlan
350
8263
  3
AecDbDispRepClipVolResSubDiv
350
8266
  3
AecDbDispRepClipVolResult
350
8265
  3
AecDbDispRepDisplayTheme
350
8268
  3
AecDbDispRepEditInPlaceProfile
350
8299
  3
AecDbDispRepEntRef
350
826A
  3
AecDbDispRepLayoutCurve
350
826C
  3
AecDbDispRepLayoutGrid2d
350
826E
  3
AecDbDispRepLayoutGrid3d
350
8270
  3
AecDbDispRepMaskBlockRef
350
8272
  3
AecDbDispRepMaskBlockRefRcp
350
8274
  3
AecDbDispRepMassElemModel
350
8276
  3
AecDbDispRepMassElemPlan100
350
827C
  3
AecDbDispRepMassElemPlan50
350
827A
  3
AecDbDispRepMassElemRcp
350
827E
  3
AecDbDispRepMassElemSchem
350
8278
  3
AecDbDispRepMassGroupModel
350
8280
  3
AecDbDispRepMassGroupPlan
350
8282
  3
AecDbDispRepMassGroupPlan100
350
8286
  3
AecDbDispRepMassGroupPlan50
350
8284
  3
AecDbDispRepMassGroupRcp
350
8288
  3
AecDbDispRepMaterial
350
8297
  3
AecDbDispRepMvBlockRef
350
828A
  3
AecDbDispRepMvBlockRefModel
350
828B
  3
AecDbDispRepMvBlockRefPlan100
350
828C
  3
AecDbDispRepMvBlockRefPlan50
350
828D
  3
AecDbDispRepPolygonModel
350
828E
  3
AecDbDispRepPolygonTrueColour
350
8290
  3
AecDbDispRepSlice
350
8292
  0
DICTIONARY
  5
825B
102
{ACAD_REACTORS
330
C
102
}
330
C
100
AcDbDictionary
281
     1
  3
*A1
350
825C
  3
*A10
350
827D
  3
*A11
350
827F
  3
*A12
350
8296
  3
*A13
350
8281
  3
*A14
350
8285
  3
*A15
350
8262
  3
*A16
350
8287
  3
*A17
350
8289
  3
*A18
350
828F
  3
*A19
350
8291
  3
*A2
350
826D
  3
*A20
350
8293
  3
*A21
350
8298
  3
*A22
350
8273
  3
*A23
350
829A
  3
*A24
350
8264
  3
*A25
350
8267
  3
*A26
350
8269
  3
*A27
350
826B
  3
*A3
350
826F
  3
*A4
350
8283
  3
*A5
350
8271
  3
*A6
350
8275
  3
*A7
350
8277
  3
*A8
350
8279
  3
*A9
350
827B
  0
DICTIONARY
  5
8257
102
{ACAD_REACTORS
330
C
102
}
330
C
100
AcDbDictionary
281
     1
  3
AEC_VARS_DWG_SETUP
350
8258
  0
DICTIONARY
  5
6A87
102
{ACAD_REACTORS
330
C
102
}
330
C
100
AcDbDictionary
281
     1
  0
XRECORD
  5
19AFE
102
{ACAD_REACTORS
330
C
102
}
330
C
100
AcDbXrecord
280
     1
  1
DWGPROPS COOKIE
  2

  3

  4

  6

  7

  8
Sales
  9

300
=
301
=
302
=
303
=
304
=
305
=
306
=
307
=
308
=
309
=
 40
0.0
 41
2455859.030048461
 42
2458970.323095533
  1

 90
        0
  0
DICTIONARY
  5
A22F
102
{ACAD_REACTORS
330
7A6F
102
}
330
7A6F
100
AcDbDictionary
280
     1
281
     1
  0
DICTIONARY
  5
7A70
102
{ACAD_REACTORS
330
7A6F
102
}
330
7A6F
100
AcDbDictionary
281
     1
  0
DICTIONARY
  5
163AB
102
{ACAD_REACTORS
330
7A6F
102
}
330
7A6F
100
AcDbDictionary
281
     1
1001
ACAD
1000
<All
  0
SORTENTSTABLE
  5
CBD7
102
{ACAD_REACTORS
330
CBD6
102
}
330
CBD6
100
AcDbSortentsTable
330
1F
331
0
  5
98EA
  0
GROUP
  5
19A86
102
{ACAD_REACTORS
330
D
102
}
330
D
100
AcDbGroup
300

 70
     1
 71
     1
340
1934F
340
19350
340
19351
340
19352
340
19353
340
19354
340
19355
340
19356
340
19357
340
19358
340
19359
340
1935A
340
1935B
340
1935C
340
1935D
340
1935E
340
1935F
340
19360
340
19361
340
19362
340
19363
340
19364
340
19365
340
19366
340
19367
340
19368
340
19369
340
1936A
340
1936B
340
1936C
340
1936D
340
1936E
340
1936F
340
19370
340
19371
340
19372
340
19373
340
19374
340
19375
340
19376
340
19377
340
19378
340
19379
340
1937A
340
1937B
340
1937C
340
1937D
340
1937E
340
1937F
340
19380
340
19381
340
19382
340
19383
340
19384
340
19385
340
19386
340
19387
340
19388
340
19389
340
1938A
340
1938B
340
1938C
340
1938D
340
1938E
340
1938F
340
19390
340
19391
340
19392
340
19393
340
19394
340
19395
340
19396
340
19397
340
19398
340
19399
340
1939A
340
1939B
340
1939C
340
1939D
340
1939E
340
1939F
340
193A0
340
1962E
340
1962F
340
19630
340
19631
340
19632
340
19633
340
19634
340
19635
340
19636
340
19637
340
19639
340
1963A
340
1963B
340
1963C
340
1963E
340
1963F
340
19640
340
19641
340
19642
340
19644
340
19645
340
19646
340
19647
340
1964B
340
1964D
340
1965B
340
1965C
340
1965D
340
1965E
340
1965F
340
19660
340
19661
340
19662
340
19663
340
19664
340
19665
340
19666
340
19667
340
19668
340
19669
340
1966A
340
1966B
340
1966C
  0
GROUP
  5
19A87
102
{ACAD_REACTORS
330
D
102
}
330
D
100
AcDbGroup
300

 70
     1
 71
     1
340
19265
340
19266
340
19267
340
19268
340
19269
340
1926A
340
1926B
340
1926C
340
1926D
340
1926E
340
1926F
340
19270
340
19271
340
19272
340
19273
340
19274
340
19275
340
19276
340
19277
340
19278
340
19279
340
1927A
340
1927B
340
1927C
340
1927D
340
1927E
340
1927F
340
19280
340
19281
340
19282
340
19283
340
19284
340
19285
340
19286
340
19287
340
19288
340
19289
340
1928A
340
1928B
340
1928C
340
1928D
340
1928E
340
1928F
340
19290
340
19291
340
19292
340
19293
340
19294
340
19295
340
19296
340
19297
340
19298
340
19299
340
1929A
340
1929B
340
1929C
340
1929D
340
1929E
340
1929F
340
192A0
340
192A1
340
192A2
340
192A3
340
192A4
340
192A5
340
192A6
340
192A7
340
192A8
340
192A9
340
192AA
340
192AB
340
192AC
340
192AD
340
192AE
340
192AF
340
192B0
340
192B1
340
192B2
340
192B3
340
192B4
340
192B5
340
192B6
340
19677
340
1967C
340
19681
340
196C1
340
196C2
340
196C3
340
196C4
340
196C5
340
196C6
340
196C7
340
196C8
340
196C9
340
196CA
340
196CB
340
196CC
340
196CD
340
196CE
340
196CF
340
196D0
340
196D1
340
196D2
340
196D3
340
196D4
340
196D5
340
196D6
340
196D7
340
196D8
340
196D9
340
196DA
340
196DB
340
196DC
340
196DD
340
196DE
340
196DF
340
196E0
340
196E1
340
196E2
340
196E3
340
196E4
340
196E5
340
196E6
340
196E7
340
196E8
340
196E9
340
196EA
340
196EB
340
196EC
340
196ED
340
196EE
340
196EF
340
196F0
340
196F1
340
196F2
340
196F3
340
196F4
340
196F5
340
196F6
340
196F7
340
196F8
340
196F9
340
196FA
340
196FB
340
196FC
340
196FD
340
196FE
340
196FF
340
19700
340
19701
340
19702
340
19703
340
19704
340
19705
340
19706
340
19707
340
19708
340
19709
340
1970A
340
1970B
340
1970C
340
1970D
340
1970E
340
1970F
340
19710
340
19711
340
19712
340
19713
340
19714
340
19715
340
19716
340
19717
340
19718
340
19719
340
1971A
340
1971B
340
1971C
340
1971D
340
1971E
340
1971F
340
19720
340
19721
340
19722
340
19723
340
19724
340
19725
340
19726
340
19727
340
19728
340
19729
340
1972A
340
1972B
340
1972C
340
1972D
340
1972E
340
1972F
340
19730
340
19731
340
19732
340
19733
340
19734
340
19735
340
19736
340
19737
340
19738
340
19739
340
1973A
340
1973B
340
1973C
340
1973D
340
1973E
340
1973F
340
19740
340
19741
340
19742
340
19743
340
19744
340
19745
340
19746
340
19747
340
19748
340
19749
340
1974A
340
1974B
340
1974C
340
1974D
340
1974E
340
1974F
340
19750
340
19751
340
19752
340
19753
340
19754
340
19755
340
19756
340
19757
340
19758
340
19759
340
1975A
340
1975B
340
1975C
340
1975D
340
1975E
340
1975F
340
19760
340
19761
340
19762
340
19763
340
19764
340
19765
340
19766
340
19767
340
19768
340
1976D
340
1976E
340
1976F
340
19770
340
19771
340
19772
340
19773
340
19774
340
19775
340
19776
340
19777
340
19778
340
19779
340
1977A
340
19831
340
19832
340
19833
340
19834
340
19835
340
19836
340
19837
340
19838
340
19839
340
1983A
340
1983B
340
1983C
340
1983D
340
1983E
340
1983F
340
19840
340
19841
340
19842
340
19843
340
19844
340
19845
340
19846
340
19847
340
19848
340
19849
340
1984A
340
1984B
340
1984C
340
1984D
340
1984E
340
1984F
340
19850
340
19851
340
19852
340
19853
340
19854
340
19855
340
19856
340
19857
340
19858
340
19859
340
1985A
340
19992
340
19993
340
19994
340
19995
340
19996
340
19997
340
19998
340
19999
340
1999A
340
1999B
340
1999C
340
1999D
340
1999E
340
1999F
340
199A0
340
199A1
340
199A2
340
199A3
340
199A4
340
199A5
340
199A6
340
199A7
340
199A8
340
199A9
340
199AA
340
199AB
340
199AC
340
199AD
340
199AE
340
199AF
340
199B0
340
199B1
340
199B2
340
199B3
340
199B4
340
199B5
340
199B6
340
199B7
340
199B8
340
199B9
340
199BA
340
199BB
  0
GROUP
  5
19AC5
102
{ACAD_REACTORS
330
D
102
}
330
D
100
AcDbGroup
300

 70
     1
 71
     1
340
194BF
340
194C0
340
194C1
340
194C2
340
194C3
340
194C4
340
194C5
340
194C6
340
194C9
340
194CA
340
194CB
340
194CE
340
194CF
340
194D0
340
194D1
340
194D2
340
194D3
340
194D4
340
194D5
340
194D6
340
194D7
340
194D8
340
194D9
340
194DA
340
194DB
340
194DC
340
194DD
340
194DE
340
194DF
340
194E0
340
194E1
340
194E2
340
194E3
340
194E4
340
194E5
340
194E6
340
194E7
340
194E8
340
194E9
340
194EA
340
194EB
340
194EC
340
194ED
340
194EE
340
194EF
340
194F0
340
194F1
340
194F2
340
194F3
340
194F4
340
194F5
340
194F6
340
194F7
340
194F8
340
194F9
340
194FA
340
194FB
340
194FC
340
194FD
340
194FE
340
194FF
340
19500
340
19501
340
19502
340
19503
340
19504
340
19505
340
19506
340
19507
340
19508
340
19509
340
1950A
340
1950B
340
1950C
340
1950D
340
1950E
340
195A2
340
195B7
340
19796
340
19797
340
19798
340
19799
340
1979A
340
1979B
340
1979C
340
1979D
340
1979E
340
1979F
340
197A0
340
197A1
340
197A2
340
197A3
340
197A4
340
197A5
340
197A6
340
197A7
340
197A8
340
197A9
340
197AA
340
197AB
340
197AC
340
197AD
340
197AE
340
197AF
340
197B0
340
197B1
340
197B2
340
197B3
340
197B4
340
197B5
340
197B6
340
197B7
340
197B8
340
197B9
340
197BA
340
197BB
340
197BC
340
197BD
340
197BE
340
197BF
340
197C0
340
197C1
340
197C2
340
197C3
340
197C4
340
197C5
340
198B5
340
198B6
340
198B7
340
198B8
340
198B9
340
198BA
340
198BB
340
198BC
340
198BD
340
198BE
340
198BF
340
198C0
340
198C1
340
198C2
340
198C3
340
198C4
340
198C5
340
198C6
340
198C7
340
198C8
340
198C9
340
198CA
340
198CB
340
198CC
340
198CD
340
198CE
340
198CF
340
198D0
340
198D1
340
198D2
340
198D3
340
198D4
340
198D5
340
198D6
340
198D7
340
198D8
340
198D9
340
198DA
340
198DB
340
198DC
340
198DD
340
198DE
340
19A16
340
19A17
340
19A18
340
19A19
340
19A1A
340
19A1B
340
19A1C
340
19A1D
340
19A1E
340
19A1F
340
19A20
340
19A21
340
19A22
340
19A23
340
19A24
340
19A25
340
19A26
340
19A27
340
19A28
340
19A29
340
19A2A
340
19A2B
340
19A2C
340
19A2D
340
19A2E
340
19A2F
340
19A30
340
19A31
340
19A32
340
19A33
340
19A34
340
19A35
340
19A36
340
19A37
340
19A38
340
19A39
340
19A3A
340
19A3B
340
19A3C
340
19A3D
340
19A3E
340
19A3F
340
19A8D
340
19A8E
340
19A8F
340
19A90
340
19A91
340
19A92
340
19A93
340
19A94
340
19A95
340
19A96
340
19A97
340
19A98
340
19A99
340
19A9A
340
19A9B
340
19A9C
340
19A9D
340
19A9E
340
19A9F
340
19AA0
340
19AA1
340
19AA2
340
19AA3
340
19AA4
340
19AA5
340
19AA6
340
19AA7
340
19AA8
340
19AA9
340
19AAA
340
19AAB
340
19AAC
340
19AAD
340
19AAE
340
19AAF
340
19AB0
340
19AB1
340
19AB2
340
19AB3
340
19AB4
340
19AB5
340
19AB6
340
19AB7
340
19AB8
340
19AB9
340
19ABA
340
19ABB
340
19ABC
340
19ABD
340
19ABE
340
19ABF
340
19AC0
340
19AC1
340
19AC2
340
19AC3
340
19AC4
340
194CC
340
194C8
  0
LAYOUT
  5
1E
102
{ACAD_REACTORS
330
1A
102
}
330
1A
100
AcDbPlotSettings
  1

  2

  4

  6

 40
0.0
 41
0.0
 42
0.0
 43
0.0
 44
0.0
 45
0.0
 46
0.0
 47
0.0
 48
0.0
 49
0.0
140
0.0
141
0.0
142
1.0
143
1.0
 70
   688
 72
     0
 73
     0
 74
     5
  7
monochrome.ctb
 75
    16
147
1.0
148
0.0
149
0.0
100
AcDbLayout
  1
Layout1
 70
     1
 71
     1
 10
0.0
 20
0.0
 11
420.0
 21
297.0
 12
0.0
 22
0.0
 32
0.0
 14
1.000000000000000E+20
 24
1.000000000000000E+20
 34
1.000000000000000E+20
 15
-1.000000000000000E+20
 25
-1.000000000000000E+20
 35
-1.000000000000000E+20
146
0.0
 13
0.0
 23
0.0
 33
0.0
 16
1.0
 26
0.0
 36
0.0
 17
0.0
 27
1.0
 37
0.0
 76
     0
330
1B
  0
LAYOUT
  5
26
102
{ACAD_REACTORS
330
1A
102
}
330
1A
100
AcDbPlotSettings
  1

  2

  4

  6

 40
0.0
 41
0.0
 42
0.0
 43
0.0
 44
0.0
 45
0.0
 46
0.0
 47
0.0
 48
0.0
 49
0.0
140
0.0
141
0.0
142
1.0
143
1.0
 70
   688
 72
     0
 73
     0
 74
     5
  7
monochrome.ctb
 75
    16
147
1.0
148
0.0
149
0.0
100
AcDbLayout
  1
Layout2
 70
     1
 71
     2
 10
0.0
 20
0.0
 11
12.0
 21
9.0
 12
0.0
 22
0.0
 32
0.0
 14
0.0
 24
0.0
 34
0.0
 15
0.0
 25
0.0
 35
0.0
146
0.0
 13
0.0
 23
0.0
 33
0.0
 16
1.0
 26
0.0
 36
0.0
 17
0.0
 27
1.0
 37
0.0
 76
     0
330
23
  0
LAYOUT
  5
22
102
{ACAD_REACTORS
330
1A
102
}
330
1A
100
AcDbPlotSettings
  1

  2
none_device
  4
A3
  6

 40
3.174999952316284
 41
3.174999952316284
 42
3.17498779296875
 43
3.17498779296875
 44
297.0318298339844
 45
420.1583251953125
 46
-3.16
 47
-3.1
 48
-90.0
 49
-90.0
140
329.9999999999998
141
207.0
142
1.0
143
1.0
 70
 11940
 72
     1
 73
     1
 74
     4
  7
monochrome.ctb
 75
     0
147
1.0
148
90.0
149
90.0
100
AcDbLayout
  1
Model
 70
     1
 71
     0
 10
10013.47136339573
 20
15257.67456349717
 11
14213.47136339573
 21
18227.67456349717
 12
0.0
 22
0.0
 32
0.0
 14
10683.15836288572
 24
15869.36746284068
 34
0.0
 15
12947.90190716147
 25
17644.12443044029
 35
0.0
146
0.0
 13
0.0
 23
0.0
 33
0.0
 16
1.0
 26
0.0
 36
0.0
 17
0.0
 27
1.0
 37
0.0
 76
     0
330
1F
331
A2A1
  0
MLINESTYLE
  5
18
102
{ACAD_REACTORS
330
17
102
}
330
17
100
AcDbMlineStyle
  2
STANDARD
 70
     0
  3

 62
   256
 51
90.0
 52
90.0
 71
     2
 49
0.5
 62
   256
  6
BYLAYER
 49
-0.5
 62
   256
  6
BYLAYER
  0
ACDBPLACEHOLDER
  5
F
102
{ACAD_REACTORS
330
E
102
}
330
E
  0
SCALE
  5
6A4F
102
{ACAD_REACTORS
330
6A4E
102
}
330
6A4E
100
AcDbScale
 70
     0
300
1:1
140
1.0
141
1.0
290
     1
  0
SCALE
  5
6A50
102
{ACAD_REACTORS
330
6A4E
102
}
330
6A4E
100
AcDbScale
 70
     0
300
1:2
140
1.0
141
2.0
290
     0
  0
SCALE
  5
6A51
102
{ACAD_REACTORS
330
6A4E
102
}
330
6A4E
100
AcDbScale
 70
     0
300
1:4
140
1.0
141
4.0
290
     0
  0
SCALE
  5
6A52
102
{ACAD_REACTORS
330
6A4E
102
}
330
6A4E
100
AcDbScale
 70
     0
300
1:5
140
1.0
141
5.0
290
     0
  0
SCALE
  5
6A53
102
{ACAD_REACTORS
330
6A4E
102
}
330
6A4E
100
AcDbScale
 70
     0
300
1:8
140
1.0
141
8.0
290
     0
  0
SCALE
  5
6A54
102
{ACAD_REACTORS
330
6A4E
102
}
330
6A4E
100
AcDbScale
 70
     0
300
1:10
140
1.0
141
10.0
290
     0
  0
SCALE
  5
6A55
102
{ACAD_REACTORS
330
6A4E
102
}
330
6A4E
100
AcDbScale
 70
     0
300
1:16
140
1.0
141
16.0
290
     0
  0
SCALE
  5
6A56
102
{ACAD_REACTORS
330
6A4E
102
}
330
6A4E
100
AcDbScale
 70
     0
300
1:20
140
1.0
141
20.0
290
     0
  0
SCALE
  5
6A57
102
{ACAD_REACTORS
330
6A4E
102
}
330
6A4E
100
AcDbScale
 70
     0
300
1:30
140
1.0
141
30.0
290
     0
  0
SCALE
  5
6A58
102
{ACAD_REACTORS
330
6A4E
102
}
330
6A4E
100
AcDbScale
 70
     0
300
1:40
140
1.0
141
40.0
290
     0
  0
SCALE
  5
6A59
102
{ACAD_REACTORS
330
6A4E
102
}
330
6A4E
100
AcDbScale
 70
     0
300
1:50
140
1.0
141
50.0
290
     0
  0
SCALE
  5
6A5A
102
{ACAD_REACTORS
330
6A4E
102
}
330
6A4E
100
AcDbScale
 70
     0
300
1:100
140
1.0
141
100.0
290
     0
  0
SCALE
  5
6A5B
102
{ACAD_REACTORS
330
6A4E
102
}
330
6A4E
100
AcDbScale
 70
     0
300
2:1
140
2.0
141
1.0
290
     0
  0
SCALE
  5
6A5C
102
{ACAD_REACTORS
330
6A4E
102
}
330
6A4E
100
AcDbScale
 70
     0
300
4:1
140
4.0
141
1.0
290
     0
  0
SCALE
  5
6A5D
102
{ACAD_REACTORS
330
6A4E
102
}
330
6A4E
100
AcDbScale
 70
     0
300
8:1
140
8.0
141
1.0
290
     0
  0
SCALE
  5
6A5E
102
{ACAD_REACTORS
330
6A4E
102
}
330
6A4E
100
AcDbScale
 70
     0
300
10:1
140
10.0
141
1.0
290
     0
  0
SCALE
  5
6A5F
102
{ACAD_REACTORS
330
6A4E
102
}
330
6A4E
100
AcDbScale
 70
     0
300
100:1
140
100.0
141
1.0
290
     0
  0
SCALE
  5
6A60
102
{ACAD_REACTORS
330
6A4E
102
}
330
6A4E
100
AcDbScale
 70
     0
300
1/128" = 1'-0"
140
0.0078125
141
12.0
290
     0
  0
SCALE
  5
6A61
102
{ACAD_REACTORS
330
6A4E
102
}
330
6A4E
100
AcDbScale
 70
     0
300
1/64" = 1'-0"
140
0.015625
141
12.0
290
     0
  0
SCALE
  5
6A62
102
{ACAD_REACTORS
330
6A4E
102
}
330
6A4E
100
AcDbScale
 70
     0
300
1/32" = 1'-0"
140
0.03125
141
12.0
290
     0
  0
SCALE
  5
6A63
102
{ACAD_REACTORS
330
6A4E
102
}
330
6A4E
100
AcDbScale
 70
     0
300
1/16" = 1'-0"
140
0.0625
141
12.0
290
     0
  0
SCALE
  5
6A64
102
{ACAD_REACTORS
330
6A4E
102
}
330
6A4E
100
AcDbScale
 70
     0
300
3/32" = 1'-0"
140
0.09375
141
12.0
290
     0
  0
SCALE
  5
6A65
102
{ACAD_REACTORS
330
6A4E
102
}
330
6A4E
100
AcDbScale
 70
     0
300
1/8" = 1'-0"
140
0.125
141
12.0
290
     0
  0
SCALE
  5
6A66
102
{ACAD_REACTORS
330
6A4E
102
}
330
6A4E
100
AcDbScale
 70
     0
300
3/16" = 1'-0"
140
0.1875
141
12.0
290
     0
  0
SCALE
  5
6A67
102
{ACAD_REACTORS
330
6A4E
102
}
330
6A4E
100
AcDbScale
 70
     0
300
1/4" = 1'-0"
140
0.25
141
12.0
290
     0
  0
SCALE
  5
6A68
102
{ACAD_REACTORS
330
6A4E
102
}
330
6A4E
100
AcDbScale
 70
     0
300
3/8" = 1'-0"
140
0.375
141
12.0
290
     0
  0
SCALE
  5
6A69
102
{ACAD_REACTORS
330
6A4E
102
}
330
6A4E
100
AcDbScale
 70
     0
300
1/2" = 1'-0"
140
0.5
141
12.0
290
     0
  0
SCALE
  5
6A6A
102
{ACAD_REACTORS
330
6A4E
102
}
330
6A4E
100
AcDbScale
 70
     0
300
3/4" = 1'-0"
140
0.75
141
12.0
290
     0
  0
SCALE
  5
6A6B
102
{ACAD_REACTORS
330
6A4E
102
}
330
6A4E
100
AcDbScale
 70
     0
300
1" = 1'-0"
140
1.0
141
12.0
290
     0
  0
SCALE
  5
6A6C
102
{ACAD_REACTORS
330
6A4E
102
}
330
6A4E
100
AcDbScale
 70
     0
300
1-1/2" = 1'-0"
140
1.5
141
12.0
290
     0
  0
SCALE
  5
6A6D
102
{ACAD_REACTORS
330
6A4E
102
}
330
6A4E
100
AcDbScale
 70
     0
300
3" = 1'-0"
140
3.0
141
12.0
290
     0
  0
SCALE
  5
6A6E
102
{ACAD_REACTORS
330
6A4E
102
}
330
6A4E
100
AcDbScale
 70
     0
300
6" = 1'-0"
140
6.0
141
12.0
290
     0
  0
SCALE
  5
6A6F
102
{ACAD_REACTORS
330
6A4E
102
}
330
6A4E
100
AcDbScale
 70
     0
300
1'-0" = 1'-0"
140
12.0
141
12.0
290
     0
  0
DICTIONARYVAR
  5
79F
102
{ACAD_REACTORS
330
79E
102
}
330
79E
100
DictionaryVariables
280
     0
  1
1
  0
DICTIONARYVAR
  5
264F
102
{ACAD_REACTORS
330
79E
102
}
330
79E
100
DictionaryVariables
280
     0
  1
96
  0
ACAD_PROXY_OBJECT
  5
8258
102
{ACAD_REACTORS
330
8257
102
}
330
8257
100
AcDbProxyObject
 90
      499
 91
      509
 95
   262177
 70
     0
 93
     1864
310
5434D15054000541505428FC812095550000000000000B08000000000000008200000000000001807E8F2048F205000200001204000000000000581F8000000000000B0807EC3FA6DEBC0E99F8000000000001C07FE8FCC029594224E2D20CA600E2005C008C00E8005C008321803A80170023003A00170020898006200640
310
06001202DA008C2080248020801000140019001A801B00100021803780360037803900148010001000100010002080220019001A801B0021082008600820088008200A4008600900087A08032803180260030803C803280390029803A003200170032003B80338049C09
330
0
 94
        0
  0
ENDSEC
  0
EOF
