  0
SECTION
  2
HEADER
  9
$ACADVER
  1
AC1015
  9
$ACADMAINTVER
 70
     6
  9
$DWGCODEPAGE
  3
ANSI_932
  9
$INSBASE
 10
0.0
 20
0.0
 30
0.0
  9
$EXTMIN
 10
960.0
 20
1185.0
 30
0.0
  9
$EXTMAX
 10
2715.000000000001
 20
2470.0
 30
0.0
  9
$LIMMIN
 10
0.0
 20
0.0
  9
$LIMMAX
 10
4200.0
 20
2970.0
  9
$ORTHOMODE
 70
     1
  9
$REGENMODE
 70
     1
  9
$FILLMODE
 70
     1
  9
$QTEXTMODE
 70
     0
  9
$MIRRTEXT
 70
     0
  9
$LTSCALE
 40
3.0
  9
$ATTMODE
 70
     1
  9
$TEXTSIZE
 40
30.0
  9
$TRACEWID
 40
1.0
  9
$TEXTSTYLE
  7
Standard
  9
$CLAYER
  8
01注記寸法
  9
$CELTYPE
  6
ByLayer
  9
$CECOLOR
 62
   256
  9
$CELTSCALE
 40
1.0
  9
$DISPSILH
 70
     0
  9
$DIMSCALE
 40
10.0
  9
$DIMASZ
 40
3.0
  9
$DIMEXO
 40
1.5
  9
$DIMDLI
 40
10.0
  9
$DIMRND
 40
0.0
  9
$DIMDLE
 40
0.0
  9
$DIMEXE
 40
1.0
  9
$DIMTP
 40
0.0
  9
$DIMTM
 40
0.0
  9
$DIMTXT
 40
3.0
  9
$DIMCEN
 40
1.5
  9
$DIMTSZ
 40
0.0
  9
$DIMTOL
 70
     0
  9
$DIMLIM
 70
     0
  9
$DIMTIH
 70
     0
  9
$DIMTOH
 70
     0
  9
$DIMSE1
 70
     0
  9
$DIMSE2
 70
     0
  9
$DIMTAD
 70
     1
  9
$DIMZIN
 70
     8
  9
$DIMBLK
  1
Open
  9
$DIMASO
 70
     1
  9
$DIMSHO
 70
     1
  9
$DIMPOST
  1

  9
$DIMAPOST
  1

  9
$DIMALT
 70
     0
  9
$DIMALTD
 70
     3
  9
$DIMALTF
 40
0.03937007874016
  9
$DIMLFAC
 40
1.0
  9
$DIMTOFL
 70
     1
  9
$DIMTVP
 40
0.0
  9
$DIMTIX
 70
     0
  9
$DIMSOXD
 70
     0
  9
$DIMSAH
 70
     0
  9
$DIMBLK1
  1

  9
$DIMBLK2
  1

  9
$DIMSTYLE
  2
NEMY-10
  9
$DIMCLRD
 70
     0
  9
$DIMCLRE
 70
     0
  9
$DIMCLRT
 70
     0
  9
$DIMTFAC
 40
1.0
  9
$DIMGAP
 40
1.0
  9
$DIMJUST
 70
     0
  9
$DIMSD1
 70
     0
  9
$DIMSD2
 70
     0
  9
$DIMTOLJ
 70
     0
  9
$DIMTZIN
 70
     8
  9
$DIMALTZ
 70
     0
  9
$DIMALTTZ
 70
     0
  9
$DIMUPT
 70
     0
  9
$DIMDEC
 70
     1
  9
$DIMTDEC
 70
     1
  9
$DIMALTU
 70
     2
  9
$DIMALTTD
 70
     3
  9
$DIMTXSTY
  7
Standard
  9
$DIMAUNIT
 70
     0
  9
$DIMADEC
 70
     0
  9
$DIMALTRND
 40
0.0
  9
$DIMAZIN
 70
     0
  9
$DIMDSEP
 70
    46
  9
$DIMATFIT
 70
     3
  9
$DIMFRAC
 70
     0
  9
$DIMLDRBLK
  1
Open
  9
$DIMLUNIT
 70
     2
  9
$DIMLWD
 70
    -2
  9
$DIMLWE
 70
    -2
  9
$DIMTMOVE
 70
     0
  9
$LUNITS
 70
     2
  9
$LUPREC
 70
     4
  9
$SKETCHINC
 40
1.0
  9
$FILLETRAD
 40
6.4
  9
$AUNITS
 70
     0
  9
$AUPREC
 70
     0
  9
$MENU
  1
.
  9
$ELEVATION
 40
0.0
  9
$PELEVATION
 40
0.0
  9
$THICKNESS
 40
0.0
  9
$LIMCHECK
 70
     0
  9
$CHAMFERA
 40
5.0
  9
$CHAMFERB
 40
5.0
  9
$CHAMFERC
 40
20.0
  9
$CHAMFERD
 40
0.0
  9
$SKPOLY
 70
     0
  9
$TDCREATE
 40
2455859.405048461
  9
$TDUCREATE
 40
2455859.030048461
  9
$TDUPDATE
 40
2458967.489707685
  9
$TDUUPDATE
 40
2458967.114707685
  9
$TDINDWG
 40
1.8665236806
  9
$TDUSRTIMER
 40
0.0021183218
  9
$USRTIMER
 70
     1
  9
$ANGBASE
 50
0.0
  9
$ANGDIR
 70
     0
  9
$PDMODE
 70
     0
  9
$PDSIZE
 40
0.0
  9
$PLINEWID
 40
0.0
  9
$SPLFRAME
 70
     0
  9
$SPLINETYPE
 70
     6
  9
$SPLINESEGS
 70
     8
  9
$HANDSEED
  5
1564A
  9
$SURFTAB1
 70
     6
  9
$SURFTAB2
 70
     6
  9
$SURFTYPE
 70
     6
  9
$SURFU
 70
     6
  9
$SURFV
 70
     6
  9
$UCSBASE
  2

  9
$UCSNAME
  2

  9
$UCSORG
 10
0.0
 20
0.0
 30
0.0
  9
$UCSXDIR
 10
1.0
 20
0.0
 30
0.0
  9
$UCSYDIR
 10
0.0
 20
1.0
 30
0.0
  9
$UCSORTHOREF
  2

  9
$UCSORTHOVIEW
 70
     0
  9
$UCSORGTOP
 10
0.0
 20
0.0
 30
0.0
  9
$UCSORGBOTTOM
 10
0.0
 20
0.0
 30
0.0
  9
$UCSORGLEFT
 10
0.0
 20
0.0
 30
0.0
  9
$UCSORGRIGHT
 10
0.0
 20
0.0
 30
0.0
  9
$UCSORGFRONT
 10
0.0
 20
0.0
 30
0.0
  9
$UCSORGBACK
 10
0.0
 20
0.0
 30
0.0
  9
$PUCSBASE
  2

  9
$PUCSNAME
  2

  9
$PUCSORG
 10
0.0
 20
0.0
 30
0.0
  9
$PUCSXDIR
 10
1.0
 20
0.0
 30
0.0
  9
$PUCSYDIR
 10
0.0
 20
1.0
 30
0.0
  9
$PUCSORTHOREF
  2

  9
$PUCSORTHOVIEW
 70
     0
  9
$PUCSORGTOP
 10
0.0
 20
0.0
 30
0.0
  9
$PUCSORGBOTTOM
 10
0.0
 20
0.0
 30
0.0
  9
$PUCSORGLEFT
 10
0.0
 20
0.0
 30
0.0
  9
$PUCSORGRIGHT
 10
0.0
 20
0.0
 30
0.0
  9
$PUCSORGFRONT
 10
0.0
 20
0.0
 30
0.0
  9
$PUCSORGBACK
 10
0.0
 20
0.0
 30
0.0
  9
$USERI1
 70
     0
  9
$USERI2
 70
     0
  9
$USERI3
 70
     0
  9
$USERI4
 70
     0
  9
$USERI5
 70
     0
  9
$USERR1
 40
0.0
  9
$USERR2
 40
0.0
  9
$USERR3
 40
0.0
  9
$USERR4
 40
0.0
  9
$USERR5
 40
0.0
  9
$WORLDVIEW
 70
     1
  9
$SHADEDGE
 70
     3
  9
$SHADEDIF
 70
    70
  9
$TILEMODE
 70
     1
  9
$MAXACTVP
 70
    64
  9
$PINSBASE
 10
0.0
 20
0.0
 30
0.0
  9
$PLIMCHECK
 70
     0
  9
$PEXTMIN
 10
1.000000000000000E+20
 20
1.000000000000000E+20
 30
1.000000000000000E+20
  9
$PEXTMAX
 10
-1.000000000000000E+20
 20
-1.000000000000000E+20
 30
-1.000000000000000E+20
  9
$PLIMMIN
 10
-7.5
 20
-20.0
  9
$PLIMMAX
 10
412.5
 20
277.0
  9
$UNITMODE
 70
     0
  9
$VISRETAIN
 70
     1
  9
$PLINEGEN
 70
     0
  9
$PSLTSCALE
 70
     1
  9
$TREEDEPTH
 70
  3020
  9
$CMLSTYLE
  2
Standard
  9
$CMLJUST
 70
     0
  9
$CMLSCALE
 40
20.0
  9
$PROXYGRAPHICS
 70
     1
  9
$MEASUREMENT
 70
     1
  9
$CELWEIGHT
370
    -1
  9
$ENDCAPS
280
     0
  9
$JOINSTYLE
280
     0
  9
$LWDISPLAY
290
     0
  9
$INSUNITS
 70
     4
  9
$HYPERLINKBASE
  1

  9
$STYLESHEET
  1
monochrome.ctb
  9
$XEDIT
290
     1
  9
$CEPSNTYPE
380
     0
  9
$PSTYLEMODE
290
     1
  9
$FINGERPRINTGUID
  2
{FDEAD578-A652-11D2-9A35-0060089B3A3F}
  9
$VERSIONGUID
  2
{11DB8456-EC16-47A0-BA21-BBDA07550E8A}
  9
$EXTNAMES
290
     1
  9
$PSVPSCALE
 40
0.0
  9
$OLESTARTUP
290
     0
  0
ENDSEC
  0
SECTION
  2
CLASSES
  0
CLASS
  1
ACDBDICTIONARYWDFLT
  2
AcDbDictionaryWithDefault
  3
ObjectDBX Classes
 90
        0
280
     0
281
     0
  0
CLASS
  1
ACDBPLACEHOLDER
  2
AcDbPlaceHolder
  3
ObjectDBX Classes
 90
        0
280
     0
281
     0
  0
CLASS
  1
LAYOUT
  2
AcDbLayout
  3
ObjectDBX Classes
 90
        0
280
     0
281
     0
  0
CLASS
  1
DICTIONARYVAR
  2
AcDbDictionaryVar
  3
ObjectDBX Classes
 90
        0
280
     0
281
     0
  0
CLASS
  1
SCALE
  2
AcDbScale
  3
ObjectDBX Classes
 90
     1153
280
     0
281
     0
  0
CLASS
  1
MATERIAL
  2
AcDbMaterial
  3
ObjectDBX Classes
 90
     1153
280
     0
281
     0
  0
CLASS
  1
VISUALSTYLE
  2
AcDbVisualStyle
  3
ObjectDBX Classes
 90
     4095
280
     0
281
     0
  0
CLASS
  1
TABLESTYLE
  2
AcDbTableStyle
  3
ObjectDBX Classes
 90
     4095
280
     0
281
     0
  0
CLASS
  1
RASTERVARIABLES
  2
AcDbRasterVariables
  3
ISM
 90
        0
280
     0
281
     0
  0
CLASS
  1
SORTENTSTABLE
  2
AcDbSortentsTable
  3
ObjectDBX Classes
 90
        0
280
     0
281
     0
  0
CLASS
  1
SUN
  2
AcDbSun
  3
SCENEOE
 90
     1153
280
     0
281
     0
  0
CLASS
  1
MLEADERSTYLE
  2
AcDbMLeaderStyle
  3
ACDB_MLEADERSTYLE_CLASS
 90
     4095
280
     0
281
     0
  0
ENDSEC
  0
SECTION
  2
TABLES
  0
TABLE
  2
VPORT
  5
8
330
0
100
AcDbSymbolTable
 70
     1
  0
VPORT
  5
7A57
330
8
100
AcDbSymbolTableRecord
100
AcDbViewportTableRecord
  2
*Active
 70
     0
 10
0.0
 20
0.0
 11
1.0
 21
1.0
 12
1837.5
 22
1827.5
 13
0.0
 23
0.0
 14
10.0
 24
10.0
 15
10.0
 25
10.0
 16
0.0
 26
0.0
 36
1.0
 17
0.0
 27
0.0
 37
0.0
 40
1310.7
 41
1.981424148606811
 42
50.0
 43
0.0
 44
0.0
 50
0.0
 51
0.0
 71
    16
 72
   100
 73
     1
 74
     2
 75
     0
 76
     0
 77
     0
 78
     0
281
     0
 65
     1
110
0.0
120
0.0
130
0.0
111
1.0
121
0.0
131
0.0
112
0.0
122
1.0
132
0.0
 79
     0
146
0.0
  0
ENDTAB
  0
TABLE
  2
LTYPE
  5
5
330
0
100
AcDbSymbolTable
 70
     2
  0
LTYPE
  5
14
330
5
100
AcDbSymbolTableRecord
100
AcDbLinetypeTableRecord
  2
ByBlock
 70
     0
  3

 72
    65
 73
     0
 40
0.0
  0
LTYPE
  5
15
330
5
100
AcDbSymbolTableRecord
100
AcDbLinetypeTableRecord
  2
ByLayer
 70
     0
  3

 72
    65
 73
     0
 40
0.0
  0
LTYPE
  5
16
330
5
100
AcDbSymbolTableRecord
100
AcDbLinetypeTableRecord
  2
Continuous
 70
     0
  3
Solid line
 72
    65
 73
     0
 40
0.0
  0
LTYPE
  5
BC
330
5
100
AcDbSymbolTableRecord
100
AcDbLinetypeTableRecord
  2
CENTER
 70
     0
  3
Center ____ _ ____ _ ____ _ ____ _ ____ _ ____
 72
    65
 73
     4
 40
50.8
 49
31.75
 74
     0
 49
-6.35
 74
     0
 49
6.35
 74
     0
 49
-6.35
 74
     0
  0
ENDTAB
  0
TABLE
  2
LAYER
  5
2
102
{ACAD_XDICTIONARY
360
7A6F
102
}
330
0
100
AcDbSymbolTable
 70
     5
  0
LAYER
  5
10
330
2
100
AcDbSymbolTableRecord
100
AcDbLayerTableRecord
  2
0
 70
     0
 62
   151
  6
Continuous
290
     0
370
    -3
390
F
  0
LAYER
  5
45
330
2
100
AcDbSymbolTableRecord
100
AcDbLayerTableRecord
  2
01注記寸法
 70
     0
 62
     7
  6
Continuous
370
     9
390
F
  0
LAYER
  5
46
330
2
100
AcDbSymbolTableRecord
100
AcDbLayerTableRecord
  2
02実線
 70
     0
 62
     2
  6
Continuous
370
    15
390
F
  0
LAYER
  5
7E55
330
2
100
AcDbSymbolTableRecord
100
AcDbLayerTableRecord
  2
04一点鎖線
 70
     0
 62
    70
  6
CENTER
370
     9
390
F
  0
LAYER
  5
7E60
330
2
100
AcDbSymbolTableRecord
100
AcDbLayerTableRecord
  2
08非表示
 70
     0
 62
     4
  6
Continuous
290
     0
370
     0
390
F
  0
ENDTAB
  0
TABLE
  2
STYLE
  5
3
330
0
100
AcDbSymbolTable
 70
     1
  0
STYLE
  5
11
330
3
100
AcDbSymbolTableRecord
100
AcDbTextStyleTableRecord
  2
Standard
 70
     0
 40
0.0
 41
1.0
 50
0.0
 71
     0
 42
30.0
  3
MSGOTHIC.TTC
  4

1001
ACAD
1000
MS Gothic
1071
    32817
  0
ENDTAB
  0
TABLE
  2
VIEW
  5
6
330
0
100
AcDbSymbolTable
 70
     0
  0
ENDTAB
  0
TABLE
  2
UCS
  5
7
330
0
100
AcDbSymbolTable
 70
     0
  0
ENDTAB
  0
TABLE
  2
APPID
  5
9
330
0
100
AcDbSymbolTable
 70
     6
  0
APPID
  5
12
330
9
100
AcDbSymbolTableRecord
100
AcDbRegAppTableRecord
  2
ACAD
 70
     0
  0
APPID
  5
6A9E
330
9
100
AcDbSymbolTableRecord
100
AcDbRegAppTableRecord
  2
ACAD_DSTYLE_DIMRADIAL_EXTENSION
 70
     0
  0
APPID
  5
742C
330
9
100
AcDbSymbolTableRecord
100
AcDbRegAppTableRecord
  2
ACAD_PSEXT
 70
     0
  0
APPID
  5
742D
330
9
100
AcDbSymbolTableRecord
100
AcDbRegAppTableRecord
  2
ACAD_DSTYLE_DIMJAG
 70
     0
  0
APPID
  5
742E
330
9
100
AcDbSymbolTableRecord
100
AcDbRegAppTableRecord
  2
ACAD_DSTYLE_DIMTALN
 70
     0
  0
APPID
  5
835C
330
9
100
AcDbSymbolTableRecord
100
AcDbRegAppTableRecord
  2
AcAecLayerStandard
 70
     0
  0
ENDTAB
  0
TABLE
  2
DIMSTYLE
  5
A
330
0
100
AcDbSymbolTable
 70
     1
100
AcDbDimStyleTable
  0
DIMSTYLE
105
4DD3
102
{ACAD_REACTORS
102
}
330
A
100
AcDbSymbolTableRecord
100
AcDbDimStyleTableRecord
  2
NEMY-10
 70
     0
 40
10.0
 41
3.0
 42
1.5
 43
10.0
 44
1.0
 73
     0
 74
     0
 77
     1
 78
     8
140
3.0
141
1.5
143
0.03937007874016
147
1.0
171
     3
172
     1
178
     0
271
     1
272
     1
274
     3
283
     0
284
     8
340
11
341
8F
342
8F
  0
ENDTAB
  0
TABLE
  2
BLOCK_RECORD
  5
1
330
0
100
AcDbSymbolTable
 70
     2
  0
BLOCK_RECORD
  5
1F
102
{ACAD_XDICTIONARY
360
969E
102
}
330
1
100
AcDbSymbolTableRecord
100
AcDbBlockTableRecord
  2
*Model_Space
340
22
  0
BLOCK_RECORD
  5
1B
330
1
100
AcDbSymbolTableRecord
100
AcDbBlockTableRecord
  2
*Paper_Space
340
1E
  0
BLOCK_RECORD
  5
8F
330
1
100
AcDbSymbolTableRecord
100
AcDbBlockTableRecord
  2
_Open
340
0
102
{BLKREFS
331
DCB7
331
DCB8
331
DCC4
331
DCC5
331
10F20
331
10F21
331
124D7
331
124D8
331
124E3
331
124E4
331
124EF
331
124F0
331
12507
331
12508
331
12513
331
12514
331
12522
331
12523
331
1252E
331
1252F
331
1253C
331
1253D
331
12548
331
12549
331
13997
331
13998
331
139A3
331
139A4
331
15569
331
1556A
331
15576
331
15577
331
15585
331
15586
331
15594
331
15595
331
155A1
331
155A2
331
155B0
331
155B1
102
}
  0
BLOCK_RECORD
  5
D358
330
1
100
AcDbSymbolTableRecord
100
AcDbBlockTableRecord
  2
BRT60M12M16T_1
340
0
102
{BLKREFS
331
1249B
331
1249C
331
1249D
331
1249E
102
}
  0
ENDTAB
  0
ENDSEC
  0
SECTION
  2
BLOCKS
  0
BLOCK
  5
20
330
1F
100
AcDbEntity
  8
0
100
AcDbBlockBegin
  2
*Model_Space
 70
     0
 10
0.0
 20
0.0
 30
0.0
  3
*Model_Space
  1

  0
ENDBLK
  5
21
330
1F
100
AcDbEntity
  8
0
100
AcDbBlockEnd
  0
BLOCK
  5
1C
330
1B
100
AcDbEntity
 67
     1
  8
0
100
AcDbBlockBegin
  2
*Paper_Space
 70
     0
 10
0.0
 20
0.0
 30
0.0
  3
*Paper_Space
  1

  0
ENDBLK
  5
1D
330
1B
100
AcDbEntity
 67
     1
  8
0
100
AcDbBlockEnd
  0
BLOCK
  5
93
330
8F
100
AcDbEntity
  8
0
100
AcDbBlockBegin
  2
_Open
 70
     0
 10
0.0
 20
0.0
 30
0.0
  3
_Open
  1

  0
LINE
  5
90
330
8F
100
AcDbEntity
  8
01注記寸法
 62
     0
370
    -2
100
AcDbLine
 10
-1.0
 20
0.1666666666666667
 30
0.0
 11
0.0
 21
0.0
 31
0.0
  0
LINE
  5
91
330
8F
100
AcDbEntity
  8
01注記寸法
 62
     0
370
    -2
100
AcDbLine
 10
-1.0
 20
-0.1666666666666667
 30
0.0
 11
0.0
 21
0.0
 31
0.0
  0
LINE
  5
92
330
8F
100
AcDbEntity
  8
01注記寸法
 62
     0
370
    -2
100
AcDbLine
 10
0.0
 20
0.0
 30
0.0
 11
-1.0
 21
0.0
 31
0.0
  0
ENDBLK
  5
94
330
8F
100
AcDbEntity
  8
0
100
AcDbBlockEnd
  0
BLOCK
  5
D359
330
D358
100
AcDbEntity
  8
0
100
AcDbBlockBegin
  2
BRT60M12M16T_1
 70
     0
 10
0.0
 20
0.0
 30
0.0
  3
BRT60M12M16T_1
  1

  0
LWPOLYLINE
  5
11E19
330
D358
100
AcDbEntity
  8
08非表示
100
AcDbPolyline
 90
        4
 70
     1
 43
0.0
 10
-60.0
 20
-60.0
 10
-60.0
 20
0.0
 10
0.0
 20
0.0
 10
0.0
 20
-60.0
  0
LINE
  5
11E1A
330
D358
100
AcDbEntity
  8
02実線
100
AcDbLine
 10
-60.0
 20
0.0
 30
0.0
 11
-4.5
 21
0.0
 31
0.0
  0
LINE
  5
11E1B
330
D358
100
AcDbEntity
  8
02実線
100
AcDbLine
 10
0.0
 20
-4.5
 30
0.0
 11
0.0
 21
-60.0
 31
0.0
  0
LINE
  5
11E1C
330
D358
100
AcDbEntity
  8
02実線
100
AcDbLine
 10
-9.5
 20
-60.0
 30
0.0
 11
-45.0
 21
-60.0
 31
0.0
  0
LINE
  5
11E1D
330
D358
100
AcDbEntity
  8
02実線
100
AcDbLine
 10
-60.0
 20
-45.0
 30
0.0
 11
-60.0
 21
0.0
 31
0.0
  0
LINE
  5
11E1E
330
D358
100
AcDbEntity
  8
02実線
100
AcDbLine
 10
-4.5
 20
-4.5
 30
0.0
 11
-4.5
 21
-60.0
 31
0.0
  0
LINE
  5
11E1F
330
D358
100
AcDbEntity
  8
02実線
100
AcDbLine
 10
-12.0
 20
0.0
 30
0.0
 11
-12.0
 21
-4.5
 31
0.0
  0
ARC
  5
11E20
330
D358
100
AcDbEntity
  8
02実線
100
AcDbCircle
 10
-4.5
 20
-4.5
 30
0.0
 40
4.5
100
AcDbArc
 50
0.0
 51
90.0
  0
LINE
  5
11E21
330
D358
100
AcDbEntity
  8
02実線
100
AcDbLine
 10
0.0
 20
-60.0
 30
0.0
 11
-4.5
 21
-60.0
 31
0.0
  0
ARC
  5
11E22
330
D358
100
AcDbEntity
  8
02実線
100
AcDbCircle
 10
-45.0
 20
-45.0
 30
0.0
 40
15.0
100
AcDbArc
 50
180.0
 51
270.0
  0
LINE
  5
11E23
330
D358
100
AcDbEntity
  8
02実線
100
AcDbLine
 10
-12.0
 20
-4.5
 30
0.0
 11
-12.0
 21
-7.0
 31
0.0
  0
ARC
  5
11E24
330
D358
100
AcDbEntity
  8
02実線
100
AcDbCircle
 10
-9.5
 20
-55.0
 30
0.0
 40
5.0
100
AcDbArc
 50
270.0
 51
0.0
  0
ARC
  5
11E25
330
D358
100
AcDbEntity
  8
02実線
100
AcDbCircle
 10
-7.0
 20
-7.0
 30
0.0
 40
5.0
100
AcDbArc
 50
180.0
 51
270.0
  0
LINE
  5
11E26
330
D358
100
AcDbEntity
  8
02実線
100
AcDbLine
 10
-4.5
 20
-4.5
 30
0.0
 11
-12.0
 21
-4.5
 31
0.0
  0
LINE
  5
11E27
330
D358
100
AcDbEntity
  8
02実線
100
AcDbLine
 10
0.0
 20
-12.0
 30
0.0
 11
-7.0
 21
-12.0
 31
0.0
  0
LINE
  5
11E28
330
D358
100
AcDbEntity
  8
02実線
100
AcDbLine
 10
-4.5
 20
-60.0
 30
0.0
 11
-4.449999999999818
 21
-60.0
 31
0.0
  0
CIRCLE
  5
11E52
330
D358
100
AcDbEntity
  8
08非表示
100
AcDbCircle
 10
-35.0
 20
-35.0
 30
0.0
 40
12.0
  0
ENDBLK
  5
D35A
330
D358
100
AcDbEntity
  8
0
100
AcDbBlockEnd
  0
ENDSEC
  0
SECTION
  2
ENTITIES
  0
LWPOLYLINE
  5
12484
330
1F
100
AcDbEntity
  8
02実線
100
AcDbPolyline
 90
        4
 70
     1
 43
0.0
 10
1020.000000000001
 20
1200.0
 10
1020.000000000001
 20
1230.0
 10
2140.000000000001
 20
1230.0
 10
2140.000000000001
 20
1200.0
  0
LWPOLYLINE
  5
12485
330
1F
100
AcDbEntity
  8
02実線
100
AcDbPolyline
 90
        4
 70
     1
 43
0.0
 10
1020.000000000001
 20
1313.0
 10
1020.000000000001
 20
1343.0
 10
2140.000000000001
 20
1343.0
 10
2140.000000000001
 20
1313.0
  0
LINE
  5
1248D
330
1F
100
AcDbEntity
  8
04一点鎖線
 48
0.2
100
AcDbLine
 10
1042.000000000001
 20
1245.0
 30
0.0
 11
1042.000000000001
 21
1185.0
 31
0.0
  0
LINE
  5
1248E
330
1F
100
AcDbEntity
  8
04一点鎖線
 48
0.2
100
AcDbLine
 10
2118.000000000001
 20
1245.0
 30
0.0
 11
2118.000000000001
 21
1185.0
 31
0.0
  0
LINE
  5
1248F
330
1F
100
AcDbEntity
  8
04一点鎖線
 48
0.2
100
AcDbLine
 10
1042.000000000001
 20
1298.0
 30
0.0
 11
1042.000000000001
 21
1358.0
 31
0.0
  0
LINE
  5
12490
330
1F
100
AcDbEntity
  8
04一点鎖線
 48
0.2
100
AcDbLine
 10
2118.000000000001
 20
1298.0
 30
0.0
 11
2118.000000000001
 21
1358.0
 31
0.0
  0
LWPOLYLINE
  5
12498
330
1F
100
AcDbEntity
  8
08非表示
100
AcDbPolyline
 90
        4
 70
     1
 43
0.0
 10
960.0
 20
1700.0
 10
960.0
 20
2470.0
 10
2200.000000000001
 20
2470.0
 10
2200.000000000001
 20
1700.0
  0
INSERT
  5
1249B
330
1F
100
AcDbEntity
  8
02実線
100
AcDbBlockReference
  2
BRT60M12M16T_1
 10
1020.000000000001
 20
1760.0
 30
0.0
  0
INSERT
  5
1249C
330
1F
100
AcDbEntity
  8
02実線
100
AcDbBlockReference
  2
BRT60M12M16T_1
 10
2140.000000000001
 20
1760.0
 30
0.0
 50
90.0
  0
INSERT
  5
1249D
330
1F
100
AcDbEntity
  8
02実線
100
AcDbBlockReference
  2
BRT60M12M16T_1
 10
2140.000000000001
 20
2410.0
 30
0.0
 50
180.0
  0
INSERT
  5
1249E
330
1F
100
AcDbEntity
  8
02実線
100
AcDbBlockReference
  2
BRT60M12M16T_1
 10
1020.000000000001
 20
2410.0
 30
0.0
 50
270.0
  0
LWPOLYLINE
  5
1249F
330
1F
100
AcDbEntity
  8
02実線
100
AcDbPolyline
 90
        4
 70
     1
 43
0.0
 10
1020.000000000001
 20
1700.0
 10
1020.000000000001
 20
1760.0
 10
2140.000000000001
 20
1760.0
 10
2140.000000000001
 20
1700.0
  0
LWPOLYLINE
  5
124A0
330
1F
100
AcDbEntity
  8
02実線
100
AcDbPolyline
 90
        4
 70
     1
 43
0.0
 10
1020.000000000001
 20
2410.0
 10
1020.000000000001
 20
2470.0
 10
2140.000000000001
 20
2470.0
 10
2140.000000000001
 20
2410.0
  0
LWPOLYLINE
  5
124A1
330
1F
100
AcDbEntity
  8
02実線
100
AcDbPolyline
 90
        4
 70
     1
 43
0.0
 10
960.0
 20
1760.0
 10
960.0
 20
2410.0
 10
1020.000000000001
 20
2410.0
 10
1020.000000000001
 20
1760.0
  0
LWPOLYLINE
  5
124A2
330
1F
100
AcDbEntity
  8
02実線
100
AcDbPolyline
 90
        4
 70
     1
 43
0.0
 10
2140.000000000001
 20
1760.0
 10
2140.000000000001
 20
2410.0
 10
2200.000000000001
 20
2410.0
 10
2200.000000000001
 20
1760.0
  0
LWPOLYLINE
  5
124A9
330
1F
100
AcDbEntity
  8
02実線
100
AcDbPolyline
 90
        4
 70
     1
 43
0.0
 10
2700.000000000001
 20
1760.0
 10
2670.000000000001
 20
1760.0
 10
2670.000000000001
 20
2410.0
 10
2700.000000000001
 20
2410.0
  0
LWPOLYLINE
  5
124AA
330
1F
100
AcDbEntity
  8
02実線
100
AcDbPolyline
 90
        4
 70
     1
 43
0.0
 10
2587.000000000001
 20
1760.0
 10
2557.000000000001
 20
1760.0
 10
2557.000000000001
 20
2410.0
 10
2587.000000000001
 20
2410.0
  0
LINE
  5
124AC
330
1F
100
AcDbEntity
  8
04一点鎖線
 48
0.2
100
AcDbLine
 10
2655.000000000001
 20
1720.0
 30
0.0
 11
2715.000000000001
 21
1720.0
 31
0.0
  0
LINE
  5
124AD
330
1F
100
AcDbEntity
  8
04一点鎖線
 48
0.2
100
AcDbLine
 10
2655.000000000001
 20
2450.0
 30
0.0
 11
2715.000000000001
 21
2450.0
 31
0.0
  0
LINE
  5
124AE
330
1F
100
AcDbEntity
  8
04一点鎖線
 48
0.2
100
AcDbLine
 10
2602.000000000001
 20
1720.0
 30
0.0
 11
2542.000000000001
 21
1720.0
 31
0.0
  0
LINE
  5
124AF
330
1F
100
AcDbEntity
  8
04一点鎖線
 48
0.2
100
AcDbLine
 10
2602.000000000001
 20
2450.0
 30
0.0
 11
2542.000000000001
 21
2450.0
 31
0.0
  0
LWPOLYLINE
  5
1258E
330
1F
100
AcDbEntity
  8
0
100
AcDbPolyline
 90
        5
 70
     1
 43
0.0
 10
960.0
 20
2410.0
 10
960.0
 20
2455.0
 42
-0.414213562373095
 10
975.0
 20
2470.0
 10
1020.000000000001
 20
2470.0
 10
1020.000000000001
 20
2410.0
  0
LWPOLYLINE
  5
12599
330
1F
100
AcDbEntity
  8
0
100
AcDbPolyline
 90
        5
 70
     1
 43
0.0
 10
960.0
 20
1760.0
 10
960.0
 20
1715.0
 42
0.414213562373095
 10
975.0
 20
1700.0
 10
1020.000000000001
 20
1700.0
 10
1020.000000000001
 20
1760.0
  0
LWPOLYLINE
  5
1259B
330
1F
100
AcDbEntity
  8
0
100
AcDbPolyline
 90
        5
 70
     1
 43
0.0
 10
2200.000000000001
 20
1760.0
 10
2200.000000000001
 20
1715.0
 42
-0.414213562373095
 10
2185.000000000001
 20
1700.0
 10
2140.000000000001
 20
1700.0
 10
2140.000000000001
 20
1760.0
  0
LWPOLYLINE
  5
1259C
330
1F
100
AcDbEntity
  8
0
100
AcDbPolyline
 90
        5
 70
     1
 43
0.0
 10
2200.000000000001
 20
2410.0
 10
2200.000000000001
 20
2455.0
 42
0.414213562373095
 10
2185.000000000001
 20
2470.0
 10
2140.000000000001
 20
2470.0
 10
2140.000000000001
 20
2410.0
  0
LWPOLYLINE
  5
1259D
330
1F
100
AcDbEntity
  8
0
100
AcDbPolyline
 90
        4
 70
     1
 43
0.0
 10
1020.000000000001
 20
2410.0
 10
1020.000000000001
 20
2470.0
 10
2140.0
 20
2470.0
 10
2140.0
 20
2410.0
  0
LWPOLYLINE
  5
1259E
330
1F
100
AcDbEntity
  8
0
100
AcDbPolyline
 90
        4
 70
     1
 43
0.0
 10
2140.000000000001
 20
1760.0
 10
2140.000000000001
 20
2410.0
 10
2200.000000000001
 20
2410.0
 10
2200.000000000001
 20
1760.0
  0
LWPOLYLINE
  5
1259F
330
1F
100
AcDbEntity
  8
0
100
AcDbPolyline
 90
        4
 70
     1
 43
0.0
 10
960.0
 20
1760.0
 10
960.0
 20
2410.0
 10
1020.000000000001
 20
2410.0
 10
1020.000000000001
 20
1760.0
  0
LWPOLYLINE
  5
125A0
330
1F
100
AcDbEntity
  8
0
100
AcDbPolyline
 90
        4
 70
     1
 43
0.0
 10
1020.000000000001
 20
1700.0
 10
1020.000000000001
 20
1760.0
 10
2140.0
 20
1760.0
 10
2140.0
 20
1700.0
  0
LWPOLYLINE
  5
125A9
102
{ACAD_REACTORS
330
125AC
102
}
330
1F
100
AcDbEntity
  8
0
100
AcDbPolyline
 90
        4
 70
     1
 43
0.0
 10
960.0
 20
1283.0
 10
960.0
 20
1343.0
 10
1020.000000000001
 20
1343.0
 10
1020.000000000001
 20
1283.0
  0
LWPOLYLINE
  5
125AA
102
{ACAD_REACTORS
330
125AC
102
}
330
1F
100
AcDbEntity
  8
0
100
AcDbPolyline
 90
        4
 70
     1
 43
0.0
 10
960.0
 20
1200.0
 10
960.0
 20
1235.0
 10
1020.000000000001
 20
1235.0
 10
1020.000000000001
 20
1200.0
  0
LINE
  5
125AB
102
{ACAD_REACTORS
330
125AC
102
}
330
1F
100
AcDbEntity
  8
0
100
AcDbLine
 10
985.0000000000018
 20
1302.5
 30
0.0
 11
985.0
 21
1215.5
 31
0.0
  0
LWPOLYLINE
  5
125AD
102
{ACAD_REACTORS
330
125B0
102
}
330
1F
100
AcDbEntity
  8
0
100
AcDbPolyline
 90
        4
 70
     1
 43
0.0
 10
2200.000000000001
 20
1283.0
 10
2200.000000000001
 20
1343.0
 10
2140.000000000001
 20
1343.0
 10
2140.000000000001
 20
1283.0
  0
LWPOLYLINE
  5
125AE
102
{ACAD_REACTORS
330
125B0
102
}
330
1F
100
AcDbEntity
  8
0
100
AcDbPolyline
 90
        4
 70
     1
 43
0.0
 10
2200.000000000001
 20
1200.0
 10
2200.000000000001
 20
1235.0
 10
2140.000000000001
 20
1235.0
 10
2140.000000000001
 20
1200.0
  0
LINE
  5
125AF
102
{ACAD_REACTORS
330
125B0
102
}
330
1F
100
AcDbEntity
  8
0
100
AcDbLine
 10
2174.999999999999
 20
1302.5
 30
0.0
 11
2175.000000000001
 21
1215.5
 31
0.0
  0
LWPOLYLINE
  5
125C6
102
{ACAD_REACTORS
330
125CA
102
}
330
1F
100
AcDbEntity
  8
0
100
AcDbPolyline
 90
        4
 70
     1
 43
0.0
 10
2200.000000000001
 20
1283.0
 10
2200.000000000001
 20
1343.0
 10
2140.000000000001
 20
1343.0
 10
2140.000000000001
 20
1283.0
  0
LWPOLYLINE
  5
125C7
102
{ACAD_REACTORS
330
125CA
102
}
330
1F
100
AcDbEntity
  8
0
100
AcDbPolyline
 90
        4
 70
     1
 43
0.0
 10
2200.000000000001
 20
1200.0
 10
2200.000000000001
 20
1235.0
 10
2140.000000000001
 20
1235.0
 10
2140.000000000001
 20
1200.0
  0
LINE
  5
125C8
102
{ACAD_REACTORS
330
125CA
102
}
330
1F
100
AcDbEntity
  8
0
100
AcDbLine
 10
2174.999999999999
 20
1302.5
 30
0.0
 11
2175.000000000001
 21
1215.5
 31
0.0
  0
LWPOLYLINE
  5
125D4
330
1F
100
AcDbEntity
  8
0
100
AcDbPolyline
 90
        4
 70
     1
 43
0.0
 10
1020.000000000001
 20
1313.0
 10
1020.000000000001
 20
1343.0
 10
2140.000000000001
 20
1343.0
 10
2140.000000000001
 20
1313.0
  0
LWPOLYLINE
  5
125D5
330
1F
100
AcDbEntity
  8
0
100
AcDbPolyline
 90
        4
 70
     1
 43
0.0
 10
2140.000000000001
 20
1200.0
 10
2140.000000000001
 20
1230.0
 10
1020.000000000001
 20
1230.0
 10
1020.000000000001
 20
1200.0
  0
LWPOLYLINE
  5
125D6
102
{ACAD_REACTORS
330
125D9
102
}
330
1F
100
AcDbEntity
  8
0
100
AcDbPolyline
 90
        4
 70
     1
 43
0.0
 10
2617.000000000001
 20
1700.0
 10
2557.000000000001
 20
1700.0
 10
2557.000000000001
 20
1760.0
 10
2617.000000000001
 20
1760.0
  0
LWPOLYLINE
  5
125D7
102
{ACAD_REACTORS
330
125D9
102
}
330
1F
100
AcDbEntity
  8
0
100
AcDbPolyline
 90
        4
 70
     1
 43
0.0
 10
2700.000000000001
 20
1700.0
 10
2665.000000000001
 20
1700.0
 10
2665.000000000001
 20
1760.0
 10
2700.000000000001
 20
1760.0
  0
LINE
  5
125D8
102
{ACAD_REACTORS
330
125D9
102
}
330
1F
100
AcDbEntity
  8
0
100
AcDbLine
 10
2597.500000000001
 20
1725.000000000002
 30
0.0
 11
2684.500000000001
 21
1725.0
 31
0.0
  0
LWPOLYLINE
  5
125DA
102
{ACAD_REACTORS
330
125DD
102
}
330
1F
100
AcDbEntity
  8
0
100
AcDbPolyline
 90
        4
 70
     1
 43
0.0
 10
2617.000000000001
 20
2470.0
 10
2557.000000000001
 20
2470.0
 10
2557.000000000001
 20
2410.0
 10
2617.000000000001
 20
2410.0
  0
LWPOLYLINE
  5
125DB
102
{ACAD_REACTORS
330
125DD
102
}
330
1F
100
AcDbEntity
  8
0
100
AcDbPolyline
 90
        4
 70
     1
 43
0.0
 10
2700.000000000001
 20
2470.0
 10
2665.000000000001
 20
2470.0
 10
2665.000000000001
 20
2410.0
 10
2700.000000000001
 20
2410.0
  0
LINE
  5
125DC
102
{ACAD_REACTORS
330
125DD
102
}
330
1F
100
AcDbEntity
  8
0
100
AcDbLine
 10
2597.500000000001
 20
2444.999999999998
 30
0.0
 11
2684.500000000001
 21
2445.0
 31
0.0
  0
LWPOLYLINE
  5
125DE
330
1F
100
AcDbEntity
  8
0
100
AcDbPolyline
 90
        4
 70
     1
 43
0.0
 10
2557.000000000001
 20
1760.0
 10
2557.000000000001
 20
2410.0
 10
2587.000000000001
 20
2410.0
 10
2587.000000000001
 20
1760.0
  0
LWPOLYLINE
  5
125DF
330
1F
100
AcDbEntity
  8
0
100
AcDbPolyline
 90
        4
 70
     1
 43
0.0
 10
2670.000000000001
 20
2410.0
 10
2670.000000000001
 20
1760.0
 10
2700.000000000001
 20
1760.0
 10
2700.000000000001
 20
2410.0
  0
LINE
  5
125E0
330
1F
100
AcDbEntity
  8
0
100
AcDbLine
 10
2542.000000000001
 20
2450.0
 30
0.0
 11
2602.000000000001
 21
2450.0
 31
0.0
  0
LINE
  5
125E1
330
1F
100
AcDbEntity
  8
0
100
AcDbLine
 10
2655.000000000001
 20
2450.0
 30
0.0
 11
2715.000000000001
 21
2450.0
 31
0.0
  0
LINE
  5
125E2
330
1F
100
AcDbEntity
  8
0
100
AcDbLine
 10
2542.000000000001
 20
1720.0
 30
0.0
 11
2602.000000000001
 21
1720.0
 31
0.0
  0
LINE
  5
125E3
330
1F
100
AcDbEntity
  8
0
100
AcDbLine
 10
2655.000000000001
 20
1720.0
 30
0.0
 11
2715.000000000001
 21
1720.0
 31
0.0
  0
LINE
  5
125E4
330
1F
100
AcDbEntity
  8
0
100
AcDbLine
 10
1042.000000000001
 20
1245.0
 30
0.0
 11
1042.000000000001
 21
1185.0
 31
0.0
  0
LINE
  5
125E5
330
1F
100
AcDbEntity
  8
0
100
AcDbLine
 10
1042.000000000001
 20
1358.0
 30
0.0
 11
1042.000000000001
 21
1298.0
 31
0.0
  0
LINE
  5
125E6
330
1F
100
AcDbEntity
  8
0
100
AcDbLine
 10
2118.000000000001
 20
1358.0
 30
0.0
 11
2118.000000000001
 21
1298.0
 31
0.0
  0
LINE
  5
125E7
330
1F
100
AcDbEntity
  8
0
100
AcDbLine
 10
2118.000000000001
 20
1245.0
 30
0.0
 11
2118.000000000001
 21
1185.0
 31
0.0
  0
CIRCLE
  5
125EE
330
1F
100
AcDbEntity
  8
0
100
AcDbCircle
 10
1042.000000000001
 20
2450.0
 30
0.0
 40
8.0
  0
CIRCLE
  5
125F8
330
1F
100
AcDbEntity
  8
0
100
AcDbCircle
 10
2118.000000000001
 20
2450.0
 30
0.0
 40
8.0
  0
CIRCLE
  5
12602
330
1F
100
AcDbEntity
  8
0
100
AcDbCircle
 10
2118.000000000001
 20
1720.0
 30
0.0
 40
8.0
  0
CIRCLE
  5
1260C
330
1F
100
AcDbEntity
  8
0
100
AcDbCircle
 10
1042.000000000001
 20
1720.0
 30
0.0
 40
8.0
  0
VIEWPORT
  5
9F0D
330
1B
100
AcDbEntity
 67
     1
  8
0
100
AcDbViewport
 10
202.5
 20
128.5
 30
0.0
 40
486.0
 41
308.4
 68
     1
 69
     1
 12
202.5
 22
128.5
 13
0.0
 23
0.0
 14
0.5
 24
0.5
 15
0.0
 25
0.0
 16
0.0
 26
0.0
 36
1.0
 17
0.0
 27
0.0
 37
0.0
 42
50.0
 43
0.0
 44
0.0
 45
308.4
 50
0.0
 51
0.0
 72
   100
 90
   557152
  1

281
     0
 71
     1
 74
     0
110
0.0
120
0.0
130
0.0
111
1.0
121
0.0
131
0.0
112
0.0
122
1.0
132
0.0
 79
     0
146
0.0
  0
VIEWPORT
  5
9F0E
330
1B
100
AcDbEntity
 67
     1
  8
0
100
AcDbViewport
 10
202.5
 20
128.5
 30
0.0
 40
324.0
 41
205.6
 68
     2
 69
     2
 12
-3224.9849078482
 22
3553.815758143106
 13
0.0
 23
0.0
 14
0.5
 24
0.5
 15
0.0
 25
0.0
 16
0.0
 26
0.0
 36
1.0
 17
0.0
 27
0.0
 37
0.0
 42
50.0
 43
0.0
 44
0.0
 45
10712.16027781073
 50
0.0
 51
0.0
 72
   100
 90
   557152
  1

281
     0
 71
     1
 74
     0
110
0.0
120
0.0
130
0.0
111
1.0
121
0.0
131
0.0
112
0.0
122
1.0
132
0.0
 79
     0
146
0.0
  0
ENDSEC
  0
SECTION
  2
OBJECTS
  0
DICTIONARY
  5
C
330
0
100
AcDbDictionary
281
     1
  3
ACAD_DETAILVIEWSTYLE
350
15646
  3
ACAD_GROUP
350
D
  3
ACAD_IMAGE_VARS
350
6A88
  3
ACAD_LAYOUT
350
1A
  3
ACAD_MLINESTYLE
350
17
  3
ACAD_PLOTSETTINGS
350
19
  3
ACAD_PLOTSTYLENAME
350
E
  3
ACAD_SCALELIST
350
6A4E
  3
ACAD_SECTIONVIEWSTYLE
350
15647
  3
AcadDim
350
F41C
  3
AcDbVariableDictionary
350
79E
  3
APPDATA
350
6A87
  3
DWGPROPS
350
15649
  0
DICTIONARY
  5
7A6F
330
2
100
AcDbDictionary
280
     1
281
     1
  3
ACAD_LAYERSTATES
360
7A70
  3
ACLYDICTIONARY
360
1258D
  0
DICTIONARY
  5
969E
330
1F
100
AcDbDictionary
280
     1
281
     1
  3
ACAD_SORTENTS
360
969F
  0
DICTIONARY
  5
15646
102
{ACAD_REACTORS
330
C
102
}
330
C
100
AcDbDictionary
281
     1
  0
DICTIONARY
  5
D
102
{ACAD_REACTORS
330
C
102
}
330
C
100
AcDbDictionary
281
     1
  3
*A10
350
125DD
  3
*A6
350
125AC
  3
*A7
350
125B0
  3
*A8
350
125CA
  3
*A9
350
125D9
  0
RASTERVARIABLES
  5
6A88
102
{ACAD_REACTORS
330
C
102
}
330
C
100
AcDbRasterVariables
 90
        0
 70
     1
 71
     1
 72
     1
  0
DICTIONARY
  5
1A
102
{ACAD_REACTORS
330
C
102
}
330
C
100
AcDbDictionary
281
     1
  3
Layout1
350
1E
  3
Model
350
22
  0
DICTIONARY
  5
17
102
{ACAD_REACTORS
330
C
102
}
330
C
100
AcDbDictionary
281
     1
  3
Standard
350
18
  0
DICTIONARY
  5
19
102
{ACAD_REACTORS
330
C
102
}
330
C
100
AcDbDictionary
281
     1
  0
ACDBDICTIONARYWDFLT
  5
E
102
{ACAD_REACTORS
330
C
102
}
330
C
100
AcDbDictionary
281
     1
  3
Normal
350
F
100
AcDbDictionaryWithDefault
340
F
  0
DICTIONARY
  5
6A4E
102
{ACAD_REACTORS
330
C
102
}
330
C
100
AcDbDictionary
281
     1
  3
A0
350
6A4F
  3
A1
350
6A50
  3
A2
350
6A51
  3
A3
350
6A52
  3
A4
350
6A53
  3
A5
350
6A54
  3
A6
350
6A55
  3
A7
350
6A56
  3
A8
350
6A57
  3
A9
350
6A58
  3
B0
350
6A59
  3
B1
350
6A5A
  3
B2
350
6A5B
  3
B3
350
6A5C
  3
B4
350
6A5D
  3
B5
350
6A5E
  3
B6
350
6A5F
  3
B7
350
6A60
  3
B8
350
6A61
  3
B9
350
6A62
  3
C0
350
6A63
  3
C1
350
6A64
  3
C2
350
6A65
  3
C3
350
6A66
  3
C4
350
6A67
  3
C5
350
6A68
  3
C6
350
6A69
  3
C7
350
6A6A
  3
C8
350
6A6B
  3
C9
350
6A6C
  3
D0
350
6A6D
  3
D1
350
6A6E
  3
D2
350
6A6F
  0
DICTIONARY
  5
15647
102
{ACAD_REACTORS
330
C
102
}
330
C
100
AcDbDictionary
281
     1
  0
XRECORD
  5
F41C
102
{ACAD_REACTORS
330
C
102
}
330
C
100
AcDbXrecord
280
     1
340
0
 72
     0
 71
     0
 70
     0
 69
     0
 68
     1
 67
     3
 66
     0
 65
     0
 64
     0
 63
     3
 62
     1
 61
     0
 60
     0
 40
0.0
  0
DICTIONARY
  5
79E
102
{ACAD_REACTORS
330
C
102
}
330
C
100
AcDbDictionary
281
     1
  3
DIMASSOC
350
79F
  3
SORTENTS
350
264F
  0
DICTIONARY
  5
6A87
102
{ACAD_REACTORS
330
C
102
}
330
C
100
AcDbDictionary
281
     1
  0
XRECORD
  5
15649
102
{ACAD_REACTORS
330
C
102
}
330
C
100
AcDbXrecord
280
     1
  1
DWGPROPS COOKIE
  2

  3

  4

  6

  7

  8
Sales
  9

300
=
301
=
302
=
303
=
304
=
305
=
306
=
307
=
308
=
309
=
 40
0.0
 41
2455859.030048461
 42
2458967.114707685
  1

 90
        0
  0
DICTIONARY
  5
7A70
102
{ACAD_REACTORS
330
7A6F
102
}
330
7A6F
100
AcDbDictionary
281
     1
  0
DICTIONARY
  5
1258D
102
{ACAD_REACTORS
330
7A6F
102
}
330
7A6F
100
AcDbDictionary
281
     1
1001
ACAD
1000
<All
  0
SORTENTSTABLE
  5
969F
102
{ACAD_REACTORS
330
969E
102
}
330
969E
100
AcDbSortentsTable
330
1F
331
0
  5
14591
331
0
  5
C1D5
331
0
  5
14EB2
331
0
  5
1458F
331
0
  5
14EB4
331
0
  5
14EB6
331
0
  5
14EB7
331
0
  5
1458D
331
0
  5
C1F3
331
0
  5
14EB8
331
0
  5
1458C
331
0
  5
1458B
331
0
  5
1458A
331
0
  5
14EB9
331
0
  5
14589
331
0
  5
14588
331
0
  5
14587
331
0
  5
14EBA
331
0
  5
14EBB
331
0
  5
14586
331
0
  5
14585
331
0
  5
14EBC
331
0
  5
14EBD
331
0
  5
14583
331
0
  5
14582
331
0
  5
14581
331
0
  5
14580
331
0
  5
1457F
331
0
  5
1457E
331
0
  5
1457D
331
0
  5
1457C
331
0
  5
1457B
331
0
  5
1457A
331
0
  5
14579
331
0
  5
14578
331
0
  5
14577
331
0
  5
14576
331
0
  5
14575
331
0
  5
14574
331
0
  5
14573
331
0
  5
14572
331
0
  5
14571
331
0
  5
14570
331
0
  5
1456F
331
0
  5
C1F4
331
0
  5
C1F5
331
0
  5
C1F6
331
0
  5
14EB0
331
0
  5
1456E
331
0
  5
1456D
331
0
  5
1456C
331
0
  5
1456B
331
0
  5
1456A
331
0
  5
C1F7
331
0
  5
C1F8
331
0
  5
14569
331
0
  5
14568
331
0
  5
14567
331
0
  5
14566
331
0
  5
14565
331
0
  5
C1F9
331
0
  5
C1FA
331
0
  5
14564
331
0
  5
14563
331
0
  5
14562
331
0
  5
14561
331
0
  5
14560
331
0
  5
C1FB
331
0
  5
C1FC
331
0
  5
1455F
331
0
  5
1455E
331
0
  5
1455C
331
0
  5
1455B
331
0
  5
1455A
331
0
  5
C1FD
331
0
  5
C1FE
331
0
  5
14559
331
0
  5
14557
331
0
  5
14556
331
0
  5
C1FF
331
0
  5
C202
331
0
  5
14555
331
0
  5
14554
331
0
  5
14551
331
0
  5
14550
331
0
  5
1454F
331
0
  5
1454E
331
0
  5
1454D
331
0
  5
1454C
331
0
  5
1454B
331
0
  5
1454A
331
0
  5
14549
331
0
  5
1453E
331
0
  5
1453A
331
0
  5
14539
331
0
  5
14537
331
0
  5
14536
331
0
  5
14531
331
0
  5
14530
331
0
  5
1452F
331
0
  5
1452E
331
0
  5
14526
331
0
  5
14525
331
0
  5
14524
331
0
  5
14522
331
0
  5
14521
331
0
  5
14520
331
0
  5
1451E
331
0
  5
1451D
331
0
  5
1451C
331
0
  5
1451B
331
0
  5
1451A
331
0
  5
14519
331
0
  5
14516
331
0
  5
C203
331
0
  5
14512
331
0
  5
14511
331
0
  5
14510
331
0
  5
1450F
331
0
  5
1450E
331
0
  5
1450D
331
0
  5
C204
331
0
  5
C205
331
0
  5
C206
331
0
  5
C207
331
0
  5
C208
331
0
  5
C209
331
0
  5
1450C
331
0
  5
1450B
331
0
  5
1450A
331
0
  5
C20D
331
0
  5
C20E
331
0
  5
14509
331
0
  5
C20F
331
0
  5
C210
331
0
  5
C211
331
0
  5
C212
331
0
  5
C213
331
0
  5
C214
331
0
  5
144EC
331
0
  5
C21A
331
0
  5
C21B
331
0
  5
144D0
331
0
  5
144CF
331
0
  5
144C2
331
0
  5
C21C
331
0
  5
144B3
331
0
  5
144A6
331
0
  5
14497
331
0
  5
1448A
331
0
  5
1447D
331
0
  5
14470
331
0
  5
14463
331
0
  5
14462
331
0
  5
14EC0
331
0
  5
C21D
331
0
  5
14460
331
0
  5
C21F
331
0
  5
C220
331
0
  5
C225
331
0
  5
C226
331
0
  5
C227
331
0
  5
C228
331
0
  5
C229
331
0
  5
C22A
331
0
  5
C22B
331
0
  5
F3F1
331
0
  5
F3F2
331
0
  5
1444F
331
0
  5
1444E
331
0
  5
F3F3
331
0
  5
F3F4
331
0
  5
F3F5
331
0
  5
F3F6
331
0
  5
F3F7
331
0
  5
F3F8
331
0
  5
F3F9
331
0
  5
F3FA
331
0
  5
F3FB
331
0
  5
F3FC
331
0
  5
F3FD
331
0
  5
F3FE
331
0
  5
F3FF
331
0
  5
F400
331
0
  5
F401
331
0
  5
F402
331
0
  5
F403
331
0
  5
F404
331
0
  5
F405
331
0
  5
F406
331
0
  5
F407
331
0
  5
F408
331
0
  5
F409
331
0
  5
F40A
331
0
  5
F40B
331
0
  5
F40C
331
0
  5
F40D
331
0
  5
F40E
331
0
  5
F40F
331
0
  5
F410
331
0
  5
F412
331
0
  5
F413
331
0
  5
F414
331
0
  5
C234
331
0
  5
C235
331
0
  5
F415
331
0
  5
F416
331
0
  5
F424
331
0
  5
F425
331
0
  5
F426
331
0
  5
F427
331
0
  5
F428
331
0
  5
F429
331
0
  5
F42A
331
0
  5
F42B
331
0
  5
F42C
331
0
  5
F42D
331
0
  5
F42E
331
0
  5
F42F
331
0
  5
F431
331
0
  5
F433
331
0
  5
F434
331
0
  5
1444D
331
0
  5
1444C
331
0
  5
1444B
331
0
  5
1444A
331
0
  5
14449
331
0
  5
14448
331
0
  5
14ECB
331
0
  5
14447
331
0
  5
14446
331
0
  5
C236
331
0
  5
C23B
331
0
  5
14EB1
331
0
  5
14422
331
0
  5
14415
331
0
  5
14413
331
0
  5
14412
331
0
  5
14411
331
0
  5
14408
331
0
  5
14407
331
0
  5
14406
331
0
  5
14405
331
0
  5
14404
331
0
  5
14402
331
0
  5
14401
331
0
  5
14400
331
0
  5
143F7
331
0
  5
143F6
331
0
  5
C241
331
0
  5
13221
331
0
  5
13222
331
0
  5
13223
331
0
  5
13224
331
0
  5
13225
331
0
  5
13226
331
0
  5
13227
331
0
  5
13228
331
0
  5
13229
331
0
  5
1322A
331
0
  5
1322B
331
0
  5
143CC
331
0
  5
143CB
331
0
  5
143C8
331
0
  5
C242
331
0
  5
C247
331
0
  5
C24E
331
0
  5
C250
331
0
  5
C253
331
0
  5
C255
331
0
  5
C256
331
0
  5
C257
331
0
  5
C258
331
0
  5
C259
331
0
  5
C25A
331
0
  5
C25B
331
0
  5
C25C
331
0
  5
C25D
331
0
  5
C25E
331
0
  5
C25F
331
0
  5
C260
331
0
  5
C279
331
0
  5
C27A
331
0
  5
C27B
331
0
  5
C27C
331
0
  5
C27D
331
0
  5
C27E
331
0
  5
C27F
331
0
  5
C280
331
0
  5
C281
331
0
  5
C282
331
0
  5
C2A7
331
0
  5
C2A9
331
0
  5
C2AA
331
0
  5
C2AB
331
0
  5
C2B5
331
0
  5
C2B6
331
0
  5
C2C2
331
0
  5
C2C3
331
0
  5
C2C4
331
0
  5
C2C5
331
0
  5
C2C6
331
0
  5
C2C7
331
0
  5
C2C8
331
0
  5
142EE
331
0
  5
C2C9
331
0
  5
C2CA
331
0
  5
142ED
331
0
  5
142EC
331
0
  5
142EB
331
0
  5
C2CB
331
0
  5
142EA
331
0
  5
C2CC
331
0
  5
142E9
331
0
  5
142E8
331
0
  5
C2CD
331
0
  5
C2CE
331
0
  5
142E7
331
0
  5
C2CF
331
0
  5
142E6
331
0
  5
C2D0
331
0
  5
142E4
331
0
  5
C2D1
331
0
  5
14EDC
331
0
  5
10DF2
331
0
  5
10DF3
331
0
  5
10DF4
331
0
  5
10DF5
331
0
  5
10DF6
331
0
  5
10DF7
331
0
  5
10DF8
331
0
  5
10DF9
331
0
  5
10DFA
331
0
  5
10DFB
331
0
  5
10DFC
331
0
  5
10DFD
331
0
  5
10DFE
331
0
  5
10DFF
331
0
  5
10E00
331
0
  5
10E01
331
0
  5
10E02
331
0
  5
10E03
331
0
  5
10E04
331
0
  5
10E05
331
0
  5
10E06
331
0
  5
E2EC
331
0
  5
E2ED
331
0
  5
10E07
331
0
  5
10E08
331
0
  5
10E09
331
0
  5
10E0A
331
0
  5
10E0B
331
0
  5
10E0C
331
0
  5
10E0D
331
0
  5
10E0E
331
0
  5
141E6
331
0
  5
141E5
331
0
  5
10E0F
331
0
  5
10E10
331
0
  5
10E11
331
0
  5
10E12
331
0
  5
10E13
331
0
  5
10E14
331
0
  5
14EDD
331
0
  5
141E4
331
0
  5
141E3
331
0
  5
C2D7
331
0
  5
141E2
331
0
  5
141E1
331
0
  5
10F18
331
12484
  5
10F47
331
12485
  5
10F48
331
0
  5
10F49
331
0
  5
10F4A
331
0
  5
10F4C
331
0
  5
10F4F
331
1248D
  5
10F51
331
1248E
  5
10F52
331
1248F
  5
10FA5
331
12490
  5
10FA6
331
0
  5
10FA7
331
0
  5
10FA8
331
0
  5
C2F3
331
0
  5
C2E4
331
0
  5
141B9
331
12498
  5
C2F6
331
0
  5
C2E5
331
0
  5
C2E6
331
1249B
  5
10FAD
331
1249C
  5
10FAE
331
1249D
  5
E315
331
1249E
  5
10FAF
331
1249F
  5
10FB0
331
124A0
  5
10FB1
331
124A1
  5
E314
331
124A2
  5
10FB2
331
0
  5
110C2
331
124A9
  5
110D0
331
124AA
  5
110DD
331
0
  5
110DE
331
124AC
  5
110EB
331
124AD
  5
110EC
331
124AE
  5
110ED
331
124AF
  5
11660
331
0
  5
11661
331
0
  5
C2F5
331
0
  5
C2E7
331
0
  5
141B8
331
0
  5
141B7
331
0
  5
141B6
331
0
  5
141B5
331
0
  5
141B4
331
0
  5
141B3
331
0
  5
141B2
331
0
  5
141B1
331
0
  5
141B0
331
0
  5
141AF
331
0
  5
141AE
331
0
  5
C2EE
331
0
  5
141AD
331
0
  5
141AC
331
0
  5
141AB
331
0
  5
14191
331
0
  5
1418F
331
0
  5
1418E
331
0
  5
1418D
331
0
  5
1418C
331
0
  5
1418B
331
1258E
  5
13235
331
12599
  5
13240
331
1259B
  5
13241
331
1259C
  5
13242
331
1259D
  5
13243
331
1259E
  5
13244
331
1259F
  5
1321E
331
125A0
  5
13245
331
125A9
  5
1324B
331
125AA
  5
1324C
331
125AB
  5
1324D
331
125AD
  5
1324E
331
125AE
  5
1324F
331
125AF
  5
13250
331
125C6
  5
1326B
331
125C7
  5
1326C
331
125C8
  5
1326D
331
125D4
  5
13275
331
125D5
  5
13276
331
125D6
  5
13277
331
125D7
  5
13278
331
125D8
  5
13279
331
125DA
  5
1327A
331
125DB
  5
1327B
331
125DC
  5
1327C
331
125DE
  5
1327D
331
125DF
  5
1327E
331
125E0
  5
1327F
331
125E1
  5
13280
331
125E2
  5
13281
331
125E3
  5
13282
331
125E4
  5
1328B
331
125E5
  5
1328C
331
125E6
  5
1328D
331
125E7
  5
1328E
331
0
  5
12015
331
125EE
  5
13291
331
0
  5
121BC
331
125F8
  5
13296
331
0
  5
12309
331
12602
  5
1329B
331
0
  5
12352
331
1260C
  5
13317
331
0
  5
12380
331
0
  5
12381
331
0
  5
12382
331
0
  5
12383
331
0
  5
C2F9
331
0
  5
12386
331
0
  5
12394
331
0
  5
12398
331
0
  5
123D6
331
0
  5
12427
331
0
  5
12434
331
0
  5
12443
331
0
  5
12450
331
0
  5
CA8A
331
0
  5
13F9B
331
0
  5
13F9A
331
0
  5
13F99
331
0
  5
13F98
331
0
  5
D85A
331
0
  5
13F97
331
0
  5
D85B
331
0
  5
13F94
331
0
  5
13F93
331
0
  5
D85E
331
0
  5
D860
331
0
  5
13F92
331
0
  5
13F91
331
0
  5
D8DB
331
0
  5
D8DC
331
0
  5
14F22
331
0
  5
14F23
331
0
  5
14F24
331
0
  5
13F90
331
0
  5
13F8F
331
0
  5
D90A
331
0
  5
13F8C
331
0
  5
13F8B
331
0
  5
13F75
331
0
  5
13F74
331
0
  5
13F73
331
0
  5
D914
331
0
  5
13F66
331
0
  5
14F25
331
0
  5
D915
331
0
  5
13F65
331
0
  5
14F26
331
0
  5
13F64
331
0
  5
14F27
331
0
  5
13F63
331
0
  5
14F28
331
0
  5
13F62
331
0
  5
14F29
331
0
  5
D916
331
0
  5
D933
331
0
  5
D934
331
0
  5
D935
331
0
  5
D936
331
0
  5
D937
331
0
  5
D938
331
0
  5
D939
331
0
  5
D93A
331
0
  5
D93B
331
0
  5
D93C
331
0
  5
D93D
331
0
  5
D93E
331
0
  5
D943
331
0
  5
D944
331
0
  5
147D5
331
0
  5
147D6
331
0
  5
DC09
331
0
  5
147D7
331
0
  5
DC0A
331
0
  5
DC0B
331
0
  5
DC0C
331
0
  5
DC0D
331
0
  5
DC0E
331
0
  5
DC0F
331
0
  5
DC10
331
0
  5
DC6F
331
0
  5
14FBF
331
0
  5
14FC0
331
0
  5
1544D
331
0
  5
1544E
331
0
  5
1544F
331
0
  5
15451
331
0
  5
15452
331
0
  5
15453
331
0
  5
15454
331
0
  5
15455
331
0
  5
15456
331
0
  5
15457
331
0
  5
15458
331
0
  5
1545A
331
0
  5
1545B
331
0
  5
1545C
331
0
  5
1545D
331
0
  5
1545E
331
0
  5
1545F
331
0
  5
15460
331
0
  5
15461
331
0
  5
15462
331
0
  5
15463
331
0
  5
15464
331
0
  5
15465
331
0
  5
15466
331
0
  5
15467
331
0
  5
15469
331
0
  5
1546A
331
0
  5
1546B
331
0
  5
1546C
331
0
  5
1546D
331
0
  5
1546E
331
0
  5
1546F
331
0
  5
15470
331
0
  5
15471
331
0
  5
15472
331
0
  5
15473
331
0
  5
15474
331
0
  5
15475
331
0
  5
15476
331
0
  5
15477
331
0
  5
15478
331
0
  5
15479
331
0
  5
1547A
331
0
  5
1547B
331
0
  5
1547C
331
0
  5
1547D
331
0
  5
1547E
331
0
  5
1547F
331
0
  5
15480
331
0
  5
15481
331
0
  5
15482
331
0
  5
15483
331
0
  5
15484
331
0
  5
15485
331
0
  5
15486
331
0
  5
15487
331
0
  5
15488
331
0
  5
15489
331
0
  5
1548A
331
0
  5
1548B
331
0
  5
1548C
331
0
  5
1548D
331
0
  5
1548E
331
0
  5
1548F
331
0
  5
15490
331
0
  5
15491
331
0
  5
15492
331
0
  5
15493
331
0
  5
15494
331
0
  5
15495
331
0
  5
15496
331
0
  5
15497
331
0
  5
15498
331
0
  5
15499
331
0
  5
1549A
331
0
  5
1549B
331
0
  5
1549C
331
0
  5
1549D
331
0
  5
1549E
331
0
  5
1549F
331
0
  5
154A0
331
0
  5
154A1
331
0
  5
154A2
331
0
  5
154A3
331
0
  5
154A4
331
0
  5
154A5
331
0
  5
154A6
331
0
  5
154A7
331
0
  5
154A8
331
0
  5
154A9
331
0
  5
154AA
331
0
  5
154AB
331
0
  5
154AC
331
0
  5
154AD
331
0
  5
154AE
331
0
  5
154AF
331
0
  5
154B0
331
0
  5
154B1
331
0
  5
154B2
331
0
  5
154B3
331
0
  5
154B4
331
0
  5
154B5
331
0
  5
154B6
331
0
  5
154B7
331
0
  5
154B8
331
0
  5
154B9
331
0
  5
154BA
331
0
  5
154BB
331
0
  5
154BC
331
0
  5
154BD
331
0
  5
154BE
331
0
  5
154BF
331
0
  5
154C0
331
0
  5
154C1
331
0
  5
154C2
331
0
  5
154C3
331
0
  5
154C4
331
0
  5
154C5
331
0
  5
154C6
331
0
  5
154C7
331
0
  5
154C8
331
0
  5
154C9
331
0
  5
154CA
331
0
  5
154CB
331
0
  5
154CC
331
0
  5
154CD
331
0
  5
154CE
331
0
  5
154CF
331
0
  5
154D0
331
0
  5
154D1
331
0
  5
154D2
331
0
  5
154D3
331
0
  5
154D4
331
0
  5
154D5
331
0
  5
154D6
331
0
  5
154D7
331
0
  5
154D8
331
0
  5
154D9
331
0
  5
154DA
331
0
  5
154DB
331
0
  5
154DC
331
0
  5
154DD
331
0
  5
154DE
331
0
  5
154DF
331
0
  5
154E0
331
0
  5
1552D
331
0
  5
15535
331
0
  5
15536
331
0
  5
15537
331
0
  5
15538
331
0
  5
15539
331
0
  5
1553A
331
0
  5
1553D
331
0
  5
1553E
331
0
  5
1553F
331
0
  5
15542
331
0
  5
15543
331
0
  5
15544
331
0
  5
15545
331
0
  5
15546
331
0
  5
15547
331
0
  5
15548
331
0
  5
15549
331
0
  5
1554A
331
0
  5
1554B
331
0
  5
1554C
331
0
  5
1554D
331
0
  5
1554E
331
0
  5
1554F
331
0
  5
15550
331
0
  5
15551
331
0
  5
15552
331
0
  5
15553
331
0
  5
15554
331
0
  5
15555
331
0
  5
15556
331
0
  5
15557
331
0
  5
15558
331
0
  5
15559
331
0
  5
1555A
331
0
  5
1555B
331
0
  5
1555C
331
0
  5
1555D
331
0
  5
1555E
331
0
  5
1555F
331
0
  5
C1D4
  0
GROUP
  5
125DD
102
{ACAD_REACTORS
330
D
102
}
330
D
100
AcDbGroup
300

 70
     1
 71
     1
340
125DA
340
125DB
340
125DC
  0
GROUP
  5
125AC
102
{ACAD_REACTORS
330
D
102
}
330
D
100
AcDbGroup
300

 70
     1
 71
     1
340
125A9
340
125AA
340
125AB
  0
GROUP
  5
125B0
102
{ACAD_REACTORS
330
D
102
}
330
D
100
AcDbGroup
300

 70
     1
 71
     1
340
125AD
340
125AE
340
125AF
  0
GROUP
  5
125CA
102
{ACAD_REACTORS
330
D
102
}
330
D
100
AcDbGroup
300

 70
     1
 71
     1
340
125C6
340
125C7
340
125C8
  0
GROUP
  5
125D9
102
{ACAD_REACTORS
330
D
102
}
330
D
100
AcDbGroup
300

 70
     1
 71
     1
340
125D6
340
125D7
340
125D8
  0
LAYOUT
  5
1E
102
{ACAD_REACTORS
330
1A
102
}
330
1A
100
AcDbPlotSettings
  1

  2
none_device
  4
ISO_A3_(420.00_x_297.00_MM)
  6

 40
7.5
 41
20.0
 42
7.5
 43
20.0
 44
420.0
 45
297.0
 46
0.0
 47
0.0
 48
0.0
 49
0.0
140
0.0
141
0.0
142
1.0
143
1.0
 70
   688
 72
     1
 73
     0
 74
     5
  7

 75
    16
147
1.0
148
0.0
149
0.0
100
AcDbLayout
  1
Layout1
 70
     1
 71
     1
 10
0.0
 20
0.0
 11
412.5
 21
277.0
 12
0.0
 22
0.0
 32
0.0
 14
1.000000000000000E+20
 24
1.000000000000000E+20
 34
1.000000000000000E+20
 15
-1.000000000000000E+20
 25
-1.000000000000000E+20
 35
-1.000000000000000E+20
146
0.0
 13
0.0
 23
0.0
 33
0.0
 16
1.0
 26
0.0
 36
0.0
 17
0.0
 27
1.0
 37
0.0
 76
     0
330
1B
331
9F0D
  0
LAYOUT
  5
22
102
{ACAD_REACTORS
330
1A
102
}
330
1A
100
AcDbPlotSettings
  1

  2
none_device
  4
A3
  6

 40
3.174999952316284
 41
3.174999952316284
 42
3.17498779296875
 43
3.17498779296875
 44
297.0318298339844
 45
420.1583251953125
 46
-3.16
 47
-3.1
 48
-90.0
 49
-90.0
140
329.9999999999998
141
207.0
142
1.0
143
1.0
 70
 11940
 72
     1
 73
     1
 74
     4
  7
monochrome.ctb
 75
     0
147
1.0
148
90.0
149
90.0
100
AcDbLayout
  1
Model
 70
     1
 71
     0
 10
0.0
 20
0.0
 11
4200.0
 21
2970.0
 12
0.0
 22
0.0
 32
0.0
 14
960.0
 24
1185.0
 34
0.0
 15
2715.000000000001
 25
2470.0
 35
0.0
146
0.0
 13
0.0
 23
0.0
 33
0.0
 16
1.0
 26
0.0
 36
0.0
 17
0.0
 27
1.0
 37
0.0
 76
     0
330
1F
331
7A57
  0
MLINESTYLE
  5
18
102
{ACAD_REACTORS
330
17
102
}
330
17
100
AcDbMlineStyle
  2
STANDARD
 70
     0
  3

 62
   256
 51
90.0
 52
90.0
 71
     2
 49
0.5
 62
   256
  6
BYLAYER
 49
-0.5
 62
   256
  6
BYLAYER
  0
ACDBPLACEHOLDER
  5
F
102
{ACAD_REACTORS
330
E
102
}
330
E
  0
SCALE
  5
6A4F
102
{ACAD_REACTORS
330
6A4E
102
}
330
6A4E
100
AcDbScale
 70
     0
300
1:1
140
1.0
141
1.0
290
     1
  0
SCALE
  5
6A50
102
{ACAD_REACTORS
330
6A4E
102
}
330
6A4E
100
AcDbScale
 70
     0
300
1:2
140
1.0
141
2.0
290
     0
  0
SCALE
  5
6A51
102
{ACAD_REACTORS
330
6A4E
102
}
330
6A4E
100
AcDbScale
 70
     0
300
1:4
140
1.0
141
4.0
290
     0
  0
SCALE
  5
6A52
102
{ACAD_REACTORS
330
6A4E
102
}
330
6A4E
100
AcDbScale
 70
     0
300
1:5
140
1.0
141
5.0
290
     0
  0
SCALE
  5
6A53
102
{ACAD_REACTORS
330
6A4E
102
}
330
6A4E
100
AcDbScale
 70
     0
300
1:8
140
1.0
141
8.0
290
     0
  0
SCALE
  5
6A54
102
{ACAD_REACTORS
330
6A4E
102
}
330
6A4E
100
AcDbScale
 70
     0
300
1:10
140
1.0
141
10.0
290
     0
  0
SCALE
  5
6A55
102
{ACAD_REACTORS
330
6A4E
102
}
330
6A4E
100
AcDbScale
 70
     0
300
1:16
140
1.0
141
16.0
290
     0
  0
SCALE
  5
6A56
102
{ACAD_REACTORS
330
6A4E
102
}
330
6A4E
100
AcDbScale
 70
     0
300
1:20
140
1.0
141
20.0
290
     0
  0
SCALE
  5
6A57
102
{ACAD_REACTORS
330
6A4E
102
}
330
6A4E
100
AcDbScale
 70
     0
300
1:30
140
1.0
141
30.0
290
     0
  0
SCALE
  5
6A58
102
{ACAD_REACTORS
330
6A4E
102
}
330
6A4E
100
AcDbScale
 70
     0
300
1:40
140
1.0
141
40.0
290
     0
  0
SCALE
  5
6A59
102
{ACAD_REACTORS
330
6A4E
102
}
330
6A4E
100
AcDbScale
 70
     0
300
1:50
140
1.0
141
50.0
290
     0
  0
SCALE
  5
6A5A
102
{ACAD_REACTORS
330
6A4E
102
}
330
6A4E
100
AcDbScale
 70
     0
300
1:100
140
1.0
141
100.0
290
     0
  0
SCALE
  5
6A5B
102
{ACAD_REACTORS
330
6A4E
102
}
330
6A4E
100
AcDbScale
 70
     0
300
2:1
140
2.0
141
1.0
290
     0
  0
SCALE
  5
6A5C
102
{ACAD_REACTORS
330
6A4E
102
}
330
6A4E
100
AcDbScale
 70
     0
300
4:1
140
4.0
141
1.0
290
     0
  0
SCALE
  5
6A5D
102
{ACAD_REACTORS
330
6A4E
102
}
330
6A4E
100
AcDbScale
 70
     0
300
8:1
140
8.0
141
1.0
290
     0
  0
SCALE
  5
6A5E
102
{ACAD_REACTORS
330
6A4E
102
}
330
6A4E
100
AcDbScale
 70
     0
300
10:1
140
10.0
141
1.0
290
     0
  0
SCALE
  5
6A5F
102
{ACAD_REACTORS
330
6A4E
102
}
330
6A4E
100
AcDbScale
 70
     0
300
100:1
140
100.0
141
1.0
290
     0
  0
SCALE
  5
6A60
102
{ACAD_REACTORS
330
6A4E
102
}
330
6A4E
100
AcDbScale
 70
     0
300
1/128" = 1'-0"
140
0.0078125
141
12.0
290
     0
  0
SCALE
  5
6A61
102
{ACAD_REACTORS
330
6A4E
102
}
330
6A4E
100
AcDbScale
 70
     0
300
1/64" = 1'-0"
140
0.015625
141
12.0
290
     0
  0
SCALE
  5
6A62
102
{ACAD_REACTORS
330
6A4E
102
}
330
6A4E
100
AcDbScale
 70
     0
300
1/32" = 1'-0"
140
0.03125
141
12.0
290
     0
  0
SCALE
  5
6A63
102
{ACAD_REACTORS
330
6A4E
102
}
330
6A4E
100
AcDbScale
 70
     0
300
1/16" = 1'-0"
140
0.0625
141
12.0
290
     0
  0
SCALE
  5
6A64
102
{ACAD_REACTORS
330
6A4E
102
}
330
6A4E
100
AcDbScale
 70
     0
300
3/32" = 1'-0"
140
0.09375
141
12.0
290
     0
  0
SCALE
  5
6A65
102
{ACAD_REACTORS
330
6A4E
102
}
330
6A4E
100
AcDbScale
 70
     0
300
1/8" = 1'-0"
140
0.125
141
12.0
290
     0
  0
SCALE
  5
6A66
102
{ACAD_REACTORS
330
6A4E
102
}
330
6A4E
100
AcDbScale
 70
     0
300
3/16" = 1'-0"
140
0.1875
141
12.0
290
     0
  0
SCALE
  5
6A67
102
{ACAD_REACTORS
330
6A4E
102
}
330
6A4E
100
AcDbScale
 70
     0
300
1/4" = 1'-0"
140
0.25
141
12.0
290
     0
  0
SCALE
  5
6A68
102
{ACAD_REACTORS
330
6A4E
102
}
330
6A4E
100
AcDbScale
 70
     0
300
3/8" = 1'-0"
140
0.375
141
12.0
290
     0
  0
SCALE
  5
6A69
102
{ACAD_REACTORS
330
6A4E
102
}
330
6A4E
100
AcDbScale
 70
     0
300
1/2" = 1'-0"
140
0.5
141
12.0
290
     0
  0
SCALE
  5
6A6A
102
{ACAD_REACTORS
330
6A4E
102
}
330
6A4E
100
AcDbScale
 70
     0
300
3/4" = 1'-0"
140
0.75
141
12.0
290
     0
  0
SCALE
  5
6A6B
102
{ACAD_REACTORS
330
6A4E
102
}
330
6A4E
100
AcDbScale
 70
     0
300
1" = 1'-0"
140
1.0
141
12.0
290
     0
  0
SCALE
  5
6A6C
102
{ACAD_REACTORS
330
6A4E
102
}
330
6A4E
100
AcDbScale
 70
     0
300
1-1/2" = 1'-0"
140
1.5
141
12.0
290
     0
  0
SCALE
  5
6A6D
102
{ACAD_REACTORS
330
6A4E
102
}
330
6A4E
100
AcDbScale
 70
     0
300
3" = 1'-0"
140
3.0
141
12.0
290
     0
  0
SCALE
  5
6A6E
102
{ACAD_REACTORS
330
6A4E
102
}
330
6A4E
100
AcDbScale
 70
     0
300
6" = 1'-0"
140
6.0
141
12.0
290
     0
  0
SCALE
  5
6A6F
102
{ACAD_REACTORS
330
6A4E
102
}
330
6A4E
100
AcDbScale
 70
     0
300
1'-0" = 1'-0"
140
12.0
141
12.0
290
     0
  0
DICTIONARYVAR
  5
79F
102
{ACAD_REACTORS
330
79E
102
}
330
79E
100
DictionaryVariables
280
     0
  1
1
  0
DICTIONARYVAR
  5
264F
102
{ACAD_REACTORS
330
79E
102
}
330
79E
100
DictionaryVariables
280
     0
  1
96
  0
ENDSEC
  0
EOF
