  0
SECTION
  2
HEADER
  9
$ACADVER
  1
AC1015
  9
$ACADMAINTVER
 70
     6
  9
$DWGCODEPAGE
  3
ANSI_932
  9
$INSBASE
 10
0.0
 20
0.0
 30
0.0
  9
$EXTMIN
 10
744.6077437730364
 20
1207.973705816022
 30
0.0
  9
$EXTMAX
 10
2727.607743773048
 20
2622.526277897911
 30
0.0
  9
$LIMMIN
 10
0.0
 20
0.0
  9
$LIMMAX
 10
4200.0
 20
2970.0
  9
$ORTHOMODE
 70
     1
  9
$REGENMODE
 70
     1
  9
$FILLMODE
 70
     1
  9
$QTEXTMODE
 70
     0
  9
$MIRRTEXT
 70
     1
  9
$LTSCALE
 40
3.0
  9
$ATTMODE
 70
     1
  9
$TEXTSIZE
 40
30.0
  9
$TRACEWID
 40
1.0
  9
$TEXTSTYLE
  7
Standard
  9
$CLAYER
  8
01注記寸法
  9
$CELTYPE
  6
ByLayer
  9
$CECOLOR
 62
   256
  9
$CELTSCALE
 40
1.0
  9
$DISPSILH
 70
     0
  9
$DIMSCALE
 40
10.0
  9
$DIMASZ
 40
3.0
  9
$DIMEXO
 40
1.5
  9
$DIMDLI
 40
10.0
  9
$DIMRND
 40
0.0
  9
$DIMDLE
 40
0.0
  9
$DIMEXE
 40
1.0
  9
$DIMTP
 40
0.0
  9
$DIMTM
 40
0.0
  9
$DIMTXT
 40
3.0
  9
$DIMCEN
 40
1.5
  9
$DIMTSZ
 40
0.0
  9
$DIMTOL
 70
     0
  9
$DIMLIM
 70
     0
  9
$DIMTIH
 70
     0
  9
$DIMTOH
 70
     0
  9
$DIMSE1
 70
     0
  9
$DIMSE2
 70
     0
  9
$DIMTAD
 70
     1
  9
$DIMZIN
 70
     8
  9
$DIMBLK
  1
Open
  9
$DIMASO
 70
     1
  9
$DIMSHO
 70
     1
  9
$DIMPOST
  1

  9
$DIMAPOST
  1

  9
$DIMALT
 70
     0
  9
$DIMALTD
 70
     3
  9
$DIMALTF
 40
0.03937007874016
  9
$DIMLFAC
 40
1.0
  9
$DIMTOFL
 70
     1
  9
$DIMTVP
 40
0.0
  9
$DIMTIX
 70
     0
  9
$DIMSOXD
 70
     0
  9
$DIMSAH
 70
     0
  9
$DIMBLK1
  1

  9
$DIMBLK2
  1

  9
$DIMSTYLE
  2
NEMY-10
  9
$DIMCLRD
 70
     0
  9
$DIMCLRE
 70
     0
  9
$DIMCLRT
 70
     0
  9
$DIMTFAC
 40
1.0
  9
$DIMGAP
 40
1.0
  9
$DIMJUST
 70
     0
  9
$DIMSD1
 70
     0
  9
$DIMSD2
 70
     0
  9
$DIMTOLJ
 70
     0
  9
$DIMTZIN
 70
     8
  9
$DIMALTZ
 70
     0
  9
$DIMALTTZ
 70
     0
  9
$DIMUPT
 70
     0
  9
$DIMDEC
 70
     1
  9
$DIMTDEC
 70
     1
  9
$DIMALTU
 70
     2
  9
$DIMALTTD
 70
     3
  9
$DIMTXSTY
  7
Standard
  9
$DIMAUNIT
 70
     0
  9
$DIMADEC
 70
     0
  9
$DIMALTRND
 40
0.0
  9
$DIMAZIN
 70
     0
  9
$DIMDSEP
 70
    46
  9
$DIMATFIT
 70
     3
  9
$DIMFRAC
 70
     0
  9
$DIMLDRBLK
  1
Open
  9
$DIMLUNIT
 70
     2
  9
$DIMLWD
 70
    -2
  9
$DIMLWE
 70
    -2
  9
$DIMTMOVE
 70
     0
  9
$LUNITS
 70
     2
  9
$LUPREC
 70
     4
  9
$SKETCHINC
 40
1.0
  9
$FILLETRAD
 40
15.0
  9
$AUNITS
 70
     0
  9
$AUPREC
 70
     0
  9
$MENU
  1
.
  9
$ELEVATION
 40
0.0
  9
$PELEVATION
 40
0.0
  9
$THICKNESS
 40
0.0
  9
$LIMCHECK
 70
     0
  9
$CHAMFERA
 40
30.0
  9
$CHAMFERB
 40
30.0
  9
$CHAMFERC
 40
20.0
  9
$CHAMFERD
 40
0.0
  9
$SKPOLY
 70
     0
  9
$TDCREATE
 40
2455859.405048461
  9
$TDUCREATE
 40
2455859.030048461
  9
$TDUPDATE
 40
2458967.548911377
  9
$TDUUPDATE
 40
2458967.173911377
  9
$TDINDWG
 40
1.0437027431
  9
$TDUSRTIMER
 40
0.0018286343
  9
$USRTIMER
 70
     1
  9
$ANGBASE
 50
0.0
  9
$ANGDIR
 70
     0
  9
$PDMODE
 70
     0
  9
$PDSIZE
 40
0.0
  9
$PLINEWID
 40
0.0
  9
$SPLFRAME
 70
     0
  9
$SPLINETYPE
 70
     6
  9
$SPLINESEGS
 70
     8
  9
$HANDSEED
  5
F2B0
  9
$SURFTAB1
 70
     6
  9
$SURFTAB2
 70
     6
  9
$SURFTYPE
 70
     6
  9
$SURFU
 70
     6
  9
$SURFV
 70
     6
  9
$UCSBASE
  2

  9
$UCSNAME
  2

  9
$UCSORG
 10
0.0
 20
0.0
 30
0.0
  9
$UCSXDIR
 10
1.0
 20
0.0
 30
0.0
  9
$UCSYDIR
 10
0.0
 20
1.0
 30
0.0
  9
$UCSORTHOREF
  2

  9
$UCSORTHOVIEW
 70
     0
  9
$UCSORGTOP
 10
0.0
 20
0.0
 30
0.0
  9
$UCSORGBOTTOM
 10
0.0
 20
0.0
 30
0.0
  9
$UCSORGLEFT
 10
0.0
 20
0.0
 30
0.0
  9
$UCSORGRIGHT
 10
0.0
 20
0.0
 30
0.0
  9
$UCSORGFRONT
 10
0.0
 20
0.0
 30
0.0
  9
$UCSORGBACK
 10
0.0
 20
0.0
 30
0.0
  9
$PUCSBASE
  2

  9
$PUCSNAME
  2

  9
$PUCSORG
 10
0.0
 20
0.0
 30
0.0
  9
$PUCSXDIR
 10
1.0
 20
0.0
 30
0.0
  9
$PUCSYDIR
 10
0.0
 20
1.0
 30
0.0
  9
$PUCSORTHOREF
  2

  9
$PUCSORTHOVIEW
 70
     0
  9
$PUCSORGTOP
 10
0.0
 20
0.0
 30
0.0
  9
$PUCSORGBOTTOM
 10
0.0
 20
0.0
 30
0.0
  9
$PUCSORGLEFT
 10
0.0
 20
0.0
 30
0.0
  9
$PUCSORGRIGHT
 10
0.0
 20
0.0
 30
0.0
  9
$PUCSORGFRONT
 10
0.0
 20
0.0
 30
0.0
  9
$PUCSORGBACK
 10
0.0
 20
0.0
 30
0.0
  9
$USERI1
 70
     0
  9
$USERI2
 70
     0
  9
$USERI3
 70
     0
  9
$USERI4
 70
     0
  9
$USERI5
 70
     0
  9
$USERR1
 40
0.0
  9
$USERR2
 40
0.0
  9
$USERR3
 40
0.0
  9
$USERR4
 40
0.0
  9
$USERR5
 40
0.0
  9
$WORLDVIEW
 70
     1
  9
$SHADEDGE
 70
     3
  9
$SHADEDIF
 70
    70
  9
$TILEMODE
 70
     1
  9
$MAXACTVP
 70
    64
  9
$PINSBASE
 10
0.0
 20
0.0
 30
0.0
  9
$PLIMCHECK
 70
     0
  9
$PEXTMIN
 10
1.000000000000000E+20
 20
1.000000000000000E+20
 30
1.000000000000000E+20
  9
$PEXTMAX
 10
-1.000000000000000E+20
 20
-1.000000000000000E+20
 30
-1.000000000000000E+20
  9
$PLIMMIN
 10
-7.5
 20
-20.0
  9
$PLIMMAX
 10
412.5
 20
277.0
  9
$UNITMODE
 70
     0
  9
$VISRETAIN
 70
     1
  9
$PLINEGEN
 70
     0
  9
$PSLTSCALE
 70
     1
  9
$TREEDEPTH
 70
  3020
  9
$CMLSTYLE
  2
Standard
  9
$CMLJUST
 70
     0
  9
$CMLSCALE
 40
20.0
  9
$PROXYGRAPHICS
 70
     1
  9
$MEASUREMENT
 70
     1
  9
$CELWEIGHT
370
    -1
  9
$ENDCAPS
280
     0
  9
$JOINSTYLE
280
     0
  9
$LWDISPLAY
290
     0
  9
$INSUNITS
 70
     4
  9
$HYPERLINKBASE
  1

  9
$STYLESHEET
  1
monochrome.ctb
  9
$XEDIT
290
     1
  9
$CEPSNTYPE
380
     0
  9
$PSTYLEMODE
290
     1
  9
$FINGERPRINTGUID
  2
{FDEAD578-A652-11D2-9A35-0060089B3A3F}
  9
$VERSIONGUID
  2
{11DB8456-EC16-47A0-BA21-BBDA07550E8A}
  9
$EXTNAMES
290
     1
  9
$PSVPSCALE
 40
0.0
  9
$OLESTARTUP
290
     0
  0
ENDSEC
  0
SECTION
  2
CLASSES
  0
CLASS
  1
ACDBDICTIONARYWDFLT
  2
AcDbDictionaryWithDefault
  3
ObjectDBX Classes
 90
        0
280
     0
281
     0
  0
CLASS
  1
ACDBPLACEHOLDER
  2
AcDbPlaceHolder
  3
ObjectDBX Classes
 90
        0
280
     0
281
     0
  0
CLASS
  1
LAYOUT
  2
AcDbLayout
  3
ObjectDBX Classes
 90
        0
280
     0
281
     0
  0
CLASS
  1
DICTIONARYVAR
  2
AcDbDictionaryVar
  3
ObjectDBX Classes
 90
        0
280
     0
281
     0
  0
CLASS
  1
SCALE
  2
AcDbScale
  3
ObjectDBX Classes
 90
     1153
280
     0
281
     0
  0
CLASS
  1
MATERIAL
  2
AcDbMaterial
  3
ObjectDBX Classes
 90
     1153
280
     0
281
     0
  0
CLASS
  1
VISUALSTYLE
  2
AcDbVisualStyle
  3
ObjectDBX Classes
 90
     4095
280
     0
281
     0
  0
CLASS
  1
TABLESTYLE
  2
AcDbTableStyle
  3
ObjectDBX Classes
 90
     4095
280
     0
281
     0
  0
CLASS
  1
RASTERVARIABLES
  2
AcDbRasterVariables
  3
ISM
 90
        0
280
     0
281
     0
  0
CLASS
  1
SORTENTSTABLE
  2
AcDbSortentsTable
  3
ObjectDBX Classes
 90
        0
280
     0
281
     0
  0
CLASS
  1
SUN
  2
AcDbSun
  3
SCENEOE
 90
     1153
280
     0
281
     0
  0
CLASS
  1
MLEADERSTYLE
  2
AcDbMLeaderStyle
  3
ACDB_MLEADERSTYLE_CLASS
 90
     4095
280
     0
281
     0
  0
ENDSEC
  0
SECTION
  2
TABLES
  0
TABLE
  2
VPORT
  5
8
330
0
100
AcDbSymbolTable
 70
     1
  0
VPORT
  5
7A57
330
8
100
AcDbSymbolTableRecord
100
AcDbViewportTableRecord
  2
*Active
 70
     0
 10
0.0
 20
0.0
 11
1.0
 21
1.0
 12
1736.107743773042
 22
1915.249991856966
 13
0.0
 23
0.0
 14
10.0
 24
10.0
 15
10.0
 25
10.0
 16
0.0
 26
0.0
 36
1.0
 17
0.0
 27
0.0
 37
0.0
 40
1442.843623523527
 41
1.510835913312693
 42
50.0
 43
0.0
 44
0.0
 50
0.0
 51
0.0
 71
    16
 72
   100
 73
     1
 74
     2
 75
     0
 76
     0
 77
     0
 78
     0
281
     0
 65
     1
110
0.0
120
0.0
130
0.0
111
1.0
121
0.0
131
0.0
112
0.0
122
1.0
132
0.0
 79
     0
146
0.0
  0
ENDTAB
  0
TABLE
  2
LTYPE
  5
5
330
0
100
AcDbSymbolTable
 70
     3
  0
LTYPE
  5
14
330
5
100
AcDbSymbolTableRecord
100
AcDbLinetypeTableRecord
  2
ByBlock
 70
     0
  3

 72
    65
 73
     0
 40
0.0
  0
LTYPE
  5
15
330
5
100
AcDbSymbolTableRecord
100
AcDbLinetypeTableRecord
  2
ByLayer
 70
     0
  3

 72
    65
 73
     0
 40
0.0
  0
LTYPE
  5
16
330
5
100
AcDbSymbolTableRecord
100
AcDbLinetypeTableRecord
  2
Continuous
 70
     0
  3
Solid line
 72
    65
 73
     0
 40
0.0
  0
LTYPE
  5
BC
330
5
100
AcDbSymbolTableRecord
100
AcDbLinetypeTableRecord
  2
CENTER
 70
     0
  3
Center ____ _ ____ _ ____ _ ____ _ ____ _ ____
 72
    65
 73
     4
 40
50.8
 49
31.75
 74
     0
 49
-6.35
 74
     0
 49
6.35
 74
     0
 49
-6.35
 74
     0
  0
LTYPE
  5
A953
330
5
100
AcDbSymbolTableRecord
100
AcDbLinetypeTableRecord
  2
CENTER2
 70
     0
  3
Center (.5x) ___ _ ___ _ ___ _ ___ _ ___ _ ___
 72
    65
 73
     4
 40
28.575
 49
19.05
 74
     0
 49
-3.175
 74
     0
 49
3.175
 74
     0
 49
-3.175
 74
     0
  0
ENDTAB
  0
TABLE
  2
LAYER
  5
2
102
{ACAD_XDICTIONARY
360
7A6F
102
}
330
0
100
AcDbSymbolTable
 70
     6
  0
LAYER
  5
10
330
2
100
AcDbSymbolTableRecord
100
AcDbLayerTableRecord
  2
0
 70
     0
 62
     7
  6
Continuous
370
    -3
390
F
  0
LAYER
  5
45
330
2
100
AcDbSymbolTableRecord
100
AcDbLayerTableRecord
  2
01注記寸法
 70
     0
 62
     7
  6
Continuous
370
     9
390
F
  0
LAYER
  5
46
330
2
100
AcDbSymbolTableRecord
100
AcDbLayerTableRecord
  2
02実線
 70
     0
 62
     2
  6
Continuous
370
    15
390
F
  0
LAYER
  5
7E55
330
2
100
AcDbSymbolTableRecord
100
AcDbLayerTableRecord
  2
04一点鎖線
 70
     0
 62
    70
  6
CENTER
370
     9
390
F
  0
LAYER
  5
7E5E
330
2
100
AcDbSymbolTableRecord
100
AcDbLayerTableRecord
  2
07その他
 70
     0
 62
     6
  6
Continuous
370
     5
390
F
  0
LAYER
  5
7E60
330
2
100
AcDbSymbolTableRecord
100
AcDbLayerTableRecord
  2
08非表示
 70
     0
 62
     4
  6
Continuous
290
     0
370
     0
390
F
  0
ENDTAB
  0
TABLE
  2
STYLE
  5
3
330
0
100
AcDbSymbolTable
 70
     1
  0
STYLE
  5
11
330
3
100
AcDbSymbolTableRecord
100
AcDbTextStyleTableRecord
  2
Standard
 70
     0
 40
0.0
 41
1.0
 50
0.0
 71
     0
 42
30.0
  3
MSGOTHIC.TTC
  4

1001
ACAD
1000
MS Gothic
1071
    32817
  0
ENDTAB
  0
TABLE
  2
VIEW
  5
6
330
0
100
AcDbSymbolTable
 70
     0
  0
ENDTAB
  0
TABLE
  2
UCS
  5
7
330
0
100
AcDbSymbolTable
 70
     0
  0
ENDTAB
  0
TABLE
  2
APPID
  5
9
330
0
100
AcDbSymbolTable
 70
     6
  0
APPID
  5
12
330
9
100
AcDbSymbolTableRecord
100
AcDbRegAppTableRecord
  2
ACAD
 70
     0
  0
APPID
  5
6A9E
330
9
100
AcDbSymbolTableRecord
100
AcDbRegAppTableRecord
  2
ACAD_DSTYLE_DIMRADIAL_EXTENSION
 70
     0
  0
APPID
  5
742C
330
9
100
AcDbSymbolTableRecord
100
AcDbRegAppTableRecord
  2
ACAD_PSEXT
 70
     0
  0
APPID
  5
742D
330
9
100
AcDbSymbolTableRecord
100
AcDbRegAppTableRecord
  2
ACAD_DSTYLE_DIMJAG
 70
     0
  0
APPID
  5
742E
330
9
100
AcDbSymbolTableRecord
100
AcDbRegAppTableRecord
  2
ACAD_DSTYLE_DIMTALN
 70
     0
  0
APPID
  5
835C
330
9
100
AcDbSymbolTableRecord
100
AcDbRegAppTableRecord
  2
AcAecLayerStandard
 70
     0
  0
ENDTAB
  0
TABLE
  2
DIMSTYLE
  5
A
330
0
100
AcDbSymbolTable
 70
     1
100
AcDbDimStyleTable
  0
DIMSTYLE
105
4DD3
102
{ACAD_REACTORS
102
}
330
A
100
AcDbSymbolTableRecord
100
AcDbDimStyleTableRecord
  2
NEMY-10
 70
     0
 40
10.0
 41
3.0
 42
1.5
 43
10.0
 44
1.0
 73
     0
 74
     0
 77
     1
 78
     8
140
3.0
141
1.5
143
0.03937007874016
147
1.0
171
     3
172
     1
178
     0
271
     1
272
     1
274
     3
283
     0
284
     8
340
11
341
8F
342
8F
  0
ENDTAB
  0
TABLE
  2
BLOCK_RECORD
  5
1
330
0
100
AcDbSymbolTable
 70
    12
  0
BLOCK_RECORD
  5
1F
102
{ACAD_XDICTIONARY
360
969E
102
}
330
1
100
AcDbSymbolTableRecord
100
AcDbBlockTableRecord
  2
*Model_Space
340
22
  0
BLOCK_RECORD
  5
1B
330
1
100
AcDbSymbolTableRecord
100
AcDbBlockTableRecord
  2
*Paper_Space
340
1E
  0
BLOCK_RECORD
  5
8F
330
1
100
AcDbSymbolTableRecord
100
AcDbBlockTableRecord
  2
_Open
340
0
102
{BLKREFS
331
DAF4
331
DAF5
331
DCB7
331
DCB8
331
DCC4
331
DCC5
331
EEB8
331
EEB9
331
EEC4
331
EEC5
331
EED2
331
EED3
331
EEE0
331
EEE1
331
EEEA
331
EEEB
331
EEF8
331
EEF9
331
F0AF
331
F0B0
331
F0BB
331
F0BC
331
F0C7
331
F0C8
331
F0D5
331
F0D6
331
F0E1
331
F0E2
331
F0ED
331
F0EE
331
F0F9
331
F0FA
331
F105
331
F106
331
F114
331
F115
331
0
331
0
102
}
  0
BLOCK_RECORD
  5
82F2
330
1
100
AcDbSymbolTableRecord
100
AcDbBlockTableRecord
  2
hole-φ16
340
0
102
{BLKREFS
331
F0A5
331
F0A6
331
F0A7
331
F0A8
331
0
331
0
331
0
331
0
102
}
  0
BLOCK_RECORD
  5
D358
330
1
100
AcDbSymbolTableRecord
100
AcDbBlockTableRecord
  2
標準うま
340
0
102
{BLKREFS
331
F0A1
331
F0A2
331
F0A3
331
F0A4
102
}
  0
BLOCK_RECORD
  5
D3D0
330
1
100
AcDbSymbolTableRecord
100
AcDbBlockTableRecord
  2
STB-M12_M16揺れ止めゴム
340
0
102
{BLKREFS
331
D6D4
331
0
102
}
  0
BLOCK_RECORD
  5
D3DF
330
1
100
AcDbSymbolTableRecord
100
AcDbBlockTableRecord
  2
STB-M12_M16揺れ止め座金
340
0
102
{BLKREFS
331
D6D3
331
0
102
}
  0
BLOCK_RECORD
  5
D4C0
330
1
100
AcDbSymbolTableRecord
100
AcDbBlockTableRecord
  2
STB-M16ナット(1種)
340
0
102
{BLKREFS
331
D6DC
331
D6DE
331
D6DF
331
0
331
0
331
0
102
}
  0
BLOCK_RECORD
  5
D4D5
330
1
100
AcDbSymbolTableRecord
100
AcDbBlockTableRecord
  2
STB-M16平ワッシャ
340
0
102
{BLKREFS
331
D6DD
331
D6E0
331
0
331
0
102
}
  0
BLOCK_RECORD
  5
D5BF
330
1
100
AcDbSymbolTableRecord
100
AcDbBlockTableRecord
  2
標準上うま_側面
340
0
102
{BLKREFS
331
D6DA
102
}
  0
BLOCK_RECORD
  5
D5D9
330
1
100
AcDbSymbolTableRecord
100
AcDbBlockTableRecord
  2
標準下うま_側面
340
0
102
{BLKREFS
331
D6DB
102
}
  0
BLOCK_RECORD
  5
D640
330
1
100
AcDbSymbolTableRecord
100
AcDbBlockTableRecord
  2
STB-M16ゴムブッシュ
340
0
102
{BLKREFS
331
D711
331
0
102
}
  0
BLOCK_RECORD
  5
D698
330
1
100
AcDbSymbolTableRecord
100
AcDbBlockTableRecord
  2
STB-M16ナット(3種)
340
0
102
{BLKREFS
331
D6D2
331
0
102
}
  0
BLOCK_RECORD
  5
D6D1
330
1
100
AcDbSymbolTableRecord
100
AcDbBlockTableRecord
  2
標準うま(M16)_側面
340
0
102
{BLKREFS
331
F09C
331
F09D
331
F09E
331
F09F
102
}
  0
ENDTAB
  0
ENDSEC
  0
SECTION
  2
BLOCKS
  0
BLOCK
  5
20
330
1F
100
AcDbEntity
  8
0
100
AcDbBlockBegin
  2
*Model_Space
 70
     0
 10
0.0
 20
0.0
 30
0.0
  3
*Model_Space
  1

  0
ENDBLK
  5
21
330
1F
100
AcDbEntity
  8
0
100
AcDbBlockEnd
  0
BLOCK
  5
1C
330
1B
100
AcDbEntity
 67
     1
  8
0
100
AcDbBlockBegin
  2
*Paper_Space
 70
     0
 10
0.0
 20
0.0
 30
0.0
  3
*Paper_Space
  1

  0
ENDBLK
  5
1D
330
1B
100
AcDbEntity
 67
     1
  8
0
100
AcDbBlockEnd
  0
BLOCK
  5
93
330
8F
100
AcDbEntity
  8
0
100
AcDbBlockBegin
  2
_Open
 70
     0
 10
0.0
 20
0.0
 30
0.0
  3
_Open
  1

  0
LINE
  5
90
330
8F
100
AcDbEntity
  8
01注記寸法
 62
     0
370
    -2
100
AcDbLine
 10
-1.0
 20
0.1666666666666667
 30
0.0
 11
0.0
 21
0.0
 31
0.0
  0
LINE
  5
91
330
8F
100
AcDbEntity
  8
01注記寸法
 62
     0
370
    -2
100
AcDbLine
 10
-1.0
 20
-0.1666666666666667
 30
0.0
 11
0.0
 21
0.0
 31
0.0
  0
LINE
  5
92
330
8F
100
AcDbEntity
  8
01注記寸法
 62
     0
370
    -2
100
AcDbLine
 10
0.0
 20
0.0
 30
0.0
 11
-1.0
 21
0.0
 31
0.0
  0
ENDBLK
  5
94
330
8F
100
AcDbEntity
  8
0
100
AcDbBlockEnd
  0
BLOCK
  5
82F3
330
82F2
100
AcDbEntity
  8
0
100
AcDbBlockBegin
  2
hole-φ16
 70
     0
 10
0.0
 20
0.0
 30
0.0
  3
hole-φ16
  1

  0
CIRCLE
  5
82F4
330
82F2
100
AcDbEntity
  8
02実線
100
AcDbCircle
 10
0.0
 20
0.0
 30
0.0
 40
8.0
  0
LINE
  5
82F5
330
82F2
100
AcDbEntity
  8
04一点鎖線
  6
CENTER
 48
0.2
100
AcDbLine
 10
0.0
 20
-18.0
 30
0.0
 11
0.0
 21
18.0
 31
0.0
  0
LINE
  5
82F6
330
82F2
100
AcDbEntity
  8
04一点鎖線
  6
CENTER
 48
0.2
100
AcDbLine
 10
-18.0
 20
0.0
 30
0.0
 11
18.0
 21
0.0
 31
0.0
  0
ENDBLK
  5
82F7
330
82F2
100
AcDbEntity
  8
0
100
AcDbBlockEnd
  0
BLOCK
  5
D359
330
D358
100
AcDbEntity
  8
0
100
AcDbBlockBegin
  2
標準うま
 70
     0
 10
0.0
 20
0.0
 30
0.0
  3
標準うま
  1

  0
LINE
  5
D35B
330
D358
100
AcDbEntity
  8
02実線
100
AcDbLine
 10
0.0
 20
-60.0
 30
0.0
 11
0.0
 21
-4.5
 31
0.0
  0
LINE
  5
D35C
330
D358
100
AcDbEntity
  8
02実線
100
AcDbLine
 10
4.5
 20
0.0
 30
0.0
 11
60.0
 21
0.0
 31
0.0
  0
LINE
  5
D35D
330
D358
100
AcDbEntity
  8
02実線
100
AcDbLine
 10
60.0
 20
-9.5
 30
0.0
 11
60.0
 21
-45.0
 31
0.0
  0
LINE
  5
D35E
330
D358
100
AcDbEntity
  8
02実線
100
AcDbLine
 10
45.0
 20
-60.0
 30
0.0
 11
0.0
 21
-60.0
 31
0.0
  0
LINE
  5
D35F
330
D358
100
AcDbEntity
  8
02実線
100
AcDbLine
 10
4.5
 20
-4.5
 30
0.0
 11
60.0
 21
-4.5
 31
0.0
  0
LINE
  5
D360
330
D358
100
AcDbEntity
  8
02実線
100
AcDbLine
 10
0.0
 20
-12.0
 30
0.0
 11
4.5
 21
-12.0
 31
0.0
  0
ARC
  5
D361
330
D358
100
AcDbEntity
  8
02実線
100
AcDbCircle
 10
4.5
 20
-4.5
 30
0.0
 40
4.5
100
AcDbArc
 50
90.0
 51
180.0
  0
LINE
  5
D362
330
D358
100
AcDbEntity
  8
02実線
100
AcDbLine
 10
60.0
 20
0.0
 30
0.0
 11
60.0
 21
-4.5
 31
0.0
  0
ARC
  5
D363
330
D358
100
AcDbEntity
  8
02実線
100
AcDbCircle
 10
45.0
 20
-45.0
 30
0.0
 40
15.0
100
AcDbArc
 50
270.0
 51
0.0
  0
LINE
  5
D364
330
D358
100
AcDbEntity
  8
02実線
100
AcDbLine
 10
4.5
 20
-12.0
 30
0.0
 11
7.0
 21
-12.0
 31
0.0
  0
ARC
  5
D365
330
D358
100
AcDbEntity
  8
02実線
100
AcDbCircle
 10
55.0
 20
-9.5
 30
0.0
 40
5.0
100
AcDbArc
 50
0.0
 51
90.0
  0
ARC
  5
D366
330
D358
100
AcDbEntity
  8
02実線
100
AcDbCircle
 10
7.0
 20
-7.0
 30
0.0
 40
5.0
100
AcDbArc
 50
270.0
 51
0.0
  0
LINE
  5
D367
330
D358
100
AcDbEntity
  8
02実線
100
AcDbLine
 10
4.5
 20
-4.5
 30
0.0
 11
4.5
 21
-12.0
 31
0.0
  0
LINE
  5
D368
330
D358
100
AcDbEntity
  8
02実線
100
AcDbLine
 10
12.0
 20
0.0
 30
0.0
 11
12.0
 21
-7.0
 31
0.0
  0
LINE
  5
D369
330
D358
100
AcDbEntity
  8
02実線
100
AcDbLine
 10
60.0
 20
-4.5
 30
0.0
 11
60.0
 21
-4.449999999999818
 31
0.0
  0
LINE
  5
D36A
330
D358
100
AcDbEntity
  8
08非表示
100
AcDbLine
 10
4.5
 20
0.0
 30
0.0
 11
0.0
 21
0.0
 31
0.0
  0
LINE
  5
D36B
330
D358
100
AcDbEntity
  8
08非表示
100
AcDbLine
 10
0.0
 20
-4.5
 30
0.0
 11
0.0
 21
0.0
 31
0.0
  0
LWPOLYLINE
  5
DB94
330
D358
100
AcDbEntity
  8
08非表示
100
AcDbPolyline
 90
        3
 70
     0
 43
0.0
 10
45.0
 20
-60.0
 10
60.0
 20
-60.0
 10
60.0
 20
-45.0
  0
ENDBLK
  5
D35A
330
D358
100
AcDbEntity
  8
0
100
AcDbBlockEnd
  0
BLOCK
  5
D3D1
330
D3D0
100
AcDbEntity
  8
0
100
AcDbBlockBegin
  2
STB-M12_M16揺れ止めゴム
 70
     0
 10
0.0
 20
0.0
 30
0.0
  3
STB-M12_M16揺れ止めゴム
  1

  0
LINE
  5
D3D3
330
D3D0
100
AcDbEntity
  8
02実線
 62
    83
100
AcDbLine
 10
24.5
 20
0.0
 30
0.0
 11
-24.5
 21
0.0
 31
0.0
  0
LINE
  5
D3D4
330
D3D0
100
AcDbEntity
  8
02実線
 62
    83
100
AcDbLine
 10
-24.5
 20
5.5
 30
0.0
 11
-1.5
 21
5.5
 31
0.0
  0
LINE
  5
D3D5
330
D3D0
100
AcDbEntity
  8
02実線
 62
    83
100
AcDbLine
 10
-24.5
 20
0.0
 30
0.0
 11
-24.5
 21
5.5
 31
0.0
  0
LINE
  5
D3D6
330
D3D0
100
AcDbEntity
  8
02実線
 62
    83
100
AcDbLine
 10
1.5
 20
5.5
 30
0.0
 11
24.5
 21
5.5
 31
0.0
  0
LINE
  5
D3D7
330
D3D0
100
AcDbEntity
  8
02実線
 62
    83
100
AcDbLine
 10
-1.5
 20
5.5
 30
0.0
 11
-1.5
 21
3.5
 31
0.0
  0
LINE
  5
D3D8
330
D3D0
100
AcDbEntity
  8
02実線
 62
    83
100
AcDbLine
 10
1.5
 20
5.5
 30
0.0
 11
1.5
 21
3.5
 31
0.0
  0
LINE
  5
D3D9
330
D3D0
100
AcDbEntity
  8
02実線
 62
    83
100
AcDbLine
 10
-1.5
 20
3.5
 30
0.0
 11
1.5
 21
3.5
 31
0.0
  0
LINE
  5
D3DA
330
D3D0
100
AcDbEntity
  8
02実線
 62
    83
100
AcDbLine
 10
24.5
 20
5.5
 30
0.0
 11
24.5
 21
0.0
 31
0.0
  0
ENDBLK
  5
D3D2
330
D3D0
100
AcDbEntity
  8
0
100
AcDbBlockEnd
  0
BLOCK
  5
D3E0
330
D3DF
100
AcDbEntity
  8
0
100
AcDbBlockBegin
  2
STB-M12_M16揺れ止め座金
 70
     0
 10
0.0
 20
0.0
 30
0.0
  3
STB-M12_M16揺れ止め座金
  1

  0
LINE
  5
D3E2
330
D3DF
100
AcDbEntity
  8
02実線
 62
     3
100
AcDbLine
 10
25.0
 20
0.0
 30
0.0
 11
-25.0
 21
0.0
 31
0.0
  0
LINE
  5
D3E3
330
D3DF
100
AcDbEntity
  8
02実線
 62
     3
100
AcDbLine
 10
-25.0
 20
4.5
 30
0.0
 11
25.0
 21
4.5
 31
0.0
  0
LINE
  5
D3E4
330
D3DF
100
AcDbEntity
  8
02実線
 62
     3
100
AcDbLine
 10
-25.0
 20
4.5
 30
0.0
 11
-25.0
 21
0.0
 31
0.0
  0
LINE
  5
D3E5
330
D3DF
100
AcDbEntity
  8
02実線
 62
     3
100
AcDbLine
 10
25.0
 20
4.5
 30
0.0
 11
25.0
 21
0.0
 31
0.0
  0
ENDBLK
  5
D3E1
330
D3DF
100
AcDbEntity
  8
0
100
AcDbBlockEnd
  0
BLOCK
  5
D4C1
330
D4C0
100
AcDbEntity
  8
0
100
AcDbBlockBegin
  2
STB-M16ナット(1種)
 70
     0
 10
0.0
 20
0.0
 30
0.0
  3
STB-M16ナット(1種)
  1

  0
LINE
  5
D4C3
330
D4C0
100
AcDbEntity
  8
02実線
 62
     9
100
AcDbLine
 10
13.85000000000036
 20
0.0
 30
0.0
 11
-13.85000000000036
 21
0.0
 31
0.0
  0
LINE
  5
D4C4
330
D4C0
100
AcDbEntity
  8
02実線
 62
     9
100
AcDbLine
 10
-13.85000000000036
 20
0.0
 30
0.0
 11
-13.85000000000036
 21
11.9319020019957
 31
0.0
  0
LINE
  5
D4C5
330
D4C0
100
AcDbEntity
  8
02実線
 62
     9
100
AcDbLine
 10
-12.00000000000182
 20
12.99999999999545
 30
0.0
 11
11.99999999999818
 21
13.00000000000455
 31
0.0
  0
LINE
  5
D4C6
330
D4C0
100
AcDbEntity
  8
02実線
 62
     9
100
AcDbLine
 10
13.85000000000218
 20
11.93190200199706
 30
0.0
 11
13.85000000000036
 21
0.0
 31
0.0
  0
LINE
  5
D4C7
330
D4C0
100
AcDbEntity
  8
02実線
 62
     9
100
AcDbLine
 10
-12.00000000000182
 20
12.99999999999545
 30
0.0
 11
-13.85000000000036
 21
11.9319020019957
 31
0.0
  0
LINE
  5
D4C8
330
D4C0
100
AcDbEntity
  8
02実線
 62
     9
100
AcDbLine
 10
12.00000000000182
 20
12.99999999999545
 30
0.0
 11
13.85000000000036
 21
11.9319020019957
 31
0.0
  0
SPLINE
  5
D4C9
330
D4C0
100
AcDbEntity
  8
02実線
 62
     9
100
AcDbSpline
210
0.0
220
0.0
230
1.0
 70
  1064
 71
     3
 72
    23
 73
    19
 74
    17
 42
0.000000001
 43
0.0000000001
 44
0.0
 40
0.0
 40
0.0
 40
0.0
 40
0.0
 40
0.1165670826682187
 40
0.4175367898848867
 40
0.7354900191280567
 40
1.0765621147769
 40
1.451266493020503
 40
1.880474903646973
 40
2.419068484231626
 40
3.65860804928474
 40
4.898147614336952
 40
5.43674119492248
 40
5.86594960554895
 40
6.240653983792554
 40
6.581726079441397
 40
6.899679308684568
 40
7.200649015901235
 40
7.322822764582094
 40
7.322822764582094
 40
7.322822764582094
 40
7.322822764582094
 10
13.85000000000036
 20
11.9319020019957
 30
0.0
 10
13.81628123583515
 20
11.95121060414879
 30
0.0
 10
13.69550250288442
 20
12.02037294033864
 30
0.0
 10
13.48029965666558
 20
12.13789049473544
 30
0.0
 10
13.19524235745315
 20
12.28339379419997
 30
0.0
 10
12.88305647533256
 20
12.42944181924277
 30
0.0
 10
12.53087069601089
 20
12.57683329736896
 30
0.0
 10
12.10932198436939
 20
12.7278990001677
 30
0.0
 10
11.40039399046465
 20
12.92681572762604
 30
0.0
 10
10.39230368923428
 20
13.05101881089645
 30
0.0
 10
9.384219017462684
 20
12.92681018113665
 30
0.0
 10
8.675283327320084
 20
12.727906856438
 30
0.0
 10
8.25375125718379
 20
12.57681114217447
 30
0.0
 10
7.901515025292502
 20
12.42951085614466
 30
0.0
 10
7.589492663493038
 20
12.28316722466407
 30
0.0
 10
7.303885724833892
 20
12.13865755563563
 30
0.0
 10
7.088587351090178
 20
12.01745118136964
 30
0.0
 10
6.964135948157594
 20
11.95106857853671
 30
0.0
 10
6.928203230274448
 20
11.9319020019957
 30
0.0
 11
13.85000000000036
 21
11.9319020019957
 31
0.0
 11
13.74873524093618
 21
11.98963702891569
 31
0.0
 11
13.48463406462542
 21
12.13397459621319
 31
0.0
 11
13.20133047719173
 21
12.27831216351069
 31
0.0
 11
12.89230484541167
 21
12.42264973080773
 31
0.0
 11
12.5465158378629
 21
12.56698729810523
 31
0.0
 11
12.14230484541076
 21
12.71132486540273
 31
0.0
 11
11.62341207063582
 21
12.85566243270023
 31
0.0
 11
10.39230484541258
 21
13.00000000000409
 31
0.0
 11
9.16119762019025
 21
12.85566243270023
 31
0.0
 11
8.642304845414401
 21
12.71132486540273
 31
0.0
 11
8.238093852962265
 21
12.56698729810523
 31
0.0
 11
7.892304845413491
 21
12.42264973080773
 31
0.0
 11
7.583279213633432
 21
12.27831216351069
 31
0.0
 11
7.299975626199739
 21
12.13397459621319
 31
0.0
 11
7.035874449888979
 21
11.98963702891569
 31
0.0
 11
6.928203230274448
 21
11.9319020019957
 31
0.0
  0
SPLINE
  5
D4CA
330
D4C0
100
AcDbEntity
  8
02実線
 62
     9
100
AcDbSpline
210
0.0
220
0.0
230
1.0
 70
  1064
 71
     3
 72
    23
 73
    19
 74
    17
 42
0.000000001
 43
0.0000000001
 44
0.0
 40
0.0
 40
0.0
 40
0.0
 40
0.0
 40
0.2229477505286649
 40
0.770516064668727
 40
1.355218573593136
 40
1.989900145502616
 40
2.696379787318022
 40
3.51758587534249
 40
4.565360746291247
 40
7.03180217744606
 40
9.49824360860269
 40
10.54601847955145
 40
11.36722456757592
 40
12.07370420939132
 40
12.7083857813008
 40
13.29308829022521
 40
13.84065660436527
 40
14.06360435489394
 40
14.06360435489394
 40
14.06360435489394
 40
14.06360435489394
 10
6.928203230274448
 20
11.9319020019957
 30
0.0
 10
6.856396942403652
 20
11.95105255803338
 30
0.0
 10
6.6082316291521
 20
12.0172376217507
 30
0.0
 10
6.173352753607489
 20
12.13959971505936
 30
0.0
 10
5.602278889052349
 20
12.28397488168427
 30
0.0
 10
4.977230213041895
 20
12.43048824960818
 30
0.0
 10
4.271588449678369
 20
12.5778855844928
 30
0.0
 10
3.426373773140339
 20
12.72917772240995
 30
0.0
 10
1.994814309764331
 20
12.92926701836879
 30
0.0
 10
-0.000000000000603
 20
13.04964371610814
 30
0.0
 10
-1.994814309765551
 20
12.92926701836888
 30
0.0
 10
-3.426373773142157
 20
12.72917772240994
 30
0.0
 10
-4.271588449680187
 20
12.5778855844928
 30
0.0
 10
-4.977230213043715
 20
12.43048824960818
 30
0.0
 10
-5.602278889054166
 20
12.28397488168427
 30
0.0
 10
-6.173352753609309
 20
12.13959971505936
 30
0.0
 10
-6.608231629153918
 20
12.0172376217507
 30
0.0
 10
-6.856396942405472
 20
11.95105255803338
 30
0.0
 10
-6.928203230276267
 20
11.9319020019957
 30
0.0
 11
6.928203230274448
 21
11.9319020019957
 31
0.0
 11
6.712860791047206
 21
11.98963702891569
 31
0.0
 11
6.184658438423867
 21
12.13397459621319
 31
0.0
 11
5.6180512635583
 21
12.27831216351069
 31
0.0
 11
4.999999999998181
 21
12.42264973080773
 31
0.0
 11
4.308421984900633
 21
12.56698729810523
 31
0.0
 11
3.499999999997272
 21
12.71132486540273
 31
0.0
 11
2.462214450445572
 21
12.85566243270023
 31
0.0
 11
0.0
 21
13.0
 31
0.0
 11
-2.462214450447391
 21
12.85566243270023
 31
0.0
 11
-3.499999999999091
 21
12.71132486540273
 31
0.0
 11
-4.308421984902452
 21
12.56698729810523
 31
0.0
 11
-5.0
 21
12.42264973080773
 31
0.0
 11
-5.618051263560119
 21
12.27831216351069
 31
0.0
 11
-6.184658438425686
 21
12.13397459621319
 31
0.0
 11
-6.712860791049025
 21
11.98963702891569
 31
0.0
 11
-6.928203230276267
 21
11.9319020019957
 31
0.0
  0
SPLINE
  5
D4CB
330
D4C0
100
AcDbEntity
  8
02実線
 62
     9
100
AcDbSpline
210
0.0
220
0.0
230
1.0
 70
  1064
 71
     3
 72
    23
 73
    19
 74
    17
 42
0.000000001
 43
0.0000000001
 44
0.0
 40
0.0
 40
0.0
 40
0.0
 40
0.0
 40
0.1165670826682187
 40
0.4175367898848867
 40
0.7354900191280567
 40
1.0765621147769
 40
1.451266493020503
 40
1.880474903646973
 40
2.419068484231626
 40
3.65860804928474
 40
4.898147614336952
 40
5.43674119492248
 40
5.86594960554895
 40
6.240653983792554
 40
6.581726079441397
 40
6.899679308684568
 40
7.200649015901235
 40
7.322822764582094
 40
7.322822764582094
 40
7.322822764582094
 40
7.322822764582094
 10
-13.85000000000036
 20
11.9319020019957
 30
0.0
 10
-13.81628123583515
 20
11.95121060414879
 30
0.0
 10
-13.69550250288442
 20
12.02037294033864
 30
0.0
 10
-13.48029965666558
 20
12.13789049473544
 30
0.0
 10
-13.19524235745315
 20
12.28339379419997
 30
0.0
 10
-12.88305647533256
 20
12.42944181924277
 30
0.0
 10
-12.53087069601089
 20
12.57683329736896
 30
0.0
 10
-12.10932198436939
 20
12.7278990001677
 30
0.0
 10
-11.40039399046465
 20
12.92681572762604
 30
0.0
 10
-10.39230368923428
 20
13.05101881089645
 30
0.0
 10
-9.384219017462684
 20
12.92681018113665
 30
0.0
 10
-8.675283327320084
 20
12.727906856438
 30
0.0
 10
-8.25375125718379
 20
12.57681114217447
 30
0.0
 10
-7.901515025292502
 20
12.42951085614466
 30
0.0
 10
-7.589492663493038
 20
12.28316722466407
 30
0.0
 10
-7.303885724833892
 20
12.13865755563563
 30
0.0
 10
-7.088587351090178
 20
12.01745118136964
 30
0.0
 10
-6.964135948157594
 20
11.95106857853671
 30
0.0
 10
-6.928203230274448
 20
11.9319020019957
 30
0.0
 11
-13.85000000000036
 21
11.9319020019957
 31
0.0
 11
-13.74873524093618
 21
11.98963702891569
 31
0.0
 11
-13.48463406462542
 21
12.13397459621319
 31
0.0
 11
-13.20133047719173
 21
12.27831216351069
 31
0.0
 11
-12.89230484541167
 21
12.42264973080773
 31
0.0
 11
-12.5465158378629
 21
12.56698729810523
 31
0.0
 11
-12.14230484541076
 21
12.71132486540273
 31
0.0
 11
-11.62341207063582
 21
12.85566243270023
 31
0.0
 11
-10.39230484541258
 21
13.00000000000409
 31
0.0
 11
-9.16119762019025
 21
12.85566243270023
 31
0.0
 11
-8.642304845414401
 21
12.71132486540273
 31
0.0
 11
-8.238093852962265
 21
12.56698729810523
 31
0.0
 11
-7.892304845413491
 21
12.42264973080773
 31
0.0
 11
-7.583279213633432
 21
12.27831216351069
 31
0.0
 11
-7.299975626199739
 21
12.13397459621319
 31
0.0
 11
-7.035874449888979
 21
11.98963702891569
 31
0.0
 11
-6.928203230274448
 21
11.9319020019957
 31
0.0
  0
LINE
  5
D4CC
330
D4C0
100
AcDbEntity
  8
02実線
 62
     9
100
AcDbLine
 10
-6.928203230276267
 20
11.9319020019957
 30
0.0
 11
-6.928203230276267
 21
0.0
 31
0.0
  0
LINE
  5
D4CD
330
D4C0
100
AcDbEntity
  8
02実線
 62
     9
100
AcDbLine
 10
6.928203230274448
 20
11.9319020019957
 30
0.0
 11
6.928203230274448
 21
0.0
 31
0.0
  0
ENDBLK
  5
D4C2
330
D4C0
100
AcDbEntity
  8
0
100
AcDbBlockEnd
  0
BLOCK
  5
D4D6
330
D4D5
100
AcDbEntity
  8
0
100
AcDbBlockBegin
  2
STB-M16平ワッシャ
 70
     0
 10
0.0
 20
0.0
 30
0.0
  3
STB-M16平ワッシャ
  1

  0
LINE
  5
D4D8
330
D4D5
100
AcDbEntity
  8
02実線
 62
     8
100
AcDbLine
 10
-15.0
 20
3.0
 30
0.0
 11
15.0
 21
3.0
 31
0.0
  0
LINE
  5
D4D9
330
D4D5
100
AcDbEntity
  8
02実線
 62
     8
100
AcDbLine
 10
16.0
 20
2.0
 30
0.0
 11
16.0
 21
0.0
 31
0.0
  0
LINE
  5
D4DA
330
D4D5
100
AcDbEntity
  8
02実線
 62
     8
100
AcDbLine
 10
16.0
 20
0.0
 30
0.0
 11
-16.0
 21
0.0
 31
0.0
  0
LINE
  5
D4DB
330
D4D5
100
AcDbEntity
  8
02実線
 62
     8
100
AcDbLine
 10
-16.0
 20
2.0
 30
0.0
 11
-16.0
 21
0.0
 31
0.0
  0
LINE
  5
D4DC
330
D4D5
100
AcDbEntity
  8
02実線
 62
     8
100
AcDbLine
 10
-16.0
 20
2.0
 30
0.0
 11
-15.0
 21
3.0
 31
0.0
  0
LINE
  5
D4DD
330
D4D5
100
AcDbEntity
  8
02実線
 62
     8
100
AcDbLine
 10
15.0
 20
3.0
 30
0.0
 11
16.0
 21
2.0
 31
0.0
  0
LINE
  5
D4DE
330
D4D5
100
AcDbEntity
  8
02実線
 62
     8
100
AcDbLine
 10
16.0
 20
2.0
 30
0.0
 11
-16.0
 21
2.0
 31
0.0
  0
ENDBLK
  5
D4D7
330
D4D5
100
AcDbEntity
  8
0
100
AcDbBlockEnd
  0
BLOCK
  5
D5D6
330
D5BF
100
AcDbEntity
  8
0
100
AcDbBlockBegin
  2
標準上うま_側面
 70
     0
 10
0.0
 20
0.0
 30
0.0
  3
標準上うま_側面
  1

  0
LINE
  5
D5C0
330
D5BF
100
AcDbEntity
  8
02実線
100
AcDbLine
 10
-60.0
 20
-55.5
 30
0.0
 11
-4.5
 21
-55.5
 31
0.0
  0
LINE
  5
D5C1
330
D5BF
100
AcDbEntity
  8
02実線
100
AcDbLine
 10
-4.5
 20
-60.0
 30
0.0
 11
-4.5
 21
0.0
 31
0.0
  0
LINE
  5
D5C2
330
D5BF
100
AcDbEntity
  8
02実線
100
AcDbLine
 10
-4.5
 20
-4.5
 30
0.0
 11
-60.0
 21
-4.5
 31
0.0
  0
LINE
  5
D5C3
330
D5BF
100
AcDbEntity
  8
02実線
100
AcDbLine
 10
-60.0
 20
-60.0
 30
0.0
 11
0.0
 21
-60.0
 31
0.0
  0
LINE
  5
D5C4
330
D5BF
100
AcDbEntity
  8
02実線
100
AcDbLine
 10
0.0
 20
-60.0
 30
0.0
 11
0.0
 21
0.0
 31
0.0
  0
LINE
  5
D5C5
330
D5BF
100
AcDbEntity
  8
02実線
100
AcDbLine
 10
0.0
 20
0.0
 30
0.0
 11
-60.0
 21
0.0
 31
0.0
  0
LINE
  5
D5C6
330
D5BF
100
AcDbEntity
  8
02実線
100
AcDbLine
 10
-60.0
 20
0.0
 30
0.0
 11
-60.0
 21
-60.0
 31
0.0
  0
LINE
  5
D5C7
330
D5BF
100
AcDbEntity
  8
02実線
100
AcDbLine
 10
-53.0
 20
-14.0
 30
0.0
 11
-15.0
 21
-14.0
 31
0.0
  0
LINE
  5
D5C8
330
D5BF
100
AcDbEntity
  8
02実線
100
AcDbLine
 10
-13.0
 20
-25.69999999999982
 30
0.0
 11
-13.0
 21
-16.0
 31
0.0
  0
ARC
  5
D5C9
330
D5BF
100
AcDbEntity
  8
02実線
100
AcDbCircle
 10
-15.0
 20
-25.69999999999982
 30
0.0
 40
2.0
100
AcDbArc
 50
270.0
 51
0.0
  0
ARC
  5
D5CA
330
D5BF
100
AcDbEntity
  8
02実線
100
AcDbCircle
 10
-15.0
 20
-16.0
 30
0.0
 40
2.0
100
AcDbArc
 50
0.0
 51
90.0
  0
LINE
  5
D5CB
330
D5BF
100
AcDbEntity
  8
02実線
100
AcDbLine
 10
-55.0
 20
-25.69999999999982
 30
0.0
 11
-55.0
 21
-16.0
 31
0.0
  0
ARC
  5
D5CC
330
D5BF
100
AcDbEntity
  8
02実線
100
AcDbCircle
 10
-53.0
 20
-25.69999999999982
 30
0.0
 40
2.0
100
AcDbArc
 50
180.0
 51
270.0
  0
ARC
  5
D5CD
330
D5BF
100
AcDbEntity
  8
02実線
100
AcDbCircle
 10
-53.0
 20
-16.0
 30
0.0
 40
2.0
100
AcDbArc
 50
90.0
 51
180.0
  0
LINE
  5
D5CE
330
D5BF
100
AcDbEntity
  8
02実線
100
AcDbLine
 10
-5.0
 20
-12.0
 30
0.0
 11
-4.5
 21
-12.0
 31
0.0
  0
LINE
  5
D5CF
330
D5BF
100
AcDbEntity
  8
02実線
100
AcDbLine
 10
-12.0
 20
-5.0
 30
0.0
 11
-12.0
 21
-4.5
 31
0.0
  0
ARC
  5
D5D0
330
D5BF
100
AcDbEntity
  8
02実線
100
AcDbCircle
 10
-3.102943725150908
 20
-3.102943725151817
 30
0.0
 40
9.097056274847697
100
AcDbArc
 50
192.036523901119
 51
257.9634760989391
  0
LINE
  5
D5D1
330
D5BF
100
AcDbEntity
  8
02実線
100
AcDbLine
 10
-5.0
 20
-50.0
 30
0.0
 11
-4.5
 21
-50.0
 31
0.0
  0
LINE
  5
D5D2
330
D5BF
100
AcDbEntity
  8
02実線
100
AcDbLine
 10
-10.0
 20
-55.0
 30
0.0
 11
-10.0
 21
-55.5
 31
0.0
  0
ARC
  5
D5D3
330
D5BF
100
AcDbEntity
  8
02実線
100
AcDbCircle
 10
-5.0
 20
-55.0
 30
0.0
 40
5.0
100
AcDbArc
 50
90.0
 51
180.0
  0
LINE
  5
D5D4
330
D5BF
100
AcDbEntity
  8
02実線
100
AcDbLine
 10
-53.0
 20
-27.69999999999982
 30
0.0
 11
-15.0
 21
-27.69999999999982
 31
0.0
  0
LINE
  5
D5D5
330
D5BF
100
AcDbEntity
  8
04一点鎖線
  6
CENTER2
100
AcDbLine
 10
-35.0
 20
-71.57399999999961
 30
0.0
 11
-34.99999999999818
 21
-45.92599999999948
 31
0.0
  0
ENDBLK
  5
D5D7
330
D5BF
100
AcDbEntity
  8
0
100
AcDbBlockEnd
  0
BLOCK
  5
D5FC
330
D5D9
100
AcDbEntity
  8
0
100
AcDbBlockBegin
  2
標準下うま_側面
 70
     0
 10
0.0
 20
0.0
 30
0.0
  3
標準下うま_側面
  1

  0
LINE
  5
D5DA
330
D5D9
100
AcDbEntity
  8
02実線
100
AcDbLine
 10
-19.5
 20
0.0
 30
0.0
 11
-45.0
 21
0.0
 31
0.0
  0
LINE
  5
D5DB
330
D5D9
100
AcDbEntity
  8
02実線
100
AcDbLine
 10
-6.75
 20
30.5
 30
0.0
 11
-60.0
 21
30.5
 31
0.0
  0
LINE
  5
D5DC
330
D5D9
100
AcDbEntity
  8
02実線
100
AcDbLine
 10
-4.5
 20
35.0
 30
0.0
 11
-60.0
 21
35.0
 31
0.0
  0
LINE
  5
D5DD
330
D5D9
100
AcDbEntity
  8
02実線
100
AcDbLine
 10
-4.5
 20
35.0
 30
0.0
 11
-60.0
 21
35.0
 31
0.0
  0
LINE
  5
D5DE
330
D5D9
100
AcDbEntity
  8
02実線
100
AcDbLine
 10
-60.0
 20
13.0
 30
0.0
 11
-60.0
 21
35.0
 31
0.0
  0
LINE
  5
D5DF
330
D5D9
100
AcDbEntity
  8
02実線
100
AcDbLine
 10
-59.0
 20
12.0
 30
0.0
 11
-47.0
 21
12.0
 31
0.0
  0
LINE
  5
D5E0
330
D5D9
100
AcDbEntity
  8
02実線
100
AcDbLine
 10
-46.0
 20
11.0
 30
0.0
 11
-46.0
 21
1.0
 31
0.0
  0
ARC
  5
D5E1
330
D5D9
100
AcDbEntity
  8
02実線
100
AcDbCircle
 10
-45.0
 20
1.0
 30
0.0
 40
1.0
100
AcDbArc
 50
180.0
 51
270.0
  0
ARC
  5
D5E2
330
D5D9
100
AcDbEntity
  8
02実線
100
AcDbCircle
 10
-47.0
 20
11.0
 30
0.0
 40
1.0
100
AcDbArc
 50
0.0
 51
90.0
  0
LINE
  5
D5E3
330
D5D9
100
AcDbEntity
  8
02実線
100
AcDbLine
 10
0.0
 20
30.5
 30
0.0
 11
0.0
 21
0.0
 31
0.0
  0
LINE
  5
D5E4
330
D5D9
100
AcDbEntity
  8
02実線
100
AcDbLine
 10
-4.5
 20
28.25
 30
0.0
 11
-4.5
 21
0.0
 31
0.0
  0
LINE
  5
D5E5
330
D5D9
100
AcDbEntity
  8
02実線
100
AcDbLine
 10
-17.5
 20
12.0
 30
0.0
 11
-5.5
 21
12.0
 31
0.0
  0
LINE
  5
D5E6
330
D5D9
100
AcDbEntity
  8
02実線
100
AcDbLine
 10
-18.5
 20
11.0
 30
0.0
 11
-18.5
 21
1.0
 31
0.0
  0
ARC
  5
D5E7
330
D5D9
100
AcDbEntity
  8
02実線
100
AcDbCircle
 10
-19.5
 20
1.0
 30
0.0
 40
1.0
100
AcDbArc
 50
270.0
 51
0.0
  0
ARC
  5
D5E8
330
D5D9
100
AcDbEntity
  8
02実線
100
AcDbCircle
 10
-17.5
 20
11.0
 30
0.0
 40
1.0
100
AcDbArc
 50
90.0
 51
180.0
  0
LINE
  5
D5E9
330
D5D9
100
AcDbEntity
  8
02実線
100
AcDbLine
 10
0.0
 20
0.0
 30
0.0
 11
-4.5
 21
0.0
 31
0.0
  0
ARC
  5
D5EA
330
D5D9
100
AcDbEntity
  8
02実線
100
AcDbCircle
 10
-4.5
 20
30.5
 30
0.0
 40
4.5
100
AcDbArc
 50
0.0
 51
90.0
  0
ARC
  5
D5EB
330
D5D9
100
AcDbEntity
  8
02実線
100
AcDbCircle
 10
-6.75
 20
28.25
 30
0.0
 40
2.25
100
AcDbArc
 50
0.0
 51
90.0
  0
ARC
  5
D5EC
330
D5D9
100
AcDbEntity
  8
02実線
100
AcDbCircle
 10
-59.0
 20
13.0
 30
0.0
 40
1.0
100
AcDbArc
 50
180.0
 51
270.0
  0
ARC
  5
D5ED
330
D5D9
100
AcDbEntity
  8
02実線
100
AcDbCircle
 10
-5.5
 20
13.0
 30
0.0
 40
1.0
100
AcDbArc
 50
270.0
 51
0.0
  0
LINE
  5
D5EE
330
D5D9
100
AcDbEntity
  8
02実線
100
AcDbLine
 10
-5.0
 20
25.0
 30
0.0
 11
-4.5
 21
25.0
 31
0.0
  0
LINE
  5
D5EF
330
D5D9
100
AcDbEntity
  8
02実線
100
AcDbLine
 10
-10.0
 20
30.0
 30
0.0
 11
-10.0
 21
30.5
 31
0.0
  0
ARC
  5
D5F0
330
D5D9
100
AcDbEntity
  8
02実線
100
AcDbCircle
 10
-5.0
 20
30.0
 30
0.0
 40
5.0
100
AcDbArc
 50
180.0
 51
270.0
  0
LINE
  5
D5F1
330
D5D9
100
AcDbEntity
  8
08非表示
100
AcDbLine
 10
0.0
 20
30.5
 30
0.0
 11
0.0
 21
35.0
 31
0.0
  0
LINE
  5
D5F2
330
D5D9
100
AcDbEntity
  8
08非表示
100
AcDbLine
 10
-4.5
 20
35.0
 30
0.0
 11
0.0
 21
35.0
 31
0.0
  0
LINE
  5
D5F3
330
D5D9
100
AcDbEntity
  8
02実線
100
AcDbLine
 10
-4.5
 20
2.299999999999955
 30
0.0
 11
-18.5
 21
2.299999999999955
 31
0.0
  0
LINE
  5
D5F4
330
D5D9
100
AcDbEntity
  8
02実線
100
AcDbLine
 10
-4.5
 20
0.0
 30
0.0
 11
-19.5
 21
0.0
 31
0.0
  0
LINE
  5
D5F5
330
D5D9
100
AcDbEntity
  8
02実線
100
AcDbLine
 10
-45.0
 20
0.0
 30
0.0
 11
-55.40000000000055
 21
0.0
 31
0.0
  0
ARC
  5
D5F6
330
D5D9
100
AcDbEntity
  8
02実線
100
AcDbCircle
 10
-55.40000000000055
 20
4.599999999999909
 30
0.0
 40
4.600000000000002
100
AcDbArc
 50
180.0
 51
270.0
  0
LINE
  5
D5F7
330
D5D9
100
AcDbEntity
  8
02実線
100
AcDbLine
 10
-60.0
 20
13.0
 30
0.0
 11
-60.0
 21
4.599999999999909
 31
0.0
  0
LINE
  5
D5F8
330
D5D9
100
AcDbEntity
  8
02実線
100
AcDbLine
 10
-46.0
 20
2.299999999999955
 30
0.0
 11
-55.40000000000055
 21
2.299999999999955
 31
0.0
  0
LINE
  5
D5F9
330
D5D9
100
AcDbEntity
  8
02実線
100
AcDbLine
 10
-57.69999999999982
 20
12.0
 30
0.0
 11
-57.69999999999982
 21
4.599999999999909
 31
0.0
  0
ARC
  5
D5FA
330
D5D9
100
AcDbEntity
  8
02実線
100
AcDbCircle
 10
-55.40000000000055
 20
4.599999999999909
 30
0.0
 40
2.300000000000001
100
AcDbArc
 50
180.0
 51
270.0
  0
LINE
  5
D5FB
330
D5D9
100
AcDbEntity
  8
04一点鎖線
  6
CENTER2
100
AcDbLine
 10
-35.0
 20
44.75
 30
0.0
 11
-35.0
 21
20.75
 31
0.0
  0
ENDBLK
  5
D5FD
330
D5D9
100
AcDbEntity
  8
0
100
AcDbBlockEnd
  0
BLOCK
  5
D641
330
D640
100
AcDbEntity
  8
0
100
AcDbBlockBegin
  2
STB-M16ゴムブッシュ
 70
     0
 10
0.0
 20
0.0
 30
0.0
  3
STB-M16ゴムブッシュ
  1

  0
LINE
  5
D643
330
D640
100
AcDbEntity
  8
02実線
 62
    20
100
AcDbLine
 10
-20.0
 20
7.999999999998181
 30
0.0
 11
20.0
 21
7.999999999998181
 31
0.0
  0
LINE
  5
D644
330
D640
100
AcDbEntity
  8
02実線
 62
    20
100
AcDbLine
 10
-20.0
 20
-0.000000000001819
 30
0.0
 11
-20.0
 21
7.999999999998181
 31
0.0
  0
LINE
  5
D645
330
D640
100
AcDbEntity
  8
02実線
 62
    20
100
AcDbLine
 10
20.0
 20
7.999999999998181
 30
0.0
 11
20.0
 21
-0.000000000001819
 31
0.0
  0
LINE
  5
D646
330
D640
100
AcDbEntity
  8
02実線
 62
    20
100
AcDbLine
 10
-20.0
 20
-0.000000000001819
 30
0.0
 11
20.0
 21
0.000000000001819
 31
0.0
  0
ENDBLK
  5
D642
330
D640
100
AcDbEntity
  8
0
100
AcDbBlockEnd
  0
BLOCK
  5
D699
330
D698
100
AcDbEntity
  8
0
100
AcDbBlockBegin
  2
STB-M16ナット(3種)
 70
     0
 10
0.0
 20
0.0
 30
0.0
  3
STB-M16ナット(3種)
  1

  0
SPLINE
  5
D69B
330
D698
100
AcDbEntity
  8
02実線
 62
     9
100
AcDbSpline
210
0.0
220
0.0
230
1.0
 70
  1064
 71
     3
 72
    23
 73
    19
 74
    17
 42
0.000000001
 43
0.0000000001
 44
0.0
 40
0.0
 40
0.0
 40
0.0
 40
0.0
 40
0.1165670826682187
 40
0.4175367898856848
 40
0.735490019127234
 40
1.076562114776901
 40
1.451266493019665
 40
1.880474903646135
 40
2.41906848423254
 40
3.658608049284751
 40
4.898147614336963
 40
5.436741194923369
 40
5.865949605548982
 40
6.240653983792586
 40
6.581726079442253
 40
6.899679308683803
 40
7.200649015901269
 40
7.322822764581327
 40
7.322822764581327
 40
7.322822764581327
 40
7.322822764581327
 10
-13.85000000000036
 20
8.931902001991148
 30
0.0
 10
-13.81628123583515
 20
8.95121060414426
 30
0.0
 10
-13.69550250288422
 20
9.020372940334292
 30
0.0
 10
-13.48029965666514
 20
9.137890494730058
 30
0.0
 10
-13.19524235745358
 20
9.283393794196268
 30
0.0
 10
-12.8830564753329
 20
9.429441819237645
 30
0.0
 10
-12.53087069601163
 20
9.576833297364711
 30
0.0
 10
-12.10932198436975
 20
9.727899000163383
 30
0.0
 10
-11.40039399046451
 20
9.926815727620907
 30
0.0
 10
-10.39230368923399
 20
10.05101881089218
 30
0.0
 10
-9.384219017462481
 20
9.926810181131732
 30
0.0
 10
-8.67528332731967
 20
9.727906856433792
 30
0.0
 10
-8.253751257183524
 20
9.576811142169797
 30
0.0
 10
-7.901515025292367
 20
9.429510856139764
 30
0.0
 10
-7.589492663492617
 20
9.283167224660364
 30
0.0
 10
-7.303885724834379
 20
9.138657555630154
 30
0.0
 10
-7.088587351090458
 20
9.017451181365685
 30
0.0
 10
-6.964135948158182
 20
8.951068578532205
 30
0.0
 10
-6.928203230275358
 20
8.931902001991148
 30
0.0
 11
-13.85000000000036
 21
8.931902001991148
 31
0.0
 11
-13.74873524093618
 21
8.989637028911147
 31
0.0
 11
-13.48463406462452
 21
9.133974596208645
 31
0.0
 11
-13.20133047719264
 21
9.278312163506143
 31
0.0
 11
-12.89230484541167
 21
9.422649730803187
 31
0.0
 11
-12.54651583786381
 21
9.566987298100685
 31
0.0
 11
-12.14230484541167
 21
9.711324865398183
 31
0.0
 11
-11.62341207063491
 21
9.85566243269568
 31
0.0
 11
-10.39230484541258
 21
9.999999999999545
 31
0.0
 11
-9.16119762019025
 21
9.85566243269568
 31
0.0
 11
-8.642304845413491
 21
9.711324865398183
 31
0.0
 11
-8.238093852962265
 21
9.566987298100685
 31
0.0
 11
-7.892304845413491
 21
9.422649730803187
 31
0.0
 11
-7.583279213632522
 21
9.278312163506143
 31
0.0
 11
-7.299975626200649
 21
9.133974596208645
 31
0.0
 11
-7.035874449888979
 21
8.989637028911147
 31
0.0
 11
-6.928203230275358
 21
8.931902001991148
 31
0.0
  0
SPLINE
  5
D69C
330
D698
100
AcDbEntity
  8
02実線
 62
     9
100
AcDbSpline
210
0.0
220
0.0
230
1.0
 70
  1064
 71
     3
 72
    23
 73
    19
 74
    17
 42
0.000000001
 43
0.0000000001
 44
0.0
 40
0.0
 40
0.0
 40
0.0
 40
0.0
 40
0.2229477505295434
 40
0.7705160646678508
 40
1.35521857359226
 40
1.989900145503511
 40
2.696379787317136
 40
3.5175858753425
 40
4.565360746291256
 40
7.031802177446978
 40
9.4982436086027
 40
10.54601847955146
 40
11.36722456757682
 40
12.07370420939044
 40
12.7083857813017
 40
13.2930882902261
 40
13.84065660436441
 40
14.06360435489308
 40
14.06360435489308
 40
14.06360435489308
 40
14.06360435489308
 10
6.928203230274448
 20
8.931902001991148
 30
0.0
 10
6.856396942403342
 20
8.951052558028806
 30
0.0
 10
6.60823162915198
 20
9.01723762174571
 30
0.0
 10
6.173352753607896
 20
9.139599715055187
 30
0.0
 10
5.6022788890527
 20
9.283974881679939
 30
0.0
 10
4.97723021304208
 20
9.43048824960311
 30
0.0
 10
4.271588449678455
 20
9.577885584488675
 30
0.0
 10
3.426373773140604
 20
9.729177722405199
 30
0.0
 10
1.994814309764054
 20
9.92926701836441
 30
0.0
 10
-0.0000000000009094
 20
10.04964371610351
 30
0.0
 10
-1.994814309765873
 20
9.929267018364413
 30
0.0
 10
-3.426373773142423
 20
9.729177722405195
 30
0.0
 10
-4.271588449680273
 20
9.577885584488676
 30
0.0
 10
-4.9772302130439
 20
9.430488249603103
 30
0.0
 10
-5.602278889054522
 20
9.28397488167996
 30
0.0
 10
-6.1733527536097
 20
9.139599715055125
 30
0.0
 10
-6.608231629153559
 20
9.017237621745952
 30
0.0
 10
-6.85639694240456
 20
8.95105255802882
 30
0.0
 10
-6.928203230275358
 20
8.931902001991148
 30
0.0
 11
6.928203230274448
 21
8.931902001991148
 31
0.0
 11
6.712860791046296
 21
8.989637028911147
 31
0.0
 11
6.184658438424776
 21
9.133974596208645
 31
0.0
 11
5.618051263559209
 21
9.278312163506143
 31
0.0
 11
4.999999999997272
 21
9.422649730803187
 31
0.0
 11
4.308421984901543
 21
9.566987298100685
 31
0.0
 11
3.499999999997272
 21
9.711324865398183
 31
0.0
 11
2.462214450445572
 21
9.85566243269568
 31
0.0
 11
-0.0000000000009095
 21
9.999999999995453
 31
0.0
 11
-2.462214450447391
 21
9.85566243269568
 31
0.0
 11
-3.499999999999091
 21
9.711324865398183
 31
0.0
 11
-4.308421984903362
 21
9.566987298100685
 31
0.0
 11
-4.999999999999091
 21
9.422649730803187
 31
0.0
 11
-5.618051263561028
 21
9.278312163506143
 31
0.0
 11
-6.184658438426595
 21
9.133974596208645
 31
0.0
 11
-6.712860791048115
 21
8.989637028911147
 31
0.0
 11
-6.928203230275358
 21
8.931902001991148
 31
0.0
  0
SPLINE
  5
D69D
330
D698
100
AcDbEntity
  8
02実線
 62
     9
100
AcDbSpline
210
0.0
220
0.0
230
1.0
 70
  1064
 71
     3
 72
    23
 73
    19
 74
    17
 42
0.000000001
 43
0.0000000001
 44
0.0
 40
0.0
 40
0.0
 40
0.0
 40
0.0
 40
0.1165670826682187
 40
0.4175367898856848
 40
0.735490019127234
 40
1.076562114776901
 40
1.451266493019665
 40
1.880474903646135
 40
2.41906848423254
 40
3.658608049284751
 40
4.898147614336963
 40
5.436741194923369
 40
5.865949605548982
 40
6.240653983792586
 40
6.581726079442253
 40
6.899679308683803
 40
7.200649015901269
 40
7.322822764581327
 40
7.322822764581327
 40
7.322822764581327
 40
7.322822764581327
 10
13.85000000000036
 20
8.931902001991148
 30
0.0
 10
13.81628123583515
 20
8.95121060414426
 30
0.0
 10
13.69550250288422
 20
9.020372940334292
 30
0.0
 10
13.48029965666514
 20
9.137890494730058
 30
0.0
 10
13.19524235745358
 20
9.283393794196268
 30
0.0
 10
12.8830564753329
 20
9.429441819237645
 30
0.0
 10
12.53087069601163
 20
9.576833297364711
 30
0.0
 10
12.10932198436975
 20
9.727899000163383
 30
0.0
 10
11.40039399046451
 20
9.926815727620907
 30
0.0
 10
10.39230368923399
 20
10.05101881089218
 30
0.0
 10
9.384219017462481
 20
9.926810181131732
 30
0.0
 10
8.67528332731967
 20
9.727906856433792
 30
0.0
 10
8.253751257183524
 20
9.576811142169797
 30
0.0
 10
7.901515025292367
 20
9.429510856139764
 30
0.0
 10
7.589492663492617
 20
9.283167224660364
 30
0.0
 10
7.303885724834379
 20
9.138657555630154
 30
0.0
 10
7.088587351090458
 20
9.017451181365685
 30
0.0
 10
6.964135948158182
 20
8.951068578532205
 30
0.0
 10
6.928203230275358
 20
8.931902001991148
 30
0.0
 11
13.85000000000036
 21
8.931902001991148
 31
0.0
 11
13.74873524093618
 21
8.989637028911147
 31
0.0
 11
13.48463406462452
 21
9.133974596208645
 31
0.0
 11
13.20133047719264
 21
9.278312163506143
 31
0.0
 11
12.89230484541167
 21
9.422649730803187
 31
0.0
 11
12.54651583786381
 21
9.566987298100685
 31
0.0
 11
12.14230484541167
 21
9.711324865398183
 31
0.0
 11
11.62341207063491
 21
9.85566243269568
 31
0.0
 11
10.39230484541258
 21
9.999999999999545
 31
0.0
 11
9.16119762019025
 21
9.85566243269568
 31
0.0
 11
8.642304845413491
 21
9.711324865398183
 31
0.0
 11
8.238093852962265
 21
9.566987298100685
 31
0.0
 11
7.892304845413491
 21
9.422649730803187
 31
0.0
 11
7.583279213632522
 21
9.278312163506143
 31
0.0
 11
7.299975626200649
 21
9.133974596208645
 31
0.0
 11
7.035874449888979
 21
8.989637028911147
 31
0.0
 11
6.928203230275358
 21
8.931902001991148
 31
0.0
  0
LINE
  5
D69E
330
D698
100
AcDbEntity
  8
02実線
 62
     9
100
AcDbLine
 10
12.00000000000273
 20
9.999999999990905
 30
0.0
 11
13.85000000000036
 21
8.931902001991148
 31
0.0
  0
LINE
  5
D69F
330
D698
100
AcDbEntity
  8
02実線
 62
     9
100
AcDbLine
 10
-12.00000000000273
 20
9.999999999990905
 30
0.0
 11
-13.85000000000036
 21
8.931902001991148
 31
0.0
  0
LINE
  5
D6A0
330
D698
100
AcDbEntity
  8
02実線
 62
     9
100
AcDbLine
 10
13.85000000000218
 20
8.931902001992512
 30
0.0
 11
13.85000000000036
 21
1.068097998004305
 31
0.0
  0
LINE
  5
D6A1
330
D698
100
AcDbEntity
  8
02実線
 62
     9
100
AcDbLine
 10
-12.00000000000273
 20
9.999999999990905
 30
0.0
 11
11.99999999999909
 21
10.0
 31
0.0
  0
LINE
  5
D6A2
330
D698
100
AcDbEntity
  8
02実線
 62
     9
100
AcDbLine
 10
-13.85000000000036
 20
1.068097998004305
 30
0.0
 11
-13.85000000000036
 21
8.931902001991148
 31
0.0
  0
LINE
  5
D6A3
330
D698
100
AcDbEntity
  8
02実線
 62
     9
100
AcDbLine
 10
-12.00000000000273
 20
0.0000000000045475
 30
0.0
 11
11.99999999999909
 21
-0.0000000000045475
 31
0.0
  0
LINE
  5
D6A4
330
D698
100
AcDbEntity
  8
02実線
 62
     9
100
AcDbLine
 10
-12.00000000000273
 20
0.0000000000045475
 30
0.0
 11
-13.85000000000036
 21
1.068097998004305
 31
0.0
  0
LINE
  5
D6A5
330
D698
100
AcDbEntity
  8
02実線
 62
     9
100
AcDbLine
 10
12.00000000000273
 20
0.0000000000045475
 30
0.0
 11
13.85000000000036
 21
1.068097998004305
 31
0.0
  0
SPLINE
  5
D6A6
330
D698
100
AcDbEntity
  8
02実線
 62
     9
100
AcDbSpline
210
0.0
220
0.0
230
1.0
 70
  1064
 71
     3
 72
    23
 73
    19
 74
    17
 42
0.000000001
 43
0.0000000001
 44
0.0
 40
0.0
 40
0.0
 40
0.0
 40
0.0
 40
0.1165670826682187
 40
0.4175367898856848
 40
0.735490019127234
 40
1.076562114776901
 40
1.451266493019665
 40
1.880474903646135
 40
2.41906848423254
 40
3.658608049284751
 40
4.898147614336963
 40
5.436741194923369
 40
5.865949605548982
 40
6.240653983792586
 40
6.581726079442253
 40
6.899679308683803
 40
7.200649015901269
 40
7.322822764581327
 40
7.322822764581327
 40
7.322822764581327
 40
7.322822764581327
 10
13.85000000000036
 20
1.068097998004305
 30
0.0
 10
13.81628123583515
 20
1.048789395851193
 30
0.0
 10
13.69550250288422
 20
0.9796270596611641
 30
0.0
 10
13.48029965666514
 20
0.8621095052653919
 30
0.0
 10
13.19524235745358
 20
0.7166062057991867
 30
0.0
 10
12.8830564753329
 20
0.570558180757806
 30
0.0
 10
12.53087069601163
 20
0.4231667026307425
 30
0.0
 10
12.10932198436975
 20
0.2721009998320673
 30
0.0
 10
11.40039399046451
 20
0.0731842723745451
 30
0.0
 10
10.39230368923399
 20
-0.0510188108967326
 30
0.0
 10
9.384219017462481
 20
0.0731898188637241
 30
0.0
 10
8.67528332731967
 20
0.2720931435616569
 30
0.0
 10
8.253751257183524
 20
0.4231888578256562
 30
0.0
 10
7.901515025292367
 20
0.5704891438556875
 30
0.0
 10
7.589492663492617
 20
0.716832775335088
 30
0.0
 10
7.303885724834379
 20
0.8613424443652984
 30
0.0
 10
7.088587351090458
 20
0.9825488186297655
 30
0.0
 10
6.964135948158182
 20
1.04893142146325
 30
0.0
 10
6.928203230275358
 20
1.068097998004305
 30
0.0
 11
13.85000000000036
 21
1.068097998004305
 31
0.0
 11
13.74873524093618
 21
1.010362971084305
 31
0.0
 11
13.48463406462452
 21
0.8660254037868071
 31
0.0
 11
13.20133047719264
 21
0.7216878364893091
 31
0.0
 11
12.89230484541167
 21
0.5773502691922658
 31
0.0
 11
12.54651583786381
 21
0.4330127018947678
 31
0.0
 11
12.14230484541167
 21
0.2886751345972698
 31
0.0
 11
11.62341207063491
 21
0.1443375672997718
 31
0.0
 11
10.39230484541258
 21
-0.0000000000040927
 31
0.0
 11
9.16119762019025
 21
0.1443375672997718
 31
0.0
 11
8.642304845413491
 21
0.2886751345972698
 31
0.0
 11
8.238093852962265
 21
0.4330127018947678
 31
0.0
 11
7.892304845413491
 21
0.5773502691922658
 31
0.0
 11
7.583279213632522
 21
0.7216878364893091
 31
0.0
 11
7.299975626200649
 21
0.8660254037868071
 31
0.0
 11
7.035874449888979
 21
1.010362971084305
 31
0.0
 11
6.928203230275358
 21
1.068097998004305
 31
0.0
  0
SPLINE
  5
D6A7
330
D698
100
AcDbEntity
  8
02実線
 62
     9
100
AcDbSpline
210
0.0
220
0.0
230
1.0
 70
  1064
 71
     3
 72
    23
 73
    19
 74
    17
 42
0.000000001
 43
0.0000000001
 44
0.0
 40
0.0
 40
0.0
 40
0.0
 40
0.0
 40
0.2229477505295434
 40
0.7705160646678508
 40
1.35521857359226
 40
1.989900145503511
 40
2.696379787317136
 40
3.5175858753425
 40
4.565360746291256
 40
7.031802177446978
 40
9.4982436086027
 40
10.54601847955146
 40
11.36722456757682
 40
12.07370420939044
 40
12.7083857813017
 40
13.2930882902261
 40
13.84065660436441
 40
14.06360435489308
 40
14.06360435489308
 40
14.06360435489308
 40
14.06360435489308
 10
6.928203230274448
 20
1.068097998004305
 30
0.0
 10
6.856396942403342
 20
1.048947441966646
 30
0.0
 10
6.60823162915198
 20
0.9827623782497436
 30
0.0
 10
6.173352753607896
 20
0.8604002849402664
 30
0.0
 10
5.6022788890527
 20
0.7160251183155121
 30
0.0
 10
4.97723021304208
 20
0.5695117503923419
 30
0.0
 10
4.271588449678455
 20
0.422114415506778
 30
0.0
 10
3.426373773140604
 20
0.2708222775902553
 30
0.0
 10
1.994814309764054
 20
0.0707329816310436
 30
0.0
 10
-0.0000000000009094
 20
-0.0496437161080575
 30
0.0
 10
-1.994814309765873
 20
0.0707329816310433
 30
0.0
 10
-3.426373773142423
 20
0.2708222775902559
 30
0.0
 10
-4.271588449680273
 20
0.422114415506776
 30
0.0
 10
-4.9772302130439
 20
0.569511750392348
 30
0.0
 10
-5.602278889054522
 20
0.7160251183154931
 30
0.0
 10
-6.1733527536097
 20
0.8604002849403287
 30
0.0
 10
-6.608231629153559
 20
0.9827623782495016
 30
0.0
 10
-6.85639694240456
 20
1.048947441966633
 30
0.0
 10
-6.928203230275358
 20
1.068097998004305
 30
0.0
 11
6.928203230274448
 21
1.068097998004305
 31
0.0
 11
6.712860791046296
 21
1.010362971084305
 31
0.0
 11
6.184658438424776
 21
0.8660254037868071
 31
0.0
 11
5.618051263559209
 21
0.7216878364893091
 31
0.0
 11
4.999999999997272
 21
0.5773502691922658
 31
0.0
 11
4.308421984901543
 21
0.4330127018947678
 31
0.0
 11
3.499999999997272
 21
0.2886751345972698
 31
0.0
 11
2.462214450445572
 21
0.1443375672997718
 31
0.0
 11
-0.0000000000009095
 21
0.0
 31
0.0
 11
-2.462214450447391
 21
0.1443375672997718
 31
0.0
 11
-3.499999999999091
 21
0.2886751345972698
 31
0.0
 11
-4.308421984903362
 21
0.4330127018947678
 31
0.0
 11
-4.999999999999091
 21
0.5773502691922658
 31
0.0
 11
-5.618051263561028
 21
0.7216878364893091
 31
0.0
 11
-6.184658438426595
 21
0.8660254037868071
 31
0.0
 11
-6.712860791048115
 21
1.010362971084305
 31
0.0
 11
-6.928203230275358
 21
1.068097998004305
 31
0.0
  0
SPLINE
  5
D6A8
330
D698
100
AcDbEntity
  8
02実線
 62
     9
100
AcDbSpline
210
0.0
220
0.0
230
1.0
 70
  1064
 71
     3
 72
    23
 73
    19
 74
    17
 42
0.000000001
 43
0.0000000001
 44
0.0
 40
0.0
 40
0.0
 40
0.0
 40
0.0
 40
0.1165670826682187
 40
0.4175367898856848
 40
0.735490019127234
 40
1.076562114776901
 40
1.451266493019665
 40
1.880474903646135
 40
2.41906848423254
 40
3.658608049284751
 40
4.898147614336963
 40
5.436741194923369
 40
5.865949605548982
 40
6.240653983792586
 40
6.581726079442253
 40
6.899679308683803
 40
7.200649015901269
 40
7.322822764581327
 40
7.322822764581327
 40
7.322822764581327
 40
7.322822764581327
 10
-13.85000000000036
 20
1.068097998004305
 30
0.0
 10
-13.81628123583515
 20
1.048789395851193
 30
0.0
 10
-13.69550250288422
 20
0.9796270596611641
 30
0.0
 10
-13.48029965666514
 20
0.8621095052653919
 30
0.0
 10
-13.19524235745358
 20
0.7166062057991867
 30
0.0
 10
-12.8830564753329
 20
0.570558180757806
 30
0.0
 10
-12.53087069601163
 20
0.4231667026307425
 30
0.0
 10
-12.10932198436975
 20
0.2721009998320673
 30
0.0
 10
-11.40039399046451
 20
0.0731842723745451
 30
0.0
 10
-10.39230368923399
 20
-0.0510188108967326
 30
0.0
 10
-9.384219017462481
 20
0.0731898188637241
 30
0.0
 10
-8.67528332731967
 20
0.2720931435616569
 30
0.0
 10
-8.253751257183524
 20
0.4231888578256562
 30
0.0
 10
-7.901515025292367
 20
0.5704891438556875
 30
0.0
 10
-7.589492663492617
 20
0.716832775335088
 30
0.0
 10
-7.303885724834379
 20
0.8613424443652984
 30
0.0
 10
-7.088587351090458
 20
0.9825488186297655
 30
0.0
 10
-6.964135948158182
 20
1.04893142146325
 30
0.0
 10
-6.928203230275358
 20
1.068097998004305
 30
0.0
 11
-13.85000000000036
 21
1.068097998004305
 31
0.0
 11
-13.74873524093618
 21
1.010362971084305
 31
0.0
 11
-13.48463406462452
 21
0.8660254037868071
 31
0.0
 11
-13.20133047719264
 21
0.7216878364893091
 31
0.0
 11
-12.89230484541167
 21
0.5773502691922658
 31
0.0
 11
-12.54651583786381
 21
0.4330127018947678
 31
0.0
 11
-12.14230484541167
 21
0.2886751345972698
 31
0.0
 11
-11.62341207063491
 21
0.1443375672997718
 31
0.0
 11
-10.39230484541258
 21
-0.0000000000040927
 31
0.0
 11
-9.16119762019025
 21
0.1443375672997718
 31
0.0
 11
-8.642304845413491
 21
0.2886751345972698
 31
0.0
 11
-8.238093852962265
 21
0.4330127018947678
 31
0.0
 11
-7.892304845413491
 21
0.5773502691922658
 31
0.0
 11
-7.583279213632522
 21
0.7216878364893091
 31
0.0
 11
-7.299975626200649
 21
0.8660254037868071
 31
0.0
 11
-7.035874449888979
 21
1.010362971084305
 31
0.0
 11
-6.928203230275358
 21
1.068097998004305
 31
0.0
  0
LINE
  5
D6A9
330
D698
100
AcDbEntity
  8
02実線
 62
     9
100
AcDbLine
 10
6.928203230275358
 20
8.931902001991148
 30
0.0
 11
6.928203230275358
 21
1.068097998004305
 31
0.0
  0
LINE
  5
D6AA
330
D698
100
AcDbEntity
  8
02実線
 62
     9
100
AcDbLine
 10
-6.928203230275358
 20
8.931902001991148
 30
0.0
 11
-6.928203230275358
 21
1.068097998004305
 31
0.0
  0
ENDBLK
  5
D69A
330
D698
100
AcDbEntity
  8
0
100
AcDbBlockEnd
  0
BLOCK
  5
D6ED
330
D6D1
100
AcDbEntity
  8
0
100
AcDbBlockBegin
  2
標準うま(M16)_側面
 70
     0
 10
0.0
 20
0.0
 30
0.0
  3
標準うま(M16)_側面
  1

  0
INSERT
  5
D6D2
330
D6D1
100
AcDbEntity
  8
02実線
100
AcDbBlockReference
  2
STB-M16ナット(3種)
 10
-34.99999999999909
 20
-47.5
 30
0.0
  0
INSERT
  5
D6D3
330
D6D1
100
AcDbEntity
  8
02実線
100
AcDbBlockReference
  2
STB-M12_M16揺れ止め座金
 10
-34.99999999999909
 20
-91.99999999999977
 30
0.0
  0
INSERT
  5
D6D4
330
D6D1
100
AcDbEntity
  8
02実線
100
AcDbBlockReference
  2
STB-M12_M16揺れ止めゴム
 10
-34.99999999999909
 20
-87.49999999999977
 30
0.0
  0
LINE
  5
D6D5
330
D6D1
100
AcDbEntity
  8
02実線
 62
   122
100
AcDbLine
 10
-27.0
 20
-60.0
 30
0.0
 11
-27.0
 21
-81.99999999999795
 31
0.0
  0
LINE
  5
D6D6
330
D6D1
100
AcDbEntity
  8
02実線
 62
   122
100
AcDbLine
 10
-42.99999999999909
 20
-81.99999999999795
 30
0.0
 11
-42.99999999999909
 21
-60.0
 31
0.0
  0
LINE
  5
D6D7
330
D6D1
100
AcDbEntity
  8
07その他
  6
Continuous
 62
   122
100
AcDbLine
 10
-42.05299999999897
 20
-81.99999999999795
 30
0.0
 11
-42.05299999999897
 21
-60.0
 31
0.0
  0
LINE
  5
D6D8
330
D6D1
100
AcDbEntity
  8
07その他
  6
Continuous
 62
   122
100
AcDbLine
 10
-27.94699999999921
 20
-81.99999999999795
 30
0.0
 11
-27.94699999999921
 21
-60.0
 31
0.0
  0
INSERT
  5
D6DA
330
D6D1
100
AcDbEntity
  8
02実線
100
AcDbBlockReference
  2
標準上うま_側面
 10
0.0
 20
0.0
 30
0.0
  0
INSERT
  5
D6DB
330
D6D1
100
AcDbEntity
  8
02実線
100
AcDbBlockReference
  2
標準下うま_側面
 10
0.0
 20
-143.0
 30
0.0
  0
INSERT
  5
D6DC
330
D6D1
100
AcDbEntity
  8
02実線
100
AcDbBlockReference
  2
STB-M16ナット(1種)
 10
-35.00000000000091
 20
-37.50000000000455
 30
0.0
  0
INSERT
  5
D6DD
330
D6D1
100
AcDbEntity
  8
02実線
100
AcDbBlockReference
  2
STB-M16平ワッシャ
 10
-35.0
 20
-108.0
 30
0.0
  0
INSERT
  5
D6DE
330
D6D1
100
AcDbEntity
  8
02実線
100
AcDbBlockReference
  2
STB-M16ナット(1種)
 10
-35.0
 20
-105.0
 30
0.0
  0
INSERT
  5
D6DF
330
D6D1
100
AcDbEntity
  8
02実線
100
AcDbBlockReference
  2
STB-M16ナット(1種)
 10
-35.0
 20
-115.5
 30
0.0
 41
-1.0
 50
180.0
  0
INSERT
  5
D6E0
330
D6D1
100
AcDbEntity
  8
02実線
100
AcDbBlockReference
  2
STB-M16平ワッシャ
 10
-35.0
 20
-112.5
 30
0.0
 41
-1.0
 50
180.0
  0
LINE
  5
D6E1
330
D6D1
100
AcDbEntity
  8
02実線
 62
   122
100
AcDbLine
 10
-29.0
 20
-130.5
 30
0.0
 11
-41.0
 21
-130.5
 31
0.0
  0
LINE
  5
D6E2
330
D6D1
100
AcDbEntity
  8
02実線
 62
   122
100
AcDbLine
 10
-41.0
 20
-130.5
 30
0.0
 11
-43.0
 21
-128.5
 31
0.0
  0
LINE
  5
D6E3
330
D6D1
100
AcDbEntity
  8
02実線
 62
   122
100
AcDbLine
 10
-27.0
 20
-128.5
 30
0.0
 11
-29.0
 21
-130.5
 31
0.0
  0
LINE
  5
D6E4
330
D6D1
100
AcDbEntity
  8
02実線
 62
   122
100
AcDbLine
 10
-43.0
 20
-128.5
 30
0.0
 11
-27.0
 21
-128.5
 31
0.0
  0
LINE
  5
D6E5
330
D6D1
100
AcDbEntity
  8
02実線
 62
   122
100
AcDbLine
 10
-26.99999999999727
 20
-19.5
 30
0.0
 11
-26.99999999999363
 21
-24.50000000000227
 31
0.0
  0
LINE
  5
D6E6
330
D6D1
100
AcDbEntity
  8
07その他
  6
Continuous
 62
   122
100
AcDbLine
 10
-41.91749999999865
 20
-18.41749999999865
 30
0.0
 11
-41.9174999999932
 21
-24.50000000000227
 31
0.0
  0
LINE
  5
D6E7
330
D6D1
100
AcDbEntity
  8
02実線
 62
   122
100
AcDbLine
 10
-42.99999999999363
 20
-24.50000000000227
 30
0.0
 11
-42.99999999999727
 21
-19.5
 31
0.0
  0
LINE
  5
D6E8
330
D6D1
100
AcDbEntity
  8
07その他
  6
Continuous
 62
   122
100
AcDbLine
 10
-28.08249999999953
 20
-18.41750000000093
 30
0.0
 11
-28.08249999999407
 21
-24.50000000000227
 31
0.0
  0
LINE
  5
D6E9
330
D6D1
100
AcDbEntity
  8
02実線
 62
   122
100
AcDbLine
 10
-43.0
 20
-19.5
 30
0.0
 11
-27.0
 21
-19.5
 31
0.0
  0
LINE
  5
D6EA
330
D6D1
100
AcDbEntity
  8
02実線
 62
   122
100
AcDbLine
 10
-27.0
 20
-19.5
 30
0.0
 11
-29.0
 21
-17.5
 31
0.0
  0
LINE
  5
D6EB
330
D6D1
100
AcDbEntity
  8
02実線
 62
   122
100
AcDbLine
 10
-29.0
 20
-17.5
 30
0.0
 11
-41.0
 21
-17.5
 31
0.0
  0
LINE
  5
D6EC
330
D6D1
100
AcDbEntity
  8
02実線
 62
   122
100
AcDbLine
 10
-41.0
 20
-17.5
 30
0.0
 11
-43.0
 21
-19.5
 31
0.0
  0
INSERT
  5
D711
330
D6D1
100
AcDbEntity
  8
02実線
100
AcDbBlockReference
  2
STB-M16ゴムブッシュ
 10
-35.0
 20
-55.5
 30
0.0
  0
ENDBLK
  5
D6EE
330
D6D1
100
AcDbEntity
  8
0
100
AcDbBlockEnd
  0
ENDSEC
  0
SECTION
  2
ENTITIES
  0
LINE
  5
F06F
330
1F
100
AcDbEntity
  8
02実線
100
AcDbLine
 10
1924.607743773036
 20
1912.526277897911
 30
0.0
 11
1984.60774377304
 21
1912.526277897912
 31
0.0
  0
LINE
  5
F070
330
1F
100
AcDbEntity
  8
02実線
100
AcDbLine
 10
1924.607743773036
 20
2562.526277897909
 30
0.0
 11
1984.60774377304
 21
2562.52627789791
 31
0.0
  0
LINE
  5
F071
330
1F
100
AcDbEntity
  8
02実線
100
AcDbLine
 10
804.60774377304
 20
2562.526277897911
 30
0.0
 11
744.60774377304
 21
2562.526277897909
 31
0.0
  0
LINE
  5
F072
330
1F
100
AcDbEntity
  8
02実線
100
AcDbLine
 10
804.60774377304
 20
1912.526277897913
 30
0.0
 11
744.60774377304
 21
1912.526277897912
 31
0.0
  0
LWPOLYLINE
  5
F08E
330
1F
100
AcDbEntity
  8
02実線
100
AcDbPolyline
 90
        5
 70
     0
 43
0.0
 10
804.6077437730364
 20
2562.526277897908
 10
804.60774377304
 20
1912.526277897911
 10
744.6077437730364
 20
1912.526277897912
 10
744.60774377304
 20
2562.526277897909
 10
804.6077437730364
 20
2562.526277897908
  0
LWPOLYLINE
  5
F08F
330
1F
100
AcDbEntity
  8
02実線
100
AcDbPolyline
 90
        5
 70
     0
 43
0.0
 10
1984.607743773036
 20
2562.526277897907
 10
1984.60774377304
 20
1912.526277897911
 10
1924.607743773036
 20
1912.526277897911
 10
1924.60774377304
 20
2562.526277897909
 10
1984.607743773036
 20
2562.526277897907
  0
LWPOLYLINE
  5
F090
330
1F
100
AcDbEntity
  8
02実線
100
AcDbPolyline
 90
        5
 70
     0
 43
0.0
 10
804.6077437730437
 20
1852.526277897909
 10
1924.607743773036
 20
1852.526277897909
 10
1924.607743773036
 20
1912.526277897912
 10
804.60774377304
 20
1912.526277897911
 10
804.6077437730437
 20
1852.526277897909
  0
LWPOLYLINE
  5
F091
330
1F
100
AcDbEntity
  8
02実線
100
AcDbPolyline
 90
        5
 70
     0
 43
0.0
 10
804.6077437730364
 20
2562.526277897908
 10
1924.607743773029
 20
2562.526277897908
 10
1924.607743773027
 20
2622.526277897911
 10
804.6077437730291
 20
2622.526277897911
 10
804.6077437730364
 20
2562.526277897908
  0
LWPOLYLINE
  5
F097
330
1F
100
AcDbEntity
  8
02実線
100
AcDbPolyline
 90
        4
 70
     1
 43
0.0
 10
2584.607743773037
 20
1912.526277897911
 10
2584.607743773037
 20
2562.526277897902
 10
2614.607743773048
 20
2562.526277897902
 10
2614.607743773048
 20
1912.526277897911
  0
LWPOLYLINE
  5
F098
330
1F
100
AcDbEntity
  8
02実線
100
AcDbPolyline
 90
        4
 70
     1
 43
0.0
 10
2697.607743773019
 20
1912.526277897914
 10
2697.607743773019
 20
2562.526277897912
 10
2727.607743773048
 20
2562.526277897912
 10
2727.607743773048
 20
1912.526277897914
  0
LWPOLYLINE
  5
F099
330
1F
100
AcDbEntity
  8
02実線
100
AcDbPolyline
 90
        4
 70
     1
 43
0.0
 10
804.6077437730432
 20
1320.973705816022
 10
804.6077437730432
 20
1350.973705816026
 10
1924.607743773043
 20
1350.973705816026
 10
1924.607743773043
 20
1320.973705816022
  0
LWPOLYLINE
  5
F09A
330
1F
100
AcDbEntity
  8
02実線
100
AcDbPolyline
 90
        4
 70
     1
 43
0.0
 10
804.6077437730432
 20
1207.973705816022
 10
804.6077437730432
 20
1237.973705816027
 10
1924.607743773034
 20
1237.973705816027
 10
1924.607743773034
 20
1207.973705816022
  0
INSERT
  5
F09C
330
1F
100
AcDbEntity
  8
02実線
100
AcDbBlockReference
  2
標準うま(M16)_側面
 10
804.6077437730432
 20
1350.973705816026
 30
0.0
  0
INSERT
  5
F09D
330
1F
100
AcDbEntity
  8
02実線
100
AcDbBlockReference
  2
標準うま(M16)_側面
 10
1924.607743773043
 20
1350.973705816026
 30
0.0
 41
-1.0
  0
INSERT
  5
F09E
330
1F
100
AcDbEntity
  8
02実線
100
AcDbBlockReference
  2
標準うま(M16)_側面
 10
2584.607743773037
 20
1912.526277897911
 30
0.0
 50
90.0
  0
INSERT
  5
F09F
330
1F
100
AcDbEntity
  8
02実線
100
AcDbBlockReference
  2
標準うま(M16)_側面
 10
2584.607743773037
 20
2562.526277897902
 30
0.0
 41
-1.0
 50
89.99999999999979
  0
INSERT
  5
F0A1
330
1F
100
AcDbEntity
  8
02実線
100
AcDbBlockReference
  2
標準うま
 10
804.60774377304
 20
1912.526277897913
 30
0.0
 50
270.0
  0
INSERT
  5
F0A2
330
1F
100
AcDbEntity
  8
02実線
100
AcDbBlockReference
  2
標準うま
 10
804.6077437730364
 20
2562.526277897908
 30
0.0
 50
180.0
  0
INSERT
  5
F0A3
330
1F
100
AcDbEntity
  8
02実線
100
AcDbBlockReference
  2
標準うま
 10
1924.607743773029
 20
2562.526277897908
 30
0.0
 50
89.99999999999999
  0
INSERT
  5
F0A4
330
1F
100
AcDbEntity
  8
02実線
100
AcDbBlockReference
  2
標準うま
 10
1924.607743773036
 20
1912.526277897911
 30
0.0
 50
360.0
  0
INSERT
  5
F0A5
330
1F
100
AcDbEntity
  8
02実線
100
AcDbBlockReference
  2
hole-φ16
 10
826.60774377304
 20
2602.526277897906
 30
0.0
  0
INSERT
  5
F0A6
330
1F
100
AcDbEntity
  8
02実線
100
AcDbBlockReference
  2
hole-φ16
 10
1902.607743773016
 20
2602.526277897906
 30
0.0
  0
INSERT
  5
F0A7
330
1F
100
AcDbEntity
  8
02実線
100
AcDbBlockReference
  2
hole-φ16
 10
1902.607743773016
 20
1872.526277897913
 30
0.0
  0
INSERT
  5
F0A8
330
1F
100
AcDbEntity
  8
02実線
100
AcDbBlockReference
  2
hole-φ16
 10
826.60774377304
 20
1872.526277897913
 30
0.0
  0
VIEWPORT
  5
9F0D
330
1B
100
AcDbEntity
 67
     1
  8
0
100
AcDbViewport
 10
202.5
 20
128.5
 30
0.0
 40
486.0
 41
308.4
 68
     1
 69
     1
 12
202.5
 22
128.5
 13
0.0
 23
0.0
 14
0.5
 24
0.5
 15
0.0
 25
0.0
 16
0.0
 26
0.0
 36
1.0
 17
0.0
 27
0.0
 37
0.0
 42
50.0
 43
0.0
 44
0.0
 45
308.4
 50
0.0
 51
0.0
 72
   100
 90
   557152
  1

281
     0
 71
     1
 74
     0
110
0.0
120
0.0
130
0.0
111
1.0
121
0.0
131
0.0
112
0.0
122
1.0
132
0.0
 79
     0
146
0.0
  0
VIEWPORT
  5
9F0E
330
1B
100
AcDbEntity
 67
     1
  8
0
100
AcDbViewport
 10
202.5
 20
128.5
 30
0.0
 40
324.0
 41
205.6
 68
     2
 69
     2
 12
-3224.9849078482
 22
3553.815758143106
 13
0.0
 23
0.0
 14
0.5
 24
0.5
 15
0.0
 25
0.0
 16
0.0
 26
0.0
 36
1.0
 17
0.0
 27
0.0
 37
0.0
 42
50.0
 43
0.0
 44
0.0
 45
10712.16027781073
 50
0.0
 51
0.0
 72
   100
 90
   557152
  1

281
     0
 71
     1
 74
     0
110
0.0
120
0.0
130
0.0
111
1.0
121
0.0
131
0.0
112
0.0
122
1.0
132
0.0
 79
     0
146
0.0
  0
ENDSEC
  0
SECTION
  2
OBJECTS
  0
DICTIONARY
  5
C
330
0
100
AcDbDictionary
281
     1
  3
ACAD_DETAILVIEWSTYLE
350
EE82
  3
ACAD_GROUP
350
D
  3
ACAD_IMAGE_VARS
350
6A88
  3
ACAD_LAYOUT
350
1A
  3
ACAD_MLINESTYLE
350
17
  3
ACAD_PLOTSETTINGS
350
19
  3
ACAD_PLOTSTYLENAME
350
E
  3
ACAD_SCALELIST
350
6A4E
  3
ACAD_SECTIONVIEWSTYLE
350
EE83
  3
AcadDim
350
813A
  3
AcDbVariableDictionary
350
79E
  3
APPDATA
350
6A87
  3
DWGPROPS
350
F2AF
  0
DICTIONARY
  5
7A6F
330
2
100
AcDbDictionary
280
     1
281
     1
  3
ACAD_LAYERSTATES
360
7A70
  3
ACLYDICTIONARY
360
A16A
  0
DICTIONARY
  5
969E
330
1F
100
AcDbDictionary
280
     1
281
     1
  3
ACAD_SORTENTS
360
969F
  0
DICTIONARY
  5
EE82
102
{ACAD_REACTORS
330
C
102
}
330
C
100
AcDbDictionary
281
     1
  0
DICTIONARY
  5
D
102
{ACAD_REACTORS
330
C
102
}
330
C
100
AcDbDictionary
281
     1
  0
RASTERVARIABLES
  5
6A88
102
{ACAD_REACTORS
330
C
102
}
330
C
100
AcDbRasterVariables
 90
        0
 70
     1
 71
     1
 72
     1
  0
DICTIONARY
  5
1A
102
{ACAD_REACTORS
330
C
102
}
330
C
100
AcDbDictionary
281
     1
  3
Layout1
350
1E
  3
Model
350
22
  0
DICTIONARY
  5
17
102
{ACAD_REACTORS
330
C
102
}
330
C
100
AcDbDictionary
281
     1
  3
Standard
350
18
  0
DICTIONARY
  5
19
102
{ACAD_REACTORS
330
C
102
}
330
C
100
AcDbDictionary
281
     1
  0
ACDBDICTIONARYWDFLT
  5
E
102
{ACAD_REACTORS
330
C
102
}
330
C
100
AcDbDictionary
281
     1
  3
Normal
350
F
100
AcDbDictionaryWithDefault
340
F
  0
DICTIONARY
  5
6A4E
102
{ACAD_REACTORS
330
C
102
}
330
C
100
AcDbDictionary
281
     1
  3
A0
350
6A4F
  3
A1
350
6A50
  3
A2
350
6A51
  3
A3
350
6A52
  3
A4
350
6A53
  3
A5
350
6A54
  3
A6
350
6A55
  3
A7
350
6A56
  3
A8
350
6A57
  3
A9
350
6A58
  3
B0
350
6A59
  3
B1
350
6A5A
  3
B2
350
6A5B
  3
B3
350
6A5C
  3
B4
350
6A5D
  3
B5
350
6A5E
  3
B6
350
6A5F
  3
B7
350
6A60
  3
B8
350
6A61
  3
B9
350
6A62
  3
C0
350
6A63
  3
C1
350
6A64
  3
C2
350
6A65
  3
C3
350
6A66
  3
C4
350
6A67
  3
C5
350
6A68
  3
C6
350
6A69
  3
C7
350
6A6A
  3
C8
350
6A6B
  3
C9
350
6A6C
  3
D0
350
6A6D
  3
D1
350
6A6E
  3
D2
350
6A6F
  0
DICTIONARY
  5
EE83
102
{ACAD_REACTORS
330
C
102
}
330
C
100
AcDbDictionary
281
     1
  0
XRECORD
  5
813A
102
{ACAD_REACTORS
330
C
102
}
330
C
100
AcDbXrecord
280
     1
340
0
 72
     0
 71
     0
 70
     0
 69
     0
 68
     1
 67
     3
 66
     0
 65
     0
 64
     0
 63
     3
 62
     1
 61
     0
 60
     0
 40
0.0
  0
DICTIONARY
  5
79E
102
{ACAD_REACTORS
330
C
102
}
330
C
100
AcDbDictionary
281
     1
  3
DIMASSOC
350
79F
  3
SORTENTS
350
264F
  0
DICTIONARY
  5
6A87
102
{ACAD_REACTORS
330
C
102
}
330
C
100
AcDbDictionary
281
     1
  0
XRECORD
  5
F2AF
102
{ACAD_REACTORS
330
C
102
}
330
C
100
AcDbXrecord
280
     1
  1
DWGPROPS COOKIE
  2

  3

  4

  6

  7

  8
Sales
  9

300
=
301
=
302
=
303
=
304
=
305
=
306
=
307
=
308
=
309
=
 40
0.0
 41
2455859.030048461
 42
2458967.173911377
  1

 90
        0
  0
DICTIONARY
  5
7A70
102
{ACAD_REACTORS
330
7A6F
102
}
330
7A6F
100
AcDbDictionary
281
     1
  0
DICTIONARY
  5
A16A
102
{ACAD_REACTORS
330
7A6F
102
}
330
7A6F
100
AcDbDictionary
281
     1
1001
ACAD
1000
<All
  0
SORTENTSTABLE
  5
969F
102
{ACAD_REACTORS
330
969E
102
}
330
969E
100
AcDbSortentsTable
330
1F
331
0
  5
C257
331
0
  5
F251
331
0
  5
C1C2
331
0
  5
F250
331
0
  5
C1C6
331
0
  5
F24F
331
0
  5
F24E
331
0
  5
F24D
331
0
  5
C1C7
331
0
  5
C1CA
331
0
  5
F24C
331
0
  5
C1CB
331
0
  5
C1CC
331
0
  5
C1CD
331
0
  5
C1CE
331
0
  5
C1CF
331
0
  5
C1D0
331
0
  5
F24B
331
0
  5
C1D1
331
0
  5
C1D2
331
0
  5
C1D3
331
0
  5
C1D4
331
0
  5
C1D5
331
0
  5
C1D6
331
0
  5
F24A
331
0
  5
F249
331
0
  5
C1D7
331
0
  5
C1D8
331
0
  5
C1D9
331
0
  5
C1DA
331
0
  5
C1DB
331
0
  5
C1DC
331
0
  5
C1DD
331
0
  5
C1DE
331
0
  5
C1DF
331
0
  5
C1E0
331
0
  5
C1E1
331
0
  5
C1E2
331
0
  5
C1E3
331
0
  5
C1E4
331
0
  5
C1E5
331
0
  5
F248
331
0
  5
F247
331
0
  5
C1E6
331
0
  5
C1E7
331
0
  5
C1E8
331
0
  5
C1E9
331
0
  5
C1EA
331
0
  5
C1EB
331
0
  5
C1EC
331
0
  5
C1ED
331
0
  5
C1EE
331
0
  5
C1EF
331
0
  5
C1F1
331
0
  5
C1F2
331
0
  5
C1F3
331
0
  5
C1F4
331
0
  5
C1F5
331
0
  5
C1F6
331
0
  5
C1F7
331
0
  5
C1F8
331
0
  5
C1F9
331
0
  5
C1FA
331
0
  5
F246
331
0
  5
F245
331
0
  5
C1FB
331
0
  5
C1FC
331
0
  5
C1FD
331
0
  5
C1FE
331
0
  5
C1FF
331
0
  5
C200
331
0
  5
C201
331
0
  5
C202
331
0
  5
C203
331
0
  5
C204
331
0
  5
C205
331
0
  5
C20D
331
0
  5
C20E
331
0
  5
C20F
331
0
  5
C210
331
0
  5
C211
331
0
  5
C212
331
0
  5
C213
331
0
  5
C214
331
0
  5
C215
331
0
  5
C21A
331
0
  5
C21B
331
0
  5
C21C
331
0
  5
C21D
331
0
  5
C21E
331
0
  5
C21F
331
0
  5
C220
331
0
  5
C225
331
0
  5
F244
331
0
  5
F243
331
0
  5
F242
331
0
  5
F241
331
0
  5
C226
331
0
  5
C227
331
0
  5
C228
331
0
  5
C229
331
0
  5
C22A
331
0
  5
C22B
331
0
  5
C230
331
0
  5
C231
331
0
  5
C232
331
0
  5
C233
331
0
  5
C234
331
0
  5
C235
331
0
  5
C236
331
0
  5
C23B
331
0
  5
C23C
331
0
  5
C23D
331
0
  5
C23E
331
0
  5
C23F
331
0
  5
C240
331
0
  5
F240
331
0
  5
C241
331
0
  5
C242
331
0
  5
C243
331
0
  5
C244
331
0
  5
C245
331
0
  5
C246
331
0
  5
C247
331
0
  5
C248
331
0
  5
C249
331
0
  5
C24A
331
0
  5
C24B
331
0
  5
C24C
331
0
  5
C24D
331
0
  5
C24E
331
0
  5
C24F
331
0
  5
C250
331
0
  5
C251
331
0
  5
C252
331
0
  5
C253
331
0
  5
C254
331
0
  5
C255
331
0
  5
C256
331
0
  5
F21E
331
0
  5
C291
331
0
  5
C292
331
0
  5
C293
331
0
  5
C294
331
0
  5
C295
331
0
  5
C296
331
0
  5
C297
331
0
  5
C298
331
0
  5
C299
331
0
  5
C29A
331
0
  5
C2A2
331
0
  5
C2A3
331
0
  5
C2A4
331
0
  5
C2A5
331
0
  5
C2A6
331
0
  5
F21D
331
0
  5
F21C
331
0
  5
C2A7
331
0
  5
F21B
331
0
  5
F21A
331
0
  5
C2A8
331
0
  5
C2A9
331
0
  5
C2AA
331
0
  5
C2AB
331
0
  5
C2AC
331
0
  5
C2AD
331
0
  5
F219
331
0
  5
F218
331
0
  5
F217
331
0
  5
F216
331
0
  5
C2AE
331
0
  5
C2AF
331
0
  5
F1F3
331
0
  5
C2B0
331
0
  5
C2B1
331
0
  5
C2B2
331
0
  5
C2B3
331
0
  5
C2B4
331
0
  5
C2B5
331
0
  5
C2B6
331
0
  5
C2B7
331
0
  5
C2C1
331
0
  5
C2C2
331
0
  5
C2C3
331
0
  5
C2C4
331
0
  5
C2C5
331
0
  5
C2C6
331
0
  5
C2C7
331
0
  5
C2C8
331
0
  5
C2C9
331
0
  5
C2CA
331
0
  5
C2CB
331
0
  5
F1F2
331
0
  5
C2CC
331
0
  5
C2CD
331
0
  5
F1F0
331
0
  5
C2CE
331
0
  5
C2CF
331
0
  5
C2D0
331
0
  5
C2D1
331
0
  5
C2D2
331
0
  5
C2D3
331
0
  5
C2D4
331
0
  5
C2D5
331
0
  5
C2D6
331
0
  5
C2D7
331
0
  5
C2D8
331
0
  5
C2D9
331
0
  5
C2DA
331
0
  5
C2DB
331
0
  5
C2DC
331
0
  5
C2DD
331
0
  5
C2DE
331
0
  5
C2DF
331
0
  5
C2E0
331
0
  5
C2E1
331
0
  5
C2E2
331
0
  5
C2E3
331
0
  5
C2E4
331
0
  5
C2E5
331
0
  5
C2E6
331
0
  5
C2E7
331
0
  5
C2E8
331
0
  5
C2E9
331
0
  5
C2EA
331
0
  5
C2EB
331
0
  5
C2EC
331
0
  5
C2ED
331
0
  5
C2EE
331
0
  5
C2EF
331
0
  5
C2F0
331
0
  5
C2F1
331
0
  5
C2F2
331
0
  5
C2F3
331
0
  5
C2F4
331
0
  5
C2F5
331
0
  5
C2F6
331
0
  5
C2F7
331
0
  5
C2F8
331
0
  5
C2F9
331
0
  5
C2FA
331
0
  5
C2FD
331
0
  5
C2FE
331
0
  5
C2FF
331
0
  5
C300
331
0
  5
C301
331
0
  5
C302
331
0
  5
C312
331
0
  5
C313
331
0
  5
C314
331
0
  5
C315
331
0
  5
C316
331
0
  5
C317
331
0
  5
C318
331
0
  5
C319
331
0
  5
C31A
331
0
  5
C31D
331
0
  5
C326
331
0
  5
C329
331
0
  5
C32D
331
0
  5
C32E
331
0
  5
C378
331
0
  5
C37B
331
0
  5
C37E
331
0
  5
C382
331
0
  5
C383
331
0
  5
C394
331
0
  5
C3AA
331
0
  5
C3AD
331
0
  5
C3AE
331
0
  5
C3B1
331
0
  5
C807
331
0
  5
C808
331
0
  5
C9CF
331
0
  5
C9D0
331
0
  5
C9D1
331
0
  5
C9D2
331
0
  5
C9D3
331
0
  5
C9D4
331
0
  5
C9D5
331
0
  5
C9D6
331
0
  5
C9D7
331
0
  5
C9D8
331
0
  5
C9D9
331
0
  5
C9DA
331
0
  5
C9DB
331
0
  5
C9DC
331
0
  5
C9DD
331
0
  5
C9DE
331
0
  5
C9DF
331
0
  5
C9E0
331
0
  5
C9E1
331
0
  5
C9E2
331
0
  5
C9E3
331
0
  5
C9E4
331
0
  5
C9E5
331
0
  5
C9E6
331
0
  5
C9E7
331
0
  5
C9E8
331
0
  5
C9E9
331
0
  5
C9EA
331
0
  5
C9EB
331
0
  5
C9EC
331
0
  5
C9ED
331
0
  5
C9EE
331
0
  5
C9EF
331
0
  5
C9F0
331
0
  5
C9F1
331
0
  5
C9F2
331
0
  5
C9F3
331
0
  5
C9F4
331
0
  5
C9F5
331
0
  5
C9F6
331
0
  5
C9F7
331
0
  5
C9F8
331
0
  5
C9F9
331
0
  5
C9FA
331
0
  5
C9FB
331
0
  5
C9FC
331
0
  5
C9FD
331
0
  5
C9FE
331
0
  5
C9FF
331
0
  5
CA00
331
0
  5
CA01
331
0
  5
CA02
331
0
  5
CA03
331
0
  5
CA04
331
0
  5
CA05
331
0
  5
CA06
331
0
  5
CA07
331
0
  5
CA08
331
0
  5
CA09
331
0
  5
CA0A
331
0
  5
CA0B
331
0
  5
CA0C
331
0
  5
CA0D
331
0
  5
CA0E
331
0
  5
CA0F
331
0
  5
CA10
331
0
  5
CA11
331
0
  5
CA12
331
0
  5
CA13
331
0
  5
CA14
331
0
  5
CA15
331
0
  5
CA16
331
0
  5
CA17
331
0
  5
CA18
331
0
  5
CA19
331
0
  5
CA1A
331
0
  5
CA1B
331
0
  5
CA1C
331
0
  5
CA1D
331
0
  5
CA1E
331
0
  5
CA1F
331
0
  5
CA20
331
0
  5
CA21
331
0
  5
CA22
331
0
  5
CA23
331
0
  5
CA24
331
0
  5
CA25
331
0
  5
CA26
331
0
  5
CA27
331
0
  5
CA28
331
0
  5
CA29
331
0
  5
CA2A
331
0
  5
CA2B
331
0
  5
CA2C
331
0
  5
CA2D
331
0
  5
CA2E
331
0
  5
CA2F
331
0
  5
CA30
331
0
  5
CA31
331
0
  5
CA32
331
0
  5
CA33
331
0
  5
CA34
331
0
  5
CA35
331
0
  5
CA36
331
0
  5
CA37
331
0
  5
CA38
331
0
  5
CA39
331
0
  5
CA3A
331
0
  5
CA3B
331
0
  5
CA3C
331
0
  5
CA3D
331
0
  5
CA3E
331
0
  5
CA3F
331
0
  5
CA40
331
0
  5
CA41
331
0
  5
CA42
331
0
  5
CA43
331
0
  5
CA44
331
0
  5
CA45
331
0
  5
CA46
331
0
  5
CA47
331
0
  5
CA48
331
0
  5
CA49
331
0
  5
CA4A
331
0
  5
CA4B
331
0
  5
CA4C
331
0
  5
CA4D
331
0
  5
CA4E
331
0
  5
CA4F
331
0
  5
CA50
331
0
  5
CA51
331
0
  5
CA52
331
0
  5
CA53
331
0
  5
CA54
331
0
  5
CA55
331
0
  5
CA56
331
0
  5
CA57
331
0
  5
CA58
331
0
  5
CA59
331
0
  5
CA5A
331
0
  5
CA5B
331
0
  5
CA5C
331
0
  5
CA5D
331
0
  5
F1EF
331
0
  5
F1ED
331
0
  5
F1EC
331
0
  5
F1E8
331
0
  5
F1E7
331
0
  5
F1E5
331
0
  5
F1E4
331
0
  5
CA5E
331
0
  5
CA5F
331
0
  5
CA60
331
0
  5
CA61
331
0
  5
CA62
331
0
  5
CA63
331
0
  5
CA64
331
0
  5
CA65
331
0
  5
CA66
331
0
  5
CA67
331
0
  5
CA68
331
0
  5
CA69
331
0
  5
CA6A
331
0
  5
CA6B
331
0
  5
CA6C
331
0
  5
CA7B
331
0
  5
CA7C
331
0
  5
CA7D
331
0
  5
CB2B
331
0
  5
CB2C
331
0
  5
CB2D
331
0
  5
CB2F
331
0
  5
CB30
331
0
  5
CB33
331
0
  5
CB36
331
0
  5
D297
331
0
  5
D2DE
331
0
  5
D2E4
331
0
  5
D2E9
331
0
  5
D2EC
331
0
  5
D2F0
331
0
  5
D2F1
331
0
  5
D318
331
0
  5
D319
331
0
  5
D31B
331
0
  5
D31C
331
0
  5
D31E
331
0
  5
D31F
331
0
  5
D321
331
0
  5
D322
331
0
  5
D717
331
0
  5
D720
331
0
  5
D721
331
0
  5
D722
331
0
  5
D723
331
0
  5
D724
331
0
  5
D726
331
0
  5
D727
331
0
  5
D728
331
0
  5
D729
331
0
  5
D72A
331
0
  5
D72B
331
0
  5
D8E5
331
0
  5
D8E6
331
0
  5
D8E7
331
0
  5
D8E8
331
0
  5
D8E9
331
0
  5
D934
331
0
  5
D935
331
0
  5
F1E2
331
0
  5
F1E1
331
0
  5
F191
331
0
  5
F190
331
0
  5
F18F
331
0
  5
F18E
331
0
  5
F18D
331
0
  5
F18C
331
0
  5
F18B
331
0
  5
F18A
331
0
  5
D94E
331
0
  5
D94F
331
0
  5
D950
331
0
  5
D951
331
0
  5
D952
331
0
  5
D953
331
0
  5
D954
331
0
  5
D955
331
0
  5
D96F
331
0
  5
D970
331
0
  5
D97D
331
0
  5
D97E
331
0
  5
D97F
331
0
  5
D980
331
0
  5
D981
331
0
  5
D982
331
0
  5
DAEC
331
0
  5
DAED
331
0
  5
DB0A
331
0
  5
DB1B
331
0
  5
DB1C
331
0
  5
DB20
331
0
  5
DB21
331
0
  5
DB22
331
0
  5
DB23
331
0
  5
DB24
331
0
  5
DB25
331
0
  5
DB26
331
0
  5
DB27
331
0
  5
DB29
331
0
  5
DB38
331
0
  5
DB45
331
0
  5
DB54
331
0
  5
DB61
331
0
  5
DB6E
331
0
  5
DB7B
331
0
  5
DB7C
331
0
  5
DC03
331
0
  5
DC04
331
0
  5
DC09
331
0
  5
DC0A
331
0
  5
DC0B
331
0
  5
DC0C
331
0
  5
DC0D
331
0
  5
DC0E
331
0
  5
DC0F
331
0
  5
DC10
331
0
  5
DC6F
331
0
  5
DC70
331
0
  5
DC71
331
0
  5
DC72
331
0
  5
DC73
331
0
  5
DC74
331
0
  5
DC75
331
0
  5
DC76
331
0
  5
DC77
331
0
  5
DC78
331
0
  5
DC79
331
0
  5
DC7A
331
0
  5
DC7B
331
0
  5
DC7C
331
0
  5
DC7D
331
0
  5
F189
331
0
  5
DC7E
331
0
  5
F188
331
0
  5
DC7F
331
0
  5
DC80
331
0
  5
DC81
331
0
  5
F187
331
0
  5
DC8F
331
0
  5
DC90
331
0
  5
DC91
331
0
  5
DC92
331
0
  5
DC93
331
0
  5
DC94
331
0
  5
DC95
331
0
  5
DC96
331
0
  5
DC97
331
0
  5
DC98
331
0
  5
DC99
331
0
  5
DC9A
331
0
  5
DC9B
331
0
  5
DC9C
331
0
  5
DC9D
331
0
  5
DC9E
331
0
  5
F186
331
0
  5
F185
331
0
  5
F184
331
0
  5
F183
331
0
  5
F182
331
0
  5
F181
331
0
  5
DC9F
331
0
  5
DCA0
331
0
  5
F12A
331
0
  5
DCA1
331
0
  5
DCA2
331
0
  5
F129
331
0
  5
F128
331
0
  5
DCA3
331
0
  5
DCA4
331
0
  5
DCA5
331
0
  5
DCA6
331
0
  5
DCA7
331
0
  5
DCA8
331
0
  5
DCA9
331
0
  5
DCAA
331
0
  5
DCAB
331
0
  5
DCAC
331
0
  5
DCAD
331
0
  5
DCAE
331
0
  5
DCF0
331
0
  5
DD46
331
0
  5
DD5D
331
0
  5
DD5F
331
0
  5
DD61
331
0
  5
DDCF
331
0
  5
DDD0
331
0
  5
DDD1
331
0
  5
DDD2
331
0
  5
DDD3
331
0
  5
DDD4
331
0
  5
DDF3
331
0
  5
DDFA
331
0
  5
DE01
331
0
  5
DE08
331
0
  5
DE0F
331
0
  5
DE16
331
0
  5
F127
331
0
  5
E240
331
0
  5
F126
331
0
  5
F125
331
0
  5
ED71
331
0
  5
ED72
331
0
  5
ED73
331
0
  5
ED74
331
0
  5
ED75
331
0
  5
ED76
331
0
  5
ED77
331
0
  5
ED78
331
0
  5
ED79
331
0
  5
ED7A
331
0
  5
ED7C
331
0
  5
ED7D
331
0
  5
ED7E
331
0
  5
ED7F
331
0
  5
ED80
331
0
  5
ED81
331
0
  5
EDD8
331
0
  5
EDD9
331
0
  5
EDDB
331
0
  5
EDDC
331
F06F
  5
EDDD
331
F070
  5
EDDE
331
F071
  5
EE96
331
F072
  5
EE97
331
0
  5
EE98
331
0
  5
EE99
331
0
  5
EE9A
331
0
  5
EE9B
331
0
  5
EE9C
331
0
  5
EEA8
331
0
  5
EEA9
331
0
  5
EEAA
331
0
  5
EEAB
331
0
  5
EEAC
331
0
  5
EEAD
331
0
  5
EF08
331
0
  5
EF09
331
0
  5
EF0A
331
0
  5
EF0B
331
0
  5
EF0C
331
0
  5
EF0D
331
0
  5
EF0E
331
0
  5
EF0F
331
0
  5
F00A
331
0
  5
F00B
331
0
  5
F00C
331
0
  5
F010
331
0
  5
F012
331
0
  5
F013
331
0
  5
F014
331
0
  5
F015
331
F08E
  5
F016
331
F08F
  5
F04F
331
F090
  5
F050
331
F091
  5
F051
331
0
  5
F052
331
0
  5
F053
331
0
  5
F054
331
0
  5
F056
331
0
  5
F057
331
F097
  5
F058
331
F098
  5
F059
331
F099
  5
F05B
331
F09A
  5
F05C
331
0
  5
F05D
331
F09C
  5
F05E
331
F09D
  5
F05F
331
F09E
  5
F060
331
F09F
  5
F061
331
0
  5
F062
331
F0A1
  5
F063
331
F0A2
  5
F064
331
F0A3
  5
F065
331
F0A4
  5
F066
331
F0A5
  5
F067
331
F0A6
  5
F068
331
F0A7
  5
F069
331
F0A8
  5
F06A
331
0
  5
F06B
331
0
  5
F06C
331
0
  5
F06D
331
0
  5
F06E
331
0
  5
F06F
331
0
  5
F070
331
0
  5
F071
331
0
  5
F072
331
0
  5
F073
331
0
  5
F074
331
0
  5
F124
331
0
  5
F075
331
0
  5
F123
331
0
  5
F122
331
0
  5
F077
331
0
  5
F078
331
0
  5
F079
331
0
  5
F07A
331
0
  5
F07B
331
0
  5
F07C
331
0
  5
F07D
331
0
  5
F07E
331
0
  5
F07F
331
0
  5
F080
331
0
  5
F081
331
0
  5
F082
331
0
  5
F083
331
0
  5
F084
331
0
  5
F085
331
0
  5
F086
331
0
  5
F087
331
0
  5
F088
331
0
  5
F089
331
0
  5
F08A
331
0
  5
F08B
331
0
  5
F08C
331
0
  5
F08D
331
0
  5
F08E
331
0
  5
F08F
331
0
  5
F090
331
0
  5
F091
331
0
  5
F092
331
0
  5
F093
331
0
  5
F094
331
0
  5
F095
331
0
  5
F096
331
0
  5
F097
331
0
  5
F099
331
0
  5
F09A
331
0
  5
F09B
331
0
  5
F09C
331
0
  5
F09D
331
0
  5
F09E
331
0
  5
F09F
331
0
  5
F0A0
331
0
  5
F0A1
331
0
  5
F0A2
331
0
  5
F0A3
331
0
  5
F0A4
331
0
  5
F0A5
331
0
  5
F0A6
331
0
  5
F0A7
331
0
  5
F0A8
331
0
  5
F121
  0
LAYOUT
  5
1E
102
{ACAD_REACTORS
330
1A
102
}
330
1A
100
AcDbPlotSettings
  1

  2
none_device
  4
ISO_A3_(420.00_x_297.00_MM)
  6

 40
7.5
 41
20.0
 42
7.5
 43
20.0
 44
420.0
 45
297.0
 46
0.0
 47
0.0
 48
0.0
 49
0.0
140
0.0
141
0.0
142
1.0
143
1.0
 70
   688
 72
     1
 73
     0
 74
     5
  7

 75
    16
147
1.0
148
0.0
149
0.0
100
AcDbLayout
  1
Layout1
 70
     1
 71
     1
 10
0.0
 20
0.0
 11
412.5
 21
277.0
 12
0.0
 22
0.0
 32
0.0
 14
1.000000000000000E+20
 24
1.000000000000000E+20
 34
1.000000000000000E+20
 15
-1.000000000000000E+20
 25
-1.000000000000000E+20
 35
-1.000000000000000E+20
146
0.0
 13
0.0
 23
0.0
 33
0.0
 16
1.0
 26
0.0
 36
0.0
 17
0.0
 27
1.0
 37
0.0
 76
     0
330
1B
331
9F0D
  0
LAYOUT
  5
22
102
{ACAD_REACTORS
330
1A
102
}
330
1A
100
AcDbPlotSettings
  1

  2
none_device
  4
A3
  6

 40
3.174999952316284
 41
3.174999952316284
 42
3.17498779296875
 43
3.17498779296875
 44
297.0318298339844
 45
420.1583251953125
 46
-3.16
 47
-3.1
 48
-90.0
 49
-90.0
140
329.9999999999998
141
207.0
142
1.0
143
1.0
 70
 11940
 72
     1
 73
     1
 74
     4
  7
monochrome.ctb
 75
     0
147
1.0
148
90.0
149
90.0
100
AcDbLayout
  1
Model
 70
     1
 71
     0
 10
0.0
 20
0.0
 11
4200.0
 21
2970.0
 12
0.0
 22
0.0
 32
0.0
 14
744.6077437730364
 24
1207.973705816022
 34
0.0
 15
2727.607743773048
 25
2622.526277897911
 35
0.0
146
0.0
 13
0.0
 23
0.0
 33
0.0
 16
1.0
 26
0.0
 36
0.0
 17
0.0
 27
1.0
 37
0.0
 76
     0
330
1F
331
7A57
  0
MLINESTYLE
  5
18
102
{ACAD_REACTORS
330
17
102
}
330
17
100
AcDbMlineStyle
  2
STANDARD
 70
     0
  3

 62
   256
 51
90.0
 52
90.0
 71
     2
 49
0.5
 62
   256
  6
BYLAYER
 49
-0.5
 62
   256
  6
BYLAYER
  0
ACDBPLACEHOLDER
  5
F
102
{ACAD_REACTORS
330
E
102
}
330
E
  0
SCALE
  5
6A4F
102
{ACAD_REACTORS
330
6A4E
102
}
330
6A4E
100
AcDbScale
 70
     0
300
1:1
140
1.0
141
1.0
290
     1
  0
SCALE
  5
6A50
102
{ACAD_REACTORS
330
6A4E
102
}
330
6A4E
100
AcDbScale
 70
     0
300
1:2
140
1.0
141
2.0
290
     0
  0
SCALE
  5
6A51
102
{ACAD_REACTORS
330
6A4E
102
}
330
6A4E
100
AcDbScale
 70
     0
300
1:4
140
1.0
141
4.0
290
     0
  0
SCALE
  5
6A52
102
{ACAD_REACTORS
330
6A4E
102
}
330
6A4E
100
AcDbScale
 70
     0
300
1:5
140
1.0
141
5.0
290
     0
  0
SCALE
  5
6A53
102
{ACAD_REACTORS
330
6A4E
102
}
330
6A4E
100
AcDbScale
 70
     0
300
1:8
140
1.0
141
8.0
290
     0
  0
SCALE
  5
6A54
102
{ACAD_REACTORS
330
6A4E
102
}
330
6A4E
100
AcDbScale
 70
     0
300
1:10
140
1.0
141
10.0
290
     0
  0
SCALE
  5
6A55
102
{ACAD_REACTORS
330
6A4E
102
}
330
6A4E
100
AcDbScale
 70
     0
300
1:16
140
1.0
141
16.0
290
     0
  0
SCALE
  5
6A56
102
{ACAD_REACTORS
330
6A4E
102
}
330
6A4E
100
AcDbScale
 70
     0
300
1:20
140
1.0
141
20.0
290
     0
  0
SCALE
  5
6A57
102
{ACAD_REACTORS
330
6A4E
102
}
330
6A4E
100
AcDbScale
 70
     0
300
1:30
140
1.0
141
30.0
290
     0
  0
SCALE
  5
6A58
102
{ACAD_REACTORS
330
6A4E
102
}
330
6A4E
100
AcDbScale
 70
     0
300
1:40
140
1.0
141
40.0
290
     0
  0
SCALE
  5
6A59
102
{ACAD_REACTORS
330
6A4E
102
}
330
6A4E
100
AcDbScale
 70
     0
300
1:50
140
1.0
141
50.0
290
     0
  0
SCALE
  5
6A5A
102
{ACAD_REACTORS
330
6A4E
102
}
330
6A4E
100
AcDbScale
 70
     0
300
1:100
140
1.0
141
100.0
290
     0
  0
SCALE
  5
6A5B
102
{ACAD_REACTORS
330
6A4E
102
}
330
6A4E
100
AcDbScale
 70
     0
300
2:1
140
2.0
141
1.0
290
     0
  0
SCALE
  5
6A5C
102
{ACAD_REACTORS
330
6A4E
102
}
330
6A4E
100
AcDbScale
 70
     0
300
4:1
140
4.0
141
1.0
290
     0
  0
SCALE
  5
6A5D
102
{ACAD_REACTORS
330
6A4E
102
}
330
6A4E
100
AcDbScale
 70
     0
300
8:1
140
8.0
141
1.0
290
     0
  0
SCALE
  5
6A5E
102
{ACAD_REACTORS
330
6A4E
102
}
330
6A4E
100
AcDbScale
 70
     0
300
10:1
140
10.0
141
1.0
290
     0
  0
SCALE
  5
6A5F
102
{ACAD_REACTORS
330
6A4E
102
}
330
6A4E
100
AcDbScale
 70
     0
300
100:1
140
100.0
141
1.0
290
     0
  0
SCALE
  5
6A60
102
{ACAD_REACTORS
330
6A4E
102
}
330
6A4E
100
AcDbScale
 70
     0
300
1/128" = 1'-0"
140
0.0078125
141
12.0
290
     0
  0
SCALE
  5
6A61
102
{ACAD_REACTORS
330
6A4E
102
}
330
6A4E
100
AcDbScale
 70
     0
300
1/64" = 1'-0"
140
0.015625
141
12.0
290
     0
  0
SCALE
  5
6A62
102
{ACAD_REACTORS
330
6A4E
102
}
330
6A4E
100
AcDbScale
 70
     0
300
1/32" = 1'-0"
140
0.03125
141
12.0
290
     0
  0
SCALE
  5
6A63
102
{ACAD_REACTORS
330
6A4E
102
}
330
6A4E
100
AcDbScale
 70
     0
300
1/16" = 1'-0"
140
0.0625
141
12.0
290
     0
  0
SCALE
  5
6A64
102
{ACAD_REACTORS
330
6A4E
102
}
330
6A4E
100
AcDbScale
 70
     0
300
3/32" = 1'-0"
140
0.09375
141
12.0
290
     0
  0
SCALE
  5
6A65
102
{ACAD_REACTORS
330
6A4E
102
}
330
6A4E
100
AcDbScale
 70
     0
300
1/8" = 1'-0"
140
0.125
141
12.0
290
     0
  0
SCALE
  5
6A66
102
{ACAD_REACTORS
330
6A4E
102
}
330
6A4E
100
AcDbScale
 70
     0
300
3/16" = 1'-0"
140
0.1875
141
12.0
290
     0
  0
SCALE
  5
6A67
102
{ACAD_REACTORS
330
6A4E
102
}
330
6A4E
100
AcDbScale
 70
     0
300
1/4" = 1'-0"
140
0.25
141
12.0
290
     0
  0
SCALE
  5
6A68
102
{ACAD_REACTORS
330
6A4E
102
}
330
6A4E
100
AcDbScale
 70
     0
300
3/8" = 1'-0"
140
0.375
141
12.0
290
     0
  0
SCALE
  5
6A69
102
{ACAD_REACTORS
330
6A4E
102
}
330
6A4E
100
AcDbScale
 70
     0
300
1/2" = 1'-0"
140
0.5
141
12.0
290
     0
  0
SCALE
  5
6A6A
102
{ACAD_REACTORS
330
6A4E
102
}
330
6A4E
100
AcDbScale
 70
     0
300
3/4" = 1'-0"
140
0.75
141
12.0
290
     0
  0
SCALE
  5
6A6B
102
{ACAD_REACTORS
330
6A4E
102
}
330
6A4E
100
AcDbScale
 70
     0
300
1" = 1'-0"
140
1.0
141
12.0
290
     0
  0
SCALE
  5
6A6C
102
{ACAD_REACTORS
330
6A4E
102
}
330
6A4E
100
AcDbScale
 70
     0
300
1-1/2" = 1'-0"
140
1.5
141
12.0
290
     0
  0
SCALE
  5
6A6D
102
{ACAD_REACTORS
330
6A4E
102
}
330
6A4E
100
AcDbScale
 70
     0
300
3" = 1'-0"
140
3.0
141
12.0
290
     0
  0
SCALE
  5
6A6E
102
{ACAD_REACTORS
330
6A4E
102
}
330
6A4E
100
AcDbScale
 70
     0
300
6" = 1'-0"
140
6.0
141
12.0
290
     0
  0
SCALE
  5
6A6F
102
{ACAD_REACTORS
330
6A4E
102
}
330
6A4E
100
AcDbScale
 70
     0
300
1'-0" = 1'-0"
140
12.0
141
12.0
290
     0
  0
DICTIONARYVAR
  5
79F
102
{ACAD_REACTORS
330
79E
102
}
330
79E
100
DictionaryVariables
280
     0
  1
1
  0
DICTIONARYVAR
  5
264F
102
{ACAD_REACTORS
330
79E
102
}
330
79E
100
DictionaryVariables
280
     0
  1
96
  0
ENDSEC
  0
EOF
