  0
SECTION
  2
HEADER
  9
$ACADVER
  1
AC1015
  9
$ACADMAINTVER
 70
     6
  9
$DWGCODEPAGE
  3
ANSI_932
  9
$INSBASE
 10
0.0
 20
0.0
 30
0.0
  9
$EXTMIN
 10
607.1550702831519
 20
3719.071535654701
 30
0.0
  9
$EXTMAX
 10
2071.606725130056
 20
4271.571535654703
 30
0.0
  9
$LIMMIN
 10
-144.7729436781216
 20
-3252.621994740944
  9
$LIMMAX
 10
5210.227056321878
 20
-2151.621994740944
  9
$ORTHOMODE
 70
     0
  9
$REGENMODE
 70
     1
  9
$FILLMODE
 70
     1
  9
$QTEXTMODE
 70
     0
  9
$MIRRTEXT
 70
     1
  9
$LTSCALE
 40
2.4
  9
$ATTMODE
 70
     1
  9
$TEXTSIZE
 40
3.0
  9
$TRACEWID
 40
1.0
  9
$TEXTSTYLE
  7
Standard
  9
$CLAYER
  8
01注記寸法
  9
$CELTYPE
  6
ByLayer
  9
$CECOLOR
 62
   256
  9
$CELTSCALE
 40
1.0
  9
$DISPSILH
 70
     0
  9
$DIMSCALE
 40
10.0
  9
$DIMASZ
 40
3.0
  9
$DIMEXO
 40
1.5
  9
$DIMDLI
 40
10.0
  9
$DIMRND
 40
0.0
  9
$DIMDLE
 40
0.0
  9
$DIMEXE
 40
1.0
  9
$DIMTP
 40
0.0
  9
$DIMTM
 40
0.0
  9
$DIMTXT
 40
3.0
  9
$DIMCEN
 40
1.5
  9
$DIMTSZ
 40
0.0
  9
$DIMTOL
 70
     0
  9
$DIMLIM
 70
     0
  9
$DIMTIH
 70
     0
  9
$DIMTOH
 70
     0
  9
$DIMSE1
 70
     0
  9
$DIMSE2
 70
     0
  9
$DIMTAD
 70
     1
  9
$DIMZIN
 70
     8
  9
$DIMBLK
  1
Open
  9
$DIMASO
 70
     1
  9
$DIMSHO
 70
     1
  9
$DIMPOST
  1

  9
$DIMAPOST
  1

  9
$DIMALT
 70
     0
  9
$DIMALTD
 70
     3
  9
$DIMALTF
 40
0.03937007874016
  9
$DIMLFAC
 40
1.0
  9
$DIMTOFL
 70
     1
  9
$DIMTVP
 40
0.0
  9
$DIMTIX
 70
     0
  9
$DIMSOXD
 70
     0
  9
$DIMSAH
 70
     0
  9
$DIMBLK1
  1

  9
$DIMBLK2
  1

  9
$DIMSTYLE
  2
NEMY-10
  9
$DIMCLRD
 70
     0
  9
$DIMCLRE
 70
     0
  9
$DIMCLRT
 70
     0
  9
$DIMTFAC
 40
1.0
  9
$DIMGAP
 40
1.0
  9
$DIMJUST
 70
     0
  9
$DIMSD1
 70
     0
  9
$DIMSD2
 70
     0
  9
$DIMTOLJ
 70
     0
  9
$DIMTZIN
 70
     8
  9
$DIMALTZ
 70
     0
  9
$DIMALTTZ
 70
     0
  9
$DIMUPT
 70
     0
  9
$DIMDEC
 70
     1
  9
$DIMTDEC
 70
     1
  9
$DIMALTU
 70
     2
  9
$DIMALTTD
 70
     3
  9
$DIMTXSTY
  7
Standard
  9
$DIMAUNIT
 70
     0
  9
$DIMADEC
 70
     0
  9
$DIMALTRND
 40
0.0
  9
$DIMAZIN
 70
     0
  9
$DIMDSEP
 70
    46
  9
$DIMATFIT
 70
     3
  9
$DIMFRAC
 70
     0
  9
$DIMLDRBLK
  1
Open
  9
$DIMLUNIT
 70
     2
  9
$DIMLWD
 70
    -2
  9
$DIMLWE
 70
    -2
  9
$DIMTMOVE
 70
     0
  9
$LUNITS
 70
     2
  9
$LUPREC
 70
     4
  9
$SKETCHINC
 40
1.0
  9
$FILLETRAD
 40
0.0
  9
$AUNITS
 70
     0
  9
$AUPREC
 70
     0
  9
$MENU
  1
.
  9
$ELEVATION
 40
0.0
  9
$PELEVATION
 40
0.0
  9
$THICKNESS
 40
0.0
  9
$LIMCHECK
 70
     0
  9
$CHAMFERA
 40
0.0
  9
$CHAMFERB
 40
0.0
  9
$CHAMFERC
 40
20.0
  9
$CHAMFERD
 40
0.0
  9
$SKPOLY
 70
     0
  9
$TDCREATE
 40
2455859.405048461
  9
$TDUCREATE
 40
2455859.030048461
  9
$TDUPDATE
 40
2460096.611164583
  9
$TDUUPDATE
 40
2460096.236164583
  9
$TDINDWG
 40
2.2620003472
  9
$TDUSRTIMER
 40
0.0007114699
  9
$USRTIMER
 70
     1
  9
$ANGBASE
 50
0.0
  9
$ANGDIR
 70
     0
  9
$PDMODE
 70
     0
  9
$PDSIZE
 40
0.0
  9
$PLINEWID
 40
0.0
  9
$SPLFRAME
 70
     0
  9
$SPLINETYPE
 70
     6
  9
$SPLINESEGS
 70
     8
  9
$HANDSEED
  5
2263C
  9
$SURFTAB1
 70
     6
  9
$SURFTAB2
 70
     6
  9
$SURFTYPE
 70
     6
  9
$SURFU
 70
     6
  9
$SURFV
 70
     6
  9
$UCSBASE
  2

  9
$UCSNAME
  2

  9
$UCSORG
 10
0.0
 20
0.0
 30
0.0
  9
$UCSXDIR
 10
1.0
 20
0.0
 30
0.0
  9
$UCSYDIR
 10
0.0
 20
1.0
 30
0.0
  9
$UCSORTHOREF
  2

  9
$UCSORTHOVIEW
 70
     0
  9
$UCSORGTOP
 10
0.0
 20
0.0
 30
0.0
  9
$UCSORGBOTTOM
 10
0.0
 20
0.0
 30
0.0
  9
$UCSORGLEFT
 10
0.0
 20
0.0
 30
0.0
  9
$UCSORGRIGHT
 10
0.0
 20
0.0
 30
0.0
  9
$UCSORGFRONT
 10
0.0
 20
0.0
 30
0.0
  9
$UCSORGBACK
 10
0.0
 20
0.0
 30
0.0
  9
$PUCSBASE
  2

  9
$PUCSNAME
  2

  9
$PUCSORG
 10
0.0
 20
0.0
 30
0.0
  9
$PUCSXDIR
 10
1.0
 20
0.0
 30
0.0
  9
$PUCSYDIR
 10
0.0
 20
1.0
 30
0.0
  9
$PUCSORTHOREF
  2

  9
$PUCSORTHOVIEW
 70
     0
  9
$PUCSORGTOP
 10
0.0
 20
0.0
 30
0.0
  9
$PUCSORGBOTTOM
 10
0.0
 20
0.0
 30
0.0
  9
$PUCSORGLEFT
 10
0.0
 20
0.0
 30
0.0
  9
$PUCSORGRIGHT
 10
0.0
 20
0.0
 30
0.0
  9
$PUCSORGFRONT
 10
0.0
 20
0.0
 30
0.0
  9
$PUCSORGBACK
 10
0.0
 20
0.0
 30
0.0
  9
$USERI1
 70
     0
  9
$USERI2
 70
     0
  9
$USERI3
 70
     0
  9
$USERI4
 70
     0
  9
$USERI5
 70
     0
  9
$USERR1
 40
0.0
  9
$USERR2
 40
0.0
  9
$USERR3
 40
0.0
  9
$USERR4
 40
0.0
  9
$USERR5
 40
0.0
  9
$WORLDVIEW
 70
     1
  9
$SHADEDGE
 70
     3
  9
$SHADEDIF
 70
    70
  9
$TILEMODE
 70
     1
  9
$MAXACTVP
 70
    64
  9
$PINSBASE
 10
0.0
 20
0.0
 30
0.0
  9
$PLIMCHECK
 70
     0
  9
$PEXTMIN
 10
1.000000000000000E+20
 20
1.000000000000000E+20
 30
1.000000000000000E+20
  9
$PEXTMAX
 10
-1.000000000000000E+20
 20
-1.000000000000000E+20
 30
-1.000000000000000E+20
  9
$PLIMMIN
 10
0.0
 20
0.0
  9
$PLIMMAX
 10
0.0
 20
0.0
  9
$UNITMODE
 70
     0
  9
$VISRETAIN
 70
     1
  9
$PLINEGEN
 70
     0
  9
$PSLTSCALE
 70
     1
  9
$TREEDEPTH
 70
  3020
  9
$CMLSTYLE
  2
Standard
  9
$CMLJUST
 70
     0
  9
$CMLSCALE
 40
20.0
  9
$PROXYGRAPHICS
 70
     1
  9
$MEASUREMENT
 70
     1
  9
$CELWEIGHT
370
    -1
  9
$ENDCAPS
280
     0
  9
$JOINSTYLE
280
     0
  9
$LWDISPLAY
290
     0
  9
$INSUNITS
 70
     4
  9
$HYPERLINKBASE
  1

  9
$STYLESHEET
  1
monochrome.ctb
  9
$XEDIT
290
     1
  9
$CEPSNTYPE
380
     0
  9
$PSTYLEMODE
290
     1
  9
$FINGERPRINTGUID
  2
{FDEAD578-A652-11D2-9A35-0060089B3A3F}
  9
$VERSIONGUID
  2
{FF53CD4B-1AF9-4F2F-ABC0-CA7DF949A403}
  9
$EXTNAMES
290
     1
  9
$PSVPSCALE
 40
0.0
  9
$OLESTARTUP
290
     0
  0
ENDSEC
  0
SECTION
  2
CLASSES
  0
CLASS
  1
ACDBDICTIONARYWDFLT
  2
AcDbDictionaryWithDefault
  3
ObjectDBX Classes
 90
        0
280
     0
281
     0
  0
CLASS
  1
ACDBPLACEHOLDER
  2
AcDbPlaceHolder
  3
ObjectDBX Classes
 90
        0
280
     0
281
     0
  0
CLASS
  1
LAYOUT
  2
AcDbLayout
  3
ObjectDBX Classes
 90
        0
280
     0
281
     0
  0
CLASS
  1
DICTIONARYVAR
  2
AcDbDictionaryVar
  3
ObjectDBX Classes
 90
        0
280
     0
281
     0
  0
CLASS
  1
SCALE
  2
AcDbScale
  3
ObjectDBX Classes
 90
     1153
280
     0
281
     0
  0
CLASS
  1
MATERIAL
  2
AcDbMaterial
  3
ObjectDBX Classes
 90
     1153
280
     0
281
     0
  0
CLASS
  1
VISUALSTYLE
  2
AcDbVisualStyle
  3
ObjectDBX Classes
 90
     4095
280
     0
281
     0
  0
CLASS
  1
TABLESTYLE
  2
AcDbTableStyle
  3
ObjectDBX Classes
 90
     4095
280
     0
281
     0
  0
CLASS
  1
RASTERVARIABLES
  2
AcDbRasterVariables
  3
ISM
 90
        0
280
     0
281
     0
  0
CLASS
  1
AEC_VARS_DWG_SETUP
  2
AecDbVarsDwgSetup
  3
AecBase60
 90
      129
280
     0
281
     0
  0
CLASS
  1
AEC_DISP_REP_2D_SECTION
  2
AecDbDispRep2dSection
  3
AecBase60
 90
      129
280
     0
281
     0
  0
CLASS
  1
AEC_DISP_PROPS_2D_SECTION
  2
AecDbDispProps2dSection
  3
AecBase60
 90
      129
280
     0
281
     0
  0
CLASS
  1
AEC_DISP_REP_CLIP_VOLUME_MODEL
  2
AecDbDispRepClipVolModel
  3
AecBase60
 90
      129
280
     0
281
     0
  0
CLASS
  1
AEC_DISP_PROPS_CLIP_VOLUME
  2
AecDbDispPropsClipVol
  3
AecBase60
 90
      129
280
     0
281
     0
  0
CLASS
  1
AEC_DISP_REP_CLIP_VOLUME_PLAN
  2
AecDbDispRepClipVolPlan
  3
AecBase60
 90
      129
280
     0
281
     0
  0
CLASS
  1
AEC_DISP_REP_CLIP_VOLUME_RESULT
  2
AecDbDispRepClipVolResult
  3
AecBase60
 90
      129
280
     0
281
     0
  0
CLASS
  1
AEC_DISP_REP_CLIP_VOLUME_RESULT_SUBDIV
  2
AecDbDispRepClipVolResSubDiv
  3
AecBase60
 90
      129
280
     0
281
     0
  0
CLASS
  1
AEC_DISP_PROPS_CLIP_VOLUME_RESULT
  2
AecDbDispPropsClipVolResSubDiv
  3
AecBase60
 90
      129
280
     0
281
     0
  0
CLASS
  1
AEC_DISP_REP_DISPLAYTHEME
  2
AecDbDispRepDisplayTheme
  3
AecBase60
 90
      129
280
     0
281
     0
  0
CLASS
  1
AEC_DISP_PROPS_DISPLAYTHEME
  2
AecDbDispPropsDisplayTheme
  3
AecBase60
 90
      129
280
     0
281
     0
  0
CLASS
  1
AEC_DISP_REP_ENT_REF
  2
AecDbDispRepEntRef
  3
AecBase60
 90
      129
280
     0
281
     0
  0
CLASS
  1
AEC_DISP_PROPS_ENT_REF
  2
AecDbDispPropsEntRef
  3
AecBase60
 90
      129
280
     0
281
     0
  0
CLASS
  1
AEC_DISP_REP_LAYOUT_CURVE
  2
AecDbDispRepLayoutCurve
  3
AecBase60
 90
      129
280
     0
281
     0
  0
CLASS
  1
AEC_DISP_PROPS_LAYOUT_CURVE
  2
AecDbDispPropsLayoutCurve
  3
AecBase60
 90
      129
280
     0
281
     0
  0
CLASS
  1
AEC_DISP_REP_LAYOUT_GRID2D
  2
AecDbDispRepLayoutGrid2d
  3
AecBase60
 90
      129
280
     0
281
     0
  0
CLASS
  1
AEC_DISP_PROPS_LAYOUT_GRID2D
  2
AecDbDispPropsLayoutGrid2d
  3
AecBase60
 90
      129
280
     0
281
     0
  0
CLASS
  1
AEC_DISP_REP_LAYOUT_GRID3D
  2
AecDbDispRepLayoutGrid3d
  3
AecBase60
 90
      129
280
     0
281
     0
  0
CLASS
  1
AEC_DISP_PROPS_LAYOUT_GRID3D
  2
AecDbDispPropsLayoutGrid3d
  3
AecBase60
 90
      129
280
     0
281
     0
  0
CLASS
  1
AEC_DISP_REP_MASKBLOCK_REF
  2
AecDbDispRepMaskBlockRef
  3
AecBase60
 90
      129
280
     0
281
     0
  0
CLASS
  1
AEC_DISP_PROPS_MASKBLOCK
  2
AecDbDispPropsMaskBlock
  3
AecBase60
 90
      129
280
     0
281
     0
  0
CLASS
  1
AEC_DISP_REP_MASKBLOCK_REF_RCP
  2
AecDbDispRepMaskBlockRefRcp
  3
AecArchBase60
 90
      129
280
     0
281
     0
  0
CLASS
  1
AEC_DISP_REP_MASS_ELEM_MODEL
  2
AecDbDispRepMassElemModel
  3
AecBase60
 90
      129
280
     0
281
     0
  0
CLASS
  1
AEC_DISP_PROPS_MASS_ELEM_MODEL
  2
AecDbDispPropsMassElem
  3
AecBase60
 90
      129
280
     0
281
     0
  0
CLASS
  1
AEC_DISP_REP_MASS_ELEM_SCHEM
  2
AecDbDispRepMassElemSchem
  3
AecBase60
 90
      129
280
     0
281
     0
  0
CLASS
  1
AEC_DISPREPAECDBDISPREPMASSELEMPLAN50
  2
AecDbDispRepMassElemPlan50
  3
AecArchDACHBase60
 90
      129
280
     0
281
     0
  0
CLASS
  1
AEC_DISPROPSMASSELEMPLANCOMMON
  2
AecDbDispPropsMassElemPlanCommon
  3
AecArchDACHBase60
 90
      129
280
     0
281
     0
  0
CLASS
  1
AEC_DISPREPAECDBDISPREPMASSELEMPLAN100
  2
AecDbDispRepMassElemPlan100
  3
AecArchDACHBase60
 90
      129
280
     0
281
     0
  0
CLASS
  1
AEC_DISP_REP_MASS_ELEM_RCP
  2
AecDbDispRepMassElemRcp
  3
AecArchBase60
 90
      129
280
     0
281
     0
  0
CLASS
  1
AEC_DISP_REP_MASS_GROUP_MODEL
  2
AecDbDispRepMassGroupModel
  3
AecBase60
 90
      129
280
     0
281
     0
  0
CLASS
  1
AEC_DISP_PROPS_MASS_GROUP
  2
AecDbDispPropsMassGroup
  3
AecBase60
 90
      129
280
     0
281
     0
  0
CLASS
  1
AEC_DISP_REP_MASS_GROUP_PLAN
  2
AecDbDispRepMassGroupPlan
  3
AecBase60
 90
      129
280
     0
281
     0
  0
CLASS
  1
AEC_DISPREPAECDBDISPREPMASSGROUPPLAN50
  2
AecDbDispRepMassGroupPlan50
  3
AecArchDACHBase60
 90
      129
280
     0
281
     0
  0
CLASS
  1
AEC_DISPROPSMASSGROUPPLANCOMMON
  2
AecDbDispPropsMassGroupPlanCommon
  3
AecArchDACHBase60
 90
      129
280
     0
281
     0
  0
CLASS
  1
AEC_DISPREPAECDBDISPREPMASSGROUPPLAN100
  2
AecDbDispRepMassGroupPlan100
  3
AecArchDACHBase60
 90
      129
280
     0
281
     0
  0
CLASS
  1
AEC_DISP_REP_MASS_GROUP_RCP
  2
AecDbDispRepMassGroupRcp
  3
AecArchBase60
 90
      129
280
     0
281
     0
  0
CLASS
  1
AEC_DISP_REP_MVBLOCK_REF
  2
AecDbDispRepMvBlockRef
  3
AecBase60
 90
      129
280
     0
281
     0
  0
CLASS
  1
AEC_DISP_REP_MVBLOCK_REF_MODEL
  2
AecDbDispRepMvBlockRefModel
  3
AecBase60
 90
      129
280
     0
281
     0
  0
CLASS
  1
AEC_AECDBDISPREPMVBLOCKREFPLAN100
  2
AecDbDispRepMvBlockRefPlan100
  3
AecBase60
 90
      129
280
     0
281
     0
  0
CLASS
  1
AEC_AECDBDISPREPMVBLOCKREFPLAN50
  2
AecDbDispRepMvBlockRefPlan50
  3
AecBase60
 90
      129
280
     0
281
     0
  0
CLASS
  1
AEC_DISP_REP_POLYGON_MODEL
  2
AecDbDispRepPolygonModel
  3
AecBase60
 90
      129
280
     0
281
     0
  0
CLASS
  1
AEC_DISP_PROPS_POLYGON_MODEL
  2
AecDbDispPropsPolygonModel
  3
AecBase60
 90
      129
280
     0
281
     0
  0
CLASS
  1
AEC_DISP_REP_POLYGON_TRUECOLOUR
  2
AecDbDispRepPolygonTrueColour
  3
AecBase60
 90
      129
280
     0
281
     0
  0
CLASS
  1
AEC_DISP_PROPS_POLYGON_TRUECOLOUR
  2
AecDbDispPropsPolygonTrueColour
  3
AecBase60
 90
      129
280
     0
281
     0
  0
CLASS
  1
AEC_DISP_REP_SLICE
  2
AecDbDispRepSlice
  3
AecBase60
 90
      129
280
     0
281
     0
  0
CLASS
  1
AEC_DISP_PROPS_SLICE
  2
AecDbDispPropsSlice
  3
AecBase60
 90
      129
280
     0
281
     0
  0
CLASS
  1
AEC_DISP_REP_ANCHOR
  2
AecDbDispRepAnchor
  3
AecBase60
 90
      129
280
     0
281
     0
  0
CLASS
  1
AEC_DISP_REP_ANCHOR_ENT_TO_NODE
  2
AecDbDispRepAnchorEntToNode
  3
AecBase60
 90
      129
280
     0
281
     0
  0
CLASS
  1
AEC_DISP_PROPS_ENT
  2
AecDbDispPropsEnt
  3
AecBase60
 90
      129
280
     0
281
     0
  0
CLASS
  1
AEC_DISP_REP_MATERIAL
  2
AecDbDispRepMaterial
  3
AecBase60
 90
      129
280
     0
281
     0
  0
CLASS
  1
AEC_DISP_PROPS_MATERIAL
  2
AecDbDispPropsMaterial
  3
AecBase60
 90
      129
280
     0
281
     0
  0
CLASS
  1
AEC_DISP_REP_EDITINPLACEPROFILE
  2
AecDbDispRepEditInPlaceProfile
  3
AecBase60
 90
      129
280
     0
281
     0
  0
CLASS
  1
AEC_DISP_PROPS_EDITINPLACEPROFILE_MODEL
  2
AecDbDispPropsEditInPlaceProfile
  3
AecBase60
 90
      129
280
     0
281
     0
  0
CLASS
  1
SUN
  2
AcDbSun
  3
SCENEOE
 90
     1153
280
     0
281
     0
  0
CLASS
  1
SORTENTSTABLE
  2
AcDbSortentsTable
  3
ObjectDBX Classes
 90
        0
280
     0
281
     0
  0
CLASS
  1
MLEADERSTYLE
  2
AcDbMLeaderStyle
  3
ACDB_MLEADERSTYLE_CLASS
 90
     4095
280
     0
281
     0
  0
ENDSEC
  0
SECTION
  2
TABLES
  0
TABLE
  2
VPORT
  5
8
330
0
100
AcDbSymbolTable
 70
     1
  0
VPORT
  5
A2A1
330
8
100
AcDbSymbolTableRecord
100
AcDbViewportTableRecord
  2
*Active
 70
     0
 10
0.0
 20
0.0
 11
1.0
 21
1.0
 12
1461.881020030589
 22
3443.812856778331
 13
0.0
 23
0.0
 14
10.0
 24
10.0
 15
10.0
 25
10.0
 16
0.0
 26
0.0
 36
1.0
 17
1964.929891105101
 27
911.4954656945765
 37
0.0
 40
3941.175736562605
 41
1.718120805369127
 42
50.0
 43
0.0
 44
0.0
 50
0.0
 51
0.0
 71
    16
 72
   100
 73
     1
 74
     2
 75
     0
 76
     0
 77
     0
 78
     0
281
     0
 65
     1
110
0.0
120
0.0
130
0.0
111
1.0
121
0.0
131
0.0
112
0.0
122
1.0
132
0.0
 79
     0
146
0.0
  0
ENDTAB
  0
TABLE
  2
LTYPE
  5
5
330
0
100
AcDbSymbolTable
 70
     7
  0
LTYPE
  5
14
330
5
100
AcDbSymbolTableRecord
100
AcDbLinetypeTableRecord
  2
ByBlock
 70
     0
  3

 72
    65
 73
     0
 40
0.0
  0
LTYPE
  5
15
330
5
100
AcDbSymbolTableRecord
100
AcDbLinetypeTableRecord
  2
ByLayer
 70
     0
  3
Solid line
 72
    65
 73
     0
 40
0.0
  0
LTYPE
  5
16
330
5
100
AcDbSymbolTableRecord
100
AcDbLinetypeTableRecord
  2
Continuous
 70
     0
  3
Solid line
 72
    65
 73
     0
 40
0.0
  0
LTYPE
  5
BA
330
5
100
AcDbSymbolTableRecord
100
AcDbLinetypeTableRecord
  2
HIDDEN
 70
     0
  3
Hidden __ __ __ __ __ __ __ __ __ __ __ __ __ _
 72
    65
 73
     2
 40
9.524999999999999
 49
6.35
 74
     0
 49
-3.175
 74
     0
  0
LTYPE
  5
BB
330
5
100
AcDbSymbolTableRecord
100
AcDbLinetypeTableRecord
  2
PHANTOM
 70
     0
  3
Phantom ______  __  __  ______  __  __  ______
 72
    65
 73
     6
 40
63.5
 49
31.75
 74
     0
 49
-6.35
 74
     0
 49
6.35
 74
     0
 49
-6.35
 74
     0
 49
6.35
 74
     0
 49
-6.35
 74
     0
  0
LTYPE
  5
BC
330
5
100
AcDbSymbolTableRecord
100
AcDbLinetypeTableRecord
  2
CENTER
 70
     0
  3
Center ____ _ ____ _ ____ _ ____ _ ____ _ ____
 72
    65
 73
     4
 40
50.8
 49
31.75
 74
     0
 49
-6.35
 74
     0
 49
6.35
 74
     0
 49
-6.35
 74
     0
  0
LTYPE
  5
47C
330
5
100
AcDbSymbolTableRecord
100
AcDbLinetypeTableRecord
  2
DOT
 70
     0
  3
Dot . . . . . . . . . . . . . . . . . . . . . .
 72
    65
 73
     2
 40
6.35
 49
0.0
 74
     0
 49
-6.35
 74
     0
  0
LTYPE
  5
82C6
330
5
100
AcDbSymbolTableRecord
100
AcDbLinetypeTableRecord
  2
HIDDEN2
 70
     0
  3
Hidden (.5x) _ _ _ _ _ _ _ _ _ _ _ _ _ _ _ _ _
 72
    65
 73
     2
 40
4.762499999999999
 49
3.175
 74
     0
 49
-1.5875
 74
     0
  0
LTYPE
  5
C11D
330
5
100
AcDbSymbolTableRecord
100
AcDbLinetypeTableRecord
  2
DASHED
 70
     0
  3
__ __ __ __ __ __ __ __ __ __ __ __ __ __ __
 72
    65
 73
     2
 40
0.75
 49
0.5
 74
     0
 49
-0.25
 74
     0
  0
ENDTAB
  0
TABLE
  2
LAYER
  5
2
102
{ACAD_XDICTIONARY
360
7A6F
102
}
330
0
100
AcDbSymbolTable
 70
    11
  0
LAYER
  5
10
330
2
100
AcDbSymbolTableRecord
100
AcDbLayerTableRecord
  2
0
 70
     0
 62
     7
  6
Continuous
370
    -3
390
F
  0
LAYER
  5
45
330
2
100
AcDbSymbolTableRecord
100
AcDbLayerTableRecord
  2
01注記寸法
 70
     0
 62
     7
  6
Continuous
370
     9
390
F
  0
LAYER
  5
5F
330
2
100
AcDbSymbolTableRecord
100
AcDbLayerTableRecord
  2
Defpoints
 70
     0
 62
     7
  6
Continuous
290
     0
370
    -3
390
F
  0
LAYER
  5
82BC
330
2
100
AcDbSymbolTableRecord
100
AcDbLayerTableRecord
  2
02製品
 70
     0
 62
     2
  6
Continuous
370
    15
390
F
  0
LAYER
  5
82BD
330
2
100
AcDbSymbolTableRecord
100
AcDbLayerTableRecord
  2
03境界
 70
     0
 62
     3
  6
HIDDEN
370
     9
390
F
  0
LAYER
  5
82BF
330
2
100
AcDbSymbolTableRecord
100
AcDbLayerTableRecord
  2
04筺体
 70
     0
 62
     6
  6
Continuous
370
     9
390
F
  0
LAYER
  5
82C0
330
2
100
AcDbSymbolTableRecord
100
AcDbLayerTableRecord
  2
05GL
 70
     0
 62
     2
  6
Continuous
370
     9
390
F
  0
LAYER
  5
82C1
330
2
100
AcDbSymbolTableRecord
100
AcDbLayerTableRecord
  2
06非表示
 70
     0
 62
     4
  6
Continuous
290
     0
370
     0
390
F
  0
LAYER
  5
82C2
330
2
100
AcDbSymbolTableRecord
100
AcDbLayerTableRecord
  2
07図枠
 70
     0
 62
     1
  6
Continuous
370
    30
390
F
  0
LAYER
  5
147DF
330
2
100
AcDbSymbolTableRecord
100
AcDbLayerTableRecord
  2
99作図基準
 70
     0
 62
     2
  6
Continuous
290
     0
370
     9
390
F
1001
AcAecLayerStandard
1000

1000

  0
LAYER
  5
15088
330
2
100
AcDbSymbolTableRecord
100
AcDbLayerTableRecord
  2
1　製品
 70
     0
 62
     2
  6
Continuous
370
    15
390
F
  0
ENDTAB
  0
TABLE
  2
STYLE
  5
3
330
0
100
AcDbSymbolTable
 70
     5
  0
STYLE
  5
11
330
3
100
AcDbSymbolTableRecord
100
AcDbTextStyleTableRecord
  2
Standard
 70
     0
 40
0.0
 41
1.0
 50
0.0
 71
     0
 42
3.0
  3
MS Gothic.ttf
  4

1001
ACAD
1000
MS Gothic
1071
    32817
  0
STYLE
  5
19E
330
3
100
AcDbSymbolTableRecord
100
AcDbTextStyleTableRecord
  2
STYLE1
 70
     0
 40
0.0
 41
0.9
 50
0.0
 71
     0
 42
28.125
  3
TXT.shx
  4
extfont.shx
  0
STYLE
  5
47B
330
3
100
AcDbSymbolTableRecord
100
AcDbTextStyleTableRecord
  2

 70
     1
 40
0.0
 41
1.0
 50
0.0
 71
     0
 42
3.0
  3
ltypeshp.shx
  4

  0
STYLE
  5
C96B
330
3
100
AcDbSymbolTableRecord
100
AcDbTextStyleTableRecord
  2
Standard-tate
 70
     0
 40
0.0
 41
1.0
 50
0.0
 71
     0
 42
3.0
  3
@MS PGothic.ttf
  4

1001
ACAD
1000
@MS PGothic
1071
    32818
  0
STYLE
  5
1EE35
330
3
100
AcDbSymbolTableRecord
100
AcDbTextStyleTableRecord
  2
SLDTEXTSTYLE1
 70
     0
 40
0.0
 41
0.7
 50
0.0
 71
     0
 42
3.0
  3
TXT
  4
bigfont
  0
ENDTAB
  0
TABLE
  2
VIEW
  5
6
330
0
100
AcDbSymbolTable
 70
     3
  0
VIEW
  5
21D9F
102
{ACAD_XDICTIONARY
360
21DA0
102
}
330
6
100
AcDbSymbolTableRecord
100
AcDbViewTableRecord
  2
2-HTA080T-E1
 70
     0
 40
2376.0
 10
1616.48472174633
 20
1352.195487784949
 41
3360.0
 11
0.0
 21
0.0
 31
1.0
 12
0.0
 22
0.0
 32
0.0
 42
50.0
 43
0.0
 44
0.0
 50
0.0
 71
    16
281
     0
 72
     0
  0
VIEW
  5
21DA3
102
{ACAD_XDICTIONARY
360
21DA4
102
}
330
6
100
AcDbSymbolTableRecord
100
AcDbViewTableRecord
  2
2-HTA080-E2
 70
     0
 40
2376.0
 10
1616.48472174633
 20
4288.195487784949
 41
3360.0
 11
0.0
 21
0.0
 31
1.0
 12
0.0
 22
0.0
 32
0.0
 42
50.0
 43
0.0
 44
0.0
 50
0.0
 71
    16
281
     0
 72
     0
  0
VIEW
  5
21DA7
102
{ACAD_XDICTIONARY
360
21DA8
102
}
330
6
100
AcDbSymbolTableRecord
100
AcDbViewTableRecord
  2
2-HTA080T-K
 70
     0
 40
2376.0
 10
1616.48472174633
 20
-1583.804512215052
 41
3360.0
 11
0.0
 21
0.0
 31
1.0
 12
0.0
 22
0.0
 32
0.0
 42
50.0
 43
0.0
 44
0.0
 50
0.0
 71
    16
281
     0
 72
     0
  0
ENDTAB
  0
TABLE
  2
UCS
  5
7
330
0
100
AcDbSymbolTable
 70
     0
  0
ENDTAB
  0
TABLE
  2
APPID
  5
9
330
0
100
AcDbSymbolTable
 70
    15
  0
APPID
  5
12
330
9
100
AcDbSymbolTableRecord
100
AcDbRegAppTableRecord
  2
ACAD
 70
     0
  0
APPID
  5
6A9E
330
9
100
AcDbSymbolTableRecord
100
AcDbRegAppTableRecord
  2
ACAD_DSTYLE_DIMRADIAL_EXTENSION
 70
     0
  0
APPID
  5
742C
330
9
100
AcDbSymbolTableRecord
100
AcDbRegAppTableRecord
  2
ACAD_PSEXT
 70
     0
  0
APPID
  5
742D
330
9
100
AcDbSymbolTableRecord
100
AcDbRegAppTableRecord
  2
ACAD_DSTYLE_DIMJAG
 70
     0
  0
APPID
  5
742E
330
9
100
AcDbSymbolTableRecord
100
AcDbRegAppTableRecord
  2
ACAD_DSTYLE_DIMTALN
 70
     0
  0
APPID
  5
8254
330
9
100
AcDbSymbolTableRecord
100
AcDbRegAppTableRecord
  2
AECBASE
 70
     0
  0
APPID
  5
8255
330
9
100
AcDbSymbolTableRecord
100
AcDbRegAppTableRecord
  2
AEC_2DSECTION_XDATA
 70
     0
  0
APPID
  5
8256
330
9
100
AcDbSymbolTableRecord
100
AcDbRegAppTableRecord
  2
AEC_MASSGROUP_XDADA
 70
     0
  0
APPID
  5
B0E5
330
9
100
AcDbSymbolTableRecord
100
AcDbRegAppTableRecord
  2
PE_DIMMEASUREMENT
 70
     0
  0
APPID
  5
147E0
330
9
100
AcDbSymbolTableRecord
100
AcDbRegAppTableRecord
  2
AcAecLayerStandard
 70
     0
  0
APPID
  5
15094
330
9
100
AcDbSymbolTableRecord
100
AcDbRegAppTableRecord
  2
PLOTTRANSPARENCY
 70
     0
  0
APPID
  5
185A3
330
9
100
AcDbSymbolTableRecord
100
AcDbRegAppTableRecord
  2
PE_URL
 70
     0
  0
APPID
  5
1870F
330
9
100
AcDbSymbolTableRecord
100
AcDbRegAppTableRecord
  2
AcadAnnotative
 70
     0
  0
APPID
  5
1D917
330
9
100
AcDbSymbolTableRecord
100
AcDbRegAppTableRecord
  2
HATCHBACKGROUNDCOLOR
 70
     0
  0
APPID
  5
1EE43
330
9
100
AcDbSymbolTableRecord
100
AcDbRegAppTableRecord
  2
ACAD_DSTYLE_DIMBREAK
 70
     0
  0
ENDTAB
  0
TABLE
  2
DIMSTYLE
  5
A
330
0
100
AcDbSymbolTable
 70
    29
100
AcDbDimStyleTable
  0
DIMSTYLE
105
73
330
A
100
AcDbSymbolTableRecord
100
AcDbDimStyleTableRecord
  2
NEMY-1
 70
     0
 41
3.0
 42
1.5
 43
10.0
 44
1.0
 73
     0
 74
     0
 77
     1
 78
     8
140
3.0
141
1.5
143
0.03937007874016
147
1.0
171
     3
172
     1
178
     0
271
     1
272
     1
274
     3
283
     0
284
     8
340
11
341
8F
342
8F
  0
DIMSTYLE
105
4DCE
330
A
100
AcDbSymbolTableRecord
100
AcDbDimStyleTableRecord
  2
NEMY-2
 70
     0
 40
2.0
 41
3.0
 42
1.5
 43
10.0
 44
1.0
 73
     0
 74
     0
 77
     1
 78
     8
140
3.0
141
1.5
143
0.03937007874016
147
1.0
171
     3
172
     1
178
     0
271
     1
272
     1
274
     3
283
     0
284
     8
340
11
341
8F
342
8F
  0
DIMSTYLE
105
4DCF
330
A
100
AcDbSymbolTableRecord
100
AcDbDimStyleTableRecord
  2
NEMY-3
 70
     0
 40
3.0
 41
3.0
 42
1.5
 43
10.0
 44
1.0
 73
     0
 74
     0
 77
     1
 78
     8
140
3.0
141
1.5
143
0.03937007874016
147
1.0
171
     3
172
     1
178
     0
271
     1
272
     1
274
     3
283
     0
284
     8
340
11
341
8F
342
8F
  0
DIMSTYLE
105
4DD0
330
A
100
AcDbSymbolTableRecord
100
AcDbDimStyleTableRecord
  2
NEMY-5
 70
     0
 40
5.0
 41
3.0
 42
1.5
 43
10.0
 44
1.0
 73
     0
 74
     0
 77
     1
 78
     8
140
3.0
141
1.5
143
0.03937007874016
147
1.0
171
     3
172
     1
178
     0
271
     1
272
     1
274
     3
283
     0
284
     8
340
11
341
8F
342
8F
  0
DIMSTYLE
105
4DD1
330
A
100
AcDbSymbolTableRecord
100
AcDbDimStyleTableRecord
  2
NEMY-8
 70
     0
 40
8.0
 41
3.0
 42
1.5
 43
10.0
 44
1.0
 73
     0
 74
     0
 77
     1
 78
     8
140
3.0
141
1.5
143
0.03937007874016
147
1.0
171
     3
172
     1
178
     0
271
     1
272
     1
274
     3
283
     0
284
     8
340
11
341
8F
342
8F
  0
DIMSTYLE
105
4DD2
330
A
100
AcDbSymbolTableRecord
100
AcDbDimStyleTableRecord
  2
NEMY-15
 70
     0
 40
15.0
 41
3.0
 42
1.5
 43
10.0
 44
1.0
 73
     0
 74
     0
 77
     1
 78
     8
140
3.0
141
1.5
143
0.03937007874016
147
1.0
171
     3
172
     1
178
     0
271
     1
272
     1
274
     3
283
     0
284
     8
340
11
341
8F
342
8F
  0
DIMSTYLE
105
4DD3
330
A
100
AcDbSymbolTableRecord
100
AcDbDimStyleTableRecord
  2
NEMY-10
 70
     0
 40
10.0
 41
3.0
 42
1.5
 43
10.0
 44
1.0
 73
     0
 74
     0
 77
     1
 78
     8
140
3.0
141
1.5
143
0.03937007874016
147
1.0
171
     3
172
     1
178
     0
271
     1
272
     1
274
     3
283
     0
284
     8
340
11
341
8F
342
8F
  0
DIMSTYLE
105
4DD4
330
A
100
AcDbSymbolTableRecord
100
AcDbDimStyleTableRecord
  2
NEMY-25
 70
     0
 40
25.0
 41
3.0
 42
1.5
 43
10.0
 44
1.0
 73
     0
 74
     0
 77
     1
 78
     8
140
3.0
141
1.5
143
0.03937007874016
147
1.0
171
     3
172
     1
178
     0
271
     1
272
     1
274
     3
283
     0
284
     8
340
11
341
8F
342
8F
  0
DIMSTYLE
105
4DD5
330
A
100
AcDbSymbolTableRecord
100
AcDbDimStyleTableRecord
  2
NEMY-30
 70
     0
 40
30.0
 41
3.0
 42
1.5
 43
10.0
 44
1.0
 73
     0
 74
     0
 77
     1
 78
     8
140
3.0
141
1.5
143
0.03937007874016
147
1.0
171
     3
172
     1
178
     0
271
     1
272
     1
274
     3
283
     0
284
     8
340
11
341
8F
342
8F
  0
DIMSTYLE
105
4DD6
330
A
100
AcDbSymbolTableRecord
100
AcDbDimStyleTableRecord
  2
NEMY-50
 70
     0
 40
50.0
 41
3.0
 42
1.5
 43
10.0
 44
1.0
 73
     0
 74
     0
 77
     1
 78
     8
140
3.0
141
1.5
143
0.03937007874016
147
1.0
171
     3
172
     1
178
     0
271
     1
272
     1
274
     3
283
     0
284
     8
340
11
341
8F
342
8F
  0
DIMSTYLE
105
4E6F
330
A
100
AcDbSymbolTableRecord
100
AcDbDimStyleTableRecord
  2
NEMY-20
 70
     0
 40
20.0
 41
3.0
 42
1.5
 43
10.0
 44
1.0
 73
     0
 74
     0
 77
     1
 78
     8
140
3.0
141
1.5
143
0.03937007874016
147
1.0
171
     3
172
     1
178
     0
271
     1
272
     1
274
     3
283
     0
284
     8
340
11
341
8F
342
8F
  0
DIMSTYLE
105
4F44
330
A
100
AcDbSymbolTableRecord
100
AcDbDimStyleTableRecord
  2
NEMY-10$3
 70
     0
  3
φ<>
 40
10.0
 41
3.0
 42
1.5
 43
10.0
 44
1.0
 77
     1
 78
     8
140
3.0
141
1.5
143
0.03937007874016
147
1.0
171
     3
172
     1
178
     0
271
     1
272
     1
274
     3
283
     0
284
     8
340
11
341
8F
342
8F
  0
DIMSTYLE
105
4F45
330
A
100
AcDbSymbolTableRecord
100
AcDbDimStyleTableRecord
  2
NEMY-1$3
 70
     0
  3
φ<>
 41
3.0
 42
1.5
 43
10.0
 44
1.0
 77
     1
 78
     8
140
3.0
141
1.5
143
0.03937007874016
147
1.0
171
     3
172
     1
178
     0
271
     1
272
     1
274
     3
283
     0
284
     8
340
11
341
8F
342
8F
  0
DIMSTYLE
105
4F46
330
A
100
AcDbSymbolTableRecord
100
AcDbDimStyleTableRecord
  2
NEMY-12
 70
     0
 40
12.0
 41
3.0
 42
1.5
 43
10.0
 44
1.0
 73
     0
 74
     0
 77
     1
 78
     8
140
3.0
141
1.5
143
0.03937007874016
147
1.0
171
     3
172
     1
178
     0
271
     1
272
     1
274
     3
283
     0
284
     8
340
11
341
8F
342
8F
  0
DIMSTYLE
105
4F47
330
A
100
AcDbSymbolTableRecord
100
AcDbDimStyleTableRecord
  2
NEMY-12$3
 70
     0
  3
φ<>
 40
12.0
 41
3.0
 42
1.5
 43
10.0
 44
1.0
 77
     1
 78
     8
140
3.0
141
1.5
143
0.03937007874016
147
1.0
171
     3
172
     1
178
     0
271
     1
272
     1
274
     3
283
     0
284
     8
340
11
341
8F
342
8F
  0
DIMSTYLE
105
5E6E
330
A
100
AcDbSymbolTableRecord
100
AcDbDimStyleTableRecord
  2
NEMY-8$3
 70
     0
  3
φ<>
 40
8.0
 41
3.0
 42
1.5
 43
10.0
 44
1.0
 77
     1
 78
     8
140
3.0
141
1.5
143
0.03937007874016
147
1.0
171
     3
172
     1
178
     0
271
     1
272
     1
274
     3
283
     0
284
     8
340
11
341
8F
342
8F
  0
DIMSTYLE
105
5E6F
330
A
100
AcDbSymbolTableRecord
100
AcDbDimStyleTableRecord
  2
NEMY-50$3
 70
     0
  3
φ<>
 40
50.0
 41
3.0
 42
1.5
 43
10.0
 44
1.0
 77
     1
 78
     8
140
3.0
141
1.5
143
0.03937007874016
147
1.0
171
     3
172
     1
178
     0
271
     1
272
     1
274
     3
283
     0
284
     8
340
11
341
8F
342
8F
  0
DIMSTYLE
105
5E70
330
A
100
AcDbSymbolTableRecord
100
AcDbDimStyleTableRecord
  2
NEMY-5$3
 70
     0
  3
φ<>
 40
5.0
 41
3.0
 42
1.5
 43
10.0
 44
1.0
 77
     1
 78
     8
140
3.0
141
1.5
143
0.03937007874016
147
1.0
171
     3
172
     1
178
     0
271
     1
272
     1
274
     3
283
     0
284
     8
340
11
341
8F
342
8F
  0
DIMSTYLE
105
5E71
330
A
100
AcDbSymbolTableRecord
100
AcDbDimStyleTableRecord
  2
NEMY-30$3
 70
     0
  3
φ<>
 40
30.0
 41
3.0
 42
1.5
 43
10.0
 44
1.0
 77
     1
 78
     8
140
3.0
141
1.5
143
0.03937007874016
147
1.0
171
     3
172
     1
178
     0
271
     1
272
     1
274
     3
283
     0
284
     8
340
11
341
8F
342
8F
  0
DIMSTYLE
105
5E72
330
A
100
AcDbSymbolTableRecord
100
AcDbDimStyleTableRecord
  2
NEMY-3$3
 70
     0
  3
φ<>
 40
3.0
 41
3.0
 42
1.5
 43
10.0
 44
1.0
 77
     1
 78
     8
140
3.0
141
1.5
143
0.03937007874016
147
1.0
171
     3
172
     1
178
     0
271
     1
272
     1
274
     3
283
     0
284
     8
340
11
341
8F
342
8F
  0
DIMSTYLE
105
5E73
330
A
100
AcDbSymbolTableRecord
100
AcDbDimStyleTableRecord
  2
NEMY-25$3
 70
     0
  3
φ<>
 40
25.0
 41
3.0
 42
1.5
 43
10.0
 44
1.0
 77
     1
 78
     8
140
3.0
141
1.5
143
0.03937007874016
147
1.0
171
     3
172
     1
178
     0
271
     1
272
     1
274
     3
283
     0
284
     8
340
11
341
8F
342
8F
  0
DIMSTYLE
105
5E74
330
A
100
AcDbSymbolTableRecord
100
AcDbDimStyleTableRecord
  2
NEMY-20$3
 70
     0
  3
φ<>
 40
20.0
 41
3.0
 42
1.5
 43
10.0
 44
1.0
 77
     1
 78
     8
140
3.0
141
1.5
143
0.03937007874016
147
1.0
171
     3
172
     1
178
     0
271
     1
272
     1
274
     3
283
     0
284
     8
340
11
341
8F
342
8F
  0
DIMSTYLE
105
5E75
330
A
100
AcDbSymbolTableRecord
100
AcDbDimStyleTableRecord
  2
NEMY-2$3
 70
     0
  3
φ<>
 40
2.0
 41
3.0
 42
1.5
 43
10.0
 44
1.0
 77
     1
 78
     8
140
3.0
141
1.5
143
0.03937007874016
147
1.0
171
     3
172
     1
178
     0
271
     1
272
     1
274
     3
283
     0
284
     8
340
11
341
8F
342
8F
  0
DIMSTYLE
105
5E76
330
A
100
AcDbSymbolTableRecord
100
AcDbDimStyleTableRecord
  2
NEMY-15$3
 70
     0
  3
φ<>
 40
15.0
 41
3.0
 42
1.5
 43
10.0
 44
1.0
 77
     1
 78
     8
140
3.0
141
1.5
143
0.03937007874016
147
1.0
171
     3
172
     1
178
     0
271
     1
272
     1
274
     3
283
     0
284
     8
340
11
341
8F
342
8F
  0
DIMSTYLE
105
1DDB9
330
A
100
AcDbSymbolTableRecord
100
AcDbDimStyleTableRecord
  2
ISO-25
 70
     0
 41
2.5
 42
0.625
 43
3.75
 44
1.25
 73
     0
 74
     0
 77
     1
 78
     8
140
2.5
141
2.5
143
0.03937007874016
147
0.625
171
     3
172
     1
178
     0
271
     2
272
     2
274
     3
278
    44
283
     0
284
     8
340
11
  0
DIMSTYLE
105
1EE34
330
A
100
AcDbSymbolTableRecord
100
AcDbDimStyleTableRecord
  2
SLDDIMSTYLE5
 70
     0
 41
3.0
 44
0.0
 45
0.000000001
 73
     0
 74
     0
 77
     1
 78
    12
 79
     3
140
3.5
144
10.0
147
0.875
173
     1
178
     0
271
     1
272
     1
276
     2
284
    12
340
1EE35
341
1EE36
343
1EE36
344
1EE36
  0
DIMSTYLE
105
1EE3C
330
A
100
AcDbSymbolTableRecord
100
AcDbDimStyleTableRecord
  2
STANDARD-WS-4
 70
     0
 40
2.828
 41
2.5
 42
2.0
 43
3.75
 44
1.25
 73
     0
 74
     0
 77
     1
 78
     8
140
3.75
141
2.5
147
1.5
172
     1
173
     1
176
   256
177
   256
271
     1
178
   256
271
     1
272
     1
284
     8
340
19E
341
8F
343
8F
344
8F
  0
DIMSTYLE
105
1EE3E
330
A
100
AcDbSymbolTableRecord
100
AcDbDimStyleTableRecord
  2
JCH_ISO
 70
     0
 41
3.0
 42
1.0
 43
10.0
 44
1.5
 48
0.000000001
 73
     0
 74
     0
 77
     1
 78
     8
 79
     2
140
3.2
141
0.0
147
1.0
172
     1
176
   256
177
   256
271
     2
178
   256
179
     2
271
     2
272
     2
283
     0
284
     8
340
11
341
1EE36
342
1EE36
371
    -1
372
    -1
1001
AcadAnnotative
1000
AnnotativeData
1002
{
1070
     1
1070
     1
1002
}
1001
ACAD_DSTYLE_DIMJAG
1070
   388
1040
1.5
1001
ACAD_DSTYLE_DIMTALN
1070
   392
1070
     0
  0
DIMSTYLE
105
1EE42
330
A
100
AcDbSymbolTableRecord
100
AcDbDimStyleTableRecord
  2
JCH_ISO$0
 70
     0
 41
3.0
 42
1.0
 43
10.0
 44
1.5
 48
0.000000001
 73
     0
 74
     0
 77
     1
 78
     8
 79
     2
140
3.2
141
0.0
147
1.0
172
     1
176
   256
177
   256
271
     2
178
   256
179
     2
271
     2
272
     2
283
     0
284
     8
340
11
341
1EE36
342
1EE36
371
    -1
372
    -1
1001
AcadAnnotative
1000
AnnotativeData
1002
{
1070
     1
1070
     1
1002
}
1001
ACAD_DSTYLE_DIMBREAK
1070
   391
1040
3.75
1001
ACAD_DSTYLE_DIMJAG
1070
   388
1040
1.5
1001
ACAD_DSTYLE_DIMTALN
1070
   392
1070
     0
  0
ENDTAB
  0
TABLE
  2
BLOCK_RECORD
  5
1
330
0
100
AcDbSymbolTable
 70
    22
  0
BLOCK_RECORD
  5
1F
102
{ACAD_XDICTIONARY
360
CBD6
102
}
330
1
100
AcDbSymbolTableRecord
100
AcDbBlockTableRecord
  2
*Model_Space
340
22
  0
BLOCK_RECORD
  5
1B
330
1
100
AcDbSymbolTableRecord
100
AcDbBlockTableRecord
  2
*Paper_Space
340
1E
  0
BLOCK_RECORD
  5
23
330
1
100
AcDbSymbolTableRecord
100
AcDbBlockTableRecord
  2
*Paper_Space0
340
26
  0
BLOCK_RECORD
  5
8F
330
1
100
AcDbSymbolTableRecord
100
AcDbBlockTableRecord
  2
_Open
340
0
102
{BLKREFS
331
225CA
331
225CB
331
225D6
331
225D7
331
225E2
331
225E3
331
225F3
331
225F4
331
225FF
331
22600
331
2260B
331
2260C
331
2261C
331
2261D
331
22628
331
22629
331
22634
331
22635
331
0
331
0
331
0
331
0
331
0
331
0
331
0
331
0
331
0
331
0
331
0
331
0
331
0
331
0
331
0
331
0
331
0
331
0
331
0
331
0
331
0
331
0
331
0
331
0
331
0
331
0
331
0
331
0
331
0
331
0
331
0
331
0
331
0
331
0
331
0
331
0
102
}
  0
BLOCK_RECORD
  5
B43D
330
1
100
AcDbSymbolTableRecord
100
AcDbBlockTableRecord
  2
A$C19699
340
0
102
{BLKREFS
331
0
331
0
331
0
102
}
  0
BLOCK_RECORD
  5
CE00
330
1
100
AcDbSymbolTableRecord
100
AcDbBlockTableRecord
  2
A$C19363
340
0
102
{BLKREFS
331
0
102
}
  0
BLOCK_RECORD
  5
D149
102
{ACAD_XDICTIONARY
360
D175
102
}
330
1
100
AcDbSymbolTableRecord
100
AcDbBlockTableRecord
  2
A$C25499
340
0
102
{BLKREFS
331
0
331
0
331
0
102
}
  0
BLOCK_RECORD
  5
D215
102
{ACAD_XDICTIONARY
360
D241
102
}
330
1
100
AcDbSymbolTableRecord
100
AcDbBlockTableRecord
  2
A$C19273
340
0
102
{BLKREFS
331
0
331
0
331
0
102
}
  0
BLOCK_RECORD
  5
D24A
102
{ACAD_XDICTIONARY
360
D276
102
}
330
1
100
AcDbSymbolTableRecord
100
AcDbBlockTableRecord
  2
A$C16659
340
0
102
{BLKREFS
331
0
331
0
331
0
102
}
  0
BLOCK_RECORD
  5
D2D1
102
{ACAD_XDICTIONARY
360
D2FD
102
}
330
1
100
AcDbSymbolTableRecord
100
AcDbBlockTableRecord
  2
A$C1222
340
0
102
{BLKREFS
331
0
331
0
331
0
102
}
  0
BLOCK_RECORD
  5
D306
102
{ACAD_XDICTIONARY
360
D332
102
}
330
1
100
AcDbSymbolTableRecord
100
AcDbBlockTableRecord
  2
A$C10
340
0
102
{BLKREFS
331
0
331
0
331
0
102
}
  0
BLOCK_RECORD
  5
D340
102
{ACAD_XDICTIONARY
360
D36C
102
}
330
1
100
AcDbSymbolTableRecord
100
AcDbBlockTableRecord
  2
A$C12729
340
0
102
{BLKREFS
331
0
331
0
331
0
102
}
  0
BLOCK_RECORD
  5
1EE36
330
1
100
AcDbSymbolTableRecord
100
AcDbBlockTableRecord
  2
_OPEN30
340
0
  0
BLOCK_RECORD
  5
21A22
102
{ACAD_XDICTIONARY
360
21A42
102
}
330
1
100
AcDbSymbolTableRecord
100
AcDbBlockTableRecord
  2
A$C2706
340
0
102
{BLKREFS
331
225BF
331
0
331
0
102
}
  0
BLOCK_RECORD
  5
21C24
102
{ACAD_XDICTIONARY
360
21C44
102
}
330
1
100
AcDbSymbolTableRecord
100
AcDbBlockTableRecord
  2
A$C14466
340
0
102
{BLKREFS
331
225C0
331
0
331
0
102
}
  0
BLOCK_RECORD
  5
225C4
330
1
100
AcDbSymbolTableRecord
100
AcDbBlockTableRecord
  2
*D682
340
0
  0
BLOCK_RECORD
  5
225D0
330
1
100
AcDbSymbolTableRecord
100
AcDbBlockTableRecord
  2
*D683
340
0
  0
BLOCK_RECORD
  5
225DC
330
1
100
AcDbSymbolTableRecord
100
AcDbBlockTableRecord
  2
*D684
340
0
  0
BLOCK_RECORD
  5
225ED
330
1
100
AcDbSymbolTableRecord
100
AcDbBlockTableRecord
  2
*D685
340
0
  0
BLOCK_RECORD
  5
225F9
330
1
100
AcDbSymbolTableRecord
100
AcDbBlockTableRecord
  2
*D686
340
0
  0
BLOCK_RECORD
  5
22605
330
1
100
AcDbSymbolTableRecord
100
AcDbBlockTableRecord
  2
*D687
340
0
  0
BLOCK_RECORD
  5
22616
330
1
100
AcDbSymbolTableRecord
100
AcDbBlockTableRecord
  2
*D688
340
0
  0
BLOCK_RECORD
  5
22622
330
1
100
AcDbSymbolTableRecord
100
AcDbBlockTableRecord
  2
*D689
340
0
  0
BLOCK_RECORD
  5
2262E
330
1
100
AcDbSymbolTableRecord
100
AcDbBlockTableRecord
  2
*D690
340
0
  0
ENDTAB
  0
ENDSEC
  0
SECTION
  2
BLOCKS
  0
BLOCK
  5
20
330
1F
100
AcDbEntity
  8
0
100
AcDbBlockBegin
  2
*Model_Space
 70
     0
 10
0.0
 20
0.0
 30
0.0
  3
*Model_Space
  1

  0
ENDBLK
  5
21
330
1F
100
AcDbEntity
  8
0
100
AcDbBlockEnd
  0
BLOCK
  5
1C
330
1B
100
AcDbEntity
 67
     1
  8
0
100
AcDbBlockBegin
  2
*Paper_Space
 70
     0
 10
0.0
 20
0.0
 30
0.0
  3
*Paper_Space
  1

  0
ENDBLK
  5
1D
330
1B
100
AcDbEntity
 67
     1
  8
0
100
AcDbBlockEnd
  0
BLOCK
  5
24
330
23
100
AcDbEntity
  8
0
100
AcDbBlockBegin
  2
*Paper_Space0
 70
     0
 10
0.0
 20
0.0
 30
0.0
  3
*Paper_Space0
  1

  0
ENDBLK
  5
25
330
23
100
AcDbEntity
  8
0
100
AcDbBlockEnd
  0
BLOCK
  5
18DCF
330
8F
100
AcDbEntity
  8
0
100
AcDbBlockBegin
  2
_Open
 70
     0
 10
0.0
 20
0.0
 30
0.0
  3
_Open
  1

  0
LINE
  5
18DD1
330
8F
100
AcDbEntity
  8
01注記寸法
 62
     0
370
    -2
100
AcDbLine
 10
-1.0
 20
0.1666666666666667
 30
0.0
 11
0.0
 21
0.0
 31
0.0
  0
LINE
  5
18DD4
330
8F
100
AcDbEntity
  8
01注記寸法
 62
     0
370
    -2
100
AcDbLine
 10
-1.0
 20
-0.1666666666666667
 30
0.0
 11
0.0
 21
0.0
 31
0.0
  0
LINE
  5
18DD5
330
8F
100
AcDbEntity
  8
01注記寸法
 62
     0
370
    -2
100
AcDbLine
 10
0.0
 20
0.0
 30
0.0
 11
-1.0
 21
0.0
 31
0.0
  0
ENDBLK
  5
18DD6
330
8F
100
AcDbEntity
  8
0
100
AcDbBlockEnd
  0
BLOCK
  5
B46A
330
B43D
100
AcDbEntity
  8
0
100
AcDbBlockBegin
  2
A$C19699
 70
     0
 10
0.0
 20
0.0
 30
0.0
  3
A$C19699
  1

  0
LWPOLYLINE
  5
B468
102
{ACAD_REACTORS
330
B469
102
}
330
B43D
100
AcDbEntity
  8
01注記寸法
100
AcDbPolyline
 90
        4
 70
     1
 43
0.0
 10
0.0000000000000036
 20
0.0
 10
0.0000000000000036
 20
4.0
 10
10.0
 20
4.0
 10
10.0
 20
0.0
  0
HATCH
  5
B469
330
B43D
100
AcDbEntity
  8
01注記寸法
100
AcDbHatch
 10
0.0
 20
0.0
 30
0.0
210
0.0
220
0.0
230
1.0
  2
ANSI31
 70
     0
 71
     1
 91
        1
 92
        7
 72
     0
 73
     1
 93
        4
 10
0.0000000000000036
 20
0.0
 10
0.0000000000000036
 20
4.0
 10
10.0
 20
4.0
 10
10.0
 20
0.0
 97
        1
330
B468
 75
     0
 76
     1
 52
0.0
 41
0.5
 77
     0
 78
     1
 53
45.0
 43
-17.99999999999995
 44
-732.0
 45
-1.122532015133644
 46
1.122532015133644
 79
     0
 47
0.0
 98
        1
 10
1.928258766266698
 20
1.475188384445346
1001
ACAD
1010
0.0
1020
0.0
1030
0.0
  0
ENDBLK
  5
B46B
330
B43D
100
AcDbEntity
  8
0
100
AcDbBlockEnd
  0
BLOCK
  5
CE01
330
CE00
100
AcDbEntity
  8
0
100
AcDbBlockBegin
  2
A$C19363
 70
     0
 10
0.0
 20
0.0
 30
0.0
  3
A$C19363
  1

  0
LINE
  5
CE02
330
CE00
100
AcDbEntity
  8
01注記寸法
100
AcDbLine
 10
149.9999999999999
 20
200.0
 30
0.0
 11
0.0
 21
200.0
 31
0.0
  0
LINE
  5
CE03
330
CE00
100
AcDbEntity
  8
01注記寸法
100
AcDbLine
 10
0.0
 20
200.0
 30
0.0
 11
0.0
 21
0.0
 31
0.0
  0
LINE
  5
CE04
330
CE00
100
AcDbEntity
  8
01注記寸法
100
AcDbLine
 10
149.9999999999999
 20
194.0
 30
0.0
 11
0.0
 21
194.0
 31
0.0
  0
LINE
  5
CE05
330
CE00
100
AcDbEntity
  8
01注記寸法
100
AcDbLine
 10
149.9999999999998
 20
0.0
 30
0.0
 11
149.9999999999999
 21
200.0
 31
0.0
  0
LINE
  5
CE06
330
CE00
100
AcDbEntity
  8
01注記寸法
100
AcDbLine
 10
149.9999999999998
 20
0.0
 30
0.0
 11
0.0
 21
0.0
 31
0.0
  0
ENDBLK
  5
CE07
330
CE00
100
AcDbEntity
  8
0
100
AcDbBlockEnd
  0
BLOCK
  5
D17B
330
D149
100
AcDbEntity
  8
0
100
AcDbBlockBegin
  2
A$C25499
 70
     0
 10
0.0
 20
0.0
 30
0.0
  3
A$C25499
  1

  0
LINE
  5
D177
330
D149
100
AcDbEntity
  8
02製品
100
AcDbLine
 10
16.0
 20
0.0
 30
0.0
 11
16.00000000000023
 21
30.0
 31
0.0
  0
LINE
  5
D178
330
D149
100
AcDbEntity
  8
02製品
100
AcDbLine
 10
16.00000000000023
 20
30.0
 30
0.0
 11
0.0000000000002558
 21
30.00000000000011
 31
0.0
  0
LINE
  5
D179
330
D149
100
AcDbEntity
  8
02製品
100
AcDbLine
 10
0.0000000000002558
 20
30.00000000000011
 30
0.0
 11
0.0
 21
0.0000000000001137
 31
0.0
  0
LINE
  5
D17A
330
D149
100
AcDbEntity
  8
02製品
100
AcDbLine
 10
16.0
 20
0.0
 30
0.0
 11
0.0
 21
0.0000000000001137
 31
0.0
  0
ENDBLK
  5
D17C
330
D149
100
AcDbEntity
  8
0
100
AcDbBlockEnd
  0
BLOCK
  5
D247
330
D215
100
AcDbEntity
  8
0
100
AcDbBlockBegin
  2
A$C19273
 70
     0
 10
0.0
 20
0.0
 30
0.0
  3
A$C19273
  1

  0
LINE
  5
D243
330
D215
100
AcDbEntity
  8
02製品
100
AcDbLine
 10
0.0
 20
8.0
 30
0.0
 11
0.0
 21
0.0
 31
0.0
  0
LINE
  5
D244
330
D215
100
AcDbEntity
  8
02製品
100
AcDbLine
 10
27.99999999999999
 20
8.0
 30
0.0
 11
0.0
 21
8.0
 31
0.0
  0
LINE
  5
D245
330
D215
100
AcDbEntity
  8
02製品
100
AcDbLine
 10
27.99999999999999
 20
0.0
 30
0.0
 11
27.99999999999999
 21
8.0
 31
0.0
  0
LINE
  5
D246
330
D215
100
AcDbEntity
  8
02製品
100
AcDbLine
 10
0.0
 20
0.0
 30
0.0
 11
27.99999999999999
 21
0.0
 31
0.0
  0
ENDBLK
  5
D248
330
D215
100
AcDbEntity
  8
0
100
AcDbBlockEnd
  0
BLOCK
  5
D27C
330
D24A
100
AcDbEntity
  8
0
100
AcDbBlockBegin
  2
A$C16659
 70
     0
 10
0.0
 20
0.0
 30
0.0
  3
A$C16659
  1

  0
LINE
  5
D278
330
D24A
100
AcDbEntity
  8
02製品
100
AcDbLine
 10
20.0
 20
8.0
 30
0.0
 11
20.0
 21
0.0
 31
0.0
  0
LINE
  5
D279
330
D24A
100
AcDbEntity
  8
02製品
100
AcDbLine
 10
20.0
 20
0.0
 30
0.0
 11
0.0
 21
0.0
 31
0.0
  0
LINE
  5
D27A
330
D24A
100
AcDbEntity
  8
02製品
100
AcDbLine
 10
0.0
 20
0.0
 30
0.0
 11
0.0
 21
8.0
 31
0.0
  0
LINE
  5
D27B
330
D24A
100
AcDbEntity
  8
02製品
100
AcDbLine
 10
0.0
 20
8.0
 30
0.0
 11
20.0
 21
8.0
 31
0.0
  0
ENDBLK
  5
D27D
330
D24A
100
AcDbEntity
  8
0
100
AcDbBlockEnd
  0
BLOCK
  5
D303
330
D2D1
100
AcDbEntity
  8
0
100
AcDbBlockBegin
  2
A$C1222
 70
     0
 10
0.0
 20
0.0
 30
0.0
  3
A$C1222
  1

  0
LINE
  5
D2FF
330
D2D1
100
AcDbEntity
  8
02製品
100
AcDbLine
 10
7.999999999999929
 20
0.0
 30
0.0
 11
0.0
 21
7.158517387270422
 31
0.0
  0
LINE
  5
D300
330
D2D1
100
AcDbEntity
  8
02製品
100
AcDbLine
 10
8.000000000000114
 20
20.0
 30
0.0
 11
0.0000000000000711
 21
15.38119784648313
 31
0.0
  0
LINE
  5
D301
330
D2D1
100
AcDbEntity
  8
02製品
100
AcDbLine
 10
8.000000000000114
 20
20.0
 30
0.0
 11
7.999999999999929
 21
0.0
 31
0.0
  0
LINE
  5
D302
330
D2D1
100
AcDbEntity
  8
02製品
100
AcDbLine
 10
0.0000000000000711
 20
15.38119784648313
 30
0.0
 11
0.0
 21
7.158517387270422
 31
0.0
  0
ENDBLK
  5
D304
330
D2D1
100
AcDbEntity
  8
0
100
AcDbBlockEnd
  0
BLOCK
  5
D33D
330
D306
100
AcDbEntity
  8
0
100
AcDbBlockBegin
  2
A$C10
 70
     0
 10
0.0
 20
0.0
 30
0.0
  3
A$C10
  1

  0
LINE
  5
D334
330
D306
100
AcDbEntity
  8
02製品
100
AcDbLine
 10
1.0
 20
0.0
 30
0.0
 11
1.0
 21
7.158517387270422
 31
0.0
  0
LINE
  5
D335
330
D306
100
AcDbEntity
  8
02製品
100
AcDbLine
 10
0.0
 20
0.0
 30
0.0
 11
1.0
 21
0.0
 31
0.0
  0
LINE
  5
D336
330
D306
100
AcDbEntity
  8
02製品
100
AcDbLine
 10
0.0
 20
0.0
 30
0.0
 11
0.0
 21
20.0
 31
0.0
  0
LINE
  5
D337
330
D306
100
AcDbEntity
  8
02製品
100
AcDbLine
 10
0.0
 20
7.158517387270422
 30
0.0
 11
12.0
 21
7.158517387270422
 31
0.0
  0
LINE
  5
D338
330
D306
100
AcDbEntity
  8
02製品
100
AcDbLine
 10
11.0
 20
0.0
 30
0.0
 11
11.0
 21
7.158517387270422
 31
0.0
  0
LINE
  5
D339
330
D306
100
AcDbEntity
  8
02製品
100
AcDbLine
 10
12.0
 20
0.0
 30
0.0
 11
12.0
 21
20.0
 31
0.0
  0
LINE
  5
D33A
330
D306
100
AcDbEntity
  8
02製品
100
AcDbLine
 10
11.0
 20
0.0
 30
0.0
 11
12.0
 21
0.0
 31
0.0
  0
LINE
  5
D33B
330
D306
100
AcDbEntity
  8
02製品
100
AcDbLine
 10
0.0
 20
20.0
 30
0.0
 11
12.0
 21
20.0
 31
0.0
  0
LINE
  5
D33C
330
D306
100
AcDbEntity
  8
02製品
100
AcDbLine
 10
0.0
 20
15.38119784648313
 30
0.0
 11
12.0
 21
15.38119784648313
 31
0.0
  0
ENDBLK
  5
D33E
330
D306
100
AcDbEntity
  8
0
100
AcDbBlockEnd
  0
BLOCK
  5
D372
330
D340
100
AcDbEntity
  8
0
100
AcDbBlockBegin
  2
A$C12729
 70
     0
 10
0.0
 20
0.0
 30
0.0
  3
A$C12729
  1

  0
LINE
  5
D36E
330
D340
100
AcDbEntity
  8
02製品
100
AcDbLine
 10
0.0000000000000568
 20
0.0
 30
0.0
 11
8.000000000000057
 21
0.0
 31
0.0
  0
LINE
  5
D36F
330
D340
100
AcDbEntity
  8
02製品
100
AcDbLine
 10
8.0
 20
12.0
 30
0.0
 11
0.0
 21
12.0
 31
0.0
  0
LINE
  5
D370
330
D340
100
AcDbEntity
  8
02製品
100
AcDbLine
 10
0.0
 20
12.0
 30
0.0
 11
0.0000000000000568
 21
0.0
 31
0.0
  0
LINE
  5
D371
330
D340
100
AcDbEntity
  8
02製品
100
AcDbLine
 10
8.0
 20
12.0
 30
0.0
 11
8.000000000000057
 21
0.0
 31
0.0
  0
ENDBLK
  5
D373
330
D340
100
AcDbEntity
  8
0
100
AcDbBlockEnd
  0
BLOCK
  5
1EE37
330
1EE36
100
AcDbEntity
  8
0
100
AcDbBlockBegin
  2
_OPEN30
 70
     0
 10
0.0
 20
0.0
 30
0.0
  3
_OPEN30
  1

  0
LINE
  5
1EE38
330
1EE36
100
AcDbEntity
  8
0
  6
ByBlock
 62
     0
370
    -2
100
AcDbLine
 10
-1.0
 20
0.267949
 30
0.0
 11
0.0
 21
0.0
 31
0.0
  0
LINE
  5
1EE39
330
1EE36
100
AcDbEntity
  8
0
  6
ByBlock
 62
     0
370
    -2
100
AcDbLine
 10
0.0
 20
0.0
 30
0.0
 11
-1.0
 21
-0.267949
 31
0.0
  0
LINE
  5
1EE3A
330
1EE36
100
AcDbEntity
  8
0
  6
ByBlock
 62
     0
370
    -2
100
AcDbLine
 10
0.0
 20
0.0
 30
0.0
 11
-1.0
 21
0.0
 31
0.0
  0
ENDBLK
  5
1EE3B
330
1EE36
100
AcDbEntity
  8
0
100
AcDbBlockEnd
  0
BLOCK
  5
21ADB
330
21A22
100
AcDbEntity
  8
0
100
AcDbBlockBegin
  2
A$C2706
 70
     0
 10
0.0
 20
0.0
 30
0.0
  3
A$C2706
  1

  0
LINE
  5
21A44
330
21A22
100
AcDbEntity
  8
02製品
  6
Continuous
370
    15
100
AcDbLine
 10
33.5603045507894
 20
22.0
 30
0.0
 11
38.83969544920615
 21
22.0
 31
0.0
  0
LINE
  5
21A45
330
21A22
100
AcDbEntity
  8
02製品
  6
Continuous
370
    15
100
AcDbLine
 10
481.1603045507884
 20
22.0
 30
0.0
 11
486.4396954492051
 21
22.0
 31
0.0
  0
LINE
  5
21A46
330
21A22
100
AcDbEntity
  8
02製品
  6
Continuous
370
    15
100
AcDbLine
 10
34.19999999999732
 20
0.0
 30
0.0
 11
46.69999999999732
 21
0.0
 31
0.0
  0
LINE
  5
21A47
330
21A22
100
AcDbEntity
  8
02製品
  6
Continuous
370
    15
100
AcDbLine
 10
473.2999999999977
 20
0.0
 30
0.0
 11
485.7999999999977
 21
0.0
 31
0.0
  0
CIRCLE
  5
21A48
330
21A22
100
AcDbEntity
  8
02製品
  6
Continuous
370
    15
100
AcDbCircle
 10
510.0000000000002
 20
10.0
 30
0.0
 40
3.5
  0
LINE
  5
21A49
330
21A22
100
AcDbEntity
  8
02製品
  6
Continuous
370
    15
100
AcDbLine
 10
520.0000000000002
 20
0.0
 30
0.0
 11
520.0000000000002
 21
20.0
 31
0.0
  0
LINE
  5
21A4A
330
21A22
100
AcDbEntity
  8
02製品
  6
Continuous
370
    15
100
AcDbLine
 10
500.7999999999977
 20
20.0
 30
0.0
 11
520.0000000000002
 21
20.0
 31
0.0
  0
LINE
  5
21A4B
330
21A22
100
AcDbEntity
  8
02製品
  6
Continuous
370
    15
100
AcDbLine
 10
500.7999999999977
 20
0.0
 30
0.0
 11
520.0000000000002
 21
0.0
 31
0.0
  0
CIRCLE
  5
21A4C
330
21A22
100
AcDbEntity
  8
02製品
  6
Continuous
370
    15
100
AcDbCircle
 10
10.00000000000068
 20
10.0
 30
0.0
 40
3.500000000000455
  0
LINE
  5
21A4D
330
21A22
100
AcDbEntity
  8
02製品
  6
Continuous
370
    15
100
AcDbLine
 10
0.0000000000011369
 20
0.0
 30
0.0
 11
0.0000000000011369
 21
20.0
 31
0.0
  0
LINE
  5
21A4E
330
21A22
100
AcDbEntity
  8
02製品
  6
Continuous
370
    15
100
AcDbLine
 10
0.0000000000011369
 20
20.0
 30
0.0
 11
19.19999999999777
 21
20.0
 31
0.0
  0
LINE
  5
21A4F
330
21A22
100
AcDbEntity
  8
02製品
  6
Continuous
370
    15
100
AcDbLine
 10
0.0000000000011369
 20
0.0
 30
0.0
 11
19.19999999999777
 21
0.0
 31
0.0
  0
LINE
  5
21A50
330
21A22
100
AcDbEntity
  8
02製品
  6
Continuous
370
    15
100
AcDbLine
 10
498.2999999999986
 20
412.3870256191713
 30
0.0
 11
498.2999999999986
 21
378.2124570039778
 31
0.0
  0
LINE
  5
21A51
330
21A22
100
AcDbEntity
  8
02製品
  6
Continuous
370
    15
100
AcDbLine
 10
21.69999999999823
 20
378.2124570039778
 30
0.0
 11
498.2999999999986
 21
378.2124570039778
 31
0.0
  0
LINE
  5
21A52
330
21A22
100
AcDbEntity
  8
02製品
  6
Continuous
370
    15
100
AcDbLine
 10
21.69999999999823
 20
412.3870256191713
 30
0.0
 11
21.69999999999823
 21
378.2124570039778
 31
0.0
  0
LINE
  5
21A53
330
21A22
100
AcDbEntity
  8
02製品
  6
Continuous
370
    15
100
AcDbLine
 10
21.69999999999823
 20
412.3870256191713
 30
0.0
 11
498.2999999999986
 21
412.3870256191713
 31
0.0
  0
LWPOLYLINE
  5
21A54
330
21A22
100
AcDbEntity
  8
02製品
  6
Continuous
370
    15
100
AcDbPolyline
 90
       24
 70
   128
 43
0.0
 10
480.2999999999981
 20
395.0154220107797
 10
479.0221279974678
 20
394.0834727537222
 10
477.9908029560049
 20
392.8915467213646
 10
477.2592431398737
 20
391.501149483749
 10
476.8651983777443
 20
389.9840280892349
 10
476.8290021022779
 20
388.4184687851666
 10
477.1525221076961
 20
386.8852573038948
 10
477.8190641681729
 20
385.4635101707627
 10
478.794233490514
 20
384.2265921462549
 10
480.0277095485897
 20
383.2383304697487
 10
481.4558427148015
 20
382.5497212568716
 10
483.004938697645
 20
382.1962980063654
 10
484.5950613023517
 20
382.1962980063654
 10
486.1441572851957
 20
382.5497212568716
 10
487.5722904514075
 20
383.2383304697487
 10
488.8057665094827
 20
384.2265921462549
 10
489.7809358318243
 20
385.4635101707627
 10
490.4474778923011
 20
386.8852573038948
 10
490.7709978977189
 20
388.4184687851666
 10
490.7348016222525
 20
389.9840280892349
 10
490.3407568601226
 20
391.501149483749
 10
489.6091970439918
 20
392.8915467213646
 10
488.5778720025289
 20
394.0834727537222
 10
487.2999999999986
 20
395.0154220107797
  0
LINE
  5
21A55
330
21A22
100
AcDbEntity
  8
02製品
  6
Continuous
370
    15
100
AcDbLine
 10
487.2999999999986
 20
397.9086120642223
 30
0.0
 11
487.2999999999986
 21
395.0154220107797
 31
0.0
  0
ARC
  5
21A56
330
21A22
100
AcDbEntity
  8
02製品
  6
Continuous
370
    15
100
AcDbCircle
 10
483.799999999999
 20
397.8680607516599
 30
0.0
 40
3.500234907682178
100
AcDbArc
 50
0.663804316748945
 51
179.3361956832511
  0
LINE
  5
21A57
330
21A22
100
AcDbEntity
  8
02製品
  6
Continuous
370
    15
100
AcDbLine
 10
480.2999999999981
 20
397.9086120642223
 30
0.0
 11
480.2999999999981
 21
395.0154220107797
 31
0.0
  0
LWPOLYLINE
  5
21A58
330
21A22
100
AcDbEntity
  8
02製品
  6
Continuous
370
    15
100
AcDbPolyline
 90
       24
 70
   128
 43
0.0
 10
32.69999999999868
 20
395.0154220107797
 10
31.4221279974679
 20
394.0834727537222
 10
30.39080295600502
 20
392.8915467213646
 10
29.65924313987375
 20
391.501149483749
 10
29.2651983777439
 20
389.9840280892349
 10
29.22900210227749
 20
388.4184687851666
 10
29.55252210769618
 20
386.8852573038948
 10
30.21906416817296
 20
385.4635101707627
 10
31.19423349051408
 20
384.2265921462549
 10
32.42770954858929
 20
383.2383304697487
 10
33.85584271480116
 20
382.5497212568716
 10
35.40493869764509
 20
382.1962980063654
 10
36.99506130235181
 20
382.1962980063654
 10
38.5441572851953
 20
382.5497212568716
 10
39.97229045140716
 20
383.2383304697487
 10
41.20576650948283
 20
384.2265921462549
 10
42.18093583182394
 20
385.4635101707627
 10
42.84747789230073
 20
386.8852573038948
 10
43.17099789771942
 20
388.4184687851666
 10
43.13480162225255
 20
389.9840280892349
 10
42.74075686012316
 20
391.501149483749
 10
42.00919704399143
 20
392.8915467213646
 10
40.97787200252901
 20
394.0834727537222
 10
39.69999999999823
 20
395.0154220107797
  0
LINE
  5
21A59
330
21A22
100
AcDbEntity
  8
02製品
  6
Continuous
370
    15
100
AcDbLine
 10
39.69999999999823
 20
397.9086120642223
 30
0.0
 11
39.69999999999823
 21
395.0154220107797
 31
0.0
  0
ARC
  5
21A5A
330
21A22
100
AcDbEntity
  8
02製品
  6
Continuous
370
    15
100
AcDbCircle
 10
36.19999999999868
 20
397.8680607516617
 30
0.0
 40
3.500234907681261
100
AcDbArc
 50
0.6638043167193443
 51
179.3361956832807
  0
LINE
  5
21A5B
330
21A22
100
AcDbEntity
  8
02製品
  6
Continuous
370
    15
100
AcDbLine
 10
32.69999999999868
 20
397.9086120642223
 30
0.0
 11
32.69999999999868
 21
395.0154220107797
 31
0.0
  0
LINE
  5
21A5C
330
21A22
100
AcDbEntity
  8
02製品
  6
Continuous
370
    15
100
AcDbLine
 10
256.4999999999984
 20
400.3706314467527
 30
0.0
 11
256.4999999999984
 21
395.446592681692
 31
0.0
  0
ARC
  5
21A5D
330
21A22
100
AcDbEntity
  8
02製品
  6
Continuous
370
    15
100
AcDbCircle
 10
259.9999999999989
 20
395.4871439942544
 30
0.0
 40
3.500234907681729
100
AcDbArc
 50
180.663804316749
 51
359.336195683251
  0
LINE
  5
21A5E
330
21A22
100
AcDbEntity
  8
02製品
  6
Continuous
370
    15
100
AcDbLine
 10
263.4999999999984
 20
395.446592681692
 30
0.0
 11
263.4999999999984
 21
400.3706314467527
 31
0.0
  0
ARC
  5
21A5F
330
21A22
100
AcDbEntity
  8
02製品
  6
Continuous
370
    15
100
AcDbCircle
 10
259.9999999999989
 20
400.3300801341902
 30
0.0
 40
3.500234907681721
100
AcDbArc
 50
0.6638043167490313
 51
179.336195683251
  0
LINE
  5
21A60
330
21A22
100
AcDbEntity
  8
02製品
  6
Continuous
370
    15
100
AcDbLine
 10
498.2999999999986
 20
378.2124570039778
 30
0.0
 11
498.2999999999986
 21
378.0735384618438
 31
0.0
  0
LINE
  5
21A61
330
21A22
100
AcDbEntity
  8
02製品
  6
Continuous
370
    15
100
AcDbLine
 10
21.69999999999823
 20
378.0735384618438
 30
0.0
 11
498.2999999999986
 21
378.0735384618438
 31
0.0
  0
LINE
  5
21A62
330
21A22
100
AcDbEntity
  8
02製品
  6
Continuous
370
    15
100
AcDbLine
 10
21.69999999999823
 20
378.2124570039778
 30
0.0
 11
21.69999999999823
 21
378.0735384618438
 31
0.0
  0
ARC
  5
21A63
330
21A22
100
AcDbEntity
  8
02製品
  6
Continuous
370
    15
100
AcDbCircle
 10
483.6706793157889
 20
388.8894303953948
 30
0.0
 40
6.870700330705663
100
AcDbArc
 50
119.3791998984373
 51
179.8582898166503
  0
ARC
  5
21A64
330
21A22
100
AcDbEntity
  8
02製品
  6
Continuous
370
    15
100
AcDbCircle
 10
483.9234908841042
 20
388.8860126352793
 30
0.0
 40
6.876539408334038
100
AcDbArc
 50
0.1700669608276127
 51
60.59244332409742
  0
LINE
  5
21A65
330
21A22
100
AcDbEntity
  8
02製品
  6
Continuous
370
    15
100
AcDbLine
 10
487.2999999999986
 20
394.8765034686458
 30
0.0
 11
487.2999999999986
 21
395.0154220107797
 31
0.0
  0
LINE
  5
21A66
330
21A22
100
AcDbEntity
  8
02製品
  6
Continuous
370
    15
100
AcDbLine
 10
480.2999999999981
 20
394.8765034686458
 30
0.0
 11
480.2999999999981
 21
395.0154220107797
 31
0.0
  0
ARC
  5
21A67
330
21A22
100
AcDbEntity
  8
02製品
  6
Continuous
370
    15
100
AcDbCircle
 10
36.07067931579127
 20
388.889430395393
 30
0.0
 40
6.870700330708398
100
AcDbArc
 50
119.379199898434
 51
179.8582898166352
  0
ARC
  5
21A68
330
21A22
100
AcDbEntity
  8
02製品
  6
Continuous
370
    15
100
AcDbCircle
 10
36.32349088410524
 20
388.8860126352793
 30
0.0
 40
6.876539408333174
100
AcDbArc
 50
0.1700669608276352
 51
60.59244332410897
  0
LINE
  5
21A69
330
21A22
100
AcDbEntity
  8
02製品
  6
Continuous
370
    15
100
AcDbLine
 10
39.69999999999823
 20
394.8765034686458
 30
0.0
 11
39.69999999999823
 21
395.0154220107797
 31
0.0
  0
LINE
  5
21A6A
330
21A22
100
AcDbEntity
  8
02製品
  6
Continuous
370
    15
100
AcDbLine
 10
32.69999999999868
 20
394.8765034686458
 30
0.0
 11
32.69999999999868
 21
395.0154220107797
 31
0.0
  0
ARC
  5
21A6B
330
21A22
100
AcDbEntity
  8
02製品
  6
Continuous
370
    15
100
AcDbCircle
 10
483.799999999999
 20
397.7291422095259
 30
0.0
 40
3.500234907682181
100
AcDbArc
 50
0.663804316748945
 51
179.3361956832511
  0
ARC
  5
21A6C
330
21A22
100
AcDbEntity
  8
02製品
  6
Continuous
370
    15
100
AcDbCircle
 10
36.19999999999868
 20
397.7291422095277
 30
0.0
 40
3.500234907681261
100
AcDbArc
 50
0.6638043167193443
 51
179.3361956832807
  0
ARC
  5
21A6D
330
21A22
100
AcDbEntity
  8
02製品
  6
Continuous
370
    15
100
AcDbCircle
 10
259.9999999999989
 20
400.1911615920581
 30
0.0
 40
3.500234907681716
100
AcDbArc
 50
0.663804316719258
 51
179.3361956832808
  0
LINE
  5
21A6E
330
21A22
100
AcDbEntity
  8
02製品
  6
Continuous
370
    15
100
AcDbLine
 10
21.7000000000005
 20
532.2999999999993
 30
0.0
 11
498.3000000000004
 21
532.2999999999993
 31
0.0
  0
LINE
  5
21A6F
330
21A22
100
AcDbEntity
  8
02製品
  6
Continuous
370
    15
100
AcDbLine
 10
487.3
 20
510.9428203230273
 30
0.0
 11
487.3
 21
513.4428203230273
 31
0.0
  0
LWPOLYLINE
  5
21A70
330
21A22
100
AcDbEntity
  8
02製品
  6
Continuous
370
    15
100
AcDbPolyline
 90
       10
 70
   128
 43
0.0
 10
487.3
 20
513.4428203230273
 10
487.0889241727507
 20
514.0413555738469
 10
486.4811555509166
 20
514.5676986399794
 10
485.5500000000004
 20
514.9583647796499
 10
484.407768621835
 20
515.166233890799
 10
483.1922313781658
 20
515.166233890799
 10
482.0500000000004
 20
514.9583647796499
 10
481.1188444490842
 20
514.5676986399794
 10
480.5110758272497
 20
514.0413555738469
 10
480.3000000000004
 20
513.4428203230273
  0
LINE
  5
21A71
330
21A22
100
AcDbEntity
  8
02製品
  6
Continuous
370
    15
100
AcDbLine
 10
480.3000000000004
 20
513.4428203230273
 30
0.0
 11
480.3000000000004
 21
510.9428203230273
 31
0.0
  0
LWPOLYLINE
  5
21A72
330
21A22
100
AcDbEntity
  8
02製品
  6
Continuous
370
    15
100
AcDbPolyline
 90
       10
 70
   128
 43
0.0
 10
480.3000000000004
 20
510.9428203230273
 10
480.5110758272492
 20
510.3442850722076
 10
481.1188444490842
 20
509.8179420060769
 10
482.0500000000004
 20
509.4272758664047
 10
483.1922313781658
 20
509.2194067552555
 10
484.4077686218341
 20
509.2194067552555
 10
485.5500000000004
 20
509.4272758664047
 10
486.4811555509166
 20
509.8179420060769
 10
487.0889241727507
 20
510.3442850722076
 10
487.3
 20
510.9428203230273
  0
LINE
  5
21A73
330
21A22
100
AcDbEntity
  8
02製品
  6
Continuous
370
    15
100
AcDbLine
 10
487.2999999999986
 20
423.4428203230273
 30
0.0
 11
487.2999999999986
 21
425.9428203230273
 31
0.0
  0
LWPOLYLINE
  5
21A74
330
21A22
100
AcDbEntity
  8
02製品
  6
Continuous
370
    15
100
AcDbPolyline
 90
       10
 70
   128
 43
0.0
 10
487.2999999999986
 20
425.9428203230273
 10
487.0889241727498
 20
426.5413555738469
 10
486.4811555509152
 20
427.0676986399794
 10
485.5499999999986
 20
427.4583647796499
 10
484.4077686218332
 20
427.666233890799
 10
483.1922313781645
 20
427.666233890799
 10
482.0499999999986
 20
427.4583647796499
 10
481.1188444490824
 20
427.0676986399794
 10
480.5110758272483
 20
426.5413555738469
 10
480.2999999999986
 20
425.9428203230273
  0
LINE
  5
21A75
330
21A22
100
AcDbEntity
  8
02製品
  6
Continuous
370
    15
100
AcDbLine
 10
480.2999999999986
 20
425.9428203230273
 30
0.0
 11
480.2999999999986
 21
423.4428203230273
 31
0.0
  0
LWPOLYLINE
  5
21A76
330
21A22
100
AcDbEntity
  8
02製品
  6
Continuous
370
    15
100
AcDbPolyline
 90
       10
 70
   128
 43
0.0
 10
480.2999999999986
 20
423.4428203230273
 10
480.5110758272483
 20
422.8442850722076
 10
481.1188444490824
 20
422.3179420060769
 10
482.0499999999986
 20
421.9272758664047
 10
483.192231378164
 20
421.7194067552555
 10
484.4077686218332
 20
421.7194067552555
 10
485.5499999999986
 20
421.9272758664047
 10
486.4811555509148
 20
422.3179420060769
 10
487.0889241727498
 20
422.8442850722076
 10
487.2999999999986
 20
423.4428203230273
  0
LINE
  5
21A77
330
21A22
100
AcDbEntity
  8
02製品
  6
Continuous
370
    15
100
AcDbLine
 10
39.70000000000005
 20
510.9428203230273
 30
0.0
 11
39.70000000000005
 21
513.4428203230273
 31
0.0
  0
LWPOLYLINE
  5
21A78
330
21A22
100
AcDbEntity
  8
02製品
  6
Continuous
370
    15
100
AcDbPolyline
 90
       10
 70
   128
 43
0.0
 10
39.70000000000005
 20
513.4428203230273
 10
39.48892417275124
 20
514.0413555738469
 10
38.88115555091667
 20
514.5676986399794
 10
37.95000000000005
 20
514.9583647796499
 10
36.80776862183461
 20
515.166233890799
 10
35.59223137816593
 20
515.166233890799
 10
34.45000000000005
 20
514.9583647796499
 10
33.51884444908387
 20
514.5676986399794
 10
32.91107582724976
 20
514.0413555738469
 10
32.70000000000005
 20
513.4428203230273
  0
LINE
  5
21A79
330
21A22
100
AcDbEntity
  8
02製品
  6
Continuous
370
    15
100
AcDbLine
 10
32.70000000000005
 20
513.4428203230273
 30
0.0
 11
32.70000000000005
 21
510.9428203230273
 31
0.0
  0
LWPOLYLINE
  5
21A7A
330
21A22
100
AcDbEntity
  8
02製品
  6
Continuous
370
    15
100
AcDbPolyline
 90
       10
 70
   128
 43
0.0
 10
32.70000000000005
 20
510.9428203230273
 10
32.91107582724976
 20
510.3442850722076
 10
33.51884444908387
 20
509.8179420060769
 10
34.45000000000005
 20
509.4272758664047
 10
35.59223137816593
 20
509.2194067552555
 10
36.80776862183461
 20
509.2194067552555
 10
37.95000000000005
 20
509.4272758664047
 10
38.88115555091667
 20
509.8179420060769
 10
39.48892417275079
 20
510.3442850722076
 10
39.70000000000005
 20
510.9428203230273
  0
LINE
  5
21A7B
330
21A22
100
AcDbEntity
  8
02製品
  6
Continuous
370
    15
100
AcDbLine
 10
39.69999999999868
 20
423.4428203230273
 30
0.0
 11
39.69999999999868
 21
425.9428203230273
 31
0.0
  0
LWPOLYLINE
  5
21A7C
330
21A22
100
AcDbEntity
  8
02製品
  6
Continuous
370
    15
100
AcDbPolyline
 90
       10
 70
   128
 43
0.0
 10
39.69999999999868
 20
425.9428203230273
 10
39.48892417274942
 20
426.5413555738469
 10
38.88115555091531
 20
427.0676986399794
 10
37.94999999999868
 20
427.4583647796499
 10
36.80776862183279
 20
427.666233890799
 10
35.59223137816457
 20
427.666233890799
 10
34.44999999999868
 20
427.4583647796499
 10
33.51884444908205
 20
427.0676986399794
 10
32.91107582724794
 20
426.5413555738469
 10
32.69999999999868
 20
425.9428203230273
  0
LINE
  5
21A7D
330
21A22
100
AcDbEntity
  8
02製品
  6
Continuous
370
    15
100
AcDbLine
 10
32.69999999999868
 20
425.9428203230273
 30
0.0
 11
32.69999999999868
 21
423.4428203230273
 31
0.0
  0
LWPOLYLINE
  5
21A7E
330
21A22
100
AcDbEntity
  8
02製品
  6
Continuous
370
    15
100
AcDbPolyline
 90
       10
 70
   128
 43
0.0
 10
32.69999999999868
 20
423.4428203230273
 10
32.91107582724794
 20
422.8442850722076
 10
33.51884444908205
 20
422.3179420060769
 10
34.44999999999868
 20
421.9272758664047
 10
35.59223137816412
 20
421.7194067552555
 10
36.80776862183279
 20
421.7194067552555
 10
37.94999999999868
 20
421.9272758664047
 10
38.88115555091485
 20
422.3179420060769
 10
39.48892417274942
 20
422.8442850722076
 10
39.69999999999868
 20
423.4428203230273
  0
LINE
  5
21A7F
330
21A22
100
AcDbEntity
  8
02製品
  6
Continuous
370
    15
100
AcDbLine
 10
21.7000000000005
 20
532.2999999999993
 30
0.0
 11
21.69999999999823
 21
412.3870256191713
 31
0.0
  0
LINE
  5
21A80
330
21A22
100
AcDbEntity
  8
02製品
  6
Continuous
370
    15
100
AcDbLine
 10
498.3000000000004
 20
532.2999999999993
 30
0.0
 11
498.2999999999986
 21
412.3870256191713
 31
0.0
  0
LWPOLYLINE
  5
21A81
330
21A22
100
AcDbEntity
  8
02製品
  6
Continuous
370
    15
100
AcDbPolyline
 90
       10
 70
   128
 43
0.0
 10
487.2999999999986
 20
425.25
 10
487.0889241727498
 20
425.8485352508196
 10
486.4811555509152
 20
426.3748783169503
 10
485.5499999999986
 20
426.7655444566226
 10
484.4077686218332
 20
426.9734135677718
 10
483.1922313781645
 20
426.9734135677718
 10
482.0499999999986
 20
426.7655444566226
 10
481.1188444490824
 20
426.3748783169503
 10
480.5110758272483
 20
425.8485352508196
 10
480.2999999999986
 20
425.25
  0
LWPOLYLINE
  5
21A82
330
21A22
100
AcDbEntity
  8
02製品
  6
Continuous
370
    15
100
AcDbPolyline
 90
       10
 70
   128
 43
0.0
 10
39.69999999999868
 20
425.25
 10
39.48892417274942
 20
425.8485352508196
 10
38.88115555091531
 20
426.3748783169503
 10
37.94999999999868
 20
426.7655444566226
 10
36.80776862183279
 20
426.9734135677718
 10
35.59223137816457
 20
426.9734135677718
 10
34.44999999999868
 20
426.7655444566226
 10
33.51884444908205
 20
426.3748783169503
 10
32.91107582724794
 20
425.8485352508196
 10
32.69999999999868
 20
425.25
  0
LWPOLYLINE
  5
21A83
330
21A22
100
AcDbEntity
  8
02製品
  6
Continuous
370
    15
100
AcDbPolyline
 90
       10
 70
   128
 43
0.0
 10
487.3
 20
512.75
 10
487.0889241727511
 20
513.3485352508196
 10
486.4811555509166
 20
513.8748783169503
 10
485.5500000000004
 20
514.2655444566226
 10
484.407768621835
 20
514.4734135677718
 10
483.1922313781658
 20
514.4734135677718
 10
482.0500000000004
 20
514.2655444566226
 10
481.1188444490842
 20
513.8748783169503
 10
480.5110758272492
 20
513.3485352508196
 10
480.3000000000004
 20
512.75
  0
LWPOLYLINE
  5
21A84
330
21A22
100
AcDbEntity
  8
02製品
  6
Continuous
370
    15
100
AcDbPolyline
 90
       10
 70
   128
 43
0.0
 10
39.70000000000005
 20
512.75
 10
39.48892417275124
 20
513.3485352508196
 10
38.88115555091667
 20
513.8748783169503
 10
37.95000000000005
 20
514.2655444566226
 10
36.80776862183461
 20
514.4734135677718
 10
35.59223137816593
 20
514.4734135677718
 10
34.45000000000005
 20
514.2655444566226
 10
33.51884444908387
 20
513.8748783169503
 10
32.91107582724976
 20
513.3485352508196
 10
32.70000000000005
 20
512.75
  0
LINE
  5
21A85
330
21A22
100
AcDbEntity
  8
02製品
  6
Continuous
370
    15
100
AcDbLine
 10
498.700000000001
 20
531.5
 30
0.0
 11
498.700000000001
 21
532.2999999999993
 31
0.0
  0
LINE
  5
21A86
330
21A22
100
AcDbEntity
  8
02製品
  6
Continuous
370
    15
100
AcDbLine
 10
498.3000000000004
 20
532.2999999999993
 30
0.0
 11
498.6860848519934
 21
532.2999999999993
 31
0.0
  0
LINE
  5
21A87
330
21A22
100
AcDbEntity
  8
02製品
  6
Continuous
370
    15
100
AcDbLine
 10
21.70000000000095
 20
552.5
 30
0.0
 11
498.700000000001
 21
552.5
 31
0.0
  0
LINE
  5
21A88
330
21A22
100
AcDbEntity
  8
02製品
  6
Continuous
370
    15
100
AcDbLine
 10
498.700000000001
 20
552.5
 30
0.0
 11
498.700000000001
 21
532.2999999999993
 31
0.0
  0
LINE
  5
21A89
330
21A22
100
AcDbEntity
  8
02製品
  6
Continuous
370
    15
100
AcDbLine
 10
498.6860848519934
 20
532.2999999999993
 30
0.0
 11
498.700000000001
 21
532.2999999999993
 31
0.0
  0
CIRCLE
  5
21A8A
330
21A22
100
AcDbEntity
  8
02製品
  6
Continuous
370
    15
100
AcDbCircle
 10
487.7000000000005
 20
542.5
 30
0.0
 40
3.5
  0
CIRCLE
  5
21A8B
330
21A22
100
AcDbEntity
  8
02製品
  6
Continuous
370
    15
100
AcDbCircle
 10
32.7000000000005
 20
542.5
 30
0.0
 40
3.499999999999545
  0
LINE
  5
21A8C
330
21A22
100
AcDbEntity
  8
02製品
  6
Continuous
370
    15
100
AcDbLine
 10
21.70000000000095
 20
552.5
 30
0.0
 11
21.70000000000095
 21
532.2999999999993
 31
0.0
  0
LINE
  5
21A8D
330
21A22
100
AcDbEntity
  8
02製品
  6
Continuous
370
    15
100
AcDbLine
 10
21.69999999999823
 20
378.0735384618438
 30
0.0
 11
21.69999999999732
 21
0.9389185421332513
 31
0.0
  0
LINE
  5
21A8E
330
21A22
100
AcDbEntity
  8
02製品
  6
Continuous
370
    15
100
AcDbLine
 10
498.2999999999986
 20
378.0735384618438
 30
0.0
 11
498.2999999999977
 21
0.9389185421332513
 31
0.0
  0
LINE
  5
21A8F
330
21A22
100
AcDbEntity
  8
02製品
  6
Continuous
370
    15
100
AcDbLine
 10
473.2999999999977
 20
0.9389185421332513
 30
0.0
 11
498.2999999999977
 21
0.9389185421332513
 31
0.0
  0
LINE
  5
21A90
330
21A22
100
AcDbEntity
  8
02製品
  6
Continuous
370
    15
100
AcDbLine
 10
473.2999999999977
 20
0.9389185421332513
 30
0.0
 11
473.2999999999977
 21
0.0
 31
0.0
  0
LINE
  5
21A91
330
21A22
100
AcDbEntity
  8
02製品
  6
Continuous
370
    15
100
AcDbLine
 10
46.69999999999732
 20
0.0
 30
0.0
 11
473.2999999999977
 21
0.0
 31
0.0
  0
LINE
  5
21A92
330
21A22
100
AcDbEntity
  8
02製品
  6
Continuous
370
    15
100
AcDbLine
 10
46.69999999999732
 20
0.0
 30
0.0
 11
46.69999999999732
 21
0.9389185421332513
 31
0.0
  0
LINE
  5
21A93
330
21A22
100
AcDbEntity
  8
02製品
  6
Continuous
370
    15
100
AcDbLine
 10
46.69999999999732
 20
0.9389185421332513
 30
0.0
 11
21.69999999999732
 21
0.9389185421332513
 31
0.0
  0
ARC
  5
21A94
330
21A22
100
AcDbEntity
  8
02製品
  6
Continuous
370
    15
100
AcDbCircle
 10
483.799999999999
 20
395.3482254521205
 30
0.0
 40
3.500234907682186
100
AcDbArc
 50
180.663804316749
 51
359.336195683251
  0
ARC
  5
21A95
330
21A22
100
AcDbEntity
  8
02製品
  6
Continuous
370
    15
100
AcDbCircle
 10
36.19999999999868
 20
395.3482254521205
 30
0.0
 40
3.500234907681266
100
AcDbArc
 50
180.6638043167491
 51
359.3361956832508
  0
LINE
  5
21A96
330
21A22
100
AcDbEntity
  8
02製品
  6
Continuous
370
    15
100
AcDbLine
 10
32.69999999999777
 20
26.00476675997925
 30
0.0
 11
32.69999999999777
 21
21.08072799491856
 31
0.0
  0
ARC
  5
21A97
330
21A22
100
AcDbEntity
  8
02製品
  6
Continuous
370
    15
100
AcDbCircle
 10
36.19999999999777
 20
21.12127930748102
 30
0.0
 40
3.500234907681721
100
AcDbArc
 50
180.663804316749
 51
359.336195683251
  0
LINE
  5
21A98
330
21A22
100
AcDbEntity
  8
02製品
  6
Continuous
370
    15
100
AcDbLine
 10
39.69999999999777
 20
21.08072799491856
 30
0.0
 11
39.69999999999777
 21
26.00476675997925
 31
0.0
  0
ARC
  5
21A99
330
21A22
100
AcDbEntity
  8
02製品
  6
Continuous
370
    15
100
AcDbCircle
 10
36.19999999999777
 20
25.96421544741861
 30
0.0
 40
3.500234907681723
100
AcDbArc
 50
0.663804316719258
 51
179.3361956832808
  0
LINE
  5
21A9A
330
21A22
100
AcDbEntity
  8
02製品
  6
Continuous
370
    15
100
AcDbLine
 10
480.2999999999977
 20
26.00476675997925
 30
0.0
 11
480.2999999999977
 21
21.08072799491856
 31
0.0
  0
ARC
  5
21A9B
330
21A22
100
AcDbEntity
  8
02製品
  6
Continuous
370
    15
100
AcDbCircle
 10
483.7999999999977
 20
21.12127930748102
 30
0.0
 40
3.500234907682176
100
AcDbArc
 50
180.663804316749
 51
359.336195683251
  0
LINE
  5
21A9C
330
21A22
100
AcDbEntity
  8
02製品
  6
Continuous
370
    15
100
AcDbLine
 10
487.2999999999981
 20
21.08072799491856
 30
0.0
 11
487.2999999999981
 21
26.00476675997925
 31
0.0
  0
ARC
  5
21A9D
330
21A22
100
AcDbEntity
  8
02製品
  6
Continuous
370
    15
100
AcDbCircle
 10
483.7999999999977
 20
25.96421544741679
 30
0.0
 40
3.500234907682183
100
AcDbArc
 50
0.663804316748945
 51
179.3361956832511
  0
LINE
  5
21A9E
330
21A22
100
AcDbEntity
  8
02製品
  6
Continuous
370
    15
100
AcDbLine
 10
32.69999999999777
 20
210.6562204497695
 30
0.0
 11
32.69999999999777
 21
207.7630303963269
 31
0.0
  0
LWPOLYLINE
  5
21A9F
330
21A22
100
AcDbEntity
  8
02製品
  6
Continuous
370
    15
100
AcDbPolyline
 90
       24
 70
   128
 43
0.0
 10
32.69999999999777
 20
207.7630303963269
 10
31.42212799746744
 20
206.8310811392676
 10
30.39080295600502
 20
205.6391551069119
 10
29.6592431398733
 20
204.2487578692962
 10
29.2651983777439
 20
202.7316364747803
 10
29.22900210227704
 20
201.1660771707138
 10
29.55252210769572
 20
199.632865689442
 10
30.21906416817251
 20
198.2111185563099
 10
31.19423349051362
 20
196.9742005318021
 10
32.42770954858884
 20
195.9859388552959
 10
33.85584271480116
 20
195.297329642417
 10
35.40493869764464
 20
194.9439063919108
 10
36.99506130235136
 20
194.9439063919108
 10
38.54415728519484
 20
195.297329642417
 10
39.97229045140716
 20
195.9859388552959
 10
41.20576650948237
 20
196.9742005318021
 10
42.18093583182349
 20
198.2111185563099
 10
42.84747789230028
 20
199.632865689442
 10
43.17099789771851
 20
201.1660771707138
 10
43.13480162225255
 20
202.7316364747803
 10
42.7407568601227
 20
204.2487578692962
 10
42.00919704399098
 20
205.6391551069119
 10
40.97787200252856
 20
206.8310811392676
 10
39.69999999999823
 20
207.7630303963269
  0
LINE
  5
21AA0
330
21A22
100
AcDbEntity
  8
02製品
  6
Continuous
370
    15
100
AcDbLine
 10
39.69999999999823
 20
207.7630303963269
 30
0.0
 11
39.69999999999823
 21
210.6562204497695
 31
0.0
  0
ARC
  5
21AA1
330
21A22
100
AcDbEntity
  8
02製品
  6
Continuous
370
    15
100
AcDbCircle
 10
36.19999999999823
 20
210.6156691372071
 30
0.0
 40
3.500234907681723
100
AcDbArc
 50
0.6638043167490313
 51
179.336195683251
  0
LINE
  5
21AA2
330
21A22
100
AcDbEntity
  8
02製品
  6
Continuous
370
    15
100
AcDbLine
 10
480.2999999999981
 20
210.6562204497695
 30
0.0
 11
480.2999999999981
 21
207.7630303963269
 31
0.0
  0
LWPOLYLINE
  5
21AA3
330
21A22
100
AcDbEntity
  8
02製品
  6
Continuous
370
    15
100
AcDbPolyline
 90
       24
 70
   128
 43
0.0
 10
480.2999999999981
 20
207.7630303963269
 10
479.0221279974674
 20
206.8310811392676
 10
477.9908029560049
 20
205.6391551069119
 10
477.2592431398732
 20
204.2487578692962
 10
476.8651983777434
 20
202.7316364747803
 10
476.8290021022774
 20
201.1660771707138
 10
477.1525221076956
 20
199.632865689442
 10
477.8190641681724
 20
198.2111185563099
 10
478.794233490514
 20
196.9742005318021
 10
480.0277095485892
 20
195.9859388552959
 10
481.4558427148011
 20
195.297329642417
 10
483.0049386976445
 20
194.9439063919108
 10
484.5950613023517
 20
194.9439063919108
 10
486.1441572851952
 20
195.297329642417
 10
487.5722904514071
 20
195.9859388552959
 10
488.8057665094823
 20
196.9742005318021
 10
489.7809358318234
 20
198.2111185563099
 10
490.4474778923002
 20
199.632865689442
 10
490.7709978977189
 20
201.1660771707138
 10
490.7348016222525
 20
202.7316364747803
 10
490.3407568601226
 20
204.2487578692962
 10
489.6091970439909
 20
205.6391551069119
 10
488.5778720025289
 20
206.8310811392676
 10
487.2999999999981
 20
207.7630303963269
  0
LINE
  5
21AA4
330
21A22
100
AcDbEntity
  8
02製品
  6
Continuous
370
    15
100
AcDbLine
 10
487.2999999999981
 20
207.7630303963269
 30
0.0
 11
487.2999999999981
 21
210.6562204497695
 31
0.0
  0
ARC
  5
21AA5
330
21A22
100
AcDbEntity
  8
02製品
  6
Continuous
370
    15
100
AcDbCircle
 10
483.799999999999
 20
210.6156691372071
 30
0.0
 40
3.500234907682178
100
AcDbArc
 50
0.663804316748945
 51
179.3361956832511
  0
CIRCLE
  5
21AA6
330
21A22
100
AcDbEntity
  8
02製品
  6
Continuous
370
    15
100
AcDbCircle
 10
259.9905822622798
 20
397.8045456940163
 30
0.0
 40
2.989290266259083
  0
LINE
  5
21AA7
330
21A22
100
AcDbEntity
  8
02製品
  6
Continuous
370
    15
100
AcDbLine
 10
473.2999999999977
 20
0.7999999999992724
 30
0.0
 11
498.2999999999977
 21
0.7999999999992724
 31
0.0
  0
LINE
  5
21AA8
330
21A22
100
AcDbEntity
  8
02製品
  6
Continuous
370
    15
100
AcDbLine
 10
498.2999999999977
 20
0.7999999999992724
 30
0.0
 11
498.2999999999977
 21
0.9389185421332513
 31
0.0
  0
LINE
  5
21AA9
330
21A22
100
AcDbEntity
  8
02製品
  6
Continuous
370
    15
100
AcDbLine
 10
21.69999999999732
 20
0.7999999999992724
 30
0.0
 11
46.69999999999732
 21
0.7999999999992724
 31
0.0
  0
LINE
  5
21AAA
330
21A22
100
AcDbEntity
  8
02製品
  6
Continuous
370
    15
100
AcDbLine
 10
21.69999999999732
 20
0.9389185421332513
 30
0.0
 11
21.69999999999732
 21
0.7999999999992724
 31
0.0
  0
ARC
  5
21AAB
330
21A22
100
AcDbEntity
  8
02製品
  6
Continuous
370
    15
100
AcDbCircle
 10
483.7999999999977
 20
25.82529690528463
 30
0.0
 40
3.500234907682178
100
AcDbArc
 50
0.663804316748945
 51
179.3361956832511
  0
ARC
  5
21AAC
330
21A22
100
AcDbEntity
  8
02製品
  6
Continuous
370
    15
100
AcDbCircle
 10
36.19999999999777
 20
25.82529690528463
 30
0.0
 40
3.500234907681721
100
AcDbArc
 50
0.6638043167490313
 51
179.336195683251
  0
LINE
  5
21AAD
330
21A22
100
AcDbEntity
  8
02製品
  6
Continuous
370
    15
100
AcDbLine
 10
487.2999999999981
 20
207.624111854193
 30
0.0
 11
487.2999999999981
 21
207.7630303963269
 31
0.0
  0
LINE
  5
21AAE
330
21A22
100
AcDbEntity
  8
02製品
  6
Continuous
370
    15
100
AcDbLine
 10
480.2999999999981
 20
207.624111854193
 30
0.0
 11
480.2999999999981
 21
207.7630303963269
 31
0.0
  0
ARC
  5
21AAF
330
21A22
100
AcDbEntity
  8
02製品
  6
Continuous
370
    15
100
AcDbCircle
 10
483.6706793157862
 20
201.637038780942
 30
0.0
 40
6.870700330702931
100
AcDbArc
 50
119.3791998984092
 51
179.8582898166503
  0
ARC
  5
21AB0
330
21A22
100
AcDbEntity
  8
02製品
  6
Continuous
370
    15
100
AcDbCircle
 10
483.9234908841042
 20
201.6336210208246
 30
0.0
 40
6.876539408334437
100
AcDbArc
 50
0.1700669608427574
 51
60.59244332410981
  0
LINE
  5
21AB1
330
21A22
100
AcDbEntity
  8
02製品
  6
Continuous
370
    15
100
AcDbLine
 10
39.69999999999823
 20
207.624111854193
 30
0.0
 11
39.69999999999823
 21
207.7630303963269
 31
0.0
  0
LINE
  5
21AB2
330
21A22
100
AcDbEntity
  8
02製品
  6
Continuous
370
    15
100
AcDbLine
 10
32.69999999999777
 20
207.624111854193
 30
0.0
 11
32.69999999999777
 21
207.7630303963269
 31
0.0
  0
ARC
  5
21AB3
330
21A22
100
AcDbEntity
  8
02製品
  6
Continuous
370
    15
100
AcDbCircle
 10
36.07067931578899
 20
201.6370387809402
 30
0.0
 40
6.87070033070612
100
AcDbArc
 50
119.3791998984249
 51
179.8582898166352
  0
ARC
  5
21AB4
330
21A22
100
AcDbEntity
  8
02製品
  6
Continuous
370
    15
100
AcDbCircle
 10
36.32349088410524
 20
201.6336210208265
 30
0.0
 40
6.876539408332975
100
AcDbArc
 50
0.1700669608276409
 51
60.59244332410897
  0
ARC
  5
21AB5
330
21A22
100
AcDbEntity
  8
02製品
  6
Continuous
370
    15
100
AcDbCircle
 10
483.799999999999
 20
210.4767505950731
 30
0.0
 40
3.500234907682178
100
AcDbArc
 50
0.663804316748945
 51
179.3361956832511
  0
ARC
  5
21AB6
330
21A22
100
AcDbEntity
  8
02製品
  6
Continuous
370
    15
100
AcDbCircle
 10
36.19999999999823
 20
210.4767505950731
 30
0.0
 40
3.500234907681727
100
AcDbArc
 50
0.6638043167490313
 51
179.336195683251
  0
ARC
  5
21AB7
330
21A22
100
AcDbEntity
  8
02製品
  6
Continuous
370
    15
100
AcDbCircle
 10
259.9734076521565
 20
397.6114119620561
 30
0.0
 40
2.973905172303042
100
AcDbArc
 50
89.48766032693588
 51
178.28847958818
  0
ARC
  5
21AB8
330
21A22
100
AcDbEntity
  8
02製品
  6
Continuous
370
    15
100
AcDbCircle
 10
260.0229440505434
 20
397.6076192399996
 30
0.0
 40
2.977667396586779
100
AcDbArc
 50
1.782370001808146
 51
90.44148996343681
  0
LINE
  5
21AB9
330
21A22
100
AcDbEntity
  8
02製品
  6
Continuous
370
    15
100
AcDbLine
 10
34.19999999999777
 20
0.0
 30
0.0
 11
19.19999999999777
 21
0.0
 31
0.0
  0
LINE
  5
21ABA
330
21A22
100
AcDbEntity
  8
02製品
  6
Continuous
370
    15
100
AcDbLine
 10
19.19999999999823
 20
412.4028912751382
 30
0.0
 11
19.19999999999777
 21
0.0
 31
0.0
  0
LINE
  5
21ABB
330
21A22
100
AcDbEntity
  8
02製品
  6
Continuous
370
    15
100
AcDbLine
 10
21.69999999999823
 20
412.4028912751382
 30
0.0
 11
19.19999999999823
 21
412.4028912751382
 31
0.0
  0
LINE
  5
21ABC
330
21A22
100
AcDbEntity
  8
02製品
  6
Continuous
370
    15
100
AcDbLine
 10
44.19999999999777
 20
0.7999999999992724
 30
0.0
 11
34.19999999999777
 21
0.7999999999992724
 31
0.0
  0
LINE
  5
21ABD
330
21A22
100
AcDbEntity
  8
02製品
  6
Continuous
370
    15
100
AcDbLine
 10
34.19999999999777
 20
0.0
 30
0.0
 11
34.19999999999777
 21
0.7999999999992724
 31
0.0
  0
CIRCLE
  5
21ABE
330
21A22
100
AcDbEntity
  8
02製品
  6
Continuous
370
    15
100
AcDbCircle
 10
36.20941773771688
 20
397.6656271518823
 30
0.0
 40
2.989290266259309
  0
CIRCLE
  5
21ABF
330
21A22
100
AcDbEntity
  8
02製品
  6
Continuous
370
    15
100
AcDbCircle
 10
36.20941773771688
 20
210.5521540795617
 30
0.0
 40
2.989290266258172
  0
CIRCLE
  5
21AC0
330
21A22
100
AcDbEntity
  8
02製品
  6
Continuous
370
    15
100
AcDbCircle
 10
36.20941773771597
 20
23.43868100724285
 30
0.0
 40
2.989290266258171
  0
ARC
  5
21AC1
330
21A22
100
AcDbEntity
  8
02製品
  6
Continuous
370
    15
100
AcDbCircle
 10
36.20000000001642
 20
23.23321165040397
 30
0.0
 40
3.000876259060683
100
AcDbArc
 50
1.931772906433956
 51
178.068227166054
  0
ARC
  5
21AC2
330
21A22
100
AcDbEntity
  8
02製品
  6
Continuous
370
    15
100
AcDbCircle
 10
36.19999999999322
 20
210.3466847198597
 30
0.0
 40
3.000876260971209
100
AcDbArc
 50
1.931776435221574
 51
178.0682235463611
  0
ARC
  5
21AC3
330
21A22
100
AcDbEntity
  8
02製品
  6
Continuous
370
    15
100
AcDbCircle
 10
36.19999999998959
 20
397.4601577917201
 30
0.0
 40
3.000876261278277
100
AcDbArc
 50
1.931777002348147
 51
178.0682229645701
  0
LINE
  5
21AC4
330
21A22
100
AcDbEntity
  8
02製品
  6
Continuous
370
    15
100
AcDbLine
 10
21.7000000000005
 20
531.5
 30
0.0
 11
19.2000000000005
 21
531.5
 31
0.0
  0
LWPOLYLINE
  5
21AC5
330
21A22
100
AcDbEntity
  8
02製品
  6
Continuous
370
    15
100
AcDbPolyline
 90
       19
 70
   128
 43
0.0
 10
36.2000000000005
 20
510.0
 10
35.17393957002309
 20
510.0904610688212
 10
34.27163717094049
 20
510.3509333353213
 10
33.6019237886469
 20
510.75
 10
33.24557674096354
 20
511.2395277334999
 10
33.24557674096354
 20
511.7604722665001
 10
33.6019237886469
 20
512.25
 10
34.27163717094049
 20
512.6490666646787
 10
35.17393957002309
 20
512.9095389311788
 10
36.2000000000005
 20
513.0
 10
37.22606042997745
 20
512.9095389311788
 10
38.12836282906005
 20
512.6490666646787
 10
38.79807621135365
 20
512.25
 10
39.15442325903655
 20
511.7604722665001
 10
39.15442325903655
 20
511.2395277334999
 10
38.79807621135365
 20
510.75
 10
38.12836282906005
 20
510.3509333353213
 10
37.226060429977
 20
510.0904610688212
 10
36.2000000000005
 20
510.0
  0
LWPOLYLINE
  5
21AC6
330
21A22
100
AcDbEntity
  8
02製品
  6
Continuous
370
    15
100
AcDbPolyline
 90
       19
 70
   128
 43
0.0
 10
36.19999999999868
 20
422.5
 10
35.17393957002128
 20
422.5904610688212
 10
34.27163717093867
 20
422.8509333353213
 10
33.60192378864508
 20
423.25
 10
33.24557674096172
 20
423.7395277334999
 10
33.24557674096172
 20
424.2604722665001
 10
33.60192378864508
 20
424.75
 10
34.27163717093913
 20
425.1490666646787
 10
35.17393957002173
 20
425.4095389311788
 10
36.19999999999868
 20
425.5
 10
37.22606042997563
 20
425.4095389311788
 10
38.12836282905823
 20
425.1490666646787
 10
38.79807621135183
 20
424.75
 10
39.15442325903518
 20
424.2604722665001
 10
39.15442325903518
 20
423.7395277334999
 10
38.79807621135183
 20
423.25
 10
38.12836282905823
 20
422.8509333353213
 10
37.22606042997563
 20
422.5904610688212
 10
36.19999999999868
 20
422.5
  0
LINE
  5
21AC7
330
21A22
100
AcDbEntity
  8
02製品
  6
Continuous
370
    15
100
AcDbLine
 10
19.2000000000005
 20
531.5
 30
0.0
 11
19.19999999999823
 21
412.4028912751382
 31
0.0
  0
LWPOLYLINE
  5
21AC8
330
21A22
100
AcDbEntity
  8
02製品
  6
Continuous
370
    15
100
AcDbPolyline
 90
        9
 70
   128
 43
0.0
 10
39.1189035823661
 20
423.6535905157325
 10
38.79807621135183
 20
424.0571796769727
 10
38.12836282905823
 20
424.4562463416514
 10
37.22606042997563
 20
424.7167186081515
 10
36.19999999999868
 20
424.8071796769727
 10
35.17393957002128
 20
424.7167186081515
 10
34.27163717093913
 20
424.4562463416514
 10
33.60192378864508
 20
424.0571796769727
 10
33.28109642581262
 20
423.6535905329674
  0
LWPOLYLINE
  5
21AC9
330
21A22
100
AcDbEntity
  8
02製品
  6
Continuous
370
    15
100
AcDbPolyline
 90
        9
 70
   128
 43
0.0
 10
39.11890358236928
 20
511.1535905157289
 10
38.79807621135365
 20
511.5571796769727
 10
38.12836282906005
 20
511.9562463416514
 10
37.22606042997745
 20
512.2167186081515
 10
36.2000000000005
 20
512.3071796769727
 10
35.17393957002309
 20
512.2167186081515
 10
34.27163717094049
 20
511.9562463416514
 10
33.6019237886469
 20
511.5571796769727
 10
33.28109642581262
 20
511.1535905329638
  0
LINE
  5
21ACA
330
21A22
100
AcDbEntity
  8
02製品
  6
Continuous
370
    15
100
AcDbLine
 10
475.7999999999977
 20
0.7999999999992724
 30
0.0
 11
485.7999999999977
 21
0.7999999999992724
 31
0.0
  0
LINE
  5
21ACB
330
21A22
100
AcDbEntity
  8
02製品
  6
Continuous
370
    15
100
AcDbLine
 10
498.2999999999986
 20
412.4028912751382
 30
0.0
 11
500.7999999999986
 21
412.4028912751382
 31
0.0
  0
LINE
  5
21ACC
330
21A22
100
AcDbEntity
  8
02製品
  6
Continuous
370
    15
100
AcDbLine
 10
500.7999999999986
 20
412.4028912751382
 30
0.0
 11
500.7999999999977
 21
0.0
 31
0.0
  0
LINE
  5
21ACD
330
21A22
100
AcDbEntity
  8
02製品
  6
Continuous
370
    15
100
AcDbLine
 10
485.7999999999977
 20
0.0
 30
0.0
 11
500.7999999999977
 21
0.0
 31
0.0
  0
LINE
  5
21ACE
330
21A22
100
AcDbEntity
  8
02製品
  6
Continuous
370
    15
100
AcDbLine
 10
485.7999999999977
 20
0.0
 30
0.0
 11
485.7999999999977
 21
0.7999999999992724
 31
0.0
  0
CIRCLE
  5
21ACF
330
21A22
100
AcDbEntity
  8
02製品
  6
Continuous
370
    15
100
AcDbCircle
 10
483.7905822622809
 20
397.6656271518823
 30
0.0
 40
2.989290266259305
  0
CIRCLE
  5
21AD0
330
21A22
100
AcDbEntity
  8
02製品
  6
Continuous
370
    15
100
AcDbCircle
 10
483.7905822622799
 20
210.5521540795635
 30
0.0
 40
2.989290266258397
  0
CIRCLE
  5
21AD1
330
21A22
100
AcDbEntity
  8
02製品
  6
Continuous
370
    15
100
AcDbCircle
 10
483.790582262279
 20
23.43868100724285
 30
0.0
 40
2.989290266258172
  0
ARC
  5
21AD2
330
21A22
100
AcDbEntity
  8
02製品
  6
Continuous
370
    15
100
AcDbCircle
 10
483.799999999999
 20
23.23321164812296
 30
0.0
 40
3.000876260582947
100
AcDbArc
 50
1.931775717715618
 51
178.0682242842304
  0
ARC
  5
21AD3
330
21A22
100
AcDbEntity
  8
02製品
  6
Continuous
370
    15
100
AcDbCircle
 10
483.799999999999
 20
210.3466847204418
 30
0.0
 40
3.000876260583193
100
AcDbArc
 50
1.931775719105491
 51
178.06822428152
  0
ARC
  5
21AD4
330
21A22
100
AcDbEntity
  8
02製品
  6
Continuous
370
    15
100
AcDbCircle
 10
483.799999999999
 20
397.4601577927642
 30
0.0
 40
3.000876260582047
100
AcDbArc
 50
1.931775717403518
 51
178.0682242835
  0
LINE
  5
21AD5
330
21A22
100
AcDbEntity
  8
02製品
  6
Continuous
370
    15
100
AcDbLine
 10
498.3000000000004
 20
531.5
 30
0.0
 11
500.8000000000004
 21
531.5
 31
0.0
  0
LWPOLYLINE
  5
21AD6
330
21A22
100
AcDbEntity
  8
02製品
  6
Continuous
370
    15
100
AcDbPolyline
 90
       19
 70
   128
 43
0.0
 10
483.8
 20
510.0
 10
484.8260604299774
 20
510.0904610688212
 10
485.72836282906
 20
510.3509333353213
 10
486.3980762113536
 20
510.75
 10
486.7544232590369
 20
511.2395277334999
 10
486.7544232590369
 20
511.7604722665001
 10
486.3980762113536
 20
512.25
 10
485.72836282906
 20
512.6490666646787
 10
484.8260604299774
 20
512.9095389311788
 10
483.8
 20
513.0
 10
482.7739395700235
 20
512.9095389311788
 10
481.8716371709404
 20
512.6490666646787
 10
481.2019237886468
 20
512.25
 10
480.8455767409639
 20
511.7604722665001
 10
480.8455767409639
 20
511.2395277334999
 10
481.2019237886468
 20
510.75
 10
481.8716371709404
 20
510.3509333353213
 10
482.7739395700235
 20
510.0904610688212
 10
483.8
 20
510.0
  0
LWPOLYLINE
  5
21AD7
330
21A22
100
AcDbEntity
  8
02製品
  6
Continuous
370
    15
100
AcDbPolyline
 90
       19
 70
   128
 43
0.0
 10
483.799999999999
 20
422.5
 10
484.8260604299755
 20
422.5904610688212
 10
485.7283628290586
 20
422.8509333353213
 10
486.3980762113522
 20
423.25
 10
486.7544232590351
 20
423.7395277334999
 10
486.7544232590351
 20
424.2604722665001
 10
486.3980762113522
 20
424.75
 10
485.7283628290586
 20
425.1490666646787
 10
484.8260604299755
 20
425.4095389311788
 10
483.799999999999
 20
425.5
 10
482.7739395700216
 20
425.4095389311788
 10
481.871637170939
 20
425.1490666646787
 10
481.2019237886454
 20
424.75
 10
480.8455767409621
 20
424.2604722665001
 10
480.8455767409621
 20
423.7395277334999
 10
481.2019237886454
 20
423.25
 10
481.871637170939
 20
422.8509333353213
 10
482.7739395700216
 20
422.5904610688212
 10
483.799999999999
 20
422.5
  0
LINE
  5
21AD8
330
21A22
100
AcDbEntity
  8
02製品
  6
Continuous
370
    15
100
AcDbLine
 10
500.8000000000004
 20
531.5
 30
0.0
 11
500.7999999999986
 21
412.4028912751382
 31
0.0
  0
LWPOLYLINE
  5
21AD9
330
21A22
100
AcDbEntity
  8
02製品
  6
Continuous
370
    15
100
AcDbPolyline
 90
        9
 70
   128
 43
0.0
 10
480.8810960961316
 20
423.6535898384827
 10
481.2019237886454
 20
424.0571796769727
 10
481.871637170939
 20
424.4562463416514
 10
482.7739395700216
 20
424.7167186081515
 10
483.799999999999
 20
424.8071796769727
 10
484.8260604299755
 20
424.7167186081515
 10
485.7283628290586
 20
424.4562463416514
 10
486.3980762113522
 20
424.0571796769727
 10
486.7189039038669
 20
423.6535898384791
  0
LWPOLYLINE
  5
21ADA
330
21A22
100
AcDbEntity
  8
02製品
  6
Continuous
370
    15
100
AcDbPolyline
 90
        9
 70
   128
 43
0.0
 10
480.881096096123
 20
511.1535898384609
 10
481.2019237886468
 20
511.5571796769727
 10
481.8716371709404
 20
511.9562463416514
 10
482.7739395700235
 20
512.2167186081515
 10
483.8000000000004
 20
512.3071796769727
 10
484.8260604299774
 20
512.2167186081515
 10
485.72836282906
 20
511.9562463416514
 10
486.3980762113536
 20
511.5571796769727
 10
486.7189039038783
 20
511.1535898384591
  0
ENDBLK
  5
21ADC
330
21A22
100
AcDbEntity
  8
0
100
AcDbBlockEnd
  0
BLOCK
  5
21C91
330
21C24
100
AcDbEntity
  8
0
100
AcDbBlockBegin
  2
A$C14466
 70
     0
 10
0.0
 20
0.0
 30
0.0
  3
A$C14466
  1

  0
LINE
  5
21C46
330
21C24
100
AcDbEntity
  8
02製品
  6
Continuous
370
    15
100
AcDbLine
 10
281.8123412895043
 20
31.80000000000018
 30
0.0
 11
281.8123412895043
 21
487.0
 31
0.0
  0
LINE
  5
21C47
330
21C24
100
AcDbEntity
  8
02製品
  6
Continuous
370
    15
100
AcDbLine
 10
315.5979819355593
 20
552.5
 30
0.0
 11
305.5979819355593
 21
552.5
 31
0.0
  0
LINE
  5
21C48
330
21C24
100
AcDbEntity
  8
02製品
  6
Continuous
370
    15
100
AcDbLine
 10
315.5979819355593
 20
552.5
 30
0.0
 11
315.5979819355593
 21
533.5
 31
0.0
  0
LINE
  5
21C49
330
21C24
100
AcDbEntity
  8
02製品
  6
Continuous
370
    15
100
AcDbLine
 10
315.5979819355593
 20
533.5
 30
0.0
 11
305.5979819355593
 21
533.5
 31
0.0
  0
LINE
  5
21C4A
330
21C24
100
AcDbEntity
  8
02製品
  6
Continuous
370
    15
100
AcDbLine
 10
305.5979819355593
 20
552.5
 30
0.0
 11
305.5979819355593
 21
533.5
 31
0.0
  0
LINE
  5
21C4B
330
21C24
100
AcDbEntity
  8
02製品
  6
Continuous
370
    15
100
AcDbLine
 10
311.0123412895045
 20
0.0
 30
0.0
 11
311.8123412895043
 21
0.0
 31
0.0
  0
LINE
  5
21C4C
330
21C24
100
AcDbEntity
  8
02製品
  6
Continuous
370
    15
100
AcDbLine
 10
311.8123412895043
 20
0.0
 30
0.0
 11
311.8123412895043
 21
20.0
 31
0.0
  0
LINE
  5
21C4D
330
21C24
100
AcDbEntity
  8
02製品
  6
Continuous
370
    15
100
AcDbLine
 10
311.0123412895045
 20
0.0
 30
0.0
 11
311.0123412895045
 21
20.0
 31
0.0
  0
LINE
  5
21C4E
330
21C24
100
AcDbEntity
  8
02製品
  6
Continuous
370
    15
100
AcDbLine
 10
311.0123412895045
 20
20.0
 30
0.0
 11
311.8123412895043
 21
20.0
 31
0.0
  0
CIRCLE
  5
21C4F
330
21C24
100
AcDbEntity
  8
02製品
  6
Continuous
370
    15
100
AcDbCircle
 10
296.8123412895043
 20
10.0
 30
0.0
 40
3.0
  0
CIRCLE
  5
21C50
330
21C24
100
AcDbEntity
  8
02製品
  6
Continuous
370
    15
100
AcDbCircle
 10
266.8123412895043
 20
10.0
 30
0.0
 40
3.0
  0
LINE
  5
21C51
330
21C24
100
AcDbEntity
  8
02製品
  6
Continuous
370
    15
100
AcDbLine
 10
252.8123412895038
 20
0.0
 30
0.0
 11
252.8123412895038
 21
1.800000000000182
 31
0.0
  0
LINE
  5
21C52
330
21C24
100
AcDbEntity
  8
02製品
  6
Continuous
370
    15
100
AcDbLine
 10
306.8123412895043
 20
22.0
 30
0.0
 11
306.8123412895043
 21
20.0
 31
0.0
  0
LINE
  5
21C53
330
21C24
100
AcDbEntity
  8
02製品
  6
Continuous
370
    15
100
AcDbLine
 10
283.8123412895038
 20
22.0
 30
0.0
 11
306.8123412895043
 21
22.0
 31
0.0
  0
LINE
  5
21C54
330
21C24
100
AcDbEntity
  8
02製品
  6
Continuous
370
    15
100
AcDbLine
 10
252.8123412895038
 20
0.0
 30
0.0
 11
311.0123412895045
 21
0.0
 31
0.0
  0
LINE
  5
21C55
330
21C24
100
AcDbEntity
  8
02製品
  6
Continuous
370
    15
100
AcDbLine
 10
309.8123412895043
 20
20.0
 30
0.0
 11
311.0123412895045
 21
20.0
 31
0.0
  0
LINE
  5
21C56
330
21C24
100
AcDbEntity
  8
02製品
  6
Continuous
370
    15
100
AcDbLine
 10
251.8123412895043
 20
0.0
 30
0.0
 11
251.8123412895043
 21
1.800000000000182
 31
0.0
  0
LINE
  5
21C57
330
21C24
100
AcDbEntity
  8
02製品
  6
Continuous
370
    15
100
AcDbLine
 10
252.6123412895045
 20
1.800000000000182
 30
0.0
 11
252.6123412895045
 21
0.0
 31
0.0
  0
LINE
  5
21C58
330
21C24
100
AcDbEntity
  8
02製品
  6
Continuous
370
    15
100
AcDbLine
 10
251.8123412895043
 20
0.0
 30
0.0
 11
252.6123412895045
 21
0.0
 31
0.0
  0
LINE
  5
21C59
330
21C24
100
AcDbEntity
  8
02製品
  6
Continuous
370
    15
100
AcDbLine
 10
304.7945034116433
 20
552.5
 30
0.0
 11
304.7945034116433
 21
532.3000000000002
 31
0.0
  0
LINE
  5
21C5A
330
21C24
100
AcDbEntity
  8
02製品
  6
Continuous
370
    15
100
AcDbLine
 10
304.7945034116433
 20
552.5
 30
0.0
 11
305.5945034116435
 21
552.5
 31
0.0
  0
LINE
  5
21C5B
330
21C24
100
AcDbEntity
  8
02製品
  6
Continuous
370
    15
100
AcDbLine
 10
304.7945034116433
 20
532.3000000000002
 30
0.0
 11
305.5945034116435
 21
532.3000000000002
 31
0.0
  0
LINE
  5
21C5C
330
21C24
100
AcDbEntity
  8
02製品
  6
Continuous
370
    15
100
AcDbLine
 10
305.5945034116435
 20
552.5
 30
0.0
 11
305.5945034116435
 21
532.3000000000002
 31
0.0
  0
LINE
  5
21C5D
330
21C24
100
AcDbEntity
  8
02製品
  6
Continuous
370
    15
100
AcDbLine
 10
282.5979819355589
 20
532.3000000000002
 30
0.0
 11
304.7945034116433
 21
532.3000000000002
 31
0.0
  0
LINE
  5
21C5E
330
21C24
100
AcDbEntity
  8
02製品
  6
Continuous
370
    15
100
AcDbLine
 10
305.5945034116435
 20
531.5
 30
0.0
 11
305.5945034116435
 21
532.3000000000002
 31
0.0
  0
LINE
  5
21C5F
330
21C24
100
AcDbEntity
  8
02製品
  6
Continuous
370
    15
100
AcDbLine
 10
282.5979819355589
 20
531.5
 30
0.0
 11
282.5979819355589
 21
532.3000000000002
 31
0.0
  0
LINE
  5
21C60
330
21C24
100
AcDbEntity
  8
02製品
  6
Continuous
370
    15
100
AcDbLine
 10
282.5979819355589
 20
531.5
 30
0.0
 11
305.5945034116435
 21
531.5
 31
0.0
  0
LINE
  5
21C61
330
21C24
100
AcDbEntity
  8
02製品
  6
Continuous
370
    15
100
AcDbLine
 10
305.5979819355593
 20
531.5
 30
0.0
 11
305.5979819355593
 21
532.3000000000002
 31
0.0
  0
LINE
  5
21C62
330
21C24
100
AcDbEntity
  8
02製品
  6
Continuous
370
    15
100
AcDbLine
 10
305.5945034116435
 20
531.5
 30
0.0
 11
305.5979819355593
 21
531.5
 31
0.0
  0
LINE
  5
21C63
330
21C24
100
AcDbEntity
  8
02製品
  6
Continuous
370
    15
100
AcDbLine
 10
305.5945034116435
 20
532.3000000000002
 30
0.0
 11
305.5979819355593
 21
532.3000000000002
 31
0.0
  0
LINE
  5
21C64
330
21C24
100
AcDbEntity
  8
02製品
  6
Continuous
370
    15
100
AcDbLine
 10
65.87671932032754
 20
378.2124570039778
 30
0.0
 11
66.66456552273712
 21
378.0735384618447
 31
0.0
  0
LINE
  5
21C65
330
21C24
100
AcDbEntity
  8
02製品
  6
Continuous
370
    15
100
AcDbLine
 10
71.90261782125845
 20
412.3870256191713
 30
0.0
 11
65.87671932032754
 21
378.2124570039778
 31
0.0
  0
LINE
  5
21C66
330
21C24
100
AcDbEntity
  8
02製品
  6
Continuous
370
    15
100
AcDbLine
 10
279.5979819355593
 20
532.3000000000002
 30
0.0
 11
71.90261782125845
 21
412.3870256191713
 31
0.0
  0
LINE
  5
21C67
330
21C24
100
AcDbEntity
  8
02製品
  6
Continuous
370
    15
100
AcDbLine
 10
72.62568524361131
 20
411.880728359406
 30
0.0
 11
73.53009794348964
 21
412.4028912751382
 31
0.0
  0
LINE
  5
21C68
330
21C24
100
AcDbEntity
  8
02製品
  6
Continuous
370
    15
100
AcDbLine
 10
66.66456552273712
 20
378.0735384618447
 30
0.0
 11
72.62568524361131
 21
411.880728359406
 31
0.0
  0
LINE
  5
21C69
330
21C24
100
AcDbEntity
  8
02製品
  6
Continuous
370
    15
100
AcDbLine
 10
282.5979819355589
 20
532.3000000000002
 30
0.0
 11
279.5979819355593
 21
532.3000000000002
 31
0.0
  0
LINE
  5
21C6A
330
21C24
100
AcDbEntity
  8
02製品
  6
Continuous
370
    15
100
AcDbLine
 10
279.8123412895043
 20
531.5
 30
0.0
 11
282.5979819355589
 21
531.5
 31
0.0
  0
LINE
  5
21C6B
330
21C24
100
AcDbEntity
  8
02製品
  6
Continuous
370
    15
100
AcDbLine
 10
72.22130720807854
 20
409.5873865582353
 30
0.0
 11
0.1655566716613066
 21
0.9389185421332513
 31
0.0
  0
LINE
  5
21C6C
330
21C24
100
AcDbEntity
  8
02製品
  6
Continuous
370
    15
100
AcDbLine
 10
73.00915341048812
 20
409.4484680161013
 30
0.0
 11
72.22130720807854
 21
409.5873865582353
 31
0.0
  0
LINE
  5
21C6D
330
21C24
100
AcDbEntity
  8
02製品
  6
Continuous
370
    15
100
AcDbLine
 10
0.9534028740708891
 20
0.8000000000001819
 30
0.0
 11
0.1655566716613066
 21
0.9389185421332513
 31
0.0
  0
LINE
  5
21C6E
330
21C24
100
AcDbEntity
  8
02製品
  6
Continuous
370
    15
100
AcDbLine
 10
-0.0000000000045475
 20
0.0
 30
0.0
 11
0.81234128950382
 21
0.0
 31
0.0
  0
LINE
  5
21C6F
330
21C24
100
AcDbEntity
  8
02製品
  6
Continuous
370
    15
100
AcDbLine
 10
0.1655566716613066
 20
0.9389185421332513
 30
0.0
 11
-0.0000000000045475
 21
0.0
 31
0.0
  0
LINE
  5
21C70
330
21C24
100
AcDbEntity
  8
02製品
  6
Continuous
370
    15
100
AcDbLine
 10
0.81234128950382
 20
0.0
 30
0.0
 11
226.8123412895038
 21
0.0
 31
0.0
  0
LINE
  5
21C71
330
21C24
100
AcDbEntity
  8
02製品
  6
Continuous
370
    15
100
AcDbLine
 10
73.53009794348964
 20
412.4028912751382
 30
0.0
 11
0.81234128950382
 21
0.0
 31
0.0
  0
LINE
  5
21C72
330
21C24
100
AcDbEntity
  8
02製品
  6
Continuous
370
    15
100
AcDbLine
 10
279.8123412895043
 20
531.5
 30
0.0
 11
73.53009794348964
 21
412.4028912751382
 31
0.0
  0
LINE
  5
21C73
330
21C24
100
AcDbEntity
  8
02製品
  6
Continuous
370
    15
100
AcDbLine
 10
279.8123412895043
 20
487.0
 30
0.0
 11
279.8123412895043
 21
531.5
 31
0.0
  0
LINE
  5
21C74
330
21C24
100
AcDbEntity
  8
02製品
  6
Continuous
370
    15
100
AcDbLine
 10
279.8123412895043
 20
487.0
 30
0.0
 11
280.2123412895044
 21
487.0
 31
0.0
  0
LINE
  5
21C75
330
21C24
100
AcDbEntity
  8
02製品
  6
Continuous
370
    15
100
AcDbLine
 10
280.2123412895044
 20
487.0
 30
0.0
 11
280.2123412895044
 21
31.80000000000018
 31
0.0
  0
LINE
  5
21C76
330
21C24
100
AcDbEntity
  8
02製品
  6
Continuous
370
    15
100
AcDbLine
 10
280.2123412895044
 20
31.80000000000018
 30
0.0
 11
279.8123412895043
 21
31.80000000000018
 31
0.0
  0
LINE
  5
21C77
330
21C24
100
AcDbEntity
  8
02製品
  6
Continuous
370
    15
100
AcDbLine
 10
279.8123412895043
 20
30.0
 30
0.0
 11
279.8123412895043
 21
31.80000000000018
 31
0.0
  0
ARC
  5
21C78
330
21C24
100
AcDbEntity
  8
02製品
  6
Continuous
370
    15
100
AcDbCircle
 10
289.8123412895043
 20
30.0
 30
0.0
 40
10.0
100
AcDbArc
 50
180.0
 51
270.0
  0
LINE
  5
21C79
330
21C24
100
AcDbEntity
  8
02製品
  6
Continuous
370
    15
100
AcDbLine
 10
309.8123412895043
 20
20.0
 30
0.0
 11
289.8123412895043
 21
20.0
 31
0.0
  0
LINE
  5
21C7A
330
21C24
100
AcDbEntity
  8
02製品
  6
Continuous
370
    15
100
AcDbLine
 10
309.8123412895043
 20
1.800000000000182
 30
0.0
 11
309.8123412895043
 21
20.0
 31
0.0
  0
LINE
  5
21C7B
330
21C24
100
AcDbEntity
  8
02製品
  6
Continuous
370
    15
100
AcDbLine
 10
309.8123412895043
 20
1.800000000000182
 30
0.0
 11
226.8123412895038
 21
1.800000000000182
 31
0.0
  0
LINE
  5
21C7C
330
21C24
100
AcDbEntity
  8
02製品
  6
Continuous
370
    15
100
AcDbLine
 10
226.8123412895038
 20
1.800000000000182
 30
0.0
 11
226.8123412895038
 21
0.0
 31
0.0
  0
ARC
  5
21C7D
330
21C24
100
AcDbEntity
  8
02製品
  6
Continuous
370
    15
100
AcDbCircle
 10
131.4649490673305
 20
280.0
 30
0.0
 40
30.00000000000017
100
AcDbArc
 50
170.0000000000002
 51
270.0000000000009
  0
ARC
  5
21C7E
330
21C24
100
AcDbEntity
  8
02製品
  6
Continuous
370
    15
100
AcDbCircle
 10
187.8123412895038
 20
280.0
 30
0.0
 40
30.0
100
AcDbArc
 50
270.0000000000009
 51
0.0
  0
ARC
  5
21C7F
330
21C24
100
AcDbEntity
  8
02製品
  6
Continuous
370
    15
100
AcDbCircle
 10
187.8123412895038
 20
353.0384757729335
 30
0.0
 40
30.0
100
AcDbArc
 50
0.0
 51
119.9999999999999
  0
LINE
  5
21C80
330
21C24
100
AcDbEntity
  8
02製品
  6
Continuous
370
    15
100
AcDbLine
 10
172.8123412895038
 20
379.0192378864667
 30
0.0
 11
124.4168214677206
 21
351.0780714897883
 31
0.0
  0
ARC
  5
21C81
330
21C24
100
AcDbEntity
  8
02製品
  6
Continuous
370
    15
100
AcDbCircle
 10
139.4168214677206
 20
325.097309376255
 30
0.0
 40
30.00000000000029
100
AcDbArc
 50
119.9999999999999
 51
170.0000000000003
  0
LINE
  5
21C82
330
21C24
100
AcDbEntity
  8
02製品
  6
Continuous
370
    15
100
AcDbLine
 10
109.8725888773542
 20
330.3067547062628
 30
0.0
 11
101.9207164769641
 21
285.2094453300078
 31
0.0
  0
ARC
  5
21C83
330
21C24
100
AcDbEntity
  8
02製品
  6
Continuous
370
    15
100
AcDbCircle
 10
96.19955292563782
 20
80.0
 30
0.0
 40
30.00000000000014
100
AcDbArc
 50
170.0000000000002
 51
270.0000000000009
  0
LINE
  5
21C84
330
21C24
100
AcDbEntity
  8
02製品
  6
Continuous
370
    15
100
AcDbLine
 10
96.19955292563782
 20
50.0
 30
0.0
 11
187.8123412895038
 21
50.0
 31
0.0
  0
ARC
  5
21C85
330
21C24
100
AcDbEntity
  8
02製品
  6
Continuous
370
    15
100
AcDbCircle
 10
187.8123412895038
 20
80.0
 30
0.0
 40
30.0
100
AcDbArc
 50
270.0000000000009
 51
0.0
  0
LINE
  5
21C86
330
21C24
100
AcDbEntity
  8
02製品
  6
Continuous
370
    15
100
AcDbLine
 10
217.8123412895038
 20
80.0
 30
0.0
 11
217.8123412895038
 21
170.0
 31
0.0
  0
ARC
  5
21C87
330
21C24
100
AcDbEntity
  8
02製品
  6
Continuous
370
    15
100
AcDbCircle
 10
187.8123412895038
 20
170.0
 30
0.0
 40
30.0
100
AcDbArc
 50
0.0
 51
90.0
  0
LINE
  5
21C88
330
21C24
100
AcDbEntity
  8
02製品
  6
Continuous
370
    15
100
AcDbLine
 10
187.8123412895038
 20
200.0
 30
0.0
 11
112.0689811893994
 21
200.0
 31
0.0
  0
ARC
  5
21C89
330
21C24
100
AcDbEntity
  8
02製品
  6
Continuous
370
    15
100
AcDbCircle
 10
112.0689811893994
 20
170.0
 30
0.0
 40
30.0
100
AcDbArc
 50
90.0
 51
170.0000000000001
  0
LINE
  5
21C8A
330
21C24
100
AcDbEntity
  8
02製品
  6
Continuous
370
    15
100
AcDbLine
 10
82.5247485990335
 20
175.2094453300078
 30
0.0
 11
66.65532033527143
 21
85.20944533000784
 31
0.0
  0
CIRCLE
  5
21C8B
330
21C24
100
AcDbEntity
  8
02製品
  6
Continuous
370
    15
100
AcDbCircle
 10
266.8123412895043
 20
10.0
 30
0.0
 40
3.5
  0
CIRCLE
  5
21C8C
330
21C24
100
AcDbEntity
  8
02製品
  6
Continuous
370
    15
100
AcDbCircle
 10
296.8123412895043
 20
10.0
 30
0.0
 40
3.5
  0
LINE
  5
21C8D
330
21C24
100
AcDbEntity
  8
02製品
  6
Continuous
370
    15
100
AcDbLine
 10
217.8123412895038
 20
280.0
 30
0.0
 11
217.8123412895038
 21
353.0384757729335
 31
0.0
  0
LINE
  5
21C8E
330
21C24
100
AcDbEntity
  8
02製品
  6
Continuous
370
    15
100
AcDbLine
 10
131.4649490673305
 20
250.0
 30
0.0
 11
187.8123412895038
 21
250.0
 31
0.0
  0
LINE
  5
21C8F
330
21C24
100
AcDbEntity
  8
02製品
  6
Continuous
370
    15
100
AcDbLine
 10
281.8123412895043
 20
31.80000000000018
 30
0.0
 11
280.2123412895044
 21
31.80000000000018
 31
0.0
  0
LINE
  5
21C90
330
21C24
100
AcDbEntity
  8
02製品
  6
Continuous
370
    15
100
AcDbLine
 10
280.2123412895044
 20
487.0
 30
0.0
 11
281.8123412895043
 21
487.0
 31
0.0
  0
ENDBLK
  5
21C92
330
21C24
100
AcDbEntity
  8
0
100
AcDbBlockEnd
  0
BLOCK
  5
225C5
330
225C4
100
AcDbEntity
  8
0
100
AcDbBlockBegin
  2
*D682
 70
     1
 10
0.0
 20
0.0
 30
0.0
  3
*D682
  1

  0
LINE
  5
225C7
330
225C4
100
AcDbEntity
  8
01注記寸法
 62
     0
370
    -2
100
AcDbLine
 10
1756.00874319449
 20
3731.071535654703
 30
0.0
 11
1756.00874319449
 21
4377.689801446109
 31
0.0
  0
LINE
  5
225C8
330
225C4
100
AcDbEntity
  8
01注記寸法
 62
     0
370
    -2
100
AcDbLine
 10
2071.606725130054
 20
4283.571535654703
 30
0.0
 11
2071.606725130054
 21
4377.689801446109
 31
0.0
  0
LINE
  5
225C9
330
225C4
100
AcDbEntity
  8
01注記寸法
 62
     0
370
    -2
100
AcDbLine
 10
1780.00874319449
 20
4369.689801446109
 30
0.0
 11
2047.606725130054
 21
4369.689801446109
 31
0.0
  0
INSERT
  5
225CA
330
225C4
100
AcDbEntity
  8
01注記寸法
 62
     0
370
    -2
100
AcDbBlockReference
  2
_Open
 10
1756.00874319449
 20
4369.689801446109
 30
0.0
 41
24.0
 42
24.0
 43
24.0
 50
180.0
  0
INSERT
  5
225CB
330
225C4
100
AcDbEntity
  8
01注記寸法
 62
     0
370
    -2
100
AcDbBlockReference
  2
_Open
 10
2071.606725130054
 20
4369.689801446109
 30
0.0
 41
24.0
 42
24.0
 43
24.0
  0
MTEXT
  5
225CC
330
225C4
100
AcDbEntity
  8
01注記寸法
 62
     0
100
AcDbMText
 10
1913.807734162272
 20
4391.699054916161
 30
0.0
 40
24.0
 41
0.0
 71
     5
 72
     1
  1
(315.6)
 73
     1
 44
1.0
  0
POINT
  5
225CD
330
225C4
100
AcDbEntity
  8
Defpoints
 62
     0
100
AcDbPoint
 10
1756.00874319449
 20
3719.071535654703
 30
0.0
  0
POINT
  5
225CE
330
225C4
100
AcDbEntity
  8
Defpoints
 62
     0
100
AcDbPoint
 10
2071.606725130054
 20
4271.571535654703
 30
0.0
  0
POINT
  5
225CF
330
225C4
100
AcDbEntity
  8
Defpoints
 62
     0
100
AcDbPoint
 10
2071.606725130054
 20
4369.689801446109
 30
0.0
  0
ENDBLK
  5
225C6
330
225C4
100
AcDbEntity
  8
0
100
AcDbBlockEnd
  0
BLOCK
  5
225D1
330
225D0
100
AcDbEntity
  8
0
100
AcDbBlockBegin
  2
*D683
 70
     1
 10
0.0
 20
0.0
 30
0.0
  3
*D683
  1

  0
LINE
  5
225D3
330
225D0
100
AcDbEntity
  8
01注記寸法
 62
     0
370
    -2
100
AcDbLine
 10
607.1550702831537
 20
3707.071535654701
 30
0.0
 11
607.1550702831537
 21
3584.337920631191
 31
0.0
  0
LINE
  5
225D4
330
225D0
100
AcDbEntity
  8
01注記寸法
 62
     0
370
    -2
100
AcDbLine
 10
1127.155070283153
 20
3707.071535654701
 30
0.0
 11
1127.155070283153
 21
3584.337920631191
 31
0.0
  0
LINE
  5
225D5
330
225D0
100
AcDbEntity
  8
01注記寸法
 62
     0
370
    -2
100
AcDbLine
 10
631.1550702831537
 20
3592.337920631191
 30
0.0
 11
1103.155070283153
 21
3592.337920631191
 31
0.0
  0
INSERT
  5
225D6
330
225D0
100
AcDbEntity
  8
01注記寸法
 62
     0
370
    -2
100
AcDbBlockReference
  2
_Open
 10
607.1550702831537
 20
3592.337920631191
 30
0.0
 41
24.0
 42
24.0
 43
24.0
 50
180.0
  0
INSERT
  5
225D7
330
225D0
100
AcDbEntity
  8
01注記寸法
 62
     0
370
    -2
100
AcDbBlockReference
  2
_Open
 10
1127.155070283153
 20
3592.337920631191
 30
0.0
 41
24.0
 42
24.0
 43
24.0
  0
MTEXT
  5
225D8
330
225D0
100
AcDbEntity
  8
01注記寸法
 62
     0
100
AcDbMText
 10
867.1550702831532
 20
3612.342422319324
 30
0.0
 40
24.0
 41
0.0
 71
     5
 72
     1
  1
520
 73
     1
 44
1.0
  0
POINT
  5
225D9
330
225D0
100
AcDbEntity
  8
Defpoints
 62
     0
100
AcDbPoint
 10
607.1550702831537
 20
3719.071535654701
 30
0.0
  0
POINT
  5
225DA
330
225D0
100
AcDbEntity
  8
Defpoints
 62
     0
100
AcDbPoint
 10
1127.155070283153
 20
3719.071535654701
 30
0.0
  0
POINT
  5
225DB
330
225D0
100
AcDbEntity
  8
Defpoints
 62
     0
100
AcDbPoint
 10
1127.155070283153
 20
3592.337920631191
 30
0.0
  0
ENDBLK
  5
225D2
330
225D0
100
AcDbEntity
  8
0
100
AcDbBlockEnd
  0
BLOCK
  5
225DD
330
225DC
100
AcDbEntity
  8
0
100
AcDbBlockBegin
  2
*D684
 70
     1
 10
0.0
 20
0.0
 30
0.0
  3
*D684
  1

  0
LINE
  5
225DF
330
225DC
100
AcDbEntity
  8
01注記寸法
 62
     0
370
    -2
100
AcDbLine
 10
1117.855070283154
 20
4271.571535654701
 30
0.0
 11
1288.316425484368
 21
4271.571535654701
 31
0.0
  0
LINE
  5
225E0
330
225DC
100
AcDbEntity
  8
01注記寸法
 62
     0
370
    -2
100
AcDbLine
 10
1139.155070283153
 20
3719.071535654701
 30
0.0
 11
1288.316425484368
 21
3719.071535654701
 31
0.0
  0
LINE
  5
225E1
330
225DC
100
AcDbEntity
  8
01注記寸法
 62
     0
370
    -2
100
AcDbLine
 10
1280.316425484368
 20
4247.571535654701
 30
0.0
 11
1280.316425484368
 21
3743.071535654701
 31
0.0
  0
INSERT
  5
225E2
330
225DC
100
AcDbEntity
  8
01注記寸法
 62
     0
370
    -2
100
AcDbBlockReference
  2
_Open
 10
1280.316425484368
 20
4271.571535654701
 30
0.0
 41
24.0
 42
24.0
 43
24.0
 50
90.0
  0
INSERT
  5
225E3
330
225DC
100
AcDbEntity
  8
01注記寸法
 62
     0
370
    -2
100
AcDbBlockReference
  2
_Open
 10
1280.316425484368
 20
3719.071535654701
 30
0.0
 41
24.0
 42
24.0
 43
24.0
 50
270.0
  0
MTEXT
  5
225E4
330
225DC
100
AcDbEntity
  8
01注記寸法
 62
     0
100
AcDbMText
 10
1260.311923796234
 20
3995.321535654701
 30
0.0
 40
24.0
 41
0.0
 71
     5
 72
     1
  1
552.5
 11
0.0
 21
1.0
 31
0.0
 73
     1
 44
1.0
  0
POINT
  5
225E5
330
225DC
100
AcDbEntity
  8
Defpoints
 62
     0
100
AcDbPoint
 10
1105.855070283154
 20
4271.571535654701
 30
0.0
  0
POINT
  5
225E6
330
225DC
100
AcDbEntity
  8
Defpoints
 62
     0
100
AcDbPoint
 10
1127.155070283153
 20
3719.071535654701
 30
0.0
  0
POINT
  5
225E7
330
225DC
100
AcDbEntity
  8
Defpoints
 62
     0
100
AcDbPoint
 10
1280.316425484368
 20
3719.071535654701
 30
0.0
  0
ENDBLK
  5
225DE
330
225DC
100
AcDbEntity
  8
0
100
AcDbBlockEnd
  0
BLOCK
  5
225EE
330
225ED
100
AcDbEntity
  8
0
100
AcDbBlockBegin
  2
*D685
 70
     1
 10
0.0
 20
0.0
 30
0.0
  3
*D685
  1

  0
LINE
  5
225F0
330
225ED
100
AcDbEntity
  8
01注記寸法
 62
     0
370
    -2
100
AcDbLine
 10
1756.00874319449
 20
795.0715356547016
 30
0.0
 11
1756.00874319449
 21
1441.689801446109
 31
0.0
  0
LINE
  5
225F1
330
225ED
100
AcDbEntity
  8
01注記寸法
 62
     0
370
    -2
100
AcDbLine
 10
2071.606725130054
 20
1347.571535654702
 30
0.0
 11
2071.606725130054
 21
1441.689801446109
 31
0.0
  0
LINE
  5
225F2
330
225ED
100
AcDbEntity
  8
01注記寸法
 62
     0
370
    -2
100
AcDbLine
 10
1780.00874319449
 20
1433.689801446109
 30
0.0
 11
2047.606725130054
 21
1433.689801446109
 31
0.0
  0
INSERT
  5
225F3
330
225ED
100
AcDbEntity
  8
01注記寸法
 62
     0
370
    -2
100
AcDbBlockReference
  2
_Open
 10
1756.00874319449
 20
1433.689801446109
 30
0.0
 41
24.0
 42
24.0
 43
24.0
 50
180.0
  0
INSERT
  5
225F4
330
225ED
100
AcDbEntity
  8
01注記寸法
 62
     0
370
    -2
100
AcDbBlockReference
  2
_Open
 10
2071.606725130054
 20
1433.689801446109
 30
0.0
 41
24.0
 42
24.0
 43
24.0
  0
MTEXT
  5
225F5
330
225ED
100
AcDbEntity
  8
01注記寸法
 62
     0
100
AcDbMText
 10
1913.807734162272
 20
1455.69905491616
 30
0.0
 40
24.0
 41
0.0
 71
     5
 72
     1
  1
(315.6)
 73
     1
 44
1.0
  0
POINT
  5
225F6
330
225ED
100
AcDbEntity
  8
Defpoints
 62
     0
100
AcDbPoint
 10
1756.00874319449
 20
783.0715356547016
 30
0.0
  0
POINT
  5
225F7
330
225ED
100
AcDbEntity
  8
Defpoints
 62
     0
100
AcDbPoint
 10
2071.606725130054
 20
1335.571535654702
 30
0.0
  0
POINT
  5
225F8
330
225ED
100
AcDbEntity
  8
Defpoints
 62
     0
100
AcDbPoint
 10
2071.606725130054
 20
1433.689801446109
 30
0.0
  0
ENDBLK
  5
225EF
330
225ED
100
AcDbEntity
  8
0
100
AcDbBlockEnd
  0
BLOCK
  5
225FA
330
225F9
100
AcDbEntity
  8
0
100
AcDbBlockBegin
  2
*D686
 70
     1
 10
0.0
 20
0.0
 30
0.0
  3
*D686
  1

  0
LINE
  5
225FC
330
225F9
100
AcDbEntity
  8
01注記寸法
 62
     0
370
    -2
100
AcDbLine
 10
607.1550702831536
 20
771.0715356546998
 30
0.0
 11
607.1550702831536
 21
648.3379206311902
 31
0.0
  0
LINE
  5
225FD
330
225F9
100
AcDbEntity
  8
01注記寸法
 62
     0
370
    -2
100
AcDbLine
 10
1127.155070283153
 20
771.0715356546998
 30
0.0
 11
1127.155070283153
 21
648.3379206311902
 31
0.0
  0
LINE
  5
225FE
330
225F9
100
AcDbEntity
  8
01注記寸法
 62
     0
370
    -2
100
AcDbLine
 10
631.1550702831536
 20
656.3379206311902
 30
0.0
 11
1103.155070283153
 21
656.3379206311902
 31
0.0
  0
INSERT
  5
225FF
330
225F9
100
AcDbEntity
  8
01注記寸法
 62
     0
370
    -2
100
AcDbBlockReference
  2
_Open
 10
607.1550702831536
 20
656.3379206311902
 30
0.0
 41
24.0
 42
24.0
 43
24.0
 50
180.0
  0
INSERT
  5
22600
330
225F9
100
AcDbEntity
  8
01注記寸法
 62
     0
370
    -2
100
AcDbBlockReference
  2
_Open
 10
1127.155070283153
 20
656.3379206311902
 30
0.0
 41
24.0
 42
24.0
 43
24.0
  0
MTEXT
  5
22601
330
225F9
100
AcDbEntity
  8
01注記寸法
 62
     0
100
AcDbMText
 10
867.155070283153
 20
676.3424223193232
 30
0.0
 40
24.0
 41
0.0
 71
     5
 72
     1
  1
520
 73
     1
 44
1.0
  0
POINT
  5
22602
330
225F9
100
AcDbEntity
  8
Defpoints
 62
     0
100
AcDbPoint
 10
607.1550702831536
 20
783.0715356546998
 30
0.0
  0
POINT
  5
22603
330
225F9
100
AcDbEntity
  8
Defpoints
 62
     0
100
AcDbPoint
 10
1127.155070283153
 20
783.0715356546998
 30
0.0
  0
POINT
  5
22604
330
225F9
100
AcDbEntity
  8
Defpoints
 62
     0
100
AcDbPoint
 10
1127.155070283153
 20
656.3379206311902
 30
0.0
  0
ENDBLK
  5
225FB
330
225F9
100
AcDbEntity
  8
0
100
AcDbBlockEnd
  0
BLOCK
  5
22606
330
22605
100
AcDbEntity
  8
0
100
AcDbBlockBegin
  2
*D687
 70
     1
 10
0.0
 20
0.0
 30
0.0
  3
*D687
  1

  0
LINE
  5
22608
330
22605
100
AcDbEntity
  8
01注記寸法
 62
     0
370
    -2
100
AcDbLine
 10
1117.855070283153
 20
1335.5715356547
 30
0.0
 11
1288.316425484367
 21
1335.5715356547
 31
0.0
  0
LINE
  5
22609
330
22605
100
AcDbEntity
  8
01注記寸法
 62
     0
370
    -2
100
AcDbLine
 10
1139.155070283153
 20
783.0715356546998
 30
0.0
 11
1288.316425484367
 21
783.0715356546998
 31
0.0
  0
LINE
  5
2260A
330
22605
100
AcDbEntity
  8
01注記寸法
 62
     0
370
    -2
100
AcDbLine
 10
1280.316425484367
 20
1311.5715356547
 30
0.0
 11
1280.316425484367
 21
807.0715356546998
 31
0.0
  0
INSERT
  5
2260B
330
22605
100
AcDbEntity
  8
01注記寸法
 62
     0
370
    -2
100
AcDbBlockReference
  2
_Open
 10
1280.316425484367
 20
1335.5715356547
 30
0.0
 41
24.0
 42
24.0
 43
24.0
 50
90.0
  0
INSERT
  5
2260C
330
22605
100
AcDbEntity
  8
01注記寸法
 62
     0
370
    -2
100
AcDbBlockReference
  2
_Open
 10
1280.316425484367
 20
783.0715356546998
 30
0.0
 41
24.0
 42
24.0
 43
24.0
 50
270.0
  0
MTEXT
  5
2260D
330
22605
100
AcDbEntity
  8
01注記寸法
 62
     0
100
AcDbMText
 10
1260.311923796234
 20
1059.3215356547
 30
0.0
 40
24.0
 41
0.0
 71
     5
 72
     1
  1
552.5
 11
0.0
 21
1.0
 31
0.0
 73
     1
 44
1.0
  0
POINT
  5
2260E
330
22605
100
AcDbEntity
  8
Defpoints
 62
     0
100
AcDbPoint
 10
1105.855070283153
 20
1335.5715356547
 30
0.0
  0
POINT
  5
2260F
330
22605
100
AcDbEntity
  8
Defpoints
 62
     0
100
AcDbPoint
 10
1127.155070283153
 20
783.0715356546998
 30
0.0
  0
POINT
  5
22610
330
22605
100
AcDbEntity
  8
Defpoints
 62
     0
100
AcDbPoint
 10
1280.316425484367
 20
783.0715356546998
 30
0.0
  0
ENDBLK
  5
22607
330
22605
100
AcDbEntity
  8
0
100
AcDbBlockEnd
  0
BLOCK
  5
22617
330
22616
100
AcDbEntity
  8
0
100
AcDbBlockBegin
  2
*D688
 70
     1
 10
0.0
 20
0.0
 30
0.0
  3
*D688
  1

  0
LINE
  5
22619
330
22616
100
AcDbEntity
  8
01注記寸法
 62
     0
370
    -2
100
AcDbLine
 10
1756.008743194489
 20
-2140.928464345299
 30
0.0
 11
1756.008743194489
 21
-1494.310198553892
 31
0.0
  0
LINE
  5
2261A
330
22616
100
AcDbEntity
  8
01注記寸法
 62
     0
370
    -2
100
AcDbLine
 10
2071.606725130053
 20
-1588.428464345299
 30
0.0
 11
2071.606725130053
 21
-1494.310198553892
 31
0.0
  0
LINE
  5
2261B
330
22616
100
AcDbEntity
  8
01注記寸法
 62
     0
370
    -2
100
AcDbLine
 10
1780.008743194489
 20
-1502.310198553892
 30
0.0
 11
2047.606725130053
 21
-1502.310198553892
 31
0.0
  0
INSERT
  5
2261C
330
22616
100
AcDbEntity
  8
01注記寸法
 62
     0
370
    -2
100
AcDbBlockReference
  2
_Open
 10
1756.008743194489
 20
-1502.310198553892
 30
0.0
 41
24.0
 42
24.0
 43
24.0
 50
180.0
  0
INSERT
  5
2261D
330
22616
100
AcDbEntity
  8
01注記寸法
 62
     0
370
    -2
100
AcDbBlockReference
  2
_Open
 10
2071.606725130053
 20
-1502.310198553892
 30
0.0
 41
24.0
 42
24.0
 43
24.0
  0
MTEXT
  5
2261E
330
22616
100
AcDbEntity
  8
01注記寸法
 62
     0
100
AcDbMText
 10
1913.807734162271
 20
-1480.300945083841
 30
0.0
 40
24.0
 41
0.0
 71
     5
 72
     1
  1
(315.6)
 73
     1
 44
1.0
  0
POINT
  5
2261F
330
22616
100
AcDbEntity
  8
Defpoints
 62
     0
100
AcDbPoint
 10
1756.008743194489
 20
-2152.928464345299
 30
0.0
  0
POINT
  5
22620
330
22616
100
AcDbEntity
  8
Defpoints
 62
     0
100
AcDbPoint
 10
2071.606725130053
 20
-1600.428464345299
 30
0.0
  0
POINT
  5
22621
330
22616
100
AcDbEntity
  8
Defpoints
 62
     0
100
AcDbPoint
 10
2071.606725130053
 20
-1502.310198553892
 30
0.0
  0
ENDBLK
  5
22618
330
22616
100
AcDbEntity
  8
0
100
AcDbBlockEnd
  0
BLOCK
  5
22623
330
22622
100
AcDbEntity
  8
0
100
AcDbBlockBegin
  2
*D689
 70
     1
 10
0.0
 20
0.0
 30
0.0
  3
*D689
  1

  0
LINE
  5
22625
330
22622
100
AcDbEntity
  8
01注記寸法
 62
     0
370
    -2
100
AcDbLine
 10
607.1550702831528
 20
-2164.928464345301
 30
0.0
 11
607.1550702831528
 21
-2287.662079368811
 31
0.0
  0
LINE
  5
22626
330
22622
100
AcDbEntity
  8
01注記寸法
 62
     0
370
    -2
100
AcDbLine
 10
1127.155070283152
 20
-2164.928464345301
 30
0.0
 11
1127.155070283152
 21
-2287.662079368811
 31
0.0
  0
LINE
  5
22627
330
22622
100
AcDbEntity
  8
01注記寸法
 62
     0
370
    -2
100
AcDbLine
 10
631.1550702831528
 20
-2279.662079368811
 30
0.0
 11
1103.155070283152
 21
-2279.662079368811
 31
0.0
  0
INSERT
  5
22628
330
22622
100
AcDbEntity
  8
01注記寸法
 62
     0
370
    -2
100
AcDbBlockReference
  2
_Open
 10
607.1550702831528
 20
-2279.662079368811
 30
0.0
 41
24.0
 42
24.0
 43
24.0
 50
180.0
  0
INSERT
  5
22629
330
22622
100
AcDbEntity
  8
01注記寸法
 62
     0
370
    -2
100
AcDbBlockReference
  2
_Open
 10
1127.155070283152
 20
-2279.662079368811
 30
0.0
 41
24.0
 42
24.0
 43
24.0
  0
MTEXT
  5
2262A
330
22622
100
AcDbEntity
  8
01注記寸法
 62
     0
100
AcDbMText
 10
867.1550702831523
 20
-2259.657577680678
 30
0.0
 40
24.0
 41
0.0
 71
     5
 72
     1
  1
520
 73
     1
 44
1.0
  0
POINT
  5
2262B
330
22622
100
AcDbEntity
  8
Defpoints
 62
     0
100
AcDbPoint
 10
607.1550702831528
 20
-2152.928464345301
 30
0.0
  0
POINT
  5
2262C
330
22622
100
AcDbEntity
  8
Defpoints
 62
     0
100
AcDbPoint
 10
1127.155070283152
 20
-2152.928464345301
 30
0.0
  0
POINT
  5
2262D
330
22622
100
AcDbEntity
  8
Defpoints
 62
     0
100
AcDbPoint
 10
1127.155070283152
 20
-2279.662079368811
 30
0.0
  0
ENDBLK
  5
22624
330
22622
100
AcDbEntity
  8
0
100
AcDbBlockEnd
  0
BLOCK
  5
2262F
330
2262E
100
AcDbEntity
  8
0
100
AcDbBlockBegin
  2
*D690
 70
     1
 10
0.0
 20
0.0
 30
0.0
  3
*D690
  1

  0
LINE
  5
22631
330
2262E
100
AcDbEntity
  8
01注記寸法
 62
     0
370
    -2
100
AcDbLine
 10
1117.855070283153
 20
-1600.428464345301
 30
0.0
 11
1288.316425484367
 21
-1600.428464345301
 31
0.0
  0
LINE
  5
22632
330
2262E
100
AcDbEntity
  8
01注記寸法
 62
     0
370
    -2
100
AcDbLine
 10
1139.155070283152
 20
-2152.928464345301
 30
0.0
 11
1288.316425484367
 21
-2152.928464345301
 31
0.0
  0
LINE
  5
22633
330
2262E
100
AcDbEntity
  8
01注記寸法
 62
     0
370
    -2
100
AcDbLine
 10
1280.316425484367
 20
-1624.428464345301
 30
0.0
 11
1280.316425484367
 21
-2128.928464345301
 31
0.0
  0
INSERT
  5
22634
330
2262E
100
AcDbEntity
  8
01注記寸法
 62
     0
370
    -2
100
AcDbBlockReference
  2
_Open
 10
1280.316425484367
 20
-1600.428464345301
 30
0.0
 41
24.0
 42
24.0
 43
24.0
 50
90.0
  0
INSERT
  5
22635
330
2262E
100
AcDbEntity
  8
01注記寸法
 62
     0
370
    -2
100
AcDbBlockReference
  2
_Open
 10
1280.316425484367
 20
-2152.928464345301
 30
0.0
 41
24.0
 42
24.0
 43
24.0
 50
270.0
  0
MTEXT
  5
22636
330
2262E
100
AcDbEntity
  8
01注記寸法
 62
     0
100
AcDbMText
 10
1260.311923796233
 20
-1876.678464345301
 30
0.0
 40
24.0
 41
0.0
 71
     5
 72
     1
  1
552.5
 11
0.0
 21
1.0
 31
0.0
 73
     1
 44
1.0
  0
POINT
  5
22637
330
2262E
100
AcDbEntity
  8
Defpoints
 62
     0
100
AcDbPoint
 10
1105.855070283153
 20
-1600.428464345301
 30
0.0
  0
POINT
  5
22638
330
2262E
100
AcDbEntity
  8
Defpoints
 62
     0
100
AcDbPoint
 10
1127.155070283152
 20
-2152.928464345301
 30
0.0
  0
POINT
  5
22639
330
2262E
100
AcDbEntity
  8
Defpoints
 62
     0
100
AcDbPoint
 10
1280.316425484367
 20
-2152.928464345301
 30
0.0
  0
ENDBLK
  5
22630
330
2262E
100
AcDbEntity
  8
0
100
AcDbBlockEnd
  0
ENDSEC
  0
SECTION
  2
ENTITIES
  0
INSERT
  5
225BF
330
1F
100
AcDbEntity
  8
02製品
100
AcDbBlockReference
  2
A$C2706
 10
607.1550702831526
 20
3719.071535654701
 30
0.0
  0
INSERT
  5
225C0
330
1F
100
AcDbEntity
  8
02製品
100
AcDbBlockReference
  2
A$C14466
 10
1756.008743194495
 20
3719.071535654703
 30
0.0
  0
ENDSEC
  0
SECTION
  2
OBJECTS
  0
DICTIONARY
  5
C
330
0
100
AcDbDictionary
281
     1
  3
ACAD_DETAILVIEWSTYLE
350
ADAF
  3
ACAD_GROUP
350
D
  3
ACAD_IMAGE_VARS
350
6A88
  3
ACAD_LAYOUT
350
1A
  3
ACAD_MLINESTYLE
350
17
  3
ACAD_PLOTSETTINGS
350
19
  3
ACAD_PLOTSTYLENAME
350
E
  3
ACAD_SCALELIST
350
6A4E
  3
ACAD_SECTIONVIEWSTYLE
350
ADB0
  3
AcadDim
350
813A
  3
AcDbVariableDictionary
350
79E
  3
AEC_DISP_REPS
350
8259
  3
AEC_DISPLAY_PROPS_DEFAULTS
350
825B
  3
AEC_VARS
350
8257
  3
APPDATA
350
6A87
  3
DWGPROPS
350
2263B
  0
DICTIONARY
  5
7A6F
330
2
100
AcDbDictionary
280
     1
281
     1
  3
ACAD_LAYERSTATES
360
7A70
  3
ACLYDICTIONARY
360
1C9F6
  0
DICTIONARY
  5
21DA0
330
21D9F
100
AcDbDictionary
280
     1
281
     1
  3
ADSK_XREC_VTR_ANNOSCALE_DATA
360
21DA1
  3
ADSK_XREC_VTRVIEWINFO
360
21DA2
  0
DICTIONARY
  5
21DA4
330
21DA3
100
AcDbDictionary
280
     1
281
     1
  3
ADSK_XREC_VTR_ANNOSCALE_DATA
360
21DA5
  3
ADSK_XREC_VTRVIEWINFO
360
21DA6
  0
DICTIONARY
  5
21DA8
330
21DA7
100
AcDbDictionary
280
     1
281
     1
  3
ADSK_XREC_VTR_ANNOSCALE_DATA
360
21DA9
  3
ADSK_XREC_VTRVIEWINFO
360
21DAA
  0
DICTIONARY
  5
CBD6
330
1F
100
AcDbDictionary
280
     1
281
     1
  3
ACAD_SORTENTS
360
CBD7
  3
DIM_BOUNDING_BOXES_V1
360
2263A
  0
DICTIONARY
  5
D175
330
D149
100
AcDbDictionary
280
     1
281
     1
  3
ACAD_SORTENTS
360
D176
  0
DICTIONARY
  5
D241
330
D215
100
AcDbDictionary
280
     1
281
     1
  3
ACAD_SORTENTS
360
D242
  0
DICTIONARY
  5
D276
330
D24A
100
AcDbDictionary
280
     1
281
     1
  3
ACAD_SORTENTS
360
D277
  0
DICTIONARY
  5
D2FD
330
D2D1
100
AcDbDictionary
280
     1
281
     1
  3
ACAD_SORTENTS
360
D2FE
  0
DICTIONARY
  5
D332
330
D306
100
AcDbDictionary
280
     1
281
     1
  3
ACAD_SORTENTS
360
D333
  0
DICTIONARY
  5
D36C
330
D340
100
AcDbDictionary
280
     1
281
     1
  3
ACAD_SORTENTS
360
D36D
  0
DICTIONARY
  5
21A42
330
21A22
100
AcDbDictionary
280
     1
281
     1
  3
ACAD_SORTENTS
360
21A43
  0
DICTIONARY
  5
21C44
330
21C24
100
AcDbDictionary
280
     1
281
     1
  3
ACAD_SORTENTS
360
21C45
  0
DICTIONARY
  5
ADAF
102
{ACAD_REACTORS
330
C
102
}
330
C
100
AcDbDictionary
281
     1
  0
DICTIONARY
  5
D
102
{ACAD_REACTORS
330
C
102
}
330
C
100
AcDbDictionary
281
     1
  0
RASTERVARIABLES
  5
6A88
102
{ACAD_REACTORS
330
C
102
}
330
C
100
AcDbRasterVariables
 90
        0
 70
     1
 71
     1
 72
     1
  0
DICTIONARY
  5
1A
102
{ACAD_REACTORS
330
C
102
}
330
C
100
AcDbDictionary
281
     1
  3
Layout1
350
1E
  3
Layout2
350
26
  3
Model
350
22
  0
DICTIONARY
  5
17
102
{ACAD_REACTORS
330
C
102
}
330
C
100
AcDbDictionary
281
     1
  3
Standard
350
18
  0
DICTIONARY
  5
19
102
{ACAD_REACTORS
330
C
102
}
330
C
100
AcDbDictionary
281
     1
  0
ACDBDICTIONARYWDFLT
  5
E
102
{ACAD_REACTORS
330
C
102
}
330
C
100
AcDbDictionary
281
     1
  3
Normal
350
F
100
AcDbDictionaryWithDefault
340
F
  0
DICTIONARY
  5
6A4E
102
{ACAD_REACTORS
330
C
102
}
330
C
100
AcDbDictionary
281
     1
  3
A0
350
6A4F
  3
A1
350
6A50
  3
A2
350
6A51
  3
A3
350
6A52
  3
A4
350
6A53
  3
A5
350
6A54
  3
A6
350
6A55
  3
A7
350
6A56
  3
A8
350
6A57
  3
A9
350
6A58
  3
B0
350
6A59
  3
B1
350
6A5A
  3
B2
350
6A5B
  3
B3
350
6A5C
  3
B4
350
6A5D
  3
B5
350
6A5E
  3
B6
350
6A5F
  3
B7
350
6A60
  3
B8
350
6A61
  3
B9
350
6A62
  3
C0
350
6A63
  3
C1
350
6A64
  3
C2
350
6A65
  3
C3
350
6A66
  3
C4
350
6A67
  3
C5
350
6A68
  3
C6
350
6A69
  3
C7
350
6A6A
  3
C8
350
6A6B
  3
C9
350
6A6C
  3
D0
350
6A6D
  3
D1
350
6A6E
  3
D2
350
6A6F
  0
DICTIONARY
  5
ADB0
102
{ACAD_REACTORS
330
C
102
}
330
C
100
AcDbDictionary
281
     1
  0
XRECORD
  5
813A
102
{ACAD_REACTORS
330
C
102
}
330
C
100
AcDbXrecord
280
     1
340
0
 72
     0
 71
     0
 70
     0
 69
     0
 68
     1
 67
     3
 66
     0
 65
     0
 64
     0
 63
     3
 62
     1
 61
     0
 60
     0
 40
0.0
  0
DICTIONARY
  5
79E
102
{ACAD_REACTORS
330
C
102
}
330
C
100
AcDbDictionary
281
     1
  3
DIMASSOC
350
79F
  3
SORTENTS
350
264F
  0
DICTIONARY
  5
8259
102
{ACAD_REACTORS
330
C
102
}
330
C
100
AcDbDictionary
281
     1
  3
AecDbDispRep2dSection
350
825A
  3
AecDbDispRepAnchor
350
8294
  3
AecDbDispRepAnchorEntToNode
350
8295
  3
AecDbDispRepClipVolModel
350
8261
  3
AecDbDispRepClipVolPlan
350
8263
  3
AecDbDispRepClipVolResSubDiv
350
8266
  3
AecDbDispRepClipVolResult
350
8265
  3
AecDbDispRepDisplayTheme
350
8268
  3
AecDbDispRepEditInPlaceProfile
350
8299
  3
AecDbDispRepEntRef
350
826A
  3
AecDbDispRepLayoutCurve
350
826C
  3
AecDbDispRepLayoutGrid2d
350
826E
  3
AecDbDispRepLayoutGrid3d
350
8270
  3
AecDbDispRepMaskBlockRef
350
8272
  3
AecDbDispRepMaskBlockRefRcp
350
8274
  3
AecDbDispRepMassElemModel
350
8276
  3
AecDbDispRepMassElemPlan100
350
827C
  3
AecDbDispRepMassElemPlan50
350
827A
  3
AecDbDispRepMassElemRcp
350
827E
  3
AecDbDispRepMassElemSchem
350
8278
  3
AecDbDispRepMassGroupModel
350
8280
  3
AecDbDispRepMassGroupPlan
350
8282
  3
AecDbDispRepMassGroupPlan100
350
8286
  3
AecDbDispRepMassGroupPlan50
350
8284
  3
AecDbDispRepMassGroupRcp
350
8288
  3
AecDbDispRepMaterial
350
8297
  3
AecDbDispRepMvBlockRef
350
828A
  3
AecDbDispRepMvBlockRefModel
350
828B
  3
AecDbDispRepMvBlockRefPlan100
350
828C
  3
AecDbDispRepMvBlockRefPlan50
350
828D
  3
AecDbDispRepPolygonModel
350
828E
  3
AecDbDispRepPolygonTrueColour
350
8290
  3
AecDbDispRepSlice
350
8292
  0
DICTIONARY
  5
825B
102
{ACAD_REACTORS
330
C
102
}
330
C
100
AcDbDictionary
281
     1
  3
*A1
350
825C
  3
*A10
350
827D
  3
*A11
350
827F
  3
*A12
350
8296
  3
*A13
350
8281
  3
*A14
350
8285
  3
*A15
350
8262
  3
*A16
350
8287
  3
*A17
350
8289
  3
*A18
350
828F
  3
*A19
350
8291
  3
*A2
350
826D
  3
*A20
350
8293
  3
*A21
350
8298
  3
*A22
350
8273
  3
*A23
350
829A
  3
*A24
350
8264
  3
*A25
350
8267
  3
*A26
350
8269
  3
*A27
350
826B
  3
*A3
350
826F
  3
*A4
350
8283
  3
*A5
350
8271
  3
*A6
350
8275
  3
*A7
350
8277
  3
*A8
350
8279
  3
*A9
350
827B
  0
DICTIONARY
  5
8257
102
{ACAD_REACTORS
330
C
102
}
330
C
100
AcDbDictionary
281
     1
  3
AEC_VARS_DWG_SETUP
350
8258
  0
DICTIONARY
  5
6A87
102
{ACAD_REACTORS
330
C
102
}
330
C
100
AcDbDictionary
281
     1
  0
XRECORD
  5
2263B
102
{ACAD_REACTORS
330
C
102
}
330
C
100
AcDbXrecord
280
     1
  1
DWGPROPS COOKIE
  2

  3

  4

  6

  7

  8
Buzai
  9

300
=
301
=
302
=
303
=
304
=
305
=
306
=
307
=
308
=
309
=
 40
0.0
 41
2455859.030048461
 42
2460096.236164583
  1

 90
        0
  0
DICTIONARY
  5
7A70
102
{ACAD_REACTORS
330
7A6F
102
}
330
7A6F
100
AcDbDictionary
281
     1
  0
DICTIONARY
  5
1C9F6
102
{ACAD_REACTORS
330
7A6F
102
}
330
7A6F
100
AcDbDictionary
281
     1
1001
ACAD
1000
<All
  0
XRECORD
  5
21DA1
102
{ACAD_REACTORS
330
21DA0
102
}
330
21DA0
100
AcDbXrecord
280
     1
340
6A4F
  0
XRECORD
  5
21DA2
102
{ACAD_REACTORS
330
21DA0
102
}
330
21DA0
100
AcDbXrecord
280
     1
300
<なし>
292
     0
330
22
294
     0
  0
XRECORD
  5
21DA5
102
{ACAD_REACTORS
330
21DA4
102
}
330
21DA4
100
AcDbXrecord
280
     1
340
6A4F
  0
XRECORD
  5
21DA6
102
{ACAD_REACTORS
330
21DA4
102
}
330
21DA4
100
AcDbXrecord
280
     1
300
<なし>
292
     0
330
22
294
     0
  0
XRECORD
  5
21DA9
102
{ACAD_REACTORS
330
21DA8
102
}
330
21DA8
100
AcDbXrecord
280
     1
340
6A4F
  0
XRECORD
  5
21DAA
102
{ACAD_REACTORS
330
21DA8
102
}
330
21DA8
100
AcDbXrecord
280
     1
300
<なし>
292
     0
330
22
294
     0
  0
SORTENTSTABLE
  5
CBD7
102
{ACAD_REACTORS
330
CBD6
102
}
330
CBD6
100
AcDbSortentsTable
330
1F
331
0
  5
1DB60
  0
DICTIONARY
  5
2263A
102
{ACAD_REACTORS
330
CBD6
102
}
330
CBD6
100
AcDbDictionary
281
     1
  0
SORTENTSTABLE
  5
D176
102
{ACAD_REACTORS
330
D175
102
}
330
D175
100
AcDbSortentsTable
330
D149
  0
SORTENTSTABLE
  5
D242
102
{ACAD_REACTORS
330
D241
102
}
330
D241
100
AcDbSortentsTable
330
D215
  0
SORTENTSTABLE
  5
D277
102
{ACAD_REACTORS
330
D276
102
}
330
D276
100
AcDbSortentsTable
330
D24A
  0
SORTENTSTABLE
  5
D2FE
102
{ACAD_REACTORS
330
D2FD
102
}
330
D2FD
100
AcDbSortentsTable
330
D2D1
  0
SORTENTSTABLE
  5
D333
102
{ACAD_REACTORS
330
D332
102
}
330
D332
100
AcDbSortentsTable
330
D306
  0
SORTENTSTABLE
  5
D36D
102
{ACAD_REACTORS
330
D36C
102
}
330
D36C
100
AcDbSortentsTable
330
D340
  0
SORTENTSTABLE
  5
21A43
102
{ACAD_REACTORS
330
21A42
102
}
330
21A42
100
AcDbSortentsTable
330
21A22
  0
SORTENTSTABLE
  5
21C45
102
{ACAD_REACTORS
330
21C44
102
}
330
21C44
100
AcDbSortentsTable
330
21C24
  0
LAYOUT
  5
1E
102
{ACAD_REACTORS
330
1A
102
}
330
1A
100
AcDbPlotSettings
  1

  2

  4

  6

 40
0.0
 41
0.0
 42
0.0
 43
0.0
 44
0.0
 45
0.0
 46
0.0
 47
0.0
 48
0.0
 49
0.0
140
0.0
141
0.0
142
1.0
143
1.0
 70
   688
 72
     0
 73
     0
 74
     5
  7
monochrome.ctb
 75
    16
147
1.0
148
0.0
149
0.0
100
AcDbLayout
  1
Layout1
 70
     1
 71
     1
 10
0.0
 20
0.0
 11
420.0
 21
297.0
 12
0.0
 22
0.0
 32
0.0
 14
1.000000000000000E+20
 24
1.000000000000000E+20
 34
1.000000000000000E+20
 15
-1.000000000000000E+20
 25
-1.000000000000000E+20
 35
-1.000000000000000E+20
146
0.0
 13
0.0
 23
0.0
 33
0.0
 16
1.0
 26
0.0
 36
0.0
 17
0.0
 27
1.0
 37
0.0
 76
     0
330
1B
  0
LAYOUT
  5
26
102
{ACAD_REACTORS
330
1A
102
}
330
1A
100
AcDbPlotSettings
  1

  2

  4

  6

 40
0.0
 41
0.0
 42
0.0
 43
0.0
 44
0.0
 45
0.0
 46
0.0
 47
0.0
 48
0.0
 49
0.0
140
0.0
141
0.0
142
1.0
143
1.0
 70
   688
 72
     0
 73
     0
 74
     5
  7
monochrome.ctb
 75
    16
147
1.0
148
0.0
149
0.0
100
AcDbLayout
  1
Layout2
 70
     1
 71
     2
 10
0.0
 20
0.0
 11
12.0
 21
9.0
 12
0.0
 22
0.0
 32
0.0
 14
0.0
 24
0.0
 34
0.0
 15
0.0
 25
0.0
 35
0.0
146
0.0
 13
0.0
 23
0.0
 33
0.0
 16
1.0
 26
0.0
 36
0.0
 17
0.0
 27
1.0
 37
0.0
 76
     0
330
23
  0
LAYOUT
  5
22
102
{ACAD_REACTORS
330
1A
102
}
330
1A
100
AcDbPlotSettings
  1

  2
none_device
  4
A3
  6

 40
3.174999952316284
 41
3.174999952316284
 42
3.17498779296875
 43
3.17498779296875
 44
297.0318298339844
 45
420.1583251953125
 46
-3.16
 47
-3.1
 48
-90.0
 49
-90.0
140
329.9999999999998
141
207.0
142
1.0
143
1.0
 70
 11940
 72
     1
 73
     1
 74
     4
  7
monochrome.ctb
 75
     0
147
1.0
148
90.0
149
90.0
100
AcDbLayout
  1
Model
 70
     1
 71
     0
 10
-144.7729436781216
 20
-3252.621994740944
 11
5210.227056321878
 21
-2151.621994740944
 12
0.0
 22
0.0
 32
0.0
 14
607.1550702831519
 24
3719.071535654701
 34
0.0
 15
2071.606725130056
 25
4271.571535654703
 35
0.0
146
0.0
 13
0.0
 23
0.0
 33
0.0
 16
1.0
 26
0.0
 36
0.0
 17
0.0
 27
1.0
 37
0.0
 76
     0
330
1F
331
A2A1
  0
MLINESTYLE
  5
18
102
{ACAD_REACTORS
330
17
102
}
330
17
100
AcDbMlineStyle
  2
STANDARD
 70
     0
  3

 62
   256
 51
90.0
 52
90.0
 71
     2
 49
0.5
 62
   256
  6
BYLAYER
 49
-0.5
 62
   256
  6
BYLAYER
  0
ACDBPLACEHOLDER
  5
F
102
{ACAD_REACTORS
330
E
102
}
330
E
  0
SCALE
  5
6A4F
102
{ACAD_REACTORS
330
6A4E
102
}
330
6A4E
100
AcDbScale
 70
     0
300
1:1
140
1.0
141
1.0
290
     1
  0
SCALE
  5
6A50
102
{ACAD_REACTORS
330
6A4E
102
}
330
6A4E
100
AcDbScale
 70
     0
300
1:2
140
1.0
141
2.0
290
     0
  0
SCALE
  5
6A51
102
{ACAD_REACTORS
330
6A4E
102
}
330
6A4E
100
AcDbScale
 70
     0
300
1:4
140
1.0
141
4.0
290
     0
  0
SCALE
  5
6A52
102
{ACAD_REACTORS
330
6A4E
102
}
330
6A4E
100
AcDbScale
 70
     0
300
1:5
140
1.0
141
5.0
290
     0
  0
SCALE
  5
6A53
102
{ACAD_REACTORS
330
6A4E
102
}
330
6A4E
100
AcDbScale
 70
     0
300
1:8
140
1.0
141
8.0
290
     0
  0
SCALE
  5
6A54
102
{ACAD_REACTORS
330
6A4E
102
}
330
6A4E
100
AcDbScale
 70
     0
300
1:10
140
1.0
141
10.0
290
     0
  0
SCALE
  5
6A55
102
{ACAD_REACTORS
330
6A4E
102
}
330
6A4E
100
AcDbScale
 70
     0
300
1:16
140
1.0
141
16.0
290
     0
  0
SCALE
  5
6A56
102
{ACAD_REACTORS
330
6A4E
102
}
330
6A4E
100
AcDbScale
 70
     0
300
1:20
140
1.0
141
20.0
290
     0
  0
SCALE
  5
6A57
102
{ACAD_REACTORS
330
6A4E
102
}
330
6A4E
100
AcDbScale
 70
     0
300
1:30
140
1.0
141
30.0
290
     0
  0
SCALE
  5
6A58
102
{ACAD_REACTORS
330
6A4E
102
}
330
6A4E
100
AcDbScale
 70
     0
300
1:40
140
1.0
141
40.0
290
     0
  0
SCALE
  5
6A59
102
{ACAD_REACTORS
330
6A4E
102
}
330
6A4E
100
AcDbScale
 70
     0
300
1:50
140
1.0
141
50.0
290
     0
  0
SCALE
  5
6A5A
102
{ACAD_REACTORS
330
6A4E
102
}
330
6A4E
100
AcDbScale
 70
     0
300
1:100
140
1.0
141
100.0
290
     0
  0
SCALE
  5
6A5B
102
{ACAD_REACTORS
330
6A4E
102
}
330
6A4E
100
AcDbScale
 70
     0
300
2:1
140
2.0
141
1.0
290
     0
  0
SCALE
  5
6A5C
102
{ACAD_REACTORS
330
6A4E
102
}
330
6A4E
100
AcDbScale
 70
     0
300
4:1
140
4.0
141
1.0
290
     0
  0
SCALE
  5
6A5D
102
{ACAD_REACTORS
330
6A4E
102
}
330
6A4E
100
AcDbScale
 70
     0
300
8:1
140
8.0
141
1.0
290
     0
  0
SCALE
  5
6A5E
102
{ACAD_REACTORS
330
6A4E
102
}
330
6A4E
100
AcDbScale
 70
     0
300
10:1
140
10.0
141
1.0
290
     0
  0
SCALE
  5
6A5F
102
{ACAD_REACTORS
330
6A4E
102
}
330
6A4E
100
AcDbScale
 70
     0
300
100:1
140
100.0
141
1.0
290
     0
  0
SCALE
  5
6A60
102
{ACAD_REACTORS
330
6A4E
102
}
330
6A4E
100
AcDbScale
 70
     0
300
1/128" = 1'-0"
140
0.0078125
141
12.0
290
     0
  0
SCALE
  5
6A61
102
{ACAD_REACTORS
330
6A4E
102
}
330
6A4E
100
AcDbScale
 70
     0
300
1/64" = 1'-0"
140
0.015625
141
12.0
290
     0
  0
SCALE
  5
6A62
102
{ACAD_REACTORS
330
6A4E
102
}
330
6A4E
100
AcDbScale
 70
     0
300
1/32" = 1'-0"
140
0.03125
141
12.0
290
     0
  0
SCALE
  5
6A63
102
{ACAD_REACTORS
330
6A4E
102
}
330
6A4E
100
AcDbScale
 70
     0
300
1/16" = 1'-0"
140
0.0625
141
12.0
290
     0
  0
SCALE
  5
6A64
102
{ACAD_REACTORS
330
6A4E
102
}
330
6A4E
100
AcDbScale
 70
     0
300
3/32" = 1'-0"
140
0.09375
141
12.0
290
     0
  0
SCALE
  5
6A65
102
{ACAD_REACTORS
330
6A4E
102
}
330
6A4E
100
AcDbScale
 70
     0
300
1/8" = 1'-0"
140
0.125
141
12.0
290
     0
  0
SCALE
  5
6A66
102
{ACAD_REACTORS
330
6A4E
102
}
330
6A4E
100
AcDbScale
 70
     0
300
3/16" = 1'-0"
140
0.1875
141
12.0
290
     0
  0
SCALE
  5
6A67
102
{ACAD_REACTORS
330
6A4E
102
}
330
6A4E
100
AcDbScale
 70
     0
300
1/4" = 1'-0"
140
0.25
141
12.0
290
     0
  0
SCALE
  5
6A68
102
{ACAD_REACTORS
330
6A4E
102
}
330
6A4E
100
AcDbScale
 70
     0
300
3/8" = 1'-0"
140
0.375
141
12.0
290
     0
  0
SCALE
  5
6A69
102
{ACAD_REACTORS
330
6A4E
102
}
330
6A4E
100
AcDbScale
 70
     0
300
1/2" = 1'-0"
140
0.5
141
12.0
290
     0
  0
SCALE
  5
6A6A
102
{ACAD_REACTORS
330
6A4E
102
}
330
6A4E
100
AcDbScale
 70
     0
300
3/4" = 1'-0"
140
0.75
141
12.0
290
     0
  0
SCALE
  5
6A6B
102
{ACAD_REACTORS
330
6A4E
102
}
330
6A4E
100
AcDbScale
 70
     0
300
1" = 1'-0"
140
1.0
141
12.0
290
     0
  0
SCALE
  5
6A6C
102
{ACAD_REACTORS
330
6A4E
102
}
330
6A4E
100
AcDbScale
 70
     0
300
1-1/2" = 1'-0"
140
1.5
141
12.0
290
     0
  0
SCALE
  5
6A6D
102
{ACAD_REACTORS
330
6A4E
102
}
330
6A4E
100
AcDbScale
 70
     0
300
3" = 1'-0"
140
3.0
141
12.0
290
     0
  0
SCALE
  5
6A6E
102
{ACAD_REACTORS
330
6A4E
102
}
330
6A4E
100
AcDbScale
 70
     0
300
6" = 1'-0"
140
6.0
141
12.0
290
     0
  0
SCALE
  5
6A6F
102
{ACAD_REACTORS
330
6A4E
102
}
330
6A4E
100
AcDbScale
 70
     0
300
1'-0" = 1'-0"
140
12.0
141
12.0
290
     0
  0
DICTIONARYVAR
  5
79F
102
{ACAD_REACTORS
330
79E
102
}
330
79E
100
DictionaryVariables
280
     0
  1
1
  0
DICTIONARYVAR
  5
264F
102
{ACAD_REACTORS
330
79E
102
}
330
79E
100
DictionaryVariables
280
     0
  1
96
  0
ACAD_PROXY_OBJECT
  5
8258
102
{ACAD_REACTORS
330
8257
102
}
330
8257
100
AcDbProxyObject
 90
      499
 91
      509
 95
   262177
 70
     0
 93
     1864
310
5434D15054000541505428FC812095550000000000000B08000000000000008200000000000001807E8F2048F205000200001204000000000000581F8000000000000B0807EC3FA6DEBC0E99F8000000000001C07FE8FCC029594224E2D20CA600E2005C008C00E8005C008321803A80170023003A00170020898006200640
310
06001202DA008C2080248020801000140019001A801B00100021803780360037803900148010001000100010002080220019001A801B0021082008600820088008200A4008600900087A08032803180260030803C803280390029803A003200170032003B80338049C09
330
0
 94
        0
  0
ENDSEC
  0
EOF
