  0
SECTION
  2
HEADER
  9
$ACADVER
  1
AC1015
  9
$ACADMAINTVER
 70
     6
  9
$DWGCODEPAGE
  3
ANSI_932
  9
$INSBASE
 10
0.0
 20
0.0
 30
0.0
  9
$EXTMIN
 10
76952.94911190325
 20
-82946.574997894
 30
0.0
  9
$EXTMAX
 10
79134.6923464979
 20
-81685.5749607007
 30
0.0
  9
$LIMMIN
 10
14114.50323363575
 20
-100367.2653396513
  9
$LIMMAX
 10
121214.5032336357
 20
-78347.26533965132
  9
$ORTHOMODE
 70
     0
  9
$REGENMODE
 70
     1
  9
$FILLMODE
 70
     1
  9
$QTEXTMODE
 70
     0
  9
$MIRRTEXT
 70
     1
  9
$LTSCALE
 40
6.0
  9
$ATTMODE
 70
     1
  9
$TEXTSIZE
 40
3.0
  9
$TRACEWID
 40
1.0
  9
$TEXTSTYLE
  7
Standard
  9
$CLAYER
  8
01注記寸法
  9
$CELTYPE
  6
ByLayer
  9
$CECOLOR
 62
   256
  9
$CELTSCALE
 40
1.0
  9
$DISPSILH
 70
     0
  9
$DIMSCALE
 40
1.0
  9
$DIMASZ
 40
3.0
  9
$DIMEXO
 40
1.5
  9
$DIMDLI
 40
10.0
  9
$DIMRND
 40
0.0
  9
$DIMDLE
 40
0.0
  9
$DIMEXE
 40
1.0
  9
$DIMTP
 40
0.0
  9
$DIMTM
 40
0.0
  9
$DIMTXT
 40
3.0
  9
$DIMCEN
 40
1.5
  9
$DIMTSZ
 40
0.0
  9
$DIMTOL
 70
     0
  9
$DIMLIM
 70
     0
  9
$DIMTIH
 70
     0
  9
$DIMTOH
 70
     0
  9
$DIMSE1
 70
     0
  9
$DIMSE2
 70
     0
  9
$DIMTAD
 70
     1
  9
$DIMZIN
 70
     8
  9
$DIMBLK
  1
Open
  9
$DIMASO
 70
     1
  9
$DIMSHO
 70
     1
  9
$DIMPOST
  1

  9
$DIMAPOST
  1

  9
$DIMALT
 70
     0
  9
$DIMALTD
 70
     3
  9
$DIMALTF
 40
0.03937007874016
  9
$DIMLFAC
 40
1.0
  9
$DIMTOFL
 70
     1
  9
$DIMTVP
 40
0.0
  9
$DIMTIX
 70
     0
  9
$DIMSOXD
 70
     0
  9
$DIMSAH
 70
     0
  9
$DIMBLK1
  1

  9
$DIMBLK2
  1

  9
$DIMSTYLE
  2
NEMY-1
  9
$DIMCLRD
 70
     0
  9
$DIMCLRE
 70
     0
  9
$DIMCLRT
 70
     0
  9
$DIMTFAC
 40
1.0
  9
$DIMGAP
 40
1.0
  9
$DIMJUST
 70
     0
  9
$DIMSD1
 70
     0
  9
$DIMSD2
 70
     0
  9
$DIMTOLJ
 70
     0
  9
$DIMTZIN
 70
     8
  9
$DIMALTZ
 70
     0
  9
$DIMALTTZ
 70
     0
  9
$DIMUPT
 70
     0
  9
$DIMDEC
 70
     1
  9
$DIMTDEC
 70
     1
  9
$DIMALTU
 70
     2
  9
$DIMALTTD
 70
     3
  9
$DIMTXSTY
  7
Standard
  9
$DIMAUNIT
 70
     0
  9
$DIMADEC
 70
     0
  9
$DIMALTRND
 40
0.0
  9
$DIMAZIN
 70
     0
  9
$DIMDSEP
 70
    46
  9
$DIMATFIT
 70
     3
  9
$DIMFRAC
 70
     0
  9
$DIMLDRBLK
  1
Open
  9
$DIMLUNIT
 70
     2
  9
$DIMLWD
 70
    -2
  9
$DIMLWE
 70
    -2
  9
$DIMTMOVE
 70
     0
  9
$LUNITS
 70
     2
  9
$LUPREC
 70
     4
  9
$SKETCHINC
 40
1.0
  9
$FILLETRAD
 40
0.0
  9
$AUNITS
 70
     0
  9
$AUPREC
 70
     0
  9
$MENU
  1
.
  9
$ELEVATION
 40
0.0
  9
$PELEVATION
 40
0.0
  9
$THICKNESS
 40
0.0
  9
$LIMCHECK
 70
     0
  9
$CHAMFERA
 40
10.0
  9
$CHAMFERB
 40
10.0
  9
$CHAMFERC
 40
20.0
  9
$CHAMFERD
 40
0.0
  9
$SKPOLY
 70
     0
  9
$TDCREATE
 40
2455859.405048461
  9
$TDUCREATE
 40
2455859.030048461
  9
$TDUPDATE
 40
2458240.43299632
  9
$TDUUPDATE
 40
2458240.05799632
  9
$TDINDWG
 40
2.2315585995
  9
$TDUSRTIMER
 40
2458240.057463796
  9
$USRTIMER
 70
     1
  9
$ANGBASE
 50
0.0
  9
$ANGDIR
 70
     0
  9
$PDMODE
 70
     0
  9
$PDSIZE
 40
0.0
  9
$PLINEWID
 40
0.0
  9
$SPLFRAME
 70
     0
  9
$SPLINETYPE
 70
     6
  9
$SPLINESEGS
 70
     8
  9
$HANDSEED
  5
9DA98
  9
$SURFTAB1
 70
     6
  9
$SURFTAB2
 70
     6
  9
$SURFTYPE
 70
     6
  9
$SURFU
 70
     6
  9
$SURFV
 70
     6
  9
$UCSBASE
  2

  9
$UCSNAME
  2

  9
$UCSORG
 10
0.0
 20
0.0
 30
0.0
  9
$UCSXDIR
 10
1.0
 20
0.0
 30
0.0
  9
$UCSYDIR
 10
0.0
 20
1.0
 30
0.0
  9
$UCSORTHOREF
  2

  9
$UCSORTHOVIEW
 70
     0
  9
$UCSORGTOP
 10
0.0
 20
0.0
 30
0.0
  9
$UCSORGBOTTOM
 10
0.0
 20
0.0
 30
0.0
  9
$UCSORGLEFT
 10
0.0
 20
0.0
 30
0.0
  9
$UCSORGRIGHT
 10
0.0
 20
0.0
 30
0.0
  9
$UCSORGFRONT
 10
0.0
 20
0.0
 30
0.0
  9
$UCSORGBACK
 10
0.0
 20
0.0
 30
0.0
  9
$PUCSBASE
  2

  9
$PUCSNAME
  2

  9
$PUCSORG
 10
0.0
 20
0.0
 30
0.0
  9
$PUCSXDIR
 10
1.0
 20
0.0
 30
0.0
  9
$PUCSYDIR
 10
0.0
 20
1.0
 30
0.0
  9
$PUCSORTHOREF
  2

  9
$PUCSORTHOVIEW
 70
     0
  9
$PUCSORGTOP
 10
0.0
 20
0.0
 30
0.0
  9
$PUCSORGBOTTOM
 10
0.0
 20
0.0
 30
0.0
  9
$PUCSORGLEFT
 10
0.0
 20
0.0
 30
0.0
  9
$PUCSORGRIGHT
 10
0.0
 20
0.0
 30
0.0
  9
$PUCSORGFRONT
 10
0.0
 20
0.0
 30
0.0
  9
$PUCSORGBACK
 10
0.0
 20
0.0
 30
0.0
  9
$USERI1
 70
     0
  9
$USERI2
 70
     0
  9
$USERI3
 70
     0
  9
$USERI4
 70
     0
  9
$USERI5
 70
     0
  9
$USERR1
 40
0.0
  9
$USERR2
 40
0.0
  9
$USERR3
 40
0.0
  9
$USERR4
 40
0.0
  9
$USERR5
 40
0.0
  9
$WORLDVIEW
 70
     1
  9
$SHADEDGE
 70
     3
  9
$SHADEDIF
 70
    70
  9
$TILEMODE
 70
     1
  9
$MAXACTVP
 70
    64
  9
$PINSBASE
 10
0.0
 20
0.0
 30
0.0
  9
$PLIMCHECK
 70
     0
  9
$PEXTMIN
 10
1.000000000000000E+20
 20
1.000000000000000E+20
 30
1.000000000000000E+20
  9
$PEXTMAX
 10
-1.000000000000000E+20
 20
-1.000000000000000E+20
 30
-1.000000000000000E+20
  9
$PLIMMIN
 10
0.0
 20
0.0
  9
$PLIMMAX
 10
0.0
 20
0.0
  9
$UNITMODE
 70
     0
  9
$VISRETAIN
 70
     1
  9
$PLINEGEN
 70
     0
  9
$PSLTSCALE
 70
     1
  9
$TREEDEPTH
 70
  3020
  9
$CMLSTYLE
  2
Standard
  9
$CMLJUST
 70
     0
  9
$CMLSCALE
 40
20.0
  9
$PROXYGRAPHICS
 70
     1
  9
$MEASUREMENT
 70
     1
  9
$CELWEIGHT
370
    -1
  9
$ENDCAPS
280
     0
  9
$JOINSTYLE
280
     0
  9
$LWDISPLAY
290
     0
  9
$INSUNITS
 70
     4
  9
$HYPERLINKBASE
  1

  9
$STYLESHEET
  1
monochrome.ctb
  9
$XEDIT
290
     1
  9
$CEPSNTYPE
380
     0
  9
$PSTYLEMODE
290
     1
  9
$FINGERPRINTGUID
  2
{FDEAD578-A652-11D2-9A35-0060089B3A3F}
  9
$VERSIONGUID
  2
{FF53CD4B-1AF9-4F2F-ABC0-CA7DF949A403}
  9
$EXTNAMES
290
     1
  9
$PSVPSCALE
 40
0.0
  9
$OLESTARTUP
290
     0
  0
ENDSEC
  0
SECTION
  2
CLASSES
  0
CLASS
  1
ACDBDICTIONARYWDFLT
  2
AcDbDictionaryWithDefault
  3
ObjectDBX Classes
 90
        0
280
     0
281
     0
  0
CLASS
  1
ACDBPLACEHOLDER
  2
AcDbPlaceHolder
  3
ObjectDBX Classes
 90
        0
280
     0
281
     0
  0
CLASS
  1
LAYOUT
  2
AcDbLayout
  3
ObjectDBX Classes
 90
        0
280
     0
281
     0
  0
CLASS
  1
DICTIONARYVAR
  2
AcDbDictionaryVar
  3
ObjectDBX Classes
 90
        0
280
     0
281
     0
  0
CLASS
  1
SCALE
  2
AcDbScale
  3
ObjectDBX Classes
 90
     1153
280
     0
281
     0
  0
CLASS
  1
MATERIAL
  2
AcDbMaterial
  3
ObjectDBX Classes
 90
     1153
280
     0
281
     0
  0
CLASS
  1
VISUALSTYLE
  2
AcDbVisualStyle
  3
ObjectDBX Classes
 90
     4095
280
     0
281
     0
  0
CLASS
  1
TABLESTYLE
  2
AcDbTableStyle
  3
ObjectDBX Classes
 90
     4095
280
     0
281
     0
  0
CLASS
  1
RASTERVARIABLES
  2
AcDbRasterVariables
  3
ISM
 90
        0
280
     0
281
     0
  0
CLASS
  1
AEC_VARS_DWG_SETUP
  2
AecDbVarsDwgSetup
  3
AecBase60
 90
      129
280
     0
281
     0
  0
CLASS
  1
AEC_DISP_REP_2D_SECTION
  2
AecDbDispRep2dSection
  3
AecBase60
 90
      129
280
     0
281
     0
  0
CLASS
  1
AEC_DISP_PROPS_2D_SECTION
  2
AecDbDispProps2dSection
  3
AecBase60
 90
      129
280
     0
281
     0
  0
CLASS
  1
AEC_DISP_REP_CLIP_VOLUME_MODEL
  2
AecDbDispRepClipVolModel
  3
AecBase60
 90
      129
280
     0
281
     0
  0
CLASS
  1
AEC_DISP_PROPS_CLIP_VOLUME
  2
AecDbDispPropsClipVol
  3
AecBase60
 90
      129
280
     0
281
     0
  0
CLASS
  1
AEC_DISP_REP_CLIP_VOLUME_PLAN
  2
AecDbDispRepClipVolPlan
  3
AecBase60
 90
      129
280
     0
281
     0
  0
CLASS
  1
AEC_DISP_REP_CLIP_VOLUME_RESULT
  2
AecDbDispRepClipVolResult
  3
AecBase60
 90
      129
280
     0
281
     0
  0
CLASS
  1
AEC_DISP_REP_CLIP_VOLUME_RESULT_SUBDIV
  2
AecDbDispRepClipVolResSubDiv
  3
AecBase60
 90
      129
280
     0
281
     0
  0
CLASS
  1
AEC_DISP_PROPS_CLIP_VOLUME_RESULT
  2
AecDbDispPropsClipVolResSubDiv
  3
AecBase60
 90
      129
280
     0
281
     0
  0
CLASS
  1
AEC_DISP_REP_DISPLAYTHEME
  2
AecDbDispRepDisplayTheme
  3
AecBase60
 90
      129
280
     0
281
     0
  0
CLASS
  1
AEC_DISP_PROPS_DISPLAYTHEME
  2
AecDbDispPropsDisplayTheme
  3
AecBase60
 90
      129
280
     0
281
     0
  0
CLASS
  1
AEC_DISP_REP_ENT_REF
  2
AecDbDispRepEntRef
  3
AecBase60
 90
      129
280
     0
281
     0
  0
CLASS
  1
AEC_DISP_PROPS_ENT_REF
  2
AecDbDispPropsEntRef
  3
AecBase60
 90
      129
280
     0
281
     0
  0
CLASS
  1
AEC_DISP_REP_LAYOUT_CURVE
  2
AecDbDispRepLayoutCurve
  3
AecBase60
 90
      129
280
     0
281
     0
  0
CLASS
  1
AEC_DISP_PROPS_LAYOUT_CURVE
  2
AecDbDispPropsLayoutCurve
  3
AecBase60
 90
      129
280
     0
281
     0
  0
CLASS
  1
AEC_DISP_REP_LAYOUT_GRID2D
  2
AecDbDispRepLayoutGrid2d
  3
AecBase60
 90
      129
280
     0
281
     0
  0
CLASS
  1
AEC_DISP_PROPS_LAYOUT_GRID2D
  2
AecDbDispPropsLayoutGrid2d
  3
AecBase60
 90
      129
280
     0
281
     0
  0
CLASS
  1
AEC_DISP_REP_LAYOUT_GRID3D
  2
AecDbDispRepLayoutGrid3d
  3
AecBase60
 90
      129
280
     0
281
     0
  0
CLASS
  1
AEC_DISP_PROPS_LAYOUT_GRID3D
  2
AecDbDispPropsLayoutGrid3d
  3
AecBase60
 90
      129
280
     0
281
     0
  0
CLASS
  1
AEC_DISP_REP_MASKBLOCK_REF
  2
AecDbDispRepMaskBlockRef
  3
AecBase60
 90
      129
280
     0
281
     0
  0
CLASS
  1
AEC_DISP_PROPS_MASKBLOCK
  2
AecDbDispPropsMaskBlock
  3
AecBase60
 90
      129
280
     0
281
     0
  0
CLASS
  1
AEC_DISP_REP_MASKBLOCK_REF_RCP
  2
AecDbDispRepMaskBlockRefRcp
  3
AecArchBase60
 90
      129
280
     0
281
     0
  0
CLASS
  1
AEC_DISP_REP_MASS_ELEM_MODEL
  2
AecDbDispRepMassElemModel
  3
AecBase60
 90
      129
280
     0
281
     0
  0
CLASS
  1
AEC_DISP_PROPS_MASS_ELEM_MODEL
  2
AecDbDispPropsMassElem
  3
AecBase60
 90
      129
280
     0
281
     0
  0
CLASS
  1
AEC_DISP_REP_MASS_ELEM_SCHEM
  2
AecDbDispRepMassElemSchem
  3
AecBase60
 90
      129
280
     0
281
     0
  0
CLASS
  1
AEC_DISPREPAECDBDISPREPMASSELEMPLAN50
  2
AecDbDispRepMassElemPlan50
  3
AecArchDACHBase60
 90
      129
280
     0
281
     0
  0
CLASS
  1
AEC_DISPROPSMASSELEMPLANCOMMON
  2
AecDbDispPropsMassElemPlanCommon
  3
AecArchDACHBase60
 90
      129
280
     0
281
     0
  0
CLASS
  1
AEC_DISPREPAECDBDISPREPMASSELEMPLAN100
  2
AecDbDispRepMassElemPlan100
  3
AecArchDACHBase60
 90
      129
280
     0
281
     0
  0
CLASS
  1
AEC_DISP_REP_MASS_ELEM_RCP
  2
AecDbDispRepMassElemRcp
  3
AecArchBase60
 90
      129
280
     0
281
     0
  0
CLASS
  1
AEC_DISP_REP_MASS_GROUP_MODEL
  2
AecDbDispRepMassGroupModel
  3
AecBase60
 90
      129
280
     0
281
     0
  0
CLASS
  1
AEC_DISP_PROPS_MASS_GROUP
  2
AecDbDispPropsMassGroup
  3
AecBase60
 90
      129
280
     0
281
     0
  0
CLASS
  1
AEC_DISP_REP_MASS_GROUP_PLAN
  2
AecDbDispRepMassGroupPlan
  3
AecBase60
 90
      129
280
     0
281
     0
  0
CLASS
  1
AEC_DISPREPAECDBDISPREPMASSGROUPPLAN50
  2
AecDbDispRepMassGroupPlan50
  3
AecArchDACHBase60
 90
      129
280
     0
281
     0
  0
CLASS
  1
AEC_DISPROPSMASSGROUPPLANCOMMON
  2
AecDbDispPropsMassGroupPlanCommon
  3
AecArchDACHBase60
 90
      129
280
     0
281
     0
  0
CLASS
  1
AEC_DISPREPAECDBDISPREPMASSGROUPPLAN100
  2
AecDbDispRepMassGroupPlan100
  3
AecArchDACHBase60
 90
      129
280
     0
281
     0
  0
CLASS
  1
AEC_DISP_REP_MASS_GROUP_RCP
  2
AecDbDispRepMassGroupRcp
  3
AecArchBase60
 90
      129
280
     0
281
     0
  0
CLASS
  1
AEC_DISP_REP_MVBLOCK_REF
  2
AecDbDispRepMvBlockRef
  3
AecBase60
 90
      129
280
     0
281
     0
  0
CLASS
  1
AEC_DISP_REP_MVBLOCK_REF_MODEL
  2
AecDbDispRepMvBlockRefModel
  3
AecBase60
 90
      129
280
     0
281
     0
  0
CLASS
  1
AEC_AECDBDISPREPMVBLOCKREFPLAN100
  2
AecDbDispRepMvBlockRefPlan100
  3
AecBase60
 90
      129
280
     0
281
     0
  0
CLASS
  1
AEC_AECDBDISPREPMVBLOCKREFPLAN50
  2
AecDbDispRepMvBlockRefPlan50
  3
AecBase60
 90
      129
280
     0
281
     0
  0
CLASS
  1
AEC_DISP_REP_POLYGON_MODEL
  2
AecDbDispRepPolygonModel
  3
AecBase60
 90
      129
280
     0
281
     0
  0
CLASS
  1
AEC_DISP_PROPS_POLYGON_MODEL
  2
AecDbDispPropsPolygonModel
  3
AecBase60
 90
      129
280
     0
281
     0
  0
CLASS
  1
AEC_DISP_REP_POLYGON_TRUECOLOUR
  2
AecDbDispRepPolygonTrueColour
  3
AecBase60
 90
      129
280
     0
281
     0
  0
CLASS
  1
AEC_DISP_PROPS_POLYGON_TRUECOLOUR
  2
AecDbDispPropsPolygonTrueColour
  3
AecBase60
 90
      129
280
     0
281
     0
  0
CLASS
  1
AEC_DISP_REP_SLICE
  2
AecDbDispRepSlice
  3
AecBase60
 90
      129
280
     0
281
     0
  0
CLASS
  1
AEC_DISP_PROPS_SLICE
  2
AecDbDispPropsSlice
  3
AecBase60
 90
      129
280
     0
281
     0
  0
CLASS
  1
AEC_DISP_REP_ANCHOR
  2
AecDbDispRepAnchor
  3
AecBase60
 90
      129
280
     0
281
     0
  0
CLASS
  1
AEC_DISP_REP_ANCHOR_ENT_TO_NODE
  2
AecDbDispRepAnchorEntToNode
  3
AecBase60
 90
      129
280
     0
281
     0
  0
CLASS
  1
AEC_DISP_PROPS_ENT
  2
AecDbDispPropsEnt
  3
AecBase60
 90
      129
280
     0
281
     0
  0
CLASS
  1
AEC_DISP_REP_MATERIAL
  2
AecDbDispRepMaterial
  3
AecBase60
 90
      129
280
     0
281
     0
  0
CLASS
  1
AEC_DISP_PROPS_MATERIAL
  2
AecDbDispPropsMaterial
  3
AecBase60
 90
      129
280
     0
281
     0
  0
CLASS
  1
AEC_DISP_REP_EDITINPLACEPROFILE
  2
AecDbDispRepEditInPlaceProfile
  3
AecBase60
 90
      129
280
     0
281
     0
  0
CLASS
  1
AEC_DISP_PROPS_EDITINPLACEPROFILE_MODEL
  2
AecDbDispPropsEditInPlaceProfile
  3
AecBase60
 90
      129
280
     0
281
     0
  0
CLASS
  1
SUN
  2
AcDbSun
  3
SCENEOE
 90
     1153
280
     0
281
     0
  0
CLASS
  1
SORTENTSTABLE
  2
AcDbSortentsTable
  3
ObjectDBX Classes
 90
        0
280
     0
281
     0
  0
CLASS
  1
MLEADERSTYLE
  2
AcDbMLeaderStyle
  3
ACDB_MLEADERSTYLE_CLASS
 90
     4095
280
     0
281
     0
  0
ENDSEC
  0
SECTION
  2
TABLES
  0
TABLE
  2
VPORT
  5
8
330
0
100
AcDbSymbolTable
 70
     2
  0
VPORT
  5
A2A1
330
8
100
AcDbSymbolTableRecord
100
AcDbViewportTableRecord
  2
*Active
 70
     0
 10
0.0
 20
0.0
 11
1.0
 21
1.0
 12
-56680519059.44429
 22
103286761250.7651
 13
0.0
 23
0.0
 14
10.0
 24
10.0
 15
10.0
 25
10.0
 16
0.0
 26
0.0
 36
1.0
 17
56680597103.26502
 27
-103286843566.8401
 37
0.0
 40
1286.220037937164
 41
2.0
 42
50.0
 43
0.0
 44
0.0
 50
0.0
 51
0.0
 71
    16
 72
   100
 73
     1
 74
     2
 75
     0
 76
     0
 77
     0
 78
     0
281
     0
 65
     1
110
0.0
120
0.0
130
0.0
111
1.0
121
0.0
131
0.0
112
0.0
122
1.0
132
0.0
 79
     0
146
0.0
  0
ENDTAB
  0
TABLE
  2
LTYPE
  5
5
330
0
100
AcDbSymbolTable
 70
    10
  0
LTYPE
  5
14
330
5
100
AcDbSymbolTableRecord
100
AcDbLinetypeTableRecord
  2
ByBlock
 70
     0
  3

 72
    65
 73
     0
 40
0.0
  0
LTYPE
  5
15
330
5
100
AcDbSymbolTableRecord
100
AcDbLinetypeTableRecord
  2
ByLayer
 70
     0
  3
Solid line
 72
    65
 73
     0
 40
0.0
  0
LTYPE
  5
16
330
5
100
AcDbSymbolTableRecord
100
AcDbLinetypeTableRecord
  2
Continuous
 70
     0
  3
Solid line
 72
    65
 73
     0
 40
0.0
  0
LTYPE
  5
BB
330
5
100
AcDbSymbolTableRecord
100
AcDbLinetypeTableRecord
  2
PHANTOM
 70
     0
  3
Phantom ______  __  __  ______  __  __  ______
 72
    65
 73
     6
 40
63.5
 49
31.75
 74
     0
 49
-6.35
 74
     0
 49
6.35
 74
     0
 49
-6.35
 74
     0
 49
6.35
 74
     0
 49
-6.35
 74
     0
  0
ENDTAB
  0
TABLE
  2
LAYER
  5
2
102
{ACAD_XDICTIONARY
360
7A6F
102
}
330
0
100
AcDbSymbolTable
 70
    18
  0
LAYER
  5
10
330
2
100
AcDbSymbolTableRecord
100
AcDbLayerTableRecord
  2
0
 70
     0
 62
     7
  6
Continuous
370
    -3
390
F
  0
LAYER
  5
45
330
2
100
AcDbSymbolTableRecord
100
AcDbLayerTableRecord
  2
01注記寸法
 70
     0
 62
     7
  6
Continuous
370
     9
390
F
  0
LAYER
  5
82BC
330
2
100
AcDbSymbolTableRecord
100
AcDbLayerTableRecord
  2
02製品
 70
     0
 62
     2
  6
Continuous
370
    15
390
F
  0
ENDTAB
  0
TABLE
  2
STYLE
  5
3
330
0
100
AcDbSymbolTable
 70
     7
  0
STYLE
  5
11
330
3
100
AcDbSymbolTableRecord
100
AcDbTextStyleTableRecord
  2
Standard
 70
     0
 40
0.0
 41
1.0
 50
0.0
 71
     0
 42
3.0
  3
MS Gothic.ttf
  4

1001
ACAD
1000
MS Gothic
1071
    32817
  0
STYLE
  5
19E
330
3
100
AcDbSymbolTableRecord
100
AcDbTextStyleTableRecord
  2
STYLE1
 70
     0
 40
0.0
 41
0.9
 50
0.0
 71
     0
 42
28.125
  3
TXT.shx
  4
extfont.shx
  0
STYLE
  5
C96B
330
3
100
AcDbSymbolTableRecord
100
AcDbTextStyleTableRecord
  2
Standard-tate
 70
     0
 40
0.0
 41
1.0
 50
0.0
 71
     0
 42
3.0
  3
@MS PGothic.ttf
  4

1001
ACAD
1000
@MS PGothic
1071
    32818
  0
STYLE
  5
6C740
330
3
100
AcDbSymbolTableRecord
100
AcDbTextStyleTableRecord
  2
F_TCCJ
 70
     0
 40
0.0
 41
1.0
 50
0.0
 71
     0
 42
3.0
  3

  4

1001
ACAD
1000
MS Gothic
1071
    32817
  0
ENDTAB
  0
TABLE
  2
VIEW
  5
6
330
0
100
AcDbSymbolTable
 70
     4
  0
VIEW
  5
1B7C5
102
{ACAD_XDICTIONARY
360
67B15
102
}
330
6
100
AcDbSymbolTableRecord
100
AcDbViewTableRecord
  2
2-TCJ057FB-E1
 70
     0
 40
3564.0
 10
78634.50323363574
 20
-81717.26533965132
 41
5040.0
 11
0.0
 21
0.0
 31
1.0
 12
0.0
 22
0.0
 32
0.0
 42
50.0
 43
0.0
 44
0.0
 50
0.0
 71
     0
281
     0
 72
     0
  0
VIEW
  5
1B7C9
102
{ACAD_XDICTIONARY
360
67B18
102
}
330
6
100
AcDbSymbolTableRecord
100
AcDbViewTableRecord
  2
2-TCJ057FB-E2
 70
     0
 40
3564.0
 10
78634.50323363574
 20
-89057.26533965132
 41
5040.0
 11
0.0
 21
0.0
 31
1.0
 12
0.0
 22
0.0
 32
0.0
 42
50.0
 43
0.0
 44
0.0
 50
0.0
 71
     0
281
     0
 72
     0
  0
VIEW
  5
1B7CD
102
{ACAD_XDICTIONARY
360
67B1B
102
}
330
6
100
AcDbSymbolTableRecord
100
AcDbViewTableRecord
  2
2-TCJ057LR-E1
 70
     0
 40
5940.0
 10
89914.50323363574
 20
-81517.26533965132
 41
8400.0
 11
0.0
 21
0.0
 31
1.0
 12
0.0
 22
0.0
 32
0.0
 42
50.0
 43
0.0
 44
0.0
 50
0.0
 71
    16
281
     0
 72
     0
  0
VIEW
  5
1B7D1
102
{ACAD_XDICTIONARY
360
67B1F
102
}
330
6
100
AcDbSymbolTableRecord
100
AcDbViewTableRecord
  2
2-TCJ057LR-E2
 70
     0
 40
5940.0
 10
89914.50323363574
 20
-88857.26533965132
 41
8400.0
 11
0.0
 21
0.0
 31
1.0
 12
0.0
 22
0.0
 32
0.0
 42
50.0
 43
0.0
 44
0.0
 50
0.0
 71
    16
281
     0
 72
     0
  0
ENDTAB
  0
TABLE
  2
UCS
  5
7
330
0
100
AcDbSymbolTable
 70
     0
  0
ENDTAB
  0
TABLE
  2
APPID
  5
9
330
0
100
AcDbSymbolTable
 70
    13
  0
APPID
  5
12
330
9
100
AcDbSymbolTableRecord
100
AcDbRegAppTableRecord
  2
ACAD
 70
     0
  0
APPID
  5
6A9E
330
9
100
AcDbSymbolTableRecord
100
AcDbRegAppTableRecord
  2
ACAD_DSTYLE_DIMRADIAL_EXTENSION
 70
     0
  0
APPID
  5
742C
330
9
100
AcDbSymbolTableRecord
100
AcDbRegAppTableRecord
  2
ACAD_PSEXT
 70
     0
  0
APPID
  5
742D
330
9
100
AcDbSymbolTableRecord
100
AcDbRegAppTableRecord
  2
ACAD_DSTYLE_DIMJAG
 70
     0
  0
APPID
  5
742E
330
9
100
AcDbSymbolTableRecord
100
AcDbRegAppTableRecord
  2
ACAD_DSTYLE_DIMTALN
 70
     0
  0
APPID
  5
8254
330
9
100
AcDbSymbolTableRecord
100
AcDbRegAppTableRecord
  2
AECBASE
 70
     0
  0
APPID
  5
8255
330
9
100
AcDbSymbolTableRecord
100
AcDbRegAppTableRecord
  2
AEC_2DSECTION_XDATA
 70
     0
  0
APPID
  5
8256
330
9
100
AcDbSymbolTableRecord
100
AcDbRegAppTableRecord
  2
AEC_MASSGROUP_XDADA
 70
     0
  0
APPID
  5
B0E5
330
9
100
AcDbSymbolTableRecord
100
AcDbRegAppTableRecord
  2
PE_DIMMEASUREMENT
 70
     0
  0
APPID
  5
147E0
330
9
100
AcDbSymbolTableRecord
100
AcDbRegAppTableRecord
  2
AcAecLayerStandard
 70
     0
  0
APPID
  5
15094
330
9
100
AcDbSymbolTableRecord
100
AcDbRegAppTableRecord
  2
PLOTTRANSPARENCY
 70
     0
  0
APPID
  5
17E46
330
9
100
AcDbSymbolTableRecord
100
AcDbRegAppTableRecord
  2
AcadAnnotative
 70
     0
  0
APPID
  5
6C73F
330
9
100
AcDbSymbolTableRecord
100
AcDbRegAppTableRecord
  2
ACAD_NAV_VCDISPLAY
 70
     0
  0
ENDTAB
  0
TABLE
  2
DIMSTYLE
  5
A
330
0
100
AcDbSymbolTable
 70
    27
100
AcDbDimStyleTable
  0
DIMSTYLE
105
73
330
A
100
AcDbSymbolTableRecord
100
AcDbDimStyleTableRecord
  2
NEMY-1
 70
     0
 41
3.0
 42
1.5
 43
10.0
 44
1.0
 73
     0
 74
     0
 77
     1
 78
     8
140
3.0
141
1.5
143
0.03937007874016
147
1.0
171
     3
172
     1
178
     0
271
     1
272
     1
274
     3
283
     0
284
     8
340
11
341
8F
342
8F
  0
ENDTAB
  0
TABLE
  2
BLOCK_RECORD
  5
1
330
0
100
AcDbSymbolTable
 70
   857
  0
BLOCK_RECORD
  5
1F
102
{ACAD_XDICTIONARY
360
CBD6
102
}
330
1
100
AcDbSymbolTableRecord
100
AcDbBlockTableRecord
  2
*Model_Space
340
22
  0
BLOCK_RECORD
  5
1B
330
1
100
AcDbSymbolTableRecord
100
AcDbBlockTableRecord
  2
*Paper_Space
340
1E
  0
BLOCK_RECORD
  5
23
330
1
100
AcDbSymbolTableRecord
100
AcDbBlockTableRecord
  2
*Paper_Space0
340
26
  0
BLOCK_RECORD
  5
8F
330
1
100
AcDbSymbolTableRecord
100
AcDbBlockTableRecord
  2
_Open
340
0
102
{BLKREFS
331
1401C
331
14029
331
14036
331
14596
331
145A3
331
145B0
331
145BD
331
145CA
331
145D7
331
145E4
331
145F1
331
14600
331
15C74
331
15C90
331
15CA0
331
15DEA
331
15DF7
331
19422
331
1942E
331
1943A
331
19446
331
198AD
331
198D4
331
67AEA
331
67AF6
331
67B02
331
67B0E
331
775D9
331
775E6
331
775F3
331
88049
331
88088
331
88094
331
9AA23
331
9B1FB
331
9B208
331
9B215
331
9D96D
331
9D979
331
9D985
331
9D991
331
9D99D
331
9D9A9
331
1401D
331
1402A
331
14037
331
14597
331
145A4
331
145B1
331
145BE
331
145CB
331
145D8
331
145E5
331
145F2
331
14601
331
15C75
331
15C91
331
15CA1
331
15DEB
331
15DF8
331
19423
331
1942F
331
1943B
331
19447
331
198AE
331
198D5
331
67AEB
331
67AF7
331
67B03
331
67B0F
331
775DA
331
775E7
331
775F4
331
8804A
331
88089
331
88095
331
9AA24
331
9B1FC
331
9B209
331
9B216
331
9D96E
331
9D97A
331
9D986
331
9D992
331
9D99E
331
9D9AA
331
141AC
331
141AD
331
141B2
331
141B3
331
141B8
331
141B9
331
141BE
331
141BF
331
141C4
331
141C5
331
141CA
331
141CB
331
141D0
331
141D1
331
141D6
331
141D7
331
1478E
331
1478F
331
14794
331
14795
331
1479A
331
1479B
331
147A0
331
147A1
331
147A6
331
147A7
331
147AC
331
147AD
331
147B2
331
147B3
331
147B8
331
147B9
331
147BE
331
147BF
331
147C7
331
147C8
331
147CD
331
147CE
331
147D6
331
147D7
331
62670
331
62671
331
62675
331
62676
331
62677
331
62678
331
92E5E
331
92E5F
331
97403
331
97404
331
92EF0
331
92EF1
331
97495
331
97496
331
92EF8
331
92EF9
331
9749D
331
9749E
331
92EFD
331
92EFF
331
974A2
331
974A4
331
92F03
331
92F05
331
974A8
331
974AA
331
92F09
331
92F0B
331
974AE
331
974B0
331
92F8D
331
92F8E
331
92F8F
331
97532
331
92F90
331
97533
331
97534
331
97535
331
63C55
331
63C56
331
63CE7
331
63CE8
331
63CEF
331
63CF0
331
63CF4
331
63CF6
331
63CFA
331
63CFC
331
63D00
331
63D02
331
63DB5
331
63DB6
331
63DB7
331
63DB8
331
0
331
0
331
0
331
0
331
0
331
0
331
0
331
0
331
0
331
0
331
0
331
0
331
0
331
0
331
0
331
0
331
0
331
0
331
0
331
0
331
0
331
0
331
0
331
0
331
0
331
0
331
0
331
0
331
0
331
0
331
0
331
0
331
0
331
0
331
0
331
0
331
0
331
0
331
0
331
0
331
0
331
0
331
0
331
0
331
0
331
0
331
0
331
0
331
0
331
0
331
0
331
0
331
0
331
0
331
0
331
0
331
0
331
0
331
0
331
0
331
0
331
0
331
0
331
0
331
0
331
0
331
0
331
0
331
0
331
0
331
0
331
0
331
0
331
0
331
0
331
0
331
0
331
0
331
0
331
0
331
0
331
0
331
0
331
0
331
0
331
0
331
0
331
0
331
0
331
0
331
0
331
0
331
0
331
0
331
0
331
0
331
0
331
0
331
0
331
0
331
0
331
0
331
0
331
0
331
0
331
0
331
0
331
0
331
0
331
0
331
0
331
0
331
0
331
0
331
0
331
0
331
0
331
0
331
0
331
0
331
0
331
0
331
0
331
0
331
0
331
0
331
0
331
0
331
0
331
0
331
0
331
0
102
}
  0
ENDTAB
  0
ENDSEC
  0
SECTION
  2
BLOCKS
  0
BLOCK
  5
20
330
1F
100
AcDbEntity
  8
0
100
AcDbBlockBegin
  2
*Model_Space
 70
     0
 10
0.0
 20
0.0
 30
0.0
  3
*Model_Space
  1

  0
ENDBLK
  5
21
330
1F
100
AcDbEntity
  8
0
100
AcDbBlockEnd
  0
BLOCK
  5
1C
330
1B
100
AcDbEntity
 67
     1
  8
0
100
AcDbBlockBegin
  2
*Paper_Space
 70
     0
 10
0.0
 20
0.0
 30
0.0
  3
*Paper_Space
  1

  0
ENDBLK
  5
1D
330
1B
100
AcDbEntity
 67
     1
  8
0
100
AcDbBlockEnd
  0
BLOCK
  5
24
330
23
100
AcDbEntity
  8
0
100
AcDbBlockBegin
  2
*Paper_Space0
 70
     0
 10
0.0
 20
0.0
 30
0.0
  3
*Paper_Space0
  1

  0
ENDBLK
  5
25
330
23
100
AcDbEntity
  8
0
100
AcDbBlockEnd
  0
BLOCK
  5
93
330
8F
100
AcDbEntity
  8
0
100
AcDbBlockBegin
  2
_Open
 70
     0
 10
0.0
 20
0.0
 30
0.0
  3
_Open
  1

  0
LINE
  5
90
330
8F
100
AcDbEntity
  8
01注記寸法
 62
     0
370
    -2
100
AcDbLine
 10
-1.0
 20
0.1666666666666667
 30
0.0
 11
0.0
 21
0.0
 31
0.0
  0
LINE
  5
91
330
8F
100
AcDbEntity
  8
01注記寸法
 62
     0
370
    -2
100
AcDbLine
 10
-1.0
 20
-0.1666666666666667
 30
0.0
 11
0.0
 21
0.0
 31
0.0
  0
LINE
  5
92
330
8F
100
AcDbEntity
  8
01注記寸法
 62
     0
370
    -2
100
AcDbLine
 10
0.0
 20
0.0
 30
0.0
 11
-1.0
 21
0.0
 31
0.0
  0
ENDBLK
  5
94
330
8F
100
AcDbEntity
  8
0
100
AcDbBlockEnd
  0
ENDSEC
  0
SECTION
  2
ENTITIES
  0
LINE
  5
1BB68
330
1F
100
AcDbEntity
  8
02製品
  6
PHANTOM
100
AcDbLine
 10
77817.71102183303
 20
-82531.79870366256
 30
0.0
 11
77183.52594487372
 21
-81743.34166526
 31
0.0
  0
LINE
  5
1BB69
330
1F
100
AcDbEntity
  8
02製品
  6
PHANTOM
100
AcDbLine
 10
77706.90061131341
 20
-81743.34166526
 30
0.0
 11
77072.71551701831
 21
-82531.79870366256
 31
0.0
  0
LINE
  5
1BB6A
330
1F
100
AcDbEntity
  8
02製品
  6
Continuous
370
    15
100
AcDbLine
 10
77719.6075223332
 20
-81696.67596816225
 30
0.0
 11
77719.81694325262
 21
-81698.16608428163
 31
0.0
  0
ARC
  5
1BB6B
330
1F
100
AcDbEntity
  8
02製品
  6
Continuous
370
    15
100
AcDbCircle
 10
77716.16393996349
 20
-81697.32248140499
 30
0.0
 40
3.503746410580102
100
AcDbArc
 50
10.63318117461501
 51
182.5363176374738
  0
LINE
  5
1BB6C
330
1F
100
AcDbEntity
  8
02製品
  6
Continuous
370
    15
100
AcDbLine
 10
77712.66362592035
 20
-81697.47753142519
 30
0.0
 11
77712.87304683977
 21
-81698.96764754457
 31
0.0
  0
ARC
  5
1BB6D
330
1F
100
AcDbEntity
  8
02製品
  6
Continuous
370
    15
100
AcDbCircle
 10
77715.83372932106
 20
-81699.3240302559
 30
0.0
 40
2.982054558923828
100
AcDbArc
 50
173.1362267363541
 51
202.863698394725
  0
LINE
  5
1BB6E
330
1F
100
AcDbEntity
  8
02製品
  6
Continuous
370
    15
100
AcDbLine
 10
77713.08596953207
 20
-81700.48267840547
 30
0.0
 11
77713.29539045149
 21
-81701.97279452486
 31
0.0
  0
ARC
  5
1BB6F
330
1F
100
AcDbEntity
  8
02製品
  6
Continuous
370
    15
100
AcDbCircle
 10
77716.7389728212
 20
-81701.32628128212
 30
0.0
 40
3.503746410580102
100
AcDbArc
 50
190.633181174615
 51
2.536317637473793
  0
LINE
  5
1BB70
330
1F
100
AcDbEntity
  8
02製品
  6
Continuous
370
    15
100
AcDbLine
 10
77720.02986594492
 20
-81699.68111514254
 30
0.0
 11
77720.23928686434
 21
-81701.17123126192
 31
0.0
  0
ARC
  5
1BB71
330
1F
100
AcDbEntity
  8
02製品
  6
Continuous
370
    15
100
AcDbCircle
 10
77717.06918346362
 20
-81699.32473243074
 30
0.0
 40
2.982054558923064
100
AcDbArc
 50
353.1362267276152
 51
22.86369838657407
  0
LINE
  5
1BB72
330
1F
100
AcDbEntity
  8
02製品
  6
Continuous
370
    15
100
AcDbLine
 10
77177.1311216002
 20
-81701.97279452486
 30
0.0
 11
77177.34057232195
 21
-81700.48267840547
 31
0.0
  0
ARC
  5
1BB73
330
1F
100
AcDbEntity
  8
02製品
  6
Continuous
370
    15
100
AcDbCircle
 10
77174.59221044222
 20
-81699.32397476397
 30
0.0
 40
2.98263091093991
100
AcDbArc
 50
337.1398132440594
 51
6.861366874816188
  0
LINE
  5
1BB74
330
1F
100
AcDbEntity
  8
02製品
  6
Continuous
370
    15
100
AcDbLine
 10
77177.55348011309
 20
-81698.96764754457
 30
0.0
 11
77177.76287123018
 21
-81697.47753142519
 31
0.0
  0
ARC
  5
1BB75
330
1F
100
AcDbEntity
  8
02製品
  6
Continuous
370
    15
100
AcDbCircle
 10
77174.26142323196
 20
-81697.33236878784
 30
0.0
 40
3.504455774553309
100
AcDbArc
 50
357.6259975041932
 51
169.204475670788
  0
LINE
  5
1BB76
330
1F
100
AcDbEntity
  8
02製品
  6
Continuous
370
    15
100
AcDbLine
 10
77170.6095986014
 20
-81698.16608428163
 30
0.0
 11
77170.8189897185
 21
-81696.67596816225
 31
0.0
  0
ARC
  5
1BB77
330
1F
100
AcDbEntity
  8
02製品
  6
Continuous
370
    15
100
AcDbCircle
 10
77173.35689350816
 20
-81699.32475444302
 30
0.0
 40
2.981634760690097
100
AcDbArc
 50
157.1324409139839
 51
186.8643182575872
  0
LINE
  5
1BB78
330
1F
100
AcDbEntity
  8
02製品
  6
Continuous
370
    15
100
AcDbLine
 10
77170.18724008852
 20
-81701.17123126192
 30
0.0
 11
77170.39663120561
 21
-81699.68111514254
 31
0.0
  0
ARC
  5
1BB79
330
1F
100
AcDbEntity
  8
02製品
  6
Continuous
370
    15
100
AcDbCircle
 10
77173.68869129747
 20
-81701.31636608485
 30
0.0
 40
3.504457830494527
100
AcDbArc
 50
177.6264540372496
 51
349.2040191378842
  0
LINE
  5
1BB7A
330
1F
100
AcDbEntity
  8
02製品
  6
Continuous
370
    15
100
AcDbLine
 10
77729.17821034246
 20
-81685.87346076174
 30
0.0
 11
77732.97921344095
 21
-81712.91894911928
 31
0.0
  0
LINE
  5
1BB7B
330
1F
100
AcDbEntity
  8
02製品
  6
Continuous
370
    15
100
AcDbLine
 10
77157.44734331423
 20
-81712.91894911928
 30
0.0
 11
77732.97921344095
 21
-81712.91894911928
 31
0.0
  0
LINE
  5
1BB7C
330
1F
100
AcDbEntity
  8
02製品
  6
Continuous
370
    15
100
AcDbLine
 10
77157.44734331423
 20
-81712.91894911928
 30
0.0
 11
77161.24833151155
 21
-81685.87346076174
 31
0.0
  0
LINE
  5
1BB7D
330
1F
100
AcDbEntity
  8
02製品
  6
Continuous
370
    15
100
AcDbLine
 10
77161.24833151155
 20
-81685.5749607007
 30
0.0
 11
77161.24833151155
 21
-81685.87346076174
 31
0.0
  0
LINE
  5
1BB7E
330
1F
100
AcDbEntity
  8
02製品
  6
Continuous
370
    15
100
AcDbLine
 10
77161.24833151155
 20
-81685.5749607007
 30
0.0
 11
77729.17821034246
 21
-81685.5749607007
 31
0.0
  0
LINE
  5
1BB7F
330
1F
100
AcDbEntity
  8
02製品
  6
Continuous
370
    15
100
AcDbLine
 10
77729.17821034246
 20
-81685.87346076174
 30
0.0
 11
77729.17821034246
 21
-81685.5749607007
 31
0.0
  0
ARC
  5
1BB80
330
1F
100
AcDbEntity
  8
02製品
  6
Continuous
370
    15
100
AcDbCircle
 10
77353.9750628119
 20
-81701.329127857
 30
0.0
 40
3.509703223847765
100
AcDbArc
 50
184.2648320220321
 51
355.7351679779679
  0
LINE
  5
1BB81
330
1F
100
AcDbEntity
  8
02製品
  6
Continuous
370
    15
100
AcDbLine
 10
77357.47504755312
 20
-81700.08809565706
 30
0.0
 11
77357.47504755312
 21
-81701.5901327054
 31
0.0
  0
ARC
  5
1BB82
330
1F
100
AcDbEntity
  8
02製品
  6
Continuous
370
    15
100
AcDbCircle
 10
77354.6076013359
 20
-81699.32438134355
 30
0.0
 40
2.967407515281835
100
AcDbArc
 50
345.0860827456621
 51
14.91391725433788
  0
LINE
  5
1BB83
330
1F
100
AcDbEntity
  8
02製品
  6
Continuous
370
    15
100
AcDbLine
 10
77357.47504755312
 20
-81697.05862998171
 30
0.0
 11
77357.47504755312
 21
-81698.56066703005
 31
0.0
  0
ARC
  5
1BB84
330
1F
100
AcDbEntity
  8
02製品
  6
Continuous
370
    15
100
AcDbCircle
 10
77353.9750628119
 20
-81697.31963482965
 30
0.0
 40
3.509703223847723
100
AcDbArc
 50
4.264832014415886
 51
175.7351679855841
  0
LINE
  5
1BB85
330
1F
100
AcDbEntity
  8
02製品
  6
Continuous
370
    15
100
AcDbLine
 10
77350.4750780707
 20
-81697.05862998171
 30
0.0
 11
77350.4750780707
 21
-81698.56066703005
 31
0.0
  0
ARC
  5
1BB86
330
1F
100
AcDbEntity
  8
02製品
  6
Continuous
370
    15
100
AcDbCircle
 10
77353.34252428815
 20
-81699.32438134355
 30
0.0
 40
2.967407515281835
100
AcDbArc
 50
165.0860827468205
 51
194.9139172531795
  0
LINE
  5
1BB87
330
1F
100
AcDbEntity
  8
02製品
  6
Continuous
370
    15
100
AcDbLine
 10
77350.4750780707
 20
-81700.08809565706
 30
0.0
 11
77350.4750780707
 21
-81701.5901327054
 31
0.0
  0
LINE
  5
1BB88
330
1F
100
AcDbEntity
  8
02製品
  6
Continuous
370
    15
100
AcDbLine
 10
77532.95144959741
 20
-81697.05862998171
 30
0.0
 11
77532.95144959741
 21
-81698.56066703005
 31
0.0
  0
ARC
  5
1BB89
330
1F
100
AcDbEntity
  8
02製品
  6
Continuous
370
    15
100
AcDbCircle
 10
77535.81997126683
 20
-81699.32438134355
 30
0.0
 40
2.968446751981575
100
AcDbArc
 50
165.0914251680583
 51
194.9085748319417
  0
LINE
  5
1BB8A
330
1F
100
AcDbEntity
  8
02製品
  6
Continuous
370
    15
100
AcDbLine
 10
77532.95144959741
 20
-81700.08809565706
 30
0.0
 11
77532.95144959741
 21
-81701.5901327054
 31
0.0
  0
ARC
  5
1BB8B
330
1F
100
AcDbEntity
  8
02製品
  6
Continuous
370
    15
100
AcDbCircle
 10
77536.45144923979
 20
-81701.32911733584
 30
0.0
 40
3.509718866173925
100
AcDbArc
 50
184.2649852126823
 51
355.7350147873177
  0
LINE
  5
1BB8C
330
1F
100
AcDbEntity
  8
02製品
  6
Continuous
370
    15
100
AcDbLine
 10
77539.95144888216
 20
-81700.08809565706
 30
0.0
 11
77539.95144888216
 21
-81701.5901327054
 31
0.0
  0
ARC
  5
1BB8D
330
1F
100
AcDbEntity
  8
02製品
  6
Continuous
370
    15
100
AcDbCircle
 10
77537.08400266494
 20
-81699.32438134355
 30
0.0
 40
2.967407515296117
100
AcDbArc
 50
345.0860827454629
 51
14.91391725453707
  0
LINE
  5
1BB8E
330
1F
100
AcDbEntity
  8
02製品
  6
Continuous
370
    15
100
AcDbLine
 10
77539.95144888216
 20
-81697.05862998171
 30
0.0
 11
77539.95144888216
 21
-81698.56066703005
 31
0.0
  0
ARC
  5
1BB8F
330
1F
100
AcDbEntity
  8
02製品
  6
Continuous
370
    15
100
AcDbCircle
 10
77536.45144923979
 20
-81697.3196453508
 30
0.0
 40
3.509718866173883
100
AcDbArc
 50
4.264985205048495
 51
175.7350147949515
  0
LINE
  5
1BB90
330
1F
100
AcDbEntity
  8
02製品
  6
Continuous
370
    15
100
AcDbLine
 10
77157.44734331423
 20
-81713.34166526003
 30
0.0
 11
77732.97921344095
 21
-81713.34166526003
 31
0.0
  0
LINE
  5
1BB91
330
1F
100
AcDbEntity
  8
02製品
  6
Continuous
370
    15
100
AcDbLine
 10
77732.97921344095
 20
-81713.34166526003
 30
0.0
 11
77732.97921344095
 21
-81712.91894911928
 31
0.0
  0
LINE
  5
1BB92
330
1F
100
AcDbEntity
  8
02製品
  6
Continuous
370
    15
100
AcDbLine
 10
77157.44734331423
 20
-81713.34166526003
 30
0.0
 11
77157.44734331423
 21
-81712.91894911928
 31
0.0
  0
LINE
  5
1BB93
330
1F
100
AcDbEntity
  8
02製品
  6
Continuous
370
    15
100
AcDbLine
 10
77170.18724008852
 20
-81701.59382819338
 30
0.0
 11
77170.18724008852
 21
-81701.17123126192
 31
0.0
  0
LINE
  5
1BB94
330
1F
100
AcDbEntity
  8
02製品
  6
Continuous
370
    15
100
AcDbLine
 10
77170.18724008852
 20
-81701.59382819338
 30
0.0
 11
77170.1669745093
 21
-81701.78325175447
 31
0.0
  0
LINE
  5
1BB95
330
1F
100
AcDbEntity
  8
02製品
  6
Continuous
370
    15
100
AcDbLine
 10
77720.23928686434
 20
-81701.59382819338
 30
0.0
 11
77720.23928686434
 21
-81701.17123126192
 31
0.0
  0
LINE
  5
1BB96
330
1F
100
AcDbEntity
  8
02製品
  6
Continuous
370
    15
100
AcDbLine
 10
77720.25956734472
 20
-81701.78325175447
 30
0.0
 11
77720.23928686434
 21
-81701.59382819338
 31
0.0
  0
LINE
  5
1BB97
330
1F
100
AcDbEntity
  8
02製品
  6
Continuous
370
    15
100
AcDbLine
 10
77170.39663120561
 20
-81700.103712074
 30
0.0
 11
77170.39663120561
 21
-81699.68111514254
 31
0.0
  0
LINE
  5
1BB98
330
1F
100
AcDbEntity
  8
02製品
  6
Continuous
370
    15
100
AcDbLine
 10
77170.18724008852
 20
-81701.59382819338
 30
0.0
 11
77170.39663120561
 21
-81700.103712074
 31
0.0
  0
LINE
  5
1BB99
330
1F
100
AcDbEntity
  8
02製品
  6
Continuous
370
    15
100
AcDbLine
 10
77720.02986594492
 20
-81700.103712074
 30
0.0
 11
77720.02986594492
 21
-81699.68111514254
 31
0.0
  0
LINE
  5
1BB9A
330
1F
100
AcDbEntity
  8
02製品
  6
Continuous
370
    15
100
AcDbLine
 10
77720.02986594492
 20
-81700.103712074
 30
0.0
 11
77720.23928686434
 21
-81701.59382819338
 31
0.0
  0
LINE
  5
1BB9B
330
1F
100
AcDbEntity
  8
02製品
  6
Continuous
370
    15
100
AcDbLine
 10
77712.87304683977
 20
-81699.39024447603
 30
0.0
 11
77712.87304683977
 21
-81698.96764754457
 31
0.0
  0
LINE
  5
1BB9C
330
1F
100
AcDbEntity
  8
02製品
  6
Continuous
370
    15
100
AcDbLine
 10
77712.87304683977
 20
-81699.39024447603
 30
0.0
 11
77712.85900994593
 21
-81699.53567980928
 31
0.0
  0
LINE
  5
1BB9D
330
1F
100
AcDbEntity
  8
02製品
  6
Continuous
370
    15
100
AcDbLine
 10
77177.55348011309
 20
-81699.39024447603
 30
0.0
 11
77177.55348011309
 21
-81698.96764754457
 31
0.0
  0
LINE
  5
1BB9E
330
1F
100
AcDbEntity
  8
02製品
  6
Continuous
370
    15
100
AcDbLine
 10
77177.56748720461
 20
-81699.53567980928
 30
0.0
 11
77177.55348011309
 21
-81699.39024447603
 31
0.0
  0
LINE
  5
1BB9F
330
1F
100
AcDbEntity
  8
02製品
  6
Continuous
370
    15
100
AcDbLine
 10
77532.95144959741
 20
-81698.9833831708
 30
0.0
 11
77532.95144959741
 21
-81698.56066703005
 31
0.0
  0
ARC
  5
1BBA0
330
1F
100
AcDbEntity
  8
02製品
  6
Continuous
370
    15
100
AcDbCircle
 10
77535.83168962032
 20
-81699.74938091496
 30
0.0
 40
2.980358222326485
100
AcDbArc
 50
165.106964354581
 51
175.8881829693437
  0
LINE
  5
1BBA1
330
1F
100
AcDbEntity
  8
02製品
  6
Continuous
370
    15
100
AcDbLine
 10
77539.95144888216
 20
-81698.9833831708
 30
0.0
 11
77539.95144888216
 21
-81698.56066703005
 31
0.0
  0
ARC
  5
1BBA2
330
1F
100
AcDbEntity
  8
02製品
  6
Continuous
370
    15
100
AcDbCircle
 10
77537.07504944822
 20
-81699.74873805325
 30
0.0
 40
2.976481446221327
100
AcDbArc
 50
4.104775089663542
 51
14.90007757402094
  0
LINE
  5
1BBA3
330
1F
100
AcDbEntity
  8
02製品
  6
Continuous
370
    15
100
AcDbLine
 10
77357.47504755312
 20
-81698.9833831708
 30
0.0
 11
77357.47504755312
 21
-81698.56066703005
 31
0.0
  0
ARC
  5
1BBA4
330
1F
100
AcDbEntity
  8
02製品
  6
Continuous
370
    15
100
AcDbCircle
 10
77354.59864811918
 20
-81699.74873805325
 30
0.0
 40
2.976481446230824
100
AcDbArc
 50
4.104775089643491
 51
14.90007757394891
  0
LINE
  5
1BBA5
330
1F
100
AcDbEntity
  8
02製品
  6
Continuous
370
    15
100
AcDbLine
 10
77350.4750780707
 20
-81698.9833831708
 30
0.0
 11
77350.4750780707
 21
-81698.56066703005
 31
0.0
  0
ARC
  5
1BBA6
330
1F
100
AcDbEntity
  8
02製品
  6
Continuous
370
    15
100
AcDbCircle
 10
77353.3514775044
 20
-81699.74873805325
 30
0.0
 40
2.976481446078957
100
AcDbArc
 50
165.0999224247174
 51
175.8952249101359
  0
LINE
  5
1BBA7
330
1F
100
AcDbEntity
  8
02製品
  6
Continuous
370
    15
100
AcDbLine
 10
77170.6095986014
 20
-81698.58868121309
 30
0.0
 11
77170.6095986014
 21
-81698.16608428163
 31
0.0
  0
ARC
  5
1BBA8
330
1F
100
AcDbEntity
  8
02製品
  6
Continuous
370
    15
100
AcDbCircle
 10
77173.3635210117
 20
-81699.74943478871
 30
0.0
 40
2.988551071207253
100
AcDbArc
 50
157.1450136325349
 51
175.8984389579573
  0
LINE
  5
1BBA9
330
1F
100
AcDbEntity
  8
02製品
  6
Continuous
370
    15
100
AcDbLine
 10
77719.81694325262
 20
-81698.58868121309
 30
0.0
 11
77719.81694325262
 21
-81698.16608428163
 31
0.0
  0
ARC
  5
1BBAA
330
1F
100
AcDbEntity
  8
02製品
  6
Continuous
370
    15
100
AcDbCircle
 10
77717.05131290892
 20
-81699.75219383044
 30
0.0
 40
3.000412106530662
100
AcDbArc
 50
4.138141966074998
 51
22.81670026223986
  0
LINE
  5
1BBAB
330
1F
100
AcDbEntity
  8
02製品
  6
Continuous
370
    15
100
AcDbLine
 10
77719.6075223332
 20
-81697.09856509371
 30
0.0
 11
77719.6075223332
 21
-81696.67596816225
 31
0.0
  0
LINE
  5
1BBAC
330
1F
100
AcDbEntity
  8
02製品
  6
Continuous
370
    15
100
AcDbLine
 10
77719.6075223332
 20
-81697.09856509371
 30
0.0
 11
77719.81694325262
 21
-81698.58868121309
 31
0.0
  0
LINE
  5
1BBAD
330
1F
100
AcDbEntity
  8
02製品
  6
Continuous
370
    15
100
AcDbLine
 10
77170.8189897185
 20
-81697.09856509371
 30
0.0
 11
77170.8189897185
 21
-81696.67596816225
 31
0.0
  0
LINE
  5
1BBAE
330
1F
100
AcDbEntity
  8
02製品
  6
Continuous
370
    15
100
AcDbLine
 10
77170.6095986014
 20
-81698.58868121309
 30
0.0
 11
77170.8189897185
 21
-81697.09856509371
 31
0.0
  0
ARC
  5
1BBAF
330
1F
100
AcDbEntity
  8
02製品
  6
Continuous
370
    15
100
AcDbCircle
 10
77174.28475925133
 20
-81697.79347577458
 30
0.0
 40
3.534750246888541
100
AcDbArc
 50
8.21982044867209
 51
168.6621444517448
  0
ARC
  5
1BBB0
330
1F
100
AcDbEntity
  8
02製品
  6
Continuous
370
    15
100
AcDbCircle
 10
77716.14159841921
 20
-81697.78725342872
 30
0.0
 40
3.533683658889161
100
AcDbArc
 50
11.23844203521957
 51
171.8796064016964
  0
ARC
  5
1BBB1
330
1F
100
AcDbEntity
  8
02製品
  6
Continuous
370
    15
100
AcDbCircle
 10
77353.9750628119
 20
-81697.7422317611
 30
0.0
 40
3.509703223847723
100
AcDbArc
 50
4.264832014415886
 51
175.7351679855841
  0
ARC
  5
1BBB2
330
1F
100
AcDbEntity
  8
02製品
  6
Continuous
370
    15
100
AcDbCircle
 10
77536.45144923979
 20
-81697.74224228226
 30
0.0
 40
3.509718866173883
100
AcDbArc
 50
4.264985205048495
 51
175.7350147949515
  0
LINE
  5
1BBB3
330
1F
100
AcDbEntity
  8
02製品
  6
Continuous
370
    15
100
AcDbLine
 10
77351.11755653673
 20
-81700.57494639559
 30
0.0
 11
77356.83256908708
 21
-81700.57494639559
 31
0.0
  0
LINE
  5
1BBB4
330
1F
100
AcDbEntity
  8
02製品
  6
Continuous
370
    15
100
AcDbLine
 10
77533.59395786577
 20
-81700.57494639559
 30
0.0
 11
77539.30897041612
 21
-81700.57494639559
 31
0.0
  0
LINE
  5
1BBB5
330
1F
100
AcDbEntity
  8
02製品
  6
Continuous
370
    15
100
AcDbLine
 10
77855.75477554851
 20
-82587.27179168863
 30
0.0
 11
77852.12728529626
 21
-82561.460864536
 31
0.0
  0
LINE
  5
1BBB6
330
1F
100
AcDbEntity
  8
02製品
  6
Continuous
370
    15
100
AcDbLine
 10
77855.75477554851
 20
-82587.27179168863
 30
0.0
 11
77855.75477554851
 21
-82588.09093832178
 31
0.0
  0
LINE
  5
1BBB7
330
1F
100
AcDbEntity
  8
02製品
  6
Continuous
370
    15
100
AcDbLine
 10
77852.05964520031
 20
-82561.79870366259
 30
0.0
 11
77855.75477554851
 21
-82588.09093832178
 31
0.0
  0
LINE
  5
1BBB8
330
1F
100
AcDbEntity
  8
02製品
  6
Continuous
370
    15
100
AcDbLine
 10
77852.03959196263
 20
-82560.5002760808
 30
0.0
 11
77852.05964520031
 21
-82561.79870366259
 31
0.0
  0
LINE
  5
1BBB9
330
1F
100
AcDbEntity
  8
02製品
  6
Continuous
370
    15
100
AcDbLine
 10
77852.0947039073
 20
-82561.15354298754
 30
0.0
 11
77852.03959196263
 21
-82560.5002760808
 31
0.0
  0
LINE
  5
1BBBA
330
1F
100
AcDbEntity
  8
02製品
  6
Continuous
370
    15
100
AcDbLine
 10
77852.0947039073
 20
-82561.15354298754
 30
0.0
 11
77852.12728529626
 21
-82561.460864536
 31
0.0
  0
LINE
  5
1BBBB
330
1F
100
AcDbEntity
  8
02製品
  6
Continuous
370
    15
100
AcDbLine
 10
77177.56754680925
 20
-81699.53579901857
 30
0.0
 11
77177.55348011309
 21
-81699.39024447603
 31
0.0
  0
ARC
  5
1BBBC
330
1F
100
AcDbEntity
  8
02製品
  6
Continuous
370
    15
100
AcDbCircle
 10
77174.28474738488
 20
-81697.79344743211
 30
0.0
 40
3.534733040317859
100
AcDbArc
 50
8.223301298816672
 51
168.6625570862604
  0
ARC
  5
1BBBD
330
1F
100
AcDbEntity
  8
02製品
  6
Continuous
370
    15
100
AcDbCircle
 10
77173.35817658661
 20
-81699.7481271131
 30
0.0
 40
2.983118458040294
100
AcDbArc
 50
157.1282891490198
 51
175.9184325751816
  0
LWPOLYLINE
  5
1BBBE
330
1F
100
AcDbEntity
  8
02製品
  6
Continuous
370
    15
100
AcDbPolyline
 90
       19
 70
   128
 43
0.0
 10
77536.45146414095
 20
-81702.46596335573
 10
77537.47752829843
 20
-81702.30193137331
 10
77538.37982341104
 20
-81701.82986258669
 10
77539.04954119974
 20
-81701.1065006177
 10
77539.40588756853
 20
-81700.21910666628
 10
77539.40588756853
 20
-81699.27484988375
 10
77539.04954119974
 20
-81698.38757514162
 10
77538.37982341104
 20
-81697.66421317263
 10
77537.47752829843
 20
-81697.19202517672
 10
77536.45146414095
 20
-81697.02811240358
 10
77535.42539998346
 20
-81697.19202517672
 10
77534.52310487085
 20
-81697.66421317263
 10
77533.85338708216
 20
-81698.38757514162
 10
77533.49704071337
 20
-81699.27484988375
 10
77533.49704071337
 20
-81700.21910666628
 10
77533.85338708216
 20
-81701.1065006177
 10
77534.52310487085
 20
-81701.82986258669
 10
77535.42539998346
 20
-81702.30193137331
 10
77536.45146414095
 20
-81702.46596335573
  0
LWPOLYLINE
  5
1BBBF
330
1F
100
AcDbEntity
  8
02製品
  6
Continuous
370
    15
100
AcDbPolyline
 90
       19
 70
   128
 43
0.0
 10
77353.9750628119
 20
-81702.46596335573
 10
77355.00115677172
 20
-81702.30193137331
 10
77355.90345188433
 20
-81701.82986258669
 10
77356.57316967302
 20
-81701.1065006177
 10
77356.92948623949
 20
-81700.21910666628
 10
77356.92948623949
 20
-81699.27484988375
 10
77356.57316967302
 20
-81698.38757514162
 10
77355.90345188433
 20
-81697.66421317263
 10
77355.00115677172
 20
-81697.19202517672
 10
77353.9750628119
 20
-81697.02811240358
 10
77352.94902845674
 20
-81697.19202517672
 10
77352.04673334413
 20
-81697.66421317263
 10
77351.37701555544
 20
-81698.38757514162
 10
77351.02063938433
 20
-81699.27484988375
 10
77351.02063938433
 20
-81700.21910666628
 10
77351.37701555544
 20
-81701.1065006177
 10
77352.04673334413
 20
-81701.82986258669
 10
77352.94902845674
 20
-81702.30193137331
 10
77353.9750628119
 20
-81702.46596335573
  0
LINE
  5
1BBC0
330
1F
100
AcDbEntity
  8
02製品
  6
Continuous
370
    15
100
AcDbLine
 10
77116.6237644797
 20
-82132.9279065053
 30
0.0
 11
77116.41431375795
 21
-82134.41796302004
 31
0.0
  0
ARC
  5
1BBC1
330
1F
100
AcDbEntity
  8
02製品
  6
Continuous
370
    15
100
AcDbCircle
 10
77113.12228649009
 20
-82132.78274770221
 30
0.0
 40
3.504485581634925
100
AcDbArc
 50
357.6260804484954
 51
169.2045047775919
  0
LINE
  5
1BBC2
330
1F
100
AcDbEntity
  8
02製品
  6
Continuous
370
    15
100
AcDbLine
 10
77109.67982336336
 20
-82132.12634324236
 30
0.0
 11
77109.47043224626
 21
-82133.6163997571
 31
0.0
  0
ARC
  5
1BBC3
330
1F
100
AcDbEntity
  8
02製品
  6
Continuous
370
    15
100
AcDbCircle
 10
77112.21872570242
 20
-82134.77522429917
 30
0.0
 40
2.982614832878295
100
AcDbArc
 50
157.1371625456692
 51
186.8602180574127
  0
LINE
  5
1BBC4
330
1F
100
AcDbEntity
  8
02製品
  6
Continuous
370
    15
100
AcDbLine
 10
77109.25746485048
 20
-82135.13149022264
 30
0.0
 11
77109.04807373339
 21
-82136.62154673738
 31
0.0
  0
ARC
  5
1BBC5
330
1F
100
AcDbEntity
  8
02製品
  6
Continuous
370
    15
100
AcDbCircle
 10
77112.54952655632
 20
-82136.76671639271
 30
0.0
 40
3.504460885561103
100
AcDbArc
 50
177.6258861304844
 51
349.2036163524376
  0
LINE
  5
1BBC6
330
1F
100
AcDbEntity
  8
02製品
  6
Continuous
370
    15
100
AcDbLine
 10
77116.20140596681
 20
-82135.93305348558
 30
0.0
 11
77115.99195524507
 21
-82137.42316960497
 31
0.0
  0
ARC
  5
1BBC7
330
1F
100
AcDbEntity
  8
02製品
  6
Continuous
370
    15
100
AcDbCircle
 10
77113.45282820372
 20
-82134.77430548752
 30
0.0
 40
2.982847069897309
100
AcDbArc
 50
337.1406391021459
 51
6.861162263617485
  0
LINE
  5
1BBC8
330
1F
100
AcDbEntity
  8
02製品
  6
Continuous
370
    15
100
AcDbLine
 10
77811.31626441532
 20
-82349.64020251436
 30
0.0
 11
77811.52568533474
 21
-82351.1302590291
 31
0.0
  0
ARC
  5
1BBC9
330
1F
100
AcDbEntity
  8
02製品
  6
Continuous
370
    15
100
AcDbCircle
 10
77807.87267672985
 20
-82350.28666970739
 30
0.0
 40
3.503743138206068
100
AcDbArc
 50
10.63242502687973
 51
182.5370737851642
  0
LINE
  5
1BBCA
330
1F
100
AcDbEntity
  8
02製品
  6
Continuous
370
    15
100
AcDbLine
 10
77804.37236800247
 20
-82350.4417657773
 30
0.0
 11
77804.58178147131
 21
-82351.93188189669
 31
0.0
  0
ARC
  5
1BBCB
330
1F
100
AcDbEntity
  8
02製品
  6
Continuous
370
    15
100
AcDbCircle
 10
77807.5430559308
 20
-82352.28819996724
 30
0.0
 40
2.982634572288903
100
AcDbArc
 50
173.1388186035568
 51
202.8615904286317
  0
LINE
  5
1BBCC
330
1F
100
AcDbEntity
  8
02製品
  6
Continuous
370
    15
100
AcDbLine
 10
77804.79471906477
 20
-82353.44697236223
 30
0.0
 11
77805.0041325336
 21
-82354.93702887697
 31
0.0
  0
ARC
  5
1BBCD
330
1F
100
AcDbEntity
  8
02製品
  6
Continuous
370
    15
100
AcDbCircle
 10
77808.44771914666
 20
-82354.2905408591
 30
0.0
 40
3.503745926477189
100
AcDbArc
 50
190.6327629585315
 51
2.53770654257016
  0
LINE
  5
1BBCE
330
1F
100
AcDbEntity
  8
02製品
  6
Continuous
370
    15
100
AcDbLine
 10
77811.73861547762
 20
-82352.64534949465
 30
0.0
 11
77811.94802894646
 21
-82354.13540600939
 31
0.0
  0
ARC
  5
1BBCF
330
1F
100
AcDbEntity
  8
02製品
  6
Continuous
370
    15
100
AcDbCircle
 10
77808.77750492298
 20
-82352.28899487341
 30
0.0
 40
2.982476208235187
100
AcDbArc
 50
353.1377453015339
 51
22.86211111804158
  0
LINE
  5
1BBD0
330
1F
100
AcDbEntity
  8
02製品
  6
Continuous
370
    15
100
AcDbLine
 10
77750.17710551077
 20
-81914.61248397036
 30
0.0
 11
77750.38652643019
 21
-81916.10248088045
 31
0.0
  0
ARC
  5
1BBD1
330
1F
100
AcDbEntity
  8
02製品
  6
Continuous
370
    15
100
AcDbCircle
 10
77746.73351316356
 20
-81915.25891077751
 30
0.0
 40
3.503740268821103
100
AcDbArc
 50
10.63176188013213
 51
182.5377369323733
  0
LINE
  5
1BBD2
330
1F
100
AcDbEntity
  8
02製品
  6
Continuous
370
    15
100
AcDbLine
 10
77743.23320909792
 20
-81915.4140472333
 30
0.0
 11
77743.44261511618
 21
-81916.90416335268
 31
0.0
  0
ARC
  5
1BBD3
330
1F
100
AcDbEntity
  8
02製品
  6
Continuous
370
    15
100
AcDbCircle
 10
77746.40373914682
 20
-81917.26045697834
 30
0.0
 40
2.982482300690991
100
AcDbArc
 50
173.1389396114815
 51
202.8620907679645
  0
LINE
  5
1BBD4
330
1F
100
AcDbEntity
  8
02製品
  6
Continuous
370
    15
100
AcDbLine
 10
77743.65555270964
 20
-81918.41919421358
 30
0.0
 11
77743.86497362905
 21
-81919.90931033297
 31
0.0
  0
ARC
  5
1BBD5
330
1F
100
AcDbEntity
  8
02製品
  6
Continuous
370
    15
100
AcDbCircle
 10
77747.30855801066
 20
-81919.2627914534
 30
0.0
 40
3.503749428203049
100
AcDbArc
 50
190.6332656984636
 51
2.538174491011289
  0
LINE
  5
1BBD6
330
1F
100
AcDbEntity
  8
02製品
  6
Continuous
370
    15
100
AcDbLine
 10
77750.59944912248
 20
-81917.61763095064
 30
0.0
 11
77750.8088700419
 21
-81919.10762786074
 31
0.0
  0
ARC
  5
1BBD7
330
1F
100
AcDbEntity
  8
02製品
  6
Continuous
370
    15
100
AcDbCircle
 10
77747.63833493732
 20
-81917.26121774083
 30
0.0
 40
2.982486813667245
100
AcDbArc
 50
353.1366361681004
 51
22.862046398659
  0
LINE
  5
1BBD8
330
1F
100
AcDbEntity
  8
02製品
  6
Continuous
370
    15
100
AcDbLine
 10
77732.97921344095
 20
-81713.34166526003
 30
0.0
 11
77852.03959196263
 21
-82560.5002760808
 31
0.0
  0
LINE
  5
1BBD9
330
1F
100
AcDbEntity
  8
02製品
  6
Continuous
370
    15
100
AcDbLine
 10
77038.3668594008
 20
-82561.79870366259
 30
0.0
 11
77852.05964520031
 21
-82561.79870366259
 31
0.0
  0
LINE
  5
1BBDA
330
1F
100
AcDbEntity
  8
02製品
  6
Continuous
370
    15
100
AcDbLine
 10
77038.3668594008
 20
-82561.79870366259
 30
0.0
 11
77038.3869461661
 21
-82560.5002760808
 31
0.0
  0
LINE
  5
1BBDB
330
1F
100
AcDbEntity
  8
02製品
  6
Continuous
370
    15
100
AcDbLine
 10
77038.3869461661
 20
-82560.5002760808
 30
0.0
 11
77157.44734331423
 21
-81713.34166526003
 31
0.0
  0
LINE
  5
1BBDC
330
1F
100
AcDbEntity
  8
02製品
  6
Continuous
370
    15
100
AcDbLine
 10
77780.74668868833
 20
-82132.12634324236
 30
0.0
 11
77780.95609470659
 21
-82133.6163997571
 31
0.0
  0
ARC
  5
1BBDD
330
1F
100
AcDbEntity
  8
02製品
  6
Continuous
370
    15
100
AcDbCircle
 10
77777.30310132976
 20
-82132.77281326661
 30
0.0
 40
3.503743339383471
100
AcDbArc
 50
10.63247151650596
 51
182.5370272957653
  0
LINE
  5
1BBDE
330
1F
100
AcDbEntity
  8
02製品
  6
Continuous
370
    15
100
AcDbLine
 10
77773.80279227548
 20
-82132.9279065053
 30
0.0
 11
77774.01219829374
 21
-82134.41796302004
 31
0.0
  0
ARC
  5
1BBDF
330
1F
100
AcDbEntity
  8
02製品
  6
Continuous
370
    15
100
AcDbCircle
 10
77776.97337562537
 20
-82134.77429474145
 30
0.0
 40
2.982539770778406
100
AcDbArc
 50
173.1383353389855
 51
202.8620736901556
  0
LINE
  5
1BBE0
330
1F
100
AcDbEntity
  8
02製品
  6
Continuous
370
    15
100
AcDbLine
 10
77774.2251358872
 20
-82135.93305348558
 30
0.0
 11
77774.43455680662
 21
-82137.42316960497
 31
0.0
  0
ARC
  5
1BBE1
330
1F
100
AcDbEntity
  8
02製品
  6
Continuous
370
    15
100
AcDbCircle
 10
77777.87814083595
 20
-82136.77665920695
 30
0.0
 40
3.503747516747809
100
AcDbArc
 50
190.6331304468227
 51
2.537339054654861
  0
LINE
  5
1BBE2
330
1F
100
AcDbEntity
  8
02製品
  6
Continuous
370
    15
100
AcDbLine
 10
77781.16903230005
 20
-82135.13149022264
 30
0.0
 11
77781.37845321947
 21
-82136.62154673738
 31
0.0
  0
ARC
  5
1BBE3
330
1F
100
AcDbEntity
  8
02製品
  6
Continuous
370
    15
100
AcDbCircle
 10
77778.20824033667
 20
-82134.77510433923
 30
0.0
 40
2.982163635494158
100
AcDbArc
 50
353.136417611116
 51
22.86399139524899
  0
LINE
  5
1BBE4
330
1F
100
AcDbEntity
  8
02製品
  6
Continuous
370
    15
100
AcDbLine
 10
77147.19331785494
 20
-81915.4140472333
 30
0.0
 11
77146.98392673784
 21
-81916.90416335268
 31
0.0
  0
ARC
  5
1BBE5
330
1F
100
AcDbEntity
  8
02製品
  6
Continuous
370
    15
100
AcDbCircle
 10
77143.6918766237
 20
-81915.26882597432
 30
0.0
 40
3.504451442145509
100
AcDbArc
 50
357.6250353137602
 51
169.2054378614633
  0
LINE
  5
1BBE6
330
1F
100
AcDbEntity
  8
02製品
  6
Continuous
370
    15
100
AcDbLine
 10
77140.24943634325
 20
-81914.61248397036
 30
0.0
 11
77140.03998562151
 21
-81916.10248088045
 31
0.0
  0
ARC
  5
1BBE7
330
1F
100
AcDbEntity
  8
02製品
  6
Continuous
370
    15
100
AcDbCircle
 10
77142.78877927775
 20
-81917.26127323462
 30
0.0
 40
2.983063238475409
100
AcDbArc
 50
157.1414649215462
 51
186.8609576686709
  0
LINE
  5
1BBE8
330
1F
100
AcDbEntity
  8
02製品
  6
Continuous
370
    15
100
AcDbLine
 10
77139.82707783037
 20
-81917.61763095064
 30
0.0
 11
77139.61762710863
 21
-81919.10762786074
 31
0.0
  0
ARC
  5
1BBE9
330
1F
100
AcDbEntity
  8
02製品
  6
Continuous
370
    15
100
AcDbCircle
 10
77143.11911331529
 20
-81919.2528131092
 30
0.0
 40
3.50449488669782
100
AcDbArc
 50
177.6256540227413
 51
349.20298983737
  0
LINE
  5
1BBEA
330
1F
100
AcDbEntity
  8
02製品
  6
Continuous
370
    15
100
AcDbLine
 10
77146.77095934206
 20
-81918.41919421358
 30
0.0
 11
77146.56156822496
 21
-81919.90931033297
 31
0.0
  0
ARC
  5
1BBEB
330
1F
100
AcDbEntity
  8
02製品
  6
Continuous
370
    15
100
AcDbCircle
 10
77144.02271924766
 20
-81917.26039118739
 30
0.0
 40
2.982557303891296
100
AcDbArc
 50
337.1371451236379
 51
6.85961404478035
  0
LINE
  5
1BBEC
330
1F
100
AcDbEntity
  8
02製品
  6
Continuous
370
    15
100
AcDbLine
 10
77086.0541514998
 20
-82350.4417657773
 30
0.0
 11
77085.84476038271
 21
-82351.93188189669
 31
0.0
  0
ARC
  5
1BBED
330
1F
100
AcDbEntity
  8
02製品
  6
Continuous
370
    15
100
AcDbCircle
 10
77082.55270527994
 20
-82350.29658773541
 30
0.0
 40
3.504454636000886
100
AcDbArc
 50
357.6257446606362
 51
169.2047285146191
  0
LINE
  5
1BBEE
330
1F
100
AcDbEntity
  8
02製品
  6
Continuous
370
    15
100
AcDbLine
 10
77079.11026998812
 20
-82349.64020251436
 30
0.0
 11
77078.90081926638
 21
-82351.1302590291
 31
0.0
  0
ARC
  5
1BBEF
330
1F
100
AcDbEntity
  8
02製品
  6
Continuous
370
    15
100
AcDbCircle
 10
77081.6493970297
 20
-82352.2890070267
 30
0.0
 40
2.982847069898529
100
AcDbArc
 50
157.1406391121658
 51
186.8611622720766
  0
LINE
  5
1BBF0
330
1F
100
AcDbEntity
  8
02製品
  6
Continuous
370
    15
100
AcDbLine
 10
77078.68791147524
 20
-82352.64534949465
 30
0.0
 11
77078.47852035814
 21
-82354.13540600939
 31
0.0
  0
ARC
  5
1BBF1
330
1F
100
AcDbEntity
  8
02製品
  6
Continuous
370
    15
100
AcDbCircle
 10
77081.9799670595
 20
-82354.28062869003
 30
0.0
 40
3.504456966351063
100
AcDbArc
 50
177.6250157963124
 51
349.2044866871278
  0
LINE
  5
1BBF2
330
1F
100
AcDbEntity
  8
02製品
  6
Continuous
370
    15
100
AcDbLine
 10
77085.63179298693
 20
-82353.44697236223
 30
0.0
 11
77085.42240186983
 21
-82354.93702887697
 31
0.0
  0
ARC
  5
1BBF3
330
1F
100
AcDbEntity
  8
02製品
  6
Continuous
370
    15
100
AcDbCircle
 10
77082.88399248144
 20
-82352.28821711103
 30
0.0
 40
2.982133690844137
100
AcDbArc
 50
337.1347094829939
 51
6.862671108084139
  0
LINE
  5
1BBF4
330
1F
100
AcDbEntity
  8
02製品
  6
Continuous
370
    15
100
AcDbLine
 10
77843.88966634327
 20
-82582.18924402399
 30
0.0
 11
77843.75649466568
 21
-82581.24167918367
 31
0.0
  0
ARC
  5
1BBF5
330
1F
100
AcDbEntity
  8
02製品
  6
Continuous
370
    15
100
AcDbCircle
 10
77842.55340392159
 20
-82580.91950625693
 30
0.0
 40
1.245480924593654
100
AcDbArc
 50
345.0086323172188
 51
30.9912125026229
  0
LINE
  5
1BBF6
330
1F
100
AcDbEntity
  8
02製品
  6
Continuous
370
    15
100
AcDbLine
 10
77843.62108781391
 20
-82580.2781999032
 30
0.0
 11
77843.48791613632
 21
-82579.33063506288
 31
0.0
  0
LWPOLYLINE
  5
1BBF7
330
1F
100
AcDbEntity
  8
02製品
  6
Continuous
370
    15
100
AcDbPolyline
 90
       10
 70
   128
 43
0.0
 10
77843.48791613632
 20
-82579.33063506288
 10
77843.18133219534
 20
-82578.65597008867
 10
77842.49094649607
 20
-82578.0821263711
 10
77841.50001927667
 20
-82577.67833470507
 10
77840.32808020168
 20
-82577.49329208536
 10
77839.11647423559
 20
-82577.54932045145
 10
77838.01133706623
 20
-82577.83965467615
 10
77837.14597448164
 20
-82578.32927703066
 10
77836.62475421482
 20
-82578.959119312
 10
77836.51054426485
 20
-82579.65324520273
  0
LINE
  5
1BBF8
330
1F
100
AcDbEntity
  8
02製品
  6
Continuous
370
    15
100
AcDbLine
 10
77836.64371594244
 20
-82580.60081004305
 30
0.0
 11
77836.51054426485
 21
-82579.65324520273
 31
0.0
  0
ARC
  5
1BBF9
330
1F
100
AcDbEntity
  8
02製品
  6
Continuous
370
    15
100
AcDbCircle
 10
77837.84684989012
 20
-82580.92297689803
 30
0.0
 40
1.245521087149223
100
AcDbArc
 50
165.009416215552
 51
210.9904285997328
  0
LINE
  5
1BBFA
330
1F
100
AcDbEntity
  8
02製品
  6
Continuous
370
    15
100
AcDbLine
 10
77836.9122944718
 20
-82582.51185416384
 30
0.0
 11
77836.7791227942
 21
-82581.56428932352
 31
0.0
  0
LWPOLYLINE
  5
1BBFB
330
1F
100
AcDbEntity
  8
02製品
  6
Continuous
370
    15
100
AcDbPolyline
 90
       10
 70
   128
 43
0.0
 10
77836.9122944718
 20
-82582.51185416384
 10
77837.21887841278
 20
-82583.18651913805
 10
77837.90926411205
 20
-82583.7603330533
 10
77838.90019133144
 20
-82584.16412471933
 10
77840.07213040644
 20
-82584.34916733904
 10
77841.28373637253
 20
-82584.29316877527
 10
77842.38887354189
 20
-82584.00283455057
 10
77843.25423612648
 20
-82583.51321219606
 10
77843.7754563933
 20
-82582.88336991472
 10
77843.88966634327
 20
-82582.18924402399
  0
LINE
  5
1BBFC
330
1F
100
AcDbEntity
  8
02製品
  6
Continuous
370
    15
100
AcDbLine
 10
77053.51424738222
 20
-82582.51185416384
 30
0.0
 11
77053.64740415865
 21
-82581.56428932352
 31
0.0
  0
ARC
  5
1BBFD
330
1F
100
AcDbEntity
  8
02製品
  6
Continuous
370
    15
100
AcDbCircle
 10
77052.57949603365
 20
-82580.92293284554
 30
0.0
 40
1.245698958593742
100
AcDbArc
 50
329.0121216697858
 51
14.9862955578734
  0
LINE
  5
1BBFE
330
1F
100
AcDbEntity
  8
02製品
  6
Continuous
370
    15
100
AcDbLine
 10
77053.78282591158
 20
-82580.60081004305
 30
0.0
 11
77053.915982688
 21
-82579.65324520273
 31
0.0
  0
LWPOLYLINE
  5
1BBFF
330
1F
100
AcDbEntity
  8
02製品
  6
Continuous
370
    15
100
AcDbPolyline
 90
       10
 70
   128
 43
0.0
 10
77053.915982688
 20
-82579.65324520273
 10
77053.80178018862
 20
-82578.959119312
 10
77053.28053757006
 20
-82578.32927703066
 10
77052.4151973372
 20
-82577.83965467615
 10
77051.31006761843
 20
-82577.54932045145
 10
77050.09842439943
 20
-82577.49329208536
 10
77048.92647787386
 20
-82577.67833470507
 10
77047.93555065447
 20
-82578.0821263711
 10
77047.24520965868
 20
-82578.65597008867
 10
77046.93860336595
 20
-82579.33063506288
  0
LINE
  5
1BC00
330
1F
100
AcDbEntity
  8
02製品
  6
Continuous
370
    15
100
AcDbLine
 10
77046.80544658953
 20
-82580.2781999032
 30
0.0
 11
77046.93860336595
 21
-82579.33063506288
 31
0.0
  0
ARC
  5
1BC01
330
1F
100
AcDbEntity
  8
02製品
  6
Continuous
370
    15
100
AcDbCircle
 10
77047.87298778321
 20
-82580.91950480687
 30
0.0
 40
1.245357852011021
100
AcDbArc
 50
149.0054642208717
 51
194.992953033476
  0
LINE
  5
1BC02
330
1F
100
AcDbEntity
  8
02製品
  6
Continuous
370
    15
100
AcDbLine
 10
77046.53686806017
 20
-82582.18924402399
 30
0.0
 11
77046.6700248366
 21
-82581.24167918367
 31
0.0
  0
LWPOLYLINE
  5
1BC03
330
1F
100
AcDbEntity
  8
02製品
  6
Continuous
370
    15
100
AcDbPolyline
 90
       10
 70
   128
 43
0.0
 10
77046.53686806017
 20
-82582.18924402399
 10
77046.65107055956
 20
-82582.88336991472
 10
77047.17231317812
 20
-82583.51321219606
 10
77048.03765341097
 20
-82584.00283455057
 10
77049.14278312975
 20
-82584.29316877527
 10
77050.3543667441
 20
-82584.34916733904
 10
77051.52631326967
 20
-82584.16412471933
 10
77052.51724048906
 20
-82583.7603330533
 10
77053.2076410895
 20
-82583.18651913805
 10
77053.51424738222
 20
-82582.51185416384
  0
LINE
  5
1BC04
330
1F
100
AcDbEntity
  8
02製品
  6
Continuous
370
    15
100
AcDbLine
 10
77034.6717290526
 20
-82588.09093832178
 30
0.0
 11
77057.24472328478
 21
-82588.09093832178
 31
0.0
  0
LINE
  5
1BC05
330
1F
100
AcDbEntity
  8
02製品
  6
Continuous
370
    15
100
AcDbLine
 10
77034.6717290526
 20
-82588.09093832178
 30
0.0
 11
77038.3668594008
 21
-82561.79870366259
 31
0.0
  0
LINE
  5
1BC06
330
1F
100
AcDbEntity
  8
02製品
  6
Continuous
370
    15
100
AcDbLine
 10
77833.18178876692
 20
-82588.09093832178
 30
0.0
 11
77855.75477554851
 21
-82588.09093832178
 31
0.0
  0
LINE
  5
1BC07
330
1F
100
AcDbEntity
  8
02製品
  6
Continuous
370
    15
100
AcDbLine
 10
77833.18178876692
 20
-82588.09093832178
 30
0.0
 11
77812.34269365126
 21
-82576.13812088175
 31
0.0
  0
LINE
  5
1BC08
330
1F
100
AcDbEntity
  8
02製品
  6
Continuous
370
    15
100
AcDbLine
 10
77812.34269365126
 20
-82576.13812088175
 30
0.0
 11
77078.08381840044
 21
-82576.13812088175
 31
0.0
  0
LINE
  5
1BC09
330
1F
100
AcDbEntity
  8
02製品
  6
Continuous
370
    15
100
AcDbLine
 10
77078.08381840044
 20
-82576.13812088175
 30
0.0
 11
77057.24472328478
 21
-82588.09093832178
 31
0.0
  0
LINE
  5
1BC0A
330
1F
100
AcDbEntity
  8
02製品
  6
Continuous
370
    15
100
AcDbLine
 10
77034.6717290526
 20
-82587.27179168863
 30
0.0
 11
77034.6717290526
 21
-82588.09093832178
 31
0.0
  0
LINE
  5
1BC0B
330
1F
100
AcDbEntity
  8
02製品
  6
Continuous
370
    15
100
AcDbLine
 10
77038.29926773363
 20
-82561.460864536
 30
0.0
 11
77034.6717290526
 21
-82587.27179168863
 31
0.0
  0
LINE
  5
1BC0C
330
1F
100
AcDbEntity
  8
02製品
  6
Continuous
370
    15
100
AcDbLine
 10
77038.33181186968
 20
-82561.15354298754
 30
0.0
 11
77038.29926773363
 21
-82561.460864536
 31
0.0
  0
LINE
  5
1BC0D
330
1F
100
AcDbEntity
  8
02製品
  6
Continuous
370
    15
100
AcDbLine
 10
77038.3869461661
 20
-82560.5002760808
 30
0.0
 11
77038.33181186968
 21
-82561.15354298754
 31
0.0
  0
LINE
  5
1BC0E
330
1F
100
AcDbEntity
  8
02製品
  6
Continuous
370
    15
100
AcDbLine
 10
77836.64371594244
 20
-82579.7816634099
 30
0.0
 11
77836.64371594244
 21
-82580.60081004305
 31
0.0
  0
LINE
  5
1BC0F
330
1F
100
AcDbEntity
  8
02製品
  6
Continuous
370
    15
100
AcDbLine
 10
77836.64371594244
 20
-82579.7816634099
 30
0.0
 11
77836.55350431257
 21
-82579.13975118799
 31
0.0
  0
LINE
  5
1BC10
330
1F
100
AcDbEntity
  8
02製品
  6
Continuous
370
    15
100
AcDbLine
 10
77053.78282591158
 20
-82579.7816634099
 30
0.0
 11
77053.78282591158
 21
-82580.60081004305
 31
0.0
  0
LINE
  5
1BC11
330
1F
100
AcDbEntity
  8
02製品
  6
Continuous
370
    15
100
AcDbLine
 10
77053.78282591158
 20
-82579.7816634099
 30
0.0
 11
77053.87300773912
 21
-82579.13975118799
 31
0.0
  0
LINE
  5
1BC12
330
1F
100
AcDbEntity
  8
02製品
  6
Continuous
370
    15
100
AcDbLine
 10
77046.6700248366
 20
-82580.60081004305
 30
0.0
 11
77046.6700248366
 21
-82581.24167918367
 31
0.0
  0
LINE
  5
1BC13
330
1F
100
AcDbEntity
  8
02製品
  6
Continuous
370
    15
100
AcDbLine
 10
77843.75649466568
 20
-82580.60081004305
 30
0.0
 11
77843.75649466568
 21
-82581.24167918367
 31
0.0
  0
LINE
  5
1BC14
330
1F
100
AcDbEntity
  8
02製品
  6
Continuous
370
    15
100
AcDbLine
 10
77053.64740415865
 20
-82580.74514269037
 30
0.0
 11
77053.64740415865
 21
-82581.56428932352
 31
0.0
  0
ARC
  5
1BC15
330
1F
100
AcDbEntity
  8
02製品
  6
Continuous
370
    15
100
AcDbCircle
 10
77052.44574552115
 20
-82580.05099558132
 30
0.0
 40
1.387740498084972
100
AcDbArc
 50
329.9868000332494
 51
344.4708865740437
  0
LINE
  5
1BC16
330
1F
100
AcDbEntity
  8
02製品
  6
Continuous
370
    15
100
AcDbLine
 10
77836.7791227942
 20
-82580.74514269037
 30
0.0
 11
77836.7791227942
 21
-82581.56428932352
 31
0.0
  0
ARC
  5
1BC17
330
1F
100
AcDbEntity
  8
02製品
  6
Continuous
370
    15
100
AcDbCircle
 10
77837.98080273803
 20
-82580.05104839709
 30
0.0
 40
1.387732530131704
100
AcDbArc
 50
195.5269416067601
 51
210.0108717276209
  0
LINE
  5
1BC18
330
1F
100
AcDbEntity
  8
02製品
  6
Continuous
370
    15
100
AcDbLine
 10
77836.9122944718
 20
-82581.69270753069
 30
0.0
 11
77836.9122944718
 21
-82582.51185416384
 31
0.0
  0
LINE
  5
1BC19
330
1F
100
AcDbEntity
  8
02製品
  6
Continuous
370
    15
100
AcDbLine
 10
77836.9122944718
 20
-82581.69270753069
 30
0.0
 11
77836.7791227942
 21
-82580.74514269037
 31
0.0
  0
LINE
  5
1BC1A
330
1F
100
AcDbEntity
  8
02製品
  6
Continuous
370
    15
100
AcDbLine
 10
77053.51424738222
 20
-82581.69270753069
 30
0.0
 11
77053.51424738222
 21
-82582.51185416384
 31
0.0
  0
LINE
  5
1BC1B
330
1F
100
AcDbEntity
  8
02製品
  6
Continuous
370
    15
100
AcDbLine
 10
77053.51424738222
 20
-82581.69270753069
 30
0.0
 11
77053.64740415865
 21
-82580.74514269037
 31
0.0
  0
LWPOLYLINE
  5
1BC1C
330
1F
100
AcDbEntity
  8
02製品
  6
Continuous
370
    15
100
AcDbPolyline
 90
       10
 70
   128
 43
0.0
 10
77046.57984300905
 20
-82581.88356160326
 10
77046.65107055956
 20
-82582.06419347925
 10
77047.17231317812
 20
-82582.69406556292
 10
77048.03765341097
 20
-82583.18368791742
 10
77049.14278312975
 20
-82583.4739923398
 10
77050.3543667441
 20
-82583.53002070589
 10
77051.52631326967
 20
-82583.34497808618
 10
77052.51724048906
 20
-82582.94118642015
 10
77053.2076410895
 20
-82582.3673725049
 10
77053.51424738222
 20
-82581.69270753069
  0
LWPOLYLINE
  5
1BC1D
330
1F
100
AcDbEntity
  8
02製品
  6
Continuous
370
    15
100
AcDbPolyline
 90
       10
 70
   128
 43
0.0
 10
77836.9122944718
 20
-82581.69270753069
 10
77837.21887841278
 20
-82582.3673725049
 10
77837.90926411205
 20
-82582.94118642015
 10
77838.90019133144
 20
-82583.34497808618
 10
77840.07213040644
 20
-82583.53002070589
 10
77841.28373637253
 20
-82583.4739923398
 10
77842.38887354189
 20
-82583.18368791742
 10
77843.25423612648
 20
-82582.69406556292
 10
77843.7754563933
 20
-82582.06419347925
 10
77843.84670629555
 20
-82581.88356160326
  0
LINE
  5
1BC1E
330
1F
100
AcDbEntity
  8
02製品
  6
Continuous
370
    15
100
AcDbLine
 10
77078.47852035814
 20
-82354.55800294084
 30
0.0
 11
77078.47852035814
 21
-82354.13540600939
 31
0.0
  0
LINE
  5
1BC1F
330
1F
100
AcDbEntity
  8
02製品
  6
Continuous
370
    15
100
AcDbLine
 10
77078.47852035814
 20
-82354.55800294084
 30
0.0
 11
77078.45819517427
 21
-82354.74754571123
 31
0.0
  0
LINE
  5
1BC20
330
1F
100
AcDbEntity
  8
02製品
  6
Continuous
370
    15
100
AcDbLine
 10
77811.94802894646
 20
-82354.55800294084
 30
0.0
 11
77811.94802894646
 21
-82354.13540600939
 31
0.0
  0
LINE
  5
1BC21
330
1F
100
AcDbEntity
  8
02製品
  6
Continuous
370
    15
100
AcDbLine
 10
77811.96830942684
 20
-82354.74754571123
 30
0.0
 11
77811.94802894646
 21
-82354.55800294084
 31
0.0
  0
LINE
  5
1BC22
330
1F
100
AcDbEntity
  8
02製品
  6
Continuous
370
    15
100
AcDbLine
 10
77811.73861547762
 20
-82353.0679464261
 30
0.0
 11
77811.73861547762
 21
-82352.64534949465
 31
0.0
  0
LINE
  5
1BC23
330
1F
100
AcDbEntity
  8
02製品
  6
Continuous
370
    15
100
AcDbLine
 10
77811.73861547762
 20
-82353.0679464261
 30
0.0
 11
77811.94802894646
 21
-82354.55800294084
 31
0.0
  0
LINE
  5
1BC24
330
1F
100
AcDbEntity
  8
02製品
  6
Continuous
370
    15
100
AcDbLine
 10
77078.68791147524
 20
-82353.0679464261
 30
0.0
 11
77078.68791147524
 21
-82352.64534949465
 31
0.0
  0
LINE
  5
1BC25
330
1F
100
AcDbEntity
  8
02製品
  6
Continuous
370
    15
100
AcDbLine
 10
77078.68791147524
 20
-82353.0679464261
 30
0.0
 11
77078.47852035814
 21
-82354.55800294084
 31
0.0
  0
LINE
  5
1BC26
330
1F
100
AcDbEntity
  8
02製品
  6
Continuous
370
    15
100
AcDbLine
 10
77085.84476038271
 20
-82352.35447882814
 30
0.0
 11
77085.84476038271
 21
-82351.93188189669
 31
0.0
  0
LINE
  5
1BC27
330
1F
100
AcDbEntity
  8
02製品
  6
Continuous
370
    15
100
AcDbLine
 10
77085.85876747423
 20
-82352.4999141614
 30
0.0
 11
77085.84476038271
 21
-82352.35447882814
 31
0.0
  0
LINE
  5
1BC28
330
1F
100
AcDbEntity
  8
02製品
  6
Continuous
370
    15
100
AcDbLine
 10
77804.58178147131
 20
-82352.35447882814
 30
0.0
 11
77804.58178147131
 21
-82351.93188189669
 31
0.0
  0
LINE
  5
1BC29
330
1F
100
AcDbEntity
  8
02製品
  6
Continuous
370
    15
100
AcDbLine
 10
77804.58178147131
 20
-82352.35447882814
 30
0.0
 11
77804.56775947862
 21
-82352.4999141614
 31
0.0
  0
LINE
  5
1BC2A
330
1F
100
AcDbEntity
  8
02製品
  6
Continuous
370
    15
100
AcDbLine
 10
77078.90081926638
 20
-82351.55285596056
 30
0.0
 11
77078.90081926638
 21
-82351.1302590291
 31
0.0
  0
ARC
  5
1BC2B
330
1F
100
AcDbEntity
  8
02製品
  6
Continuous
370
    15
100
AcDbCircle
 10
77081.6585431352
 20
-82352.71431930782
 30
0.0
 40
2.992329868780415
100
AcDbArc
 50
157.1607613204011
 51
175.8911462861971
  0
LINE
  5
1BC2C
330
1F
100
AcDbEntity
  8
02製品
  6
Continuous
370
    15
100
AcDbLine
 10
77811.52568533474
 20
-82351.55285596056
 30
0.0
 11
77811.52568533474
 21
-82351.1302590291
 31
0.0
  0
ARC
  5
1BC2D
330
1F
100
AcDbEntity
  8
02製品
  6
Continuous
370
    15
100
AcDbCircle
 10
77808.75408525944
 20
-82352.71778558148
 30
0.0
 40
3.006464368554441
100
AcDbArc
 50
4.155733508975423
 51
22.79747417482113
  0
LINE
  5
1BC2E
330
1F
100
AcDbEntity
  8
02製品
  6
Continuous
370
    15
100
AcDbLine
 10
77811.31626441532
 20
-82350.06279944582
 30
0.0
 11
77811.31626441532
 21
-82349.64020251436
 31
0.0
  0
LINE
  5
1BC2F
330
1F
100
AcDbEntity
  8
02製品
  6
Continuous
370
    15
100
AcDbLine
 10
77811.31626441532
 20
-82350.06279944582
 30
0.0
 11
77811.52568533474
 21
-82351.55285596056
 31
0.0
  0
LINE
  5
1BC30
330
1F
100
AcDbEntity
  8
02製品
  6
Continuous
370
    15
100
AcDbLine
 10
77079.11026998812
 20
-82350.06279944582
 30
0.0
 11
77079.11026998812
 21
-82349.64020251436
 31
0.0
  0
LINE
  5
1BC31
330
1F
100
AcDbEntity
  8
02製品
  6
Continuous
370
    15
100
AcDbLine
 10
77079.11026998812
 20
-82350.06279944582
 30
0.0
 11
77078.90081926638
 21
-82351.55285596056
 31
0.0
  0
ARC
  5
1BC32
330
1F
100
AcDbEntity
  8
02製品
  6
Continuous
370
    15
100
AcDbCircle
 10
77807.85033918095
 20
-82350.75145871844
 30
0.0
 40
3.533679290064567
100
AcDbArc
 50
11.23797567543705
 51
171.8790960604153
  0
ARC
  5
1BC33
330
1F
100
AcDbEntity
  8
02製品
  6
Continuous
370
    15
100
AcDbCircle
 10
77082.57601433682
 20
-82350.75769423228
 30
0.0
 40
3.534722429561559
100
AcDbArc
 50
8.220601455951826
 51
168.6623168104304
  0
LINE
  5
1BC34
330
1F
100
AcDbEntity
  8
02製品
  6
Continuous
370
    15
100
AcDbLine
 10
77109.04807373339
 20
-82137.04414366884
 30
0.0
 11
77109.04807373339
 21
-82136.62154673738
 31
0.0
  0
LINE
  5
1BC35
330
1F
100
AcDbEntity
  8
02製品
  6
Continuous
370
    15
100
AcDbLine
 10
77109.04807373339
 20
-82137.04414366884
 30
0.0
 11
77109.02780815416
 21
-82137.23362683458
 31
0.0
  0
LINE
  5
1BC36
330
1F
100
AcDbEntity
  8
02製品
  6
Continuous
370
    15
100
AcDbLine
 10
77781.37845321947
 20
-82137.04414366884
 30
0.0
 11
77781.37845321947
 21
-82136.62154673738
 31
0.0
  0
LINE
  5
1BC37
330
1F
100
AcDbEntity
  8
02製品
  6
Continuous
370
    15
100
AcDbLine
 10
77781.3987187987
 20
-82137.23362683458
 30
0.0
 11
77781.37845321947
 21
-82137.04414366884
 31
0.0
  0
LINE
  5
1BC38
330
1F
100
AcDbEntity
  8
02製品
  6
Continuous
370
    15
100
AcDbLine
 10
77781.16903230005
 20
-82135.5540871541
 30
0.0
 11
77781.16903230005
 21
-82135.13149022264
 31
0.0
  0
LINE
  5
1BC39
330
1F
100
AcDbEntity
  8
02製品
  6
Continuous
370
    15
100
AcDbLine
 10
77781.16903230005
 20
-82135.5540871541
 30
0.0
 11
77781.37845321947
 21
-82137.04414366884
 31
0.0
  0
LINE
  5
1BC3A
330
1F
100
AcDbEntity
  8
02製品
  6
Continuous
370
    15
100
AcDbLine
 10
77109.25746485048
 20
-82135.5540871541
 30
0.0
 11
77109.25746485048
 21
-82135.13149022264
 31
0.0
  0
LINE
  5
1BC3B
330
1F
100
AcDbEntity
  8
02製品
  6
Continuous
370
    15
100
AcDbLine
 10
77109.25746485048
 20
-82135.5540871541
 30
0.0
 11
77109.04807373339
 21
-82137.04414366884
 31
0.0
  0
LINE
  5
1BC3C
330
1F
100
AcDbEntity
  8
02製品
  6
Continuous
370
    15
100
AcDbLine
 10
77116.41431375795
 20
-82134.84061955614
 30
0.0
 11
77116.41431375795
 21
-82134.41796302004
 31
0.0
  0
LINE
  5
1BC3D
330
1F
100
AcDbEntity
  8
02製品
  6
Continuous
370
    15
100
AcDbLine
 10
77116.42832084947
 20
-82134.98605488939
 30
0.0
 11
77116.41431375795
 21
-82134.84061955614
 31
0.0
  0
LINE
  5
1BC3E
330
1F
100
AcDbEntity
  8
02製品
  6
Continuous
370
    15
100
AcDbLine
 10
77774.01219829374
 20
-82134.84061955614
 30
0.0
 11
77774.01219829374
 21
-82134.41796302004
 31
0.0
  0
LINE
  5
1BC3F
330
1F
100
AcDbEntity
  8
02製品
  6
Continuous
370
    15
100
AcDbLine
 10
77774.01219829374
 20
-82134.84061955614
 30
0.0
 11
77773.99817630106
 21
-82134.98605488939
 31
0.0
  0
LINE
  5
1BC40
330
1F
100
AcDbEntity
  8
02製品
  6
Continuous
370
    15
100
AcDbLine
 10
77109.47043224626
 20
-82134.03899668856
 30
0.0
 11
77109.47043224626
 21
-82133.6163997571
 31
0.0
  0
ARC
  5
1BC41
330
1F
100
AcDbEntity
  8
02製品
  6
Continuous
370
    15
100
AcDbCircle
 10
77112.22733815426
 20
-82135.20045184623
 30
0.0
 40
2.99157287519069
100
AcDbArc
 50
157.1548252008857
 51
175.8902620417608
  0
LINE
  5
1BC42
330
1F
100
AcDbEntity
  8
02製品
  6
Continuous
370
    15
100
AcDbLine
 10
77780.95609470659
 20
-82134.03899668856
 30
0.0
 11
77780.95609470659
 21
-82133.6163997571
 31
0.0
  0
ARC
  5
1BC43
330
1F
100
AcDbEntity
  8
02製品
  6
Continuous
370
    15
100
AcDbCircle
 10
77778.19057635956
 20
-82135.2024688418
 30
0.0
 40
3.000293182383806
100
AcDbArc
 50
4.136390299156689
 51
22.81681737774736
  0
LINE
  5
1BC44
330
1F
100
AcDbEntity
  8
02製品
  6
Continuous
370
    15
100
AcDbLine
 10
77780.74668868833
 20
-82132.54894017382
 30
0.0
 11
77780.74668868833
 21
-82132.12634324236
 31
0.0
  0
LINE
  5
1BC45
330
1F
100
AcDbEntity
  8
02製品
  6
Continuous
370
    15
100
AcDbLine
 10
77780.74668868833
 20
-82132.54894017382
 30
0.0
 11
77780.95609470659
 21
-82134.03899668856
 31
0.0
  0
LINE
  5
1BC46
330
1F
100
AcDbEntity
  8
02製品
  6
Continuous
370
    15
100
AcDbLine
 10
77109.67982336336
 20
-82132.54894017382
 30
0.0
 11
77109.67982336336
 21
-82132.12634324236
 31
0.0
  0
LINE
  5
1BC47
330
1F
100
AcDbEntity
  8
02製品
  6
Continuous
370
    15
100
AcDbLine
 10
77109.67982336336
 20
-82132.54894017382
 30
0.0
 11
77109.47043224626
 21
-82134.03899668856
 31
0.0
  0
ARC
  5
1BC48
330
1F
100
AcDbEntity
  8
02製品
  6
Continuous
370
    15
100
AcDbCircle
 10
77777.28075931447
 20
-82133.23758486565
 30
0.0
 40
3.533680508494732
100
AcDbArc
 50
11.23773071240586
 51
171.8793376893324
  0
ARC
  5
1BC49
330
1F
100
AcDbEntity
  8
02製品
  6
Continuous
370
    15
100
AcDbCircle
 10
77113.14559775793
 20
-82133.24383114418
 30
0.0
 40
3.534751138956314
100
AcDbArc
 50
8.220471727616932
 51
168.6624732035891
  0
LINE
  5
1BC4A
330
1F
100
AcDbEntity
  8
02製品
  6
Continuous
370
    15
100
AcDbLine
 10
77139.61762710863
 20
-81919.53034400148
 30
0.0
 11
77139.61762710863
 21
-81919.10762786074
 31
0.0
  0
LINE
  5
1BC4B
330
1F
100
AcDbEntity
  8
02製品
  6
Continuous
370
    15
100
AcDbLine
 10
77139.61762710863
 20
-81919.53034400148
 30
0.0
 11
77139.5973615294
 21
-81919.71976756258
 31
0.0
  0
LINE
  5
1BC4C
330
1F
100
AcDbEntity
  8
02製品
  6
Continuous
370
    15
100
AcDbLine
 10
77750.8088700419
 20
-81919.53034400148
 30
0.0
 11
77750.8088700419
 21
-81919.10762786074
 31
0.0
  0
LINE
  5
1BC4D
330
1F
100
AcDbEntity
  8
02製品
  6
Continuous
370
    15
100
AcDbLine
 10
77750.82915052229
 20
-81919.71976756258
 30
0.0
 11
77750.8088700419
 21
-81919.53034400148
 31
0.0
  0
LINE
  5
1BC4E
330
1F
100
AcDbEntity
  8
02製品
  6
Continuous
370
    15
100
AcDbLine
 10
77750.59944912248
 20
-81918.0402278821
 30
0.0
 11
77750.59944912248
 21
-81917.61763095064
 31
0.0
  0
LINE
  5
1BC4F
330
1F
100
AcDbEntity
  8
02製品
  6
Continuous
370
    15
100
AcDbLine
 10
77750.59944912248
 20
-81918.0402278821
 30
0.0
 11
77750.8088700419
 21
-81919.53034400148
 31
0.0
  0
LINE
  5
1BC50
330
1F
100
AcDbEntity
  8
02製品
  6
Continuous
370
    15
100
AcDbLine
 10
77139.82707783037
 20
-81918.0402278821
 30
0.0
 11
77139.82707783037
 21
-81917.61763095064
 31
0.0
  0
LINE
  5
1BC51
330
1F
100
AcDbEntity
  8
02製品
  6
Continuous
370
    15
100
AcDbLine
 10
77139.82707783037
 20
-81918.0402278821
 30
0.0
 11
77139.61762710863
 21
-81919.53034400148
 31
0.0
  0
LINE
  5
1BC52
330
1F
100
AcDbEntity
  8
02製品
  6
Continuous
370
    15
100
AcDbLine
 10
77146.98392673784
 20
-81917.32676028414
 30
0.0
 11
77146.98392673784
 21
-81916.90416335268
 31
0.0
  0
LINE
  5
1BC53
330
1F
100
AcDbEntity
  8
02製品
  6
Continuous
370
    15
100
AcDbLine
 10
77146.99793382936
 20
-81917.47219561739
 30
0.0
 11
77146.98392673784
 21
-81917.32676028414
 31
0.0
  0
LINE
  5
1BC54
330
1F
100
AcDbEntity
  8
02製品
  6
Continuous
370
    15
100
AcDbLine
 10
77743.44261511618
 20
-81917.32676028414
 30
0.0
 11
77743.44261511618
 21
-81916.90416335268
 31
0.0
  0
LINE
  5
1BC55
330
1F
100
AcDbEntity
  8
02製品
  6
Continuous
370
    15
100
AcDbLine
 10
77743.44261511618
 20
-81917.32676028414
 30
0.0
 11
77743.42859312349
 21
-81917.47219561739
 31
0.0
  0
LINE
  5
1BC56
330
1F
100
AcDbEntity
  8
02製品
  6
Continuous
370
    15
100
AcDbLine
 10
77140.03998562151
 20
-81916.52507781191
 30
0.0
 11
77140.03998562151
 21
-81916.10248088045
 31
0.0
  0
ARC
  5
1BC57
330
1F
100
AcDbEntity
  8
02製品
  6
Continuous
370
    15
100
AcDbCircle
 10
77142.79881886595
 20
-81917.68679345725
 30
0.0
 40
2.993450201926434
100
AcDbArc
 50
157.164552710773
 51
175.8889889805045
  0
LINE
  5
1BC58
330
1F
100
AcDbEntity
  8
02製品
  6
Continuous
370
    15
100
AcDbLine
 10
77750.38652643019
 20
-81916.52507781191
 30
0.0
 11
77750.38652643019
 21
-81916.10248088045
 31
0.0
  0
ARC
  5
1BC59
330
1F
100
AcDbEntity
  8
02製品
  6
Continuous
370
    15
100
AcDbCircle
 10
77747.61867392522
 20
-81917.68909568619
 30
0.0
 40
3.002656340674474
100
AcDbArc
 50
4.142429372754204
 51
22.8091439383206
  0
LINE
  5
1BC5A
330
1F
100
AcDbEntity
  8
02製品
  6
Continuous
370
    15
100
AcDbLine
 10
77750.17710551077
 20
-81915.03508090181
 30
0.0
 11
77750.17710551077
 21
-81914.61248397036
 31
0.0
  0
LINE
  5
1BC5B
330
1F
100
AcDbEntity
  8
02製品
  6
Continuous
370
    15
100
AcDbLine
 10
77750.17710551077
 20
-81915.03508090181
 30
0.0
 11
77750.38652643019
 21
-81916.52507781191
 31
0.0
  0
LINE
  5
1BC5C
330
1F
100
AcDbEntity
  8
02製品
  6
Continuous
370
    15
100
AcDbLine
 10
77140.24943634325
 20
-81915.03508090181
 30
0.0
 11
77140.24943634325
 21
-81914.61248397036
 31
0.0
  0
LINE
  5
1BC5D
330
1F
100
AcDbEntity
  8
02製品
  6
Continuous
370
    15
100
AcDbLine
 10
77140.24943634325
 20
-81915.03508090181
 30
0.0
 11
77140.03998562151
 21
-81916.52507781191
 31
0.0
  0
ARC
  5
1BC5E
330
1F
100
AcDbEntity
  8
02製品
  6
Continuous
370
    15
100
AcDbCircle
 10
77746.71118014857
 20
-81915.72371602338
 30
0.0
 40
3.533674708958604
100
AcDbArc
 50
11.23759118915988
 51
171.8804572481729
  0
ARC
  5
1BC5F
330
1F
100
AcDbEntity
  8
02製品
  6
Continuous
370
    15
100
AcDbCircle
 10
77143.71517797785
 20
-81915.72991648549
 30
0.0
 40
3.534708130135437
100
AcDbArc
 50
8.218689146940944
 51
168.6632490808034
  0
ARC
  5
1BC60
330
1F
100
AcDbEntity
  8
02製品
  6
Continuous
370
    15
100
AcDbCircle
 10
77353.9750628119
 20
-81700.38963731006
 30
0.0
 40
3.021847703795674
100
AcDbArc
 50
8.206851399103781
 51
171.7931486008962
  0
ARC
  5
1BC61
330
1F
100
AcDbEntity
  8
02製品
  6
Continuous
370
    15
100
AcDbCircle
 10
77536.45146414095
 20
-81700.38970091753
 30
0.0
 40
3.021886281316124
100
AcDbArc
 50
8.207964402420318
 51
171.7920355975797
  0
LINE
  5
1BC62
330
1F
100
AcDbEntity
  8
02製品
  6
Continuous
370
    15
100
AcDbLine
 10
77720.02986594492
 20
-81700.52630900545
 30
0.0
 11
77720.02986594492
 21
-81700.103712074
 31
0.0
  0
LINE
  5
1BC63
330
1F
100
AcDbEntity
  8
02製品
  6
Continuous
370
    15
100
AcDbLine
 10
77720.02986594492
 20
-81700.52630900545
 30
0.0
 11
77720.23617252165
 21
-81701.99437140627
 31
0.0
  0
LINE
  5
1BC64
330
1F
100
AcDbEntity
  8
02製品
  6
Continuous
370
    15
100
AcDbLine
 10
77170.39663120561
 20
-81700.52630900545
 30
0.0
 11
77170.39663120561
 21
-81700.103712074
 31
0.0
  0
LINE
  5
1BC65
330
1F
100
AcDbEntity
  8
02製品
  6
Continuous
370
    15
100
AcDbLine
 10
77170.39663120561
 20
-81700.52630900545
 30
0.0
 11
77170.19033953005
 21
-81701.99437140627
 31
0.0
  0
LINE
  5
1BC66
330
1F
100
AcDbEntity
  8
02製品
  6
Continuous
370
    15
100
AcDbLine
 10
77177.55348011309
 20
-81699.68111514254
 30
0.0
 11
77177.55348011309
 21
-81699.39024447603
 31
0.0
  0
LINE
  5
1BC67
330
1F
100
AcDbEntity
  8
02製品
  6
Continuous
370
    15
100
AcDbLine
 10
77712.87304683977
 20
-81699.68111514254
 30
0.0
 11
77712.87304683977
 21
-81699.39024447603
 31
0.0
  0
LINE
  5
1BC68
330
1F
100
AcDbEntity
  8
02製品
  6
Continuous
370
    15
100
AcDbLine
 10
77719.81694325262
 20
-81699.01127814455
 30
0.0
 11
77719.81694325262
 21
-81698.58868121309
 31
0.0
  0
ARC
  5
1BC69
330
1F
100
AcDbEntity
  8
02製品
  6
Continuous
370
    15
100
AcDbCircle
 10
77717.04136692795
 20
-81700.17762782099
 30
0.0
 40
3.010680239096735
100
AcDbArc
 50
6.959291844417118
 51
22.7930670904686
  0
LINE
  5
1BC6A
330
1F
100
AcDbEntity
  8
02製品
  6
Continuous
370
    15
100
AcDbLine
 10
77170.6095986014
 20
-81699.01127814455
 30
0.0
 11
77170.6095986014
 21
-81698.58868121309
 31
0.0
  0
ARC
  5
1BC6B
330
1F
100
AcDbEntity
  8
02製品
  6
Continuous
370
    15
100
AcDbCircle
 10
77173.38249705911
 20
-81700.17708300892
 30
0.0
 40
3.008000472077959
100
AcDbArc
 50
157.1967395050936
 51
173.0449320657656
  0
LINE
  5
1BC6C
330
1F
100
AcDbEntity
  8
02製品
  6
Continuous
370
    15
100
AcDbLine
 10
77170.8189897185
 20
-81697.52116202516
 30
0.0
 11
77170.8189897185
 21
-81697.09856509371
 31
0.0
  0
LINE
  5
1BC6D
330
1F
100
AcDbEntity
  8
02製品
  6
Continuous
370
    15
100
AcDbLine
 10
77170.8189897185
 20
-81697.52116202516
 30
0.0
 11
77170.6095986014
 21
-81699.01127814455
 31
0.0
  0
LINE
  5
1BC6E
330
1F
100
AcDbEntity
  8
02製品
  6
Continuous
370
    15
100
AcDbLine
 10
77719.6075223332
 20
-81697.52116202516
 30
0.0
 11
77719.6075223332
 21
-81697.09856509371
 31
0.0
  0
LINE
  5
1BC6F
330
1F
100
AcDbEntity
  8
02製品
  6
Continuous
370
    15
100
AcDbLine
 10
77719.6075223332
 20
-81697.52116202516
 30
0.0
 11
77719.81694325262
 21
-81699.01127814455
 31
0.0
  0
ARC
  5
1BC70
330
1F
100
AcDbEntity
  8
02製品
  6
Continuous
370
    15
100
AcDbCircle
 10
77716.13492745806
 20
-81698.22329590935
 30
0.0
 40
3.542867081792295
100
AcDbArc
 50
11.43069054085851
 51
168.2150467498406
  0
ARC
  5
1BC71
330
1F
100
AcDbEntity
  8
02製品
  6
Continuous
370
    15
100
AcDbCircle
 10
77174.29159981215
 20
-81698.22821848607
 30
0.0
 40
3.543860846755973
100
AcDbArc
 50
11.86291225872709
 51
168.4913504520111
  0
LINE
  5
1BC72
330
1F
100
AcDbEntity
  8
02製品
  6
Continuous
370
    15
100
AcDbLine
 10
77038.29926773363
 20
-82561.460864536
 30
0.0
 11
77036.80098577791
 21
-82561.460864536
 31
0.0
  0
LINE
  5
1BC73
330
1F
100
AcDbEntity
  8
02製品
  6
Continuous
370
    15
100
AcDbLine
 10
77038.2871083861
 20
-82561.54720186396
 30
0.0
 11
77036.79609819704
 21
-82561.4956140439
 31
0.0
  0
ARC
  5
1BC74
330
1F
100
AcDbEntity
  8
02製品
  6
Continuous
370
    15
100
AcDbCircle
 10
77005.7706889712
 20
-82913.11895309063
 30
0.0
 40
5.656695499882085
100
AcDbArc
 50
290.6728677147432
 51
345.8298991960787
  0
LINE
  5
1BC75
330
1F
100
AcDbEntity
  8
02製品
  6
Continuous
370
    15
100
AcDbLine
 10
76985.20231767946
 20
-82929.42334040208
 30
0.0
 11
77007.76768251711
 21
-82918.41142139537
 31
0.0
  0
LINE
  5
1BC76
330
1F
100
AcDbEntity
  8
02製品
  6
Continuous
370
    15
100
AcDbLine
 10
76982.7918462401
 20
-82946.574997894
 30
0.0
 11
76985.20231767946
 21
-82929.42334040208
 31
0.0
  0
LINE
  5
1BC77
330
1F
100
AcDbEntity
  8
02製品
  6
Continuous
370
    15
100
AcDbLine
 10
76982.7918462401
 20
-82946.574997894
 30
0.0
 11
76981.66686817461
 21
-82946.574997894
 31
0.0
  0
LINE
  5
1BC78
330
1F
100
AcDbEntity
  8
02製品
  6
Continuous
370
    15
100
AcDbLine
 10
77035.79110428148
 20
-82561.460864536
 30
0.0
 11
76981.76527544313
 21
-82945.87479035044
 31
0.0
  0
LINE
  5
1BC79
330
1F
100
AcDbEntity
  8
02製品
  6
Continuous
370
    15
100
AcDbLine
 10
77036.80098577791
 20
-82561.460864536
 30
0.0
 11
77035.79110428148
 21
-82561.460864536
 31
0.0
  0
LINE
  5
1BC7A
330
1F
100
AcDbEntity
  8
02製品
  6
Continuous
370
    15
100
AcDbLine
 10
77036.79442926699
 20
-82561.50723694963
 30
0.0
 11
77036.80098577791
 21
-82561.460864536
 31
0.0
  0
LINE
  5
1BC7B
330
1F
100
AcDbEntity
  8
02製品
  6
Continuous
370
    15
100
AcDbLine
 10
77036.79442926699
 20
-82561.50723694963
 30
0.0
 11
77038.28305527025
 21
-82561.57608031435
 31
0.0
  0
LINE
  5
1BC7C
330
1F
100
AcDbEntity
  8
02製品
  6
Continuous
370
    15
100
AcDbLine
 10
77057.12962671572
 20
-82588.09093832178
 30
0.0
 11
77011.2552694922
 21
-82914.5037203948
 31
0.0
  0
LWPOLYLINE
  5
1BC7D
330
1F
100
AcDbEntity
  8
02製品
  6
Continuous
370
    15
100
AcDbPolyline
 90
       19
 70
   128
 43
0.0
 10
77050.22639557176
 20
-82581.82282447023
 10
77049.2003612166
 20
-82581.71905278368
 10
77048.29806610399
 20
-82581.42025469942
 10
77047.6283483153
 20
-82580.96246122522
 10
77047.27197214418
 20
-82580.40089606447
 10
77047.27197214418
 20
-82579.80327009363
 10
77047.6283483153
 20
-82579.2417347352
 10
77048.29806610399
 20
-82578.783941261
 10
77049.2003612166
 20
-82578.48514317675
 10
77050.22639557176
 20
-82578.38137149019
 10
77051.25248953157
 20
-82578.48514317675
 10
77052.15478464418
 20
-82578.783941261
 10
77052.82450243288
 20
-82579.2417347352
 10
77053.18081899935
 20
-82579.80327009363
 10
77053.18081899935
 20
-82580.40089606447
 10
77052.82450243288
 20
-82580.96246122522
 10
77052.15478464418
 20
-82581.42025469942
 10
77051.25248953157
 20
-82581.71905278368
 10
77050.22639557176
 20
-82581.82282447023
  0
LINE
  5
1BC7E
330
1F
100
AcDbEntity
  8
02製品
  6
Continuous
370
    15
100
AcDbLine
 10
77159.74200292879
 20
-81686.68968676729
 30
0.0
 11
77161.11136003786
 21
-81686.84775828524
 31
0.0
  0
LINE
  5
1BC7F
330
1F
100
AcDbEntity
  8
02製品
  6
Continuous
370
    15
100
AcDbLine
 10
77158.74833389574
 20
-81686.57500743074
 30
0.0
 11
77035.79110428148
 21
-82561.460864536
 31
0.0
  0
LINE
  5
1BC80
330
1F
100
AcDbEntity
  8
02製品
  6
Continuous
370
    15
100
AcDbLine
 10
77159.75815578752
 20
-81686.57500743074
 30
0.0
 11
77158.74833389574
 21
-81686.57500743074
 31
0.0
  0
LINE
  5
1BC81
330
1F
100
AcDbEntity
  8
02製品
  6
Continuous
370
    15
100
AcDbLine
 10
77159.74200292879
 20
-81686.68968676729
 30
0.0
 11
77159.75815578752
 21
-81686.57500743074
 31
0.0
  0
LWPOLYLINE
  5
1BC82
330
1F
100
AcDbEntity
  8
02製品
  6
Continuous
370
    15
100
AcDbPolyline
 90
       19
 70
   128
 43
0.0
 10
77173.97505565935
 20
-81702.88856028719
 10
77172.94902130419
 20
-81702.72452830477
 10
77172.04672619158
 20
-81702.25245951815
 10
77171.37700840288
 20
-81701.52909754915
 10
77171.02063223177
 20
-81700.64170359774
 10
77171.02063223177
 20
-81699.6974468152
 10
77171.37700840288
 20
-81698.81017207308
 10
77172.04672619158
 20
-81698.08681010408
 10
77172.94902130419
 20
-81697.61462210817
 10
77173.97505565935
 20
-81697.45070933504
 10
77175.00114961916
 20
-81697.61462210817
 10
77175.90344473177
 20
-81698.08681010408
 10
77176.57316252046
 20
-81698.81017207308
 10
77176.92947908693
 20
-81699.6974468152
 10
77176.92947908693
 20
-81700.64170359774
 10
77176.57316252046
 20
-81701.52909754915
 10
77175.90344473177
 20
-81702.25245951815
 10
77175.00114961916
 20
-81702.72452830477
 10
77173.97505565935
 20
-81702.88856028719
  0
LWPOLYLINE
  5
1BC83
330
1F
100
AcDbEntity
  8
02製品
  6
Continuous
370
    15
100
AcDbPolyline
 90
       19
 70
   128
 43
0.0
 10
77143.4055022841
 20
-81920.40235995455
 10
77142.3794083243
 20
-81920.23844718141
 10
77141.47711321169
 20
-81919.7662591855
 10
77140.80739542299
 20
-81919.04289721651
 10
77140.45107885652
 20
-81918.15562247438
 10
77140.45107885652
 20
-81917.21136569185
 10
77140.80739542299
 20
-81916.32397174044
 10
77141.47711321169
 20
-81915.60060977144
 10
77142.3794083243
 20
-81915.12854098482
 10
77143.4055022841
 20
-81914.9645090024
 10
77144.43153663927
 20
-81915.12854098482
 10
77145.33383175188
 20
-81915.60060977144
 10
77146.00354954058
 20
-81916.32397174044
 10
77146.35992571169
 20
-81917.21136569185
 10
77146.35992571169
 20
-81918.15562247438
 10
77146.00354954058
 20
-81919.04289721651
 10
77145.33383175188
 20
-81919.7662591855
 10
77144.43153663927
 20
-81920.23844718141
 10
77143.4055022841
 20
-81920.40235995455
  0
LWPOLYLINE
  5
1BC84
330
1F
100
AcDbEntity
  8
02製品
  6
Continuous
370
    15
100
AcDbPolyline
 90
       19
 70
   128
 43
0.0
 10
77112.83588930422
 20
-82137.9162788312
 10
77111.80985494905
 20
-82137.75230645342
 10
77110.90755983644
 20
-82137.28017806215
 10
77110.23784204775
 20
-82136.55681609316
 10
77109.88146587664
 20
-82135.66948174639
 10
77109.88146587664
 20
-82134.72522496385
 10
77110.23784204775
 20
-82133.83789061708
 10
77110.90755983644
 20
-82133.11452864809
 10
77111.80985494905
 20
-82132.64240025682
 10
77112.83588930422
 20
-82132.47842787905
 10
77113.86198326403
 20
-82132.64240025682
 10
77114.76427837664
 20
-82133.11452864809
 10
77115.43399616533
 20
-82133.83789061708
 10
77115.7903127318
 20
-82134.72522496385
 10
77115.7903127318
 20
-82135.66948174639
 10
77115.43399616533
 20
-82136.55681609316
 10
77114.76427837664
 20
-82137.28017806215
 10
77113.86198326403
 20
-82137.75230645342
 10
77112.83588930422
 20
-82137.9162788312
  0
LWPOLYLINE
  5
1BC85
330
1F
100
AcDbEntity
  8
02製品
  6
Continuous
370
    15
100
AcDbPolyline
 90
       19
 70
   128
 43
0.0
 10
77082.26633592897
 20
-82355.4301381032
 10
77081.24024196916
 20
-82355.26616572542
 10
77080.33794685655
 20
-82354.79403733416
 10
77079.66822906786
 20
-82354.07067536516
 10
77079.31191250139
 20
-82353.18334101839
 10
77079.31191250139
 20
-82352.23908423586
 10
77079.66822906786
 20
-82351.35174988909
 10
77080.33794685655
 20
-82350.6283879201
 10
77081.24024196916
 20
-82350.15625952883
 10
77082.26633592897
 20
-82349.99228715105
 10
77083.29237028414
 20
-82350.15625952883
 10
77084.19466539675
 20
-82350.6283879201
 10
77084.86438318544
 20
-82351.35174988909
 10
77085.22075935655
 20
-82352.23908423586
 10
77085.22075935655
 20
-82353.18334101839
 10
77084.86438318544
 20
-82354.07067536516
 10
77084.19466539675
 20
-82354.79403733416
 10
77083.29237028414
 20
-82355.26616572542
 10
77082.26633592897
 20
-82355.4301381032
  0
ARC
  5
1BC86
330
1F
100
AcDbEntity
  8
02製品
  6
Continuous
370
    15
100
AcDbCircle
 10
77049.86054364468
 20
-82577.92349724704
 30
0.0
 40
3.101831732601714
100
AcDbArc
 50
214.7723351690035
 51
276.7736362250261
  0
ARC
  5
1BC87
330
1F
100
AcDbEntity
  8
02製品
  6
Continuous
370
    15
100
AcDbCircle
 10
77050.59235780027
 20
-82577.92374236928
 30
0.0
 40
3.101601334517779
100
AcDbArc
 50
263.2238063228266
 51
325.2302222782299
  0
ARC
  5
1BC88
330
1F
100
AcDbEntity
  8
02製品
  6
Continuous
370
    15
100
AcDbCircle
 10
77082.26630612665
 20
-82353.35393526964
 30
0.0
 40
3.021886281307847
100
AcDbArc
 50
8.207964402420318
 51
171.7920355975797
  0
ARC
  5
1BC89
330
1F
100
AcDbEntity
  8
02製品
  6
Continuous
370
    15
100
AcDbCircle
 10
77112.83591910654
 20
-82135.83999896934
 30
0.0
 40
3.021875285207468
100
AcDbArc
 50
8.206518880483102
 51
171.7934811195169
  0
ARC
  5
1BC8A
330
1F
100
AcDbEntity
  8
02製品
  6
Continuous
370
    15
100
AcDbCircle
 10
77143.40547248178
 20
-81918.32621672563
 30
0.0
 40
3.021886281307766
100
AcDbArc
 50
8.207964402420318
 51
171.7920355975797
  0
ARC
  5
1BC8B
330
1F
100
AcDbEntity
  8
02製品
  6
Continuous
370
    15
100
AcDbCircle
 10
77173.97508546167
 20
-81700.81229784898
 30
0.0
 40
3.021886281309534
100
AcDbArc
 50
8.207964402420318
 51
171.7920355975797
  0
LINE
  5
1BC8C
330
1F
100
AcDbEntity
  8
02製品
  6
Continuous
370
    15
100
AcDbLine
 10
77161.1497454291
 20
-81686.57500743074
 30
0.0
 11
77159.75815578752
 21
-81686.57500743074
 31
0.0
  0
LINE
  5
1BC8D
330
1F
100
AcDbEntity
  8
02製品
  6
Continuous
370
    15
100
AcDbLine
 10
76981.76527544313
 20
-82945.87479035044
 30
0.0
 11
76981.66686817461
 21
-82946.574997894
 31
0.0
  0
LINE
  5
1BC8E
330
1F
100
AcDbEntity
  8
02製品
  6
Continuous
370
    15
100
AcDbLine
 10
76952.94911190325
 20
-82942.53897787211
 30
0.0
 11
76981.66686817461
 21
-82946.574997894
 31
0.0
  0
LINE
  5
1BC8F
330
1F
100
AcDbEntity
  8
02製品
  6
Continuous
370
    15
100
AcDbLine
 10
77120.9184579497
 20
-81747.37496375246
 30
0.0
 11
76952.94911190325
 21
-82942.53897787211
 31
0.0
  0
LINE
  5
1BC90
330
1F
100
AcDbEntity
  8
02製品
  6
Continuous
370
    15
100
AcDbLine
 10
77120.9184579497
 20
-81747.37496375246
 30
0.0
 11
77149.63621422106
 21
-81751.41103266878
 31
0.0
  0
CIRCLE
  5
1BC91
330
1F
100
AcDbEntity
  8
02製品
  6
Continuous
370
    15
100
AcDbCircle
 10
76990.92335069172
 20
-82780.11753321346
 30
0.0
 40
3.500000000000227
  0
CIRCLE
  5
1BC92
330
1F
100
AcDbEntity
  8
02製品
  6
Continuous
370
    15
100
AcDbCircle
 10
77014.58277785491
 20
-82611.77196152741
 30
0.0
 40
3.499999999999091
  0
CIRCLE
  5
1BC93
330
1F
100
AcDbEntity
  8
02製品
  6
Continuous
370
    15
100
AcDbCircle
 10
77038.2422050181
 20
-82443.42638984136
 30
0.0
 40
3.500000000000227
  0
CIRCLE
  5
1BC94
330
1F
100
AcDbEntity
  8
02製品
  6
Continuous
370
    15
100
AcDbCircle
 10
77061.9016321813
 20
-82275.08081815531
 30
0.0
 40
3.500000000000227
  0
CIRCLE
  5
1BC95
330
1F
100
AcDbEntity
  8
02製品
  6
Continuous
370
    15
100
AcDbCircle
 10
77085.56105934449
 20
-82106.73524646927
 30
0.0
 40
3.500000000000227
  0
CIRCLE
  5
1BC96
330
1F
100
AcDbEntity
  8
02製品
  6
Continuous
370
    15
100
AcDbCircle
 10
77109.22048650768
 20
-81938.38967478322
 30
0.0
 40
3.500000000000227
  0
CIRCLE
  5
1BC97
330
1F
100
AcDbEntity
  8
02製品
  6
Continuous
370
    15
100
AcDbCircle
 10
77132.87991367087
 20
-81770.04410309717
 30
0.0
 40
3.500000000000227
  0
LINE
  5
1BC98
330
1F
100
AcDbEntity
  8
02製品
  6
Continuous
370
    15
100
AcDbLine
 10
77853.63208651
 20
-82561.50723694963
 30
0.0
 11
77852.14347913318
 21
-82561.57608031435
 31
0.0
  0
LINE
  5
1BC99
330
1F
100
AcDbEntity
  8
02製品
  6
Continuous
370
    15
100
AcDbLine
 10
77853.63208651
 20
-82561.50723694963
 30
0.0
 11
77853.62556725198
 21
-82561.460864536
 31
0.0
  0
LINE
  5
1BC9A
330
1F
100
AcDbEntity
  8
02製品
  6
Continuous
370
    15
100
AcDbLine
 10
77853.62556725198
 20
-82561.460864536
 30
0.0
 11
77854.63539659434
 21
-82561.460864536
 31
0.0
  0
LINE
  5
1BC9B
330
1F
100
AcDbEntity
  8
02製品
  6
Continuous
370
    15
100
AcDbLine
 10
77854.63539659434
 20
-82561.460864536
 30
0.0
 11
77908.66125102963
 21
-82945.87479035044
 31
0.0
  0
LINE
  5
1BC9C
330
1F
100
AcDbEntity
  8
02製品
  6
Continuous
370
    15
100
AcDbLine
 10
77907.6347069062
 20
-82946.574997894
 30
0.0
 11
77908.75965877825
 21
-82946.574997894
 31
0.0
  0
LINE
  5
1BC9D
330
1F
100
AcDbEntity
  8
02製品
  6
Continuous
370
    15
100
AcDbLine
 10
77907.6347069062
 20
-82946.574997894
 30
0.0
 11
77905.22419879602
 21
-82929.42334040208
 31
0.0
  0
LINE
  5
1BC9E
330
1F
100
AcDbEntity
  8
02製品
  6
Continuous
370
    15
100
AcDbLine
 10
77905.22419879602
 20
-82929.42334040208
 30
0.0
 11
77882.65886492484
 21
-82918.41142139537
 31
0.0
  0
ARC
  5
1BC9F
330
1F
100
AcDbEntity
  8
02製品
  6
Continuous
370
    15
100
AcDbCircle
 10
77884.65590266923
 20
-82913.11886135768
 30
0.0
 40
5.656796929888898
100
AcDbArc
 50
194.1707997058407
 51
249.3270414519177
  0
LINE
  5
1BCA0
330
1F
100
AcDbEntity
  8
02製品
  6
Continuous
370
    15
100
AcDbLine
 10
77833.2969151383
 20
-82588.09093832178
 30
0.0
 11
77879.17124069684
 21
-82914.5037203948
 31
0.0
  0
LWPOLYLINE
  5
1BCA1
330
1F
100
AcDbEntity
  8
02製品
  6
Continuous
370
    15
100
AcDbPolyline
 90
       19
 70
   128
 43
0.0
 10
77840.20010157877
 20
-82581.82282447023
 10
77841.22616573625
 20
-82581.71905278368
 10
77842.12846829944
 20
-82581.42025469942
 10
77842.79817863756
 20
-82580.96246122522
 10
77843.15452500635
 20
-82580.40089606447
 10
77843.15452500635
 20
-82579.80327009363
 10
77842.79817863756
 20
-82579.2417347352
 10
77842.12846829944
 20
-82578.783941261
 10
77841.22616573625
 20
-82578.48514317675
 10
77840.20010157877
 20
-82578.38137149019
 10
77839.17404487186
 20
-82578.48514317675
 10
77838.27174230867
 20
-82578.783941261
 10
77837.60203197056
 20
-82579.2417347352
 10
77837.24568560177
 20
-82579.80327009363
 10
77837.24568560177
 20
-82580.40089606447
 10
77837.60203197056
 20
-82580.96246122522
 10
77838.27174230867
 20
-82581.42025469942
 10
77839.17404487186
 20
-82581.71905278368
 10
77840.20010157877
 20
-82581.82282447023
  0
LINE
  5
1BCA2
330
1F
100
AcDbEntity
  8
02製品
  6
Continuous
370
    15
100
AcDbLine
 10
77852.13942229205
 20
-82561.54720186396
 30
0.0
 11
77853.63045483285
 21
-82561.4956140439
 31
0.0
  0
LINE
  5
1BCA3
330
1F
100
AcDbEntity
  8
02製品
  6
Continuous
370
    15
100
AcDbLine
 10
77852.12728529626
 20
-82561.460864536
 30
0.0
 11
77853.62556725198
 21
-82561.460864536
 31
0.0
  0
LINE
  5
1BCA4
330
1F
100
AcDbEntity
  8
02製品
  6
Continuous
370
    15
100
AcDbLine
 10
77730.66838606649
 20
-81686.57500743074
 30
0.0
 11
77731.67820795828
 21
-81686.57500743074
 31
0.0
  0
LINE
  5
1BCA5
330
1F
100
AcDbEntity
  8
02製品
  6
Continuous
370
    15
100
AcDbLine
 10
77731.67820795828
 20
-81686.57500743074
 30
0.0
 11
77854.63539659434
 21
-82561.460864536
 31
0.0
  0
LINE
  5
1BCA6
330
1F
100
AcDbEntity
  8
02製品
  6
Continuous
370
    15
100
AcDbLine
 10
77730.68449422174
 20
-81686.68968676729
 30
0.0
 11
77729.31513711267
 21
-81686.84775828524
 31
0.0
  0
LINE
  5
1BCA7
330
1F
100
AcDbEntity
  8
02製品
  6
Continuous
370
    15
100
AcDbLine
 10
77730.68449422174
 20
-81686.68968676729
 30
0.0
 11
77730.66838606649
 21
-81686.57500743074
 31
0.0
  0
LWPOLYLINE
  5
1BCA8
330
1F
100
AcDbEntity
  8
02製品
  6
Continuous
370
    15
100
AcDbPolyline
 90
       19
 70
   128
 43
0.0
 10
77716.45145639234
 20
-81702.88856028719
 10
77717.47752054983
 20
-81702.72452830477
 10
77718.37981566244
 20
-81702.25245951815
 10
77719.04953345114
 20
-81701.52909754915
 10
77719.40587981993
 20
-81700.64170359774
 10
77719.40587981993
 20
-81699.6974468152
 10
77719.04953345114
 20
-81698.81017207308
 10
77718.37981566244
 20
-81698.08681010408
 10
77717.47752054983
 20
-81697.61462210817
 10
77716.45145639234
 20
-81697.45070933504
 10
77715.42539223486
 20
-81697.61462210817
 10
77714.52309712225
 20
-81698.08681010408
 10
77713.85337933355
 20
-81698.81017207308
 10
77713.49703296476
 20
-81699.6974468152
 10
77713.49703296476
 20
-81700.64170359774
 10
77713.85337933355
 20
-81701.52909754915
 10
77714.52309712225
 20
-81702.25245951815
 10
77715.42539223486
 20
-81702.72452830477
 10
77716.45145639234
 20
-81702.88856028719
  0
LWPOLYLINE
  5
1BCA9
330
1F
100
AcDbEntity
  8
02製品
  6
Continuous
370
    15
100
AcDbPolyline
 90
       19
 70
   128
 43
0.0
 10
77747.02103956991
 20
-81920.40235995455
 10
77748.0471037274
 20
-81920.23844718141
 10
77748.94939884
 20
-81919.7662591855
 10
77749.6191166287
 20
-81919.04289721651
 10
77749.97546299749
 20
-81918.15562247438
 10
77749.97546299749
 20
-81917.21136569185
 10
77749.6191166287
 20
-81916.32397174044
 10
77748.94939884
 20
-81915.60060977144
 10
77748.0471037274
 20
-81915.12854098482
 10
77747.02103956991
 20
-81914.9645090024
 10
77745.99497541242
 20
-81915.12854098482
 10
77745.09268029981
 20
-81915.60060977144
 10
77744.42296251112
 20
-81916.32397174044
 10
77744.06661614233
 20
-81917.21136569185
 10
77744.06661614233
 20
-81918.15562247438
 10
77744.42296251112
 20
-81919.04289721651
 10
77745.09268029981
 20
-81919.7662591855
 10
77745.99497541242
 20
-81920.23844718141
 10
77747.02103956991
 20
-81920.40235995455
  0
LWPOLYLINE
  5
1BCAA
330
1F
100
AcDbEntity
  8
02製品
  6
Continuous
370
    15
100
AcDbPolyline
 90
       19
 70
   128
 43
0.0
 10
77777.59062274748
 20
-82137.9162788312
 10
77778.6166720038
 20
-82137.75230645342
 10
77779.51898201757
 20
-82137.28017806215
 10
77780.18869980627
 20
-82136.55681609316
 10
77780.54504617506
 20
-82135.66948174639
 10
77780.54504617506
 20
-82134.72522496385
 10
77780.18869980627
 20
-82133.83789061708
 10
77779.51898201757
 20
-82133.11452864809
 10
77778.6166720038
 20
-82132.64240025682
 10
77777.59062274748
 20
-82132.47842787905
 10
77776.56455858999
 20
-82132.64240025682
 10
77775.66224857622
 20
-82133.11452864809
 10
77774.99254568868
 20
-82133.83789061708
 10
77774.6361993199
 20
-82134.72522496385
 10
77774.6361993199
 20
-82135.66948174639
 10
77774.99254568868
 20
-82136.55681609316
 10
77775.66224857622
 20
-82137.28017806215
 10
77776.56455858999
 20
-82137.75230645342
 10
77777.59062274748
 20
-82137.9162788312
  0
LWPOLYLINE
  5
1BCAB
330
1F
100
AcDbEntity
  8
02製品
  6
Continuous
370
    15
100
AcDbPolyline
 90
       19
 70
   128
 43
0.0
 10
77808.16019847446
 20
-82355.4301381032
 10
77809.18626263195
 20
-82355.26616572542
 10
77810.08856519514
 20
-82354.79403733416
 10
77810.75827553326
 20
-82354.07067536516
 10
77811.11462190204
 20
-82353.18334101839
 10
77811.11462190204
 20
-82352.23908423586
 10
77810.75827553326
 20
-82351.35174988909
 10
77810.08856519514
 20
-82350.6283879201
 10
77809.18626263195
 20
-82350.15625952883
 10
77808.16019847446
 20
-82349.99228715105
 10
77807.13414176756
 20
-82350.15625952883
 10
77806.23183920437
 20
-82350.6283879201
 10
77805.56212141567
 20
-82351.35174988909
 10
77805.20577504688
 20
-82352.23908423586
 10
77805.20577504688
 20
-82353.18334101839
 10
77805.56212141567
 20
-82354.07067536516
 10
77806.23183920437
 20
-82354.79403733416
 10
77807.13414176756
 20
-82355.26616572542
 10
77808.16019847446
 20
-82355.4301381032
  0
ARC
  5
1BCAC
330
1F
100
AcDbEntity
  8
02製品
  6
Continuous
370
    15
100
AcDbCircle
 10
77840.56600430787
 20
-82577.92359566595
 30
0.0
 40
3.101739993658242
100
AcDbArc
 50
263.2252174746589
 51
325.2287014814499
  0
ARC
  5
1BCAD
330
1F
100
AcDbEntity
  8
02製品
  6
Continuous
370
    15
100
AcDbCircle
 10
77839.83420452096
 20
-82577.92359754117
 30
0.0
 40
3.101737462285654
100
AcDbArc
 50
214.7712888088988
 51
276.7746825821653
  0
ARC
  5
1BCAE
330
1F
100
AcDbEntity
  8
02製品
  6
Continuous
370
    15
100
AcDbCircle
 10
77808.16019847446
 20
-82353.35391936777
 30
0.0
 40
3.021876636830362
100
AcDbArc
 50
8.207686154235624
 51
171.7923138457644
  0
ARC
  5
1BCAF
330
1F
100
AcDbEntity
  8
02製品
  6
Continuous
370
    15
100
AcDbCircle
 10
77777.5906152969
 20
-82135.83998306794
 30
0.0
 40
3.021865641201507
100
AcDbArc
 50
8.206240635332492
 51
171.7937593646675
  0
ARC
  5
1BCB0
330
1F
100
AcDbEntity
  8
02製品
  6
Continuous
370
    15
100
AcDbCircle
 10
77747.02103956991
 20
-81918.32621672563
 30
0.0
 40
3.021886281316206
100
AcDbArc
 50
8.207964402420318
 51
171.7920355975797
  0
ARC
  5
1BCB1
330
1F
100
AcDbEntity
  8
02製品
  6
Continuous
370
    15
100
AcDbCircle
 10
77716.45145639234
 20
-81700.81229784898
 30
0.0
 40
3.021886281316124
100
AcDbArc
 50
8.207964402420318
 51
171.7920355975797
  0
LINE
  5
1BCB2
330
1F
100
AcDbEntity
  8
02製品
  6
Continuous
370
    15
100
AcDbLine
 10
77729.27679642492
 20
-81686.57500743074
 30
0.0
 11
77730.66838606649
 21
-81686.57500743074
 31
0.0
  0
LINE
  5
1BCB3
330
1F
100
AcDbEntity
  8
02製品
  6
Continuous
370
    15
100
AcDbLine
 10
77769.50808390432
 20
-81747.37496375246
 30
0.0
 11
77740.7903127318
 21
-81751.41103266878
 31
0.0
  0
LINE
  5
1BCB4
330
1F
100
AcDbEntity
  8
02製品
  6
Continuous
370
    15
100
AcDbLine
 10
77769.50808390432
 20
-81747.37496375246
 30
0.0
 11
77937.47743367606
 21
-82942.53897787211
 31
0.0
  0
LINE
  5
1BCB5
330
1F
100
AcDbEntity
  8
02製品
  6
Continuous
370
    15
100
AcDbLine
 10
77937.47743367606
 20
-82942.53897787211
 30
0.0
 11
77908.75965877825
 21
-82946.574997894
 31
0.0
  0
CIRCLE
  5
1BCB6
330
1F
100
AcDbEntity
  8
02製品
  6
Continuous
370
    15
100
AcDbCircle
 10
77899.50317376472
 20
-82780.11753321346
 30
0.0
 40
3.499999999999659
  0
CIRCLE
  5
1BCB7
330
1F
100
AcDbEntity
  8
02製品
  6
Continuous
370
    15
100
AcDbCircle
 10
77875.84374660176
 20
-82611.77196152741
 30
0.0
 40
3.500000000000227
  0
CIRCLE
  5
1BCB8
330
1F
100
AcDbEntity
  8
02製品
  6
Continuous
370
    15
100
AcDbCircle
 10
77852.18431943834
 20
-82443.42638984136
 30
0.0
 40
3.500000000000227
  0
CIRCLE
  5
1BCB9
330
1F
100
AcDbEntity
  8
02製品
  6
Continuous
370
    15
100
AcDbCircle
 10
77828.52489227538
 20
-82275.08081815531
 30
0.0
 40
3.500000000000227
  0
CIRCLE
  5
1BCBA
330
1F
100
AcDbEntity
  8
02製品
  6
Continuous
370
    15
100
AcDbCircle
 10
77804.86546511196
 20
-82106.73524646927
 30
0.0
 40
3.500000000000227
  0
CIRCLE
  5
1BCBB
330
1F
100
AcDbEntity
  8
02製品
  6
Continuous
370
    15
100
AcDbCircle
 10
77781.20603794877
 20
-81938.38967478322
 30
0.0
 40
3.500000000000227
  0
CIRCLE
  5
1BCBC
330
1F
100
AcDbEntity
  8
02製品
  6
Continuous
370
    15
100
AcDbCircle
 10
77757.54661078581
 20
-81770.04410309717
 30
0.0
 40
3.500000000000227
  0
LINE
  5
1BCBD
330
1F
100
AcDbEntity
  8
02製品
  6
Continuous
370
    15
100
AcDbLine
 10
77908.66125102963
 20
-82945.87479035044
 30
0.0
 11
77908.75965877825
 21
-82946.574997894
 31
0.0
  0
LINE
  5
1BCBE
330
1F
100
AcDbEntity
  8
02製品
  6
Continuous
370
    15
100
AcDbLine
 10
77053.915982688
 20
-82579.33063506288
 30
0.0
 11
77053.915982688
 21
-82579.65324520273
 31
0.0
  0
LINE
  5
1BCBF
330
1F
100
AcDbEntity
  8
02製品
  6
Continuous
370
    15
100
AcDbLine
 10
77836.51054426485
 20
-82579.33063506288
 30
0.0
 11
77836.51054426485
 21
-82579.65324520273
 31
0.0
  0
LINE
  5
1BCC0
330
1F
100
AcDbEntity
  8
02製品
  6
Continuous
370
    15
100
AcDbLine
 10
77170.18724008852
 20
-81701.97279452486
 30
0.0
 11
77170.18724008852
 21
-81701.59382819338
 31
0.0
  0
LINE
  5
1BCC1
330
1F
100
AcDbEntity
  8
02製品
  6
Continuous
370
    15
100
AcDbLine
 10
77720.23928686434
 20
-81701.97279452486
 30
0.0
 11
77720.23928686434
 21
-81701.59382819338
 31
0.0
  0
LINE
  5
1BCC2
330
1F
100
AcDbEntity
  8
02製品
  6
Continuous
370
    15
100
AcDbLine
 10
78991.68499354972
 20
-81686.2960576932
 30
0.0
 11
78991.55493621482
 21
-81686.57500743074
 31
0.0
  0
LINE
  5
1BCC3
330
1F
100
AcDbEntity
  8
02製品
  6
Continuous
370
    15
100
AcDbLine
 10
78991.55493621482
 20
-81686.57500743074
 30
0.0
 11
78979.07347027911
 21
-81713.34166526003
 31
0.0
  0
LINE
  5
1BCC4
330
1F
100
AcDbEntity
  8
02製品
  6
Continuous
370
    15
100
AcDbLine
 10
78979.07347027911
 20
-81713.34166526003
 30
0.0
 11
78978.16715185298
 21
-81712.91894911928
 31
0.0
  0
LINE
  5
1BCC5
330
1F
100
AcDbEntity
  8
02製品
  6
Continuous
370
    15
100
AcDbLine
 10
78990.77869002474
 20
-81685.87346076174
 30
0.0
 11
78978.16715185298
 21
-81712.91894911928
 31
0.0
  0
LINE
  5
1BCC6
330
1F
100
AcDbEntity
  8
02製品
  6
Continuous
370
    15
100
AcDbLine
 10
78990.77869002474
 20
-81685.87346076174
 30
0.0
 11
78991.68499354972
 21
-81686.2960576932
 31
0.0
  0
LINE
  5
1BCC7
330
1F
100
AcDbEntity
  8
02製品
  6
Continuous
370
    15
100
AcDbLine
 10
78991.68499354972
 20
-81686.57500743074
 30
0.0
 11
78991.68499354972
 21
-81686.2960576932
 31
0.0
  0
LINE
  5
1BCC8
330
1F
100
AcDbEntity
  8
02製品
  6
Continuous
370
    15
100
AcDbLine
 10
78991.55493621482
 20
-81686.57500743074
 30
0.0
 11
78991.68499354972
 21
-81686.57500743074
 31
0.0
  0
LINE
  5
1BCC9
330
1F
100
AcDbEntity
  8
02製品
  6
Continuous
370
    15
100
AcDbLine
 10
79133.6923464504
 20
-81685.5749607007
 30
0.0
 11
78990.9178668703
 21
-81685.5749607007
 31
0.0
  0
LINE
  5
1BCCA
330
1F
100
AcDbEntity
  8
02製品
  6
Continuous
370
    15
100
AcDbLine
 10
79133.6923464504
 20
-81686.57500743074
 30
0.0
 11
79133.6923464504
 21
-81685.5749607007
 31
0.0
  0
LINE
  5
1BCCB
330
1F
100
AcDbEntity
  8
02製品
  6
Continuous
370
    15
100
AcDbLine
 10
78992.65832249774
 20
-81686.57500743074
 30
0.0
 11
78991.68499354972
 21
-81686.57500743074
 31
0.0
  0
LINE
  5
1BCCC
330
1F
100
AcDbEntity
  8
02製品
  6
Continuous
370
    15
100
AcDbLine
 10
78990.77869002474
 20
-81685.87346076174
 30
0.0
 11
78990.9178668703
 21
-81685.5749607007
 31
0.0
  0
LINE
  5
1BCCD
330
1F
100
AcDbEntity
  8
02製品
  6
Continuous
370
    15
100
AcDbLine
 10
79133.6923464504
 20
-81700.57494639559
 30
0.0
 11
79134.6923464979
 21
-81700.57494639559
 31
0.0
  0
LINE
  5
1BCCE
330
1F
100
AcDbEntity
  8
02製品
  6
Continuous
370
    15
100
AcDbLine
 10
79133.6923464504
 20
-81700.57494639559
 30
0.0
 11
79133.6923464504
 21
-81698.59738349123
 31
0.0
  0
LINE
  5
1BCCF
330
1F
100
AcDbEntity
  8
02製品
  6
Continuous
370
    15
100
AcDbLine
 10
79134.6923464979
 20
-81700.57494639559
 30
0.0
 11
79134.6923464979
 21
-81685.5749607007
 31
0.0
  0
LINE
  5
1BCD0
330
1F
100
AcDbEntity
  8
02製品
  6
Continuous
370
    15
100
AcDbLine
 10
79133.6923464504
 20
-81685.5749607007
 30
0.0
 11
79134.6923464979
 21
-81685.5749607007
 31
0.0
  0
LINE
  5
1BCD1
330
1F
100
AcDbEntity
  8
02製品
  6
Continuous
370
    15
100
AcDbLine
 10
78621.55417148722
 20
-82587.27179168863
 30
0.0
 11
78620.98059599055
 21
-82588.09093832178
 31
0.0
  0
LINE
  5
1BCD2
330
1F
100
AcDbEntity
  8
02製品
  6
Continuous
370
    15
100
AcDbLine
 10
78583.43139831675
 20
-82561.79870366259
 30
0.0
 11
78620.98059599055
 21
-82588.09093832178
 31
0.0
  0
LINE
  5
1BCD3
330
1F
100
AcDbEntity
  8
02製品
  6
Continuous
370
    15
100
AcDbLine
 10
78584.03692190303
 20
-82560.5002760808
 30
0.0
 11
78583.43139831675
 21
-82561.79870366259
 31
0.0
  0
LINE
  5
1BCD4
330
1F
100
AcDbEntity
  8
02製品
  6
Continuous
370
    15
100
AcDbLine
 10
78584.41410009516
 20
-82561.15354298754
 30
0.0
 11
78584.03692190303
 21
-82560.5002760808
 31
0.0
  0
LINE
  5
1BCD5
330
1F
100
AcDbEntity
  8
02製品
  6
Continuous
370
    15
100
AcDbLine
 10
78584.41410009516
 20
-82561.15354298754
 30
0.0
 11
78584.69233457698
 21
-82561.460864536
 31
0.0
  0
LINE
  5
1BCD6
330
1F
100
AcDbEntity
  8
02製品
  6
Continuous
370
    15
100
AcDbLine
 10
78584.76034347666
 20
-82561.31501197023
 30
0.0
 11
78584.41410009516
 21
-82561.15354298754
 31
0.0
  0
LINE
  5
1BCD7
330
1F
100
AcDbEntity
  8
02製品
  6
Continuous
370
    15
100
AcDbLine
 10
78990.48415367259
 20
-81688.87133597536
 30
0.0
 11
78584.03692190303
 21
-82560.5002760808
 31
0.0
  0
LINE
  5
1BCD8
330
1F
100
AcDbEntity
  8
02製品
  6
Continuous
370
    15
100
AcDbLine
 10
78991.39047209872
 20
-81689.29393290682
 30
0.0
 11
78990.48415367259
 21
-81688.87133597536
 31
0.0
  0
LINE
  5
1BCD9
330
1F
100
AcDbEntity
  8
02製品
  6
Continuous
370
    15
100
AcDbLine
 10
79133.6923464504
 20
-82942.53897787211
 30
0.0
 11
79134.6923464979
 21
-82942.53897787211
 31
0.0
  0
LINE
  5
1BCDA
330
1F
100
AcDbEntity
  8
02製品
  6
Continuous
370
    15
100
AcDbLine
 10
79133.6923464504
 20
-81747.37496375246
 30
0.0
 11
79133.6923464504
 21
-82942.53897787211
 31
0.0
  0
LINE
  5
1BCDB
330
1F
100
AcDbEntity
  8
02製品
  6
Continuous
370
    15
100
AcDbLine
 10
79134.6923464979
 20
-81747.37496375246
 30
0.0
 11
79133.6923464504
 21
-81747.37496375246
 31
0.0
  0
LINE
  5
1BCDC
330
1F
100
AcDbEntity
  8
02製品
  6
Continuous
370
    15
100
AcDbLine
 10
79134.6923464979
 20
-82942.53897787211
 30
0.0
 11
79134.6923464979
 21
-81747.37496375246
 31
0.0
  0
LINE
  5
1BCDD
330
1F
100
AcDbEntity
  8
02製品
  6
Continuous
370
    15
100
AcDbLine
 10
79133.6923464504
 20
-82942.53897787211
 30
0.0
 11
79133.6923464504
 21
-82946.574997894
 31
0.0
  0
LINE
  5
1BCDE
330
1F
100
AcDbEntity
  8
02製品
  6
Continuous
370
    15
100
AcDbLine
 10
79134.6923464979
 20
-82942.53897787211
 30
0.0
 11
79134.6923464979
 21
-82946.574997894
 31
0.0
  0
LINE
  5
1BCDF
330
1F
100
AcDbEntity
  8
02製品
  6
Continuous
370
    15
100
AcDbLine
 10
79133.6923464504
 20
-82946.574997894
 30
0.0
 11
79134.6923464979
 21
-82946.574997894
 31
0.0
  0
LINE
  5
1BCE0
330
1F
100
AcDbEntity
  8
02製品
  6
Continuous
370
    15
100
AcDbLine
 10
79049.69234560383
 20
-81728.16629408998
 30
0.0
 11
79133.6923464504
 21
-81728.16629408998
 31
0.0
  0
LINE
  5
1BCE1
330
1F
100
AcDbEntity
  8
02製品
  6
Continuous
370
    15
100
AcDbLine
 10
79133.6923464504
 20
-81728.16629408998
 30
0.0
 11
79133.6923464504
 21
-81747.37496375246
 31
0.0
  0
LINE
  5
1BCE2
330
1F
100
AcDbEntity
  8
02製品
  6
Continuous
370
    15
100
AcDbLine
 10
78992.65832249774
 20
-81686.57500743074
 30
0.0
 11
78584.69233457698
 21
-82561.460864536
 31
0.0
  0
LINE
  5
1BCE3
330
1F
100
AcDbEntity
  8
02製品
  6
Continuous
370
    15
100
AcDbLine
 10
78992.65832249774
 20
-81686.57500743074
 30
0.0
 11
79133.6923464504
 21
-81686.57500743074
 31
0.0
  0
LINE
  5
1BCE4
330
1F
100
AcDbEntity
  8
02製品
  6
Continuous
370
    15
100
AcDbLine
 10
79133.6923464504
 20
-81686.57500743074
 30
0.0
 11
79133.6923464504
 21
-81698.45826625032
 31
0.0
  0
LINE
  5
1BCE5
330
1F
100
AcDbEntity
  8
02製品
  6
Continuous
370
    15
100
AcDbLine
 10
79133.6923464504
 20
-81698.45826625032
 30
0.0
 11
79049.69234560383
 21
-81698.45826625032
 31
0.0
  0
ARC
  5
1BCE6
330
1F
100
AcDbEntity
  8
02製品
  6
Continuous
370
    15
100
AcDbCircle
 10
79049.57541184966
 20
-81713.31228017015
 30
0.0
 40
14.85447417559388
100
AcDbArc
 50
89.54896553623323
 51
270.4510344637668
  0
LINE
  5
1BCE7
330
1F
100
AcDbEntity
  8
02製品
  6
Continuous
370
    15
100
AcDbLine
 10
78584.69233457698
 20
-82561.460864536
 30
0.0
 11
79133.6923464504
 21
-82945.87479035044
 31
0.0
  0
LINE
  5
1BCE8
330
1F
100
AcDbEntity
  8
02製品
  6
Continuous
370
    15
100
AcDbLine
 10
79049.69234560383
 20
-81698.59738349123
 30
0.0
 11
79049.69234560383
 21
-81698.45826625032
 31
0.0
  0
ARC
  5
1BCE9
330
1F
100
AcDbEntity
  8
02製品
  6
Continuous
370
    15
100
AcDbCircle
 10
79049.61979940976
 20
-81713.52484199312
 30
0.0
 40
14.92763478500699
100
AcDbArc
 50
89.72154951791508
 51
179.7183300313757
  0
LINE
  5
1BCEA
330
1F
100
AcDbEntity
  8
02製品
  6
Continuous
370
    15
100
AcDbLine
 10
79133.6923464504
 20
-81698.59738349123
 30
0.0
 11
79133.6923464504
 21
-81698.45826625032
 31
0.0
  0
LINE
  5
1BCEB
330
1F
100
AcDbEntity
  8
02製品
  6
Continuous
370
    15
100
AcDbLine
 10
79133.6923464504
 20
-81698.59738349123
 30
0.0
 11
79049.69234560383
 21
-81698.59738349123
 31
0.0
  0
ENDSEC
  0
SECTION
  2
OBJECTS
  0
DICTIONARY
  5
C
330
0
100
AcDbDictionary
281
     1
  3
ACAD_DETAILVIEWSTYLE
350
ADAF
  3
ACAD_GROUP
350
D
  3
ACAD_IMAGE_VARS
350
6A88
  3
ACAD_LAYOUT
350
1A
  3
ACAD_MLINESTYLE
350
17
  3
ACAD_PLOTSETTINGS
350
19
  3
ACAD_PLOTSTYLENAME
350
E
  3
ACAD_SCALELIST
350
6A4E
  3
ACAD_SECTIONVIEWSTYLE
350
ADB0
  3
AcadDim
350
813A
  3
AcDbVariableDictionary
350
79E
  3
AEC_DISP_REPS
350
8259
  3
AEC_DISPLAY_PROPS_DEFAULTS
350
825B
  3
AEC_VARS
350
8257
  3
APPDATA
350
6A87
  3
DWGPROPS
350
9DA97
  0
DICTIONARY
  5
7A6F
330
2
100
AcDbDictionary
280
     1
281
     1
  3
ACAD_LAYERFILTERS
360
A22F
  3
ACAD_LAYERSTATES
360
7A70
  3
ACLYDICTIONARY
360
163AB
  0
DICTIONARY
  5
67B15
330
1B7C5
100
AcDbDictionary
280
     1
281
     1
  3
ADSK_XREC_VTRVIEWINFO
360
67B16
  0
DICTIONARY
  5
67B18
330
1B7C9
100
AcDbDictionary
280
     1
281
     1
  3
ADSK_XREC_VTRVIEWINFO
360
67B19
  0
DICTIONARY
  5
67B1B
330
1B7CD
100
AcDbDictionary
280
     1
281
     1
  3
ADSK_XREC_VTRVIEWINFO
360
67B1C
  0
DICTIONARY
  5
67B1F
330
1B7D1
100
AcDbDictionary
280
     1
281
     1
  3
ADSK_XREC_VTRVIEWINFO
360
67B20
  0
DICTIONARY
  5
CBD6
330
1F
100
AcDbDictionary
280
     1
281
     1
  3
ACAD_SORTENTS
360
CBD7
  0
DICTIONARY
  5
ADAF
102
{ACAD_REACTORS
330
C
102
}
330
C
100
AcDbDictionary
281
     1
  0
DICTIONARY
  5
D
102
{ACAD_REACTORS
330
C
102
}
330
C
100
AcDbDictionary
281
     1
  0
RASTERVARIABLES
  5
6A88
102
{ACAD_REACTORS
330
C
102
}
330
C
100
AcDbRasterVariables
 90
        0
 70
     1
 71
     1
 72
     1
  0
DICTIONARY
  5
1A
102
{ACAD_REACTORS
330
C
102
}
330
C
100
AcDbDictionary
281
     1
  3
Layout1
350
1E
  3
Layout2
350
26
  3
Model
350
22
  0
DICTIONARY
  5
17
102
{ACAD_REACTORS
330
C
102
}
330
C
100
AcDbDictionary
281
     1
  3
Standard
350
18
  0
DICTIONARY
  5
19
102
{ACAD_REACTORS
330
C
102
}
330
C
100
AcDbDictionary
281
     1
  0
ACDBDICTIONARYWDFLT
  5
E
102
{ACAD_REACTORS
330
C
102
}
330
C
100
AcDbDictionary
281
     1
  3
Normal
350
F
100
AcDbDictionaryWithDefault
340
F
  0
DICTIONARY
  5
6A4E
102
{ACAD_REACTORS
330
C
102
}
330
C
100
AcDbDictionary
281
     1
  3
A0
350
6A4F
  3
A1
350
6A50
  3
A2
350
6A51
  3
A3
350
6A52
  3
A4
350
6A53
  3
A5
350
6A54
  3
A6
350
6A55
  3
A7
350
6A56
  3
A8
350
6A57
  3
A9
350
6A58
  3
B0
350
6A59
  3
B1
350
6A5A
  3
B2
350
6A5B
  3
B3
350
6A5C
  3
B4
350
6A5D
  3
B5
350
6A5E
  3
B6
350
6A5F
  3
B7
350
6A60
  3
B8
350
6A61
  3
B9
350
6A62
  3
C0
350
6A63
  3
C1
350
6A64
  3
C2
350
6A65
  3
C3
350
6A66
  3
C4
350
6A67
  3
C5
350
6A68
  3
C6
350
6A69
  3
C7
350
6A6A
  3
C8
350
6A6B
  3
C9
350
6A6C
  3
D0
350
6A6D
  3
D1
350
6A6E
  3
D2
350
6A6F
  0
DICTIONARY
  5
ADB0
102
{ACAD_REACTORS
330
C
102
}
330
C
100
AcDbDictionary
281
     1
  0
XRECORD
  5
813A
102
{ACAD_REACTORS
330
C
102
}
330
C
100
AcDbXrecord
280
     1
340
0
 72
     0
 71
     0
 70
     0
 69
     0
 68
     1
 67
     3
 66
     0
 65
     0
 64
     0
 63
     3
 62
     1
 61
     0
 60
     0
 40
0.0
  0
DICTIONARY
  5
79E
102
{ACAD_REACTORS
330
C
102
}
330
C
100
AcDbDictionary
281
     1
  3
DIMASSOC
350
79F
  3
SORTENTS
350
264F
  0
DICTIONARY
  5
8259
102
{ACAD_REACTORS
330
C
102
}
330
C
100
AcDbDictionary
281
     1
  3
AecDbDispRep2dSection
350
825A
  3
AecDbDispRepAnchor
350
8294
  3
AecDbDispRepAnchorEntToNode
350
8295
  3
AecDbDispRepClipVolModel
350
8261
  3
AecDbDispRepClipVolPlan
350
8263
  3
AecDbDispRepClipVolResSubDiv
350
8266
  3
AecDbDispRepClipVolResult
350
8265
  3
AecDbDispRepDisplayTheme
350
8268
  3
AecDbDispRepEditInPlaceProfile
350
8299
  3
AecDbDispRepEntRef
350
826A
  3
AecDbDispRepLayoutCurve
350
826C
  3
AecDbDispRepLayoutGrid2d
350
826E
  3
AecDbDispRepLayoutGrid3d
350
8270
  3
AecDbDispRepMaskBlockRef
350
8272
  3
AecDbDispRepMaskBlockRefRcp
350
8274
  3
AecDbDispRepMassElemModel
350
8276
  3
AecDbDispRepMassElemPlan100
350
827C
  3
AecDbDispRepMassElemPlan50
350
827A
  3
AecDbDispRepMassElemRcp
350
827E
  3
AecDbDispRepMassElemSchem
350
8278
  3
AecDbDispRepMassGroupModel
350
8280
  3
AecDbDispRepMassGroupPlan
350
8282
  3
AecDbDispRepMassGroupPlan100
350
8286
  3
AecDbDispRepMassGroupPlan50
350
8284
  3
AecDbDispRepMassGroupRcp
350
8288
  3
AecDbDispRepMaterial
350
8297
  3
AecDbDispRepMvBlockRef
350
828A
  3
AecDbDispRepMvBlockRefModel
350
828B
  3
AecDbDispRepMvBlockRefPlan100
350
828C
  3
AecDbDispRepMvBlockRefPlan50
350
828D
  3
AecDbDispRepPolygonModel
350
828E
  3
AecDbDispRepPolygonTrueColour
350
8290
  3
AecDbDispRepSlice
350
8292
  0
DICTIONARY
  5
825B
102
{ACAD_REACTORS
330
C
102
}
330
C
100
AcDbDictionary
281
     1
  3
*A1
350
825C
  3
*A10
350
827D
  3
*A11
350
827F
  3
*A12
350
8296
  3
*A13
350
8281
  3
*A14
350
8285
  3
*A15
350
8262
  3
*A16
350
8287
  3
*A17
350
8289
  3
*A18
350
828F
  3
*A19
350
8291
  3
*A2
350
826D
  3
*A20
350
8293
  3
*A21
350
8298
  3
*A22
350
8273
  3
*A23
350
829A
  3
*A24
350
8264
  3
*A25
350
8267
  3
*A26
350
8269
  3
*A27
350
826B
  3
*A3
350
826F
  3
*A4
350
8283
  3
*A5
350
8271
  3
*A6
350
8275
  3
*A7
350
8277
  3
*A8
350
8279
  3
*A9
350
827B
  0
DICTIONARY
  5
8257
102
{ACAD_REACTORS
330
C
102
}
330
C
100
AcDbDictionary
281
     1
  3
AEC_VARS_DWG_SETUP
350
8258
  0
DICTIONARY
  5
6A87
102
{ACAD_REACTORS
330
C
102
}
330
C
100
AcDbDictionary
281
     1
  0
XRECORD
  5
9DA97
102
{ACAD_REACTORS
330
C
102
}
330
C
100
AcDbXrecord
280
     1
  1
DWGPROPS COOKIE
  2

  3

  4

  6

  7

  8
2121
  9

300
=
301
=
302
=
303
=
304
=
305
=
306
=
307
=
308
=
309
=
 40
0.0
 41
2455859.030048461
 42
2458240.05799632
  1

 90
        0
  0
DICTIONARY
  5
A22F
102
{ACAD_REACTORS
330
7A6F
102
}
330
7A6F
100
AcDbDictionary
280
     1
281
     1
  0
DICTIONARY
  5
7A70
102
{ACAD_REACTORS
330
7A6F
102
}
330
7A6F
100
AcDbDictionary
281
     1
  0
DICTIONARY
  5
163AB
102
{ACAD_REACTORS
330
7A6F
102
}
330
7A6F
100
AcDbDictionary
281
     1
1001
ACAD
1000
<All
  0
XRECORD
  5
67B16
102
{ACAD_REACTORS
330
67B15
102
}
330
67B15
100
AcDbXrecord
280
     1
300

292
     0
330
0
294
     0
  0
XRECORD
  5
67B19
102
{ACAD_REACTORS
330
67B18
102
}
330
67B18
100
AcDbXrecord
280
     1
300

292
     0
330
0
294
     0
  0
XRECORD
  5
67B1C
102
{ACAD_REACTORS
330
67B1B
102
}
330
67B1B
100
AcDbXrecord
280
     1
300

292
     0
293
     0
294
     0
  0
XRECORD
  5
67B20
102
{ACAD_REACTORS
330
67B1F
102
}
330
67B1F
100
AcDbXrecord
280
     1
300

292
     0
293
     0
294
     0
  0
SORTENTSTABLE
  5
CBD7
102
{ACAD_REACTORS
330
CBD6
102
}
330
CBD6
100
AcDbSortentsTable
330
1F
331
0
  5
8D9F1
331
0
  5
998F
331
0
  5
9990
331
0
  5
9992
331
0
  5
9993
331
0
  5
9994
331
0
  5
9995
331
0
  5
9A16
331
0
  5
9A17
331
0
  5
9A18
331
0
  5
9A19
331
0
  5
9A1A
331
0
  5
9A1B
331
0
  5
9A1C
331
0
  5
9A1D
331
0
  5
9A1E
331
0
  5
9A1F
331
0
  5
9A2A
331
0
  5
A3CC
331
0
  5
A3CD
331
0
  5
A444
331
0
  5
8D9B8
331
0
  5
8D9B9
331
0
  5
8D9BA
331
0
  5
8D9BB
331
0
  5
8D9BD
331
0
  5
8D9BF
331
0
  5
8D9F0
  0
LAYOUT
  5
1E
102
{ACAD_REACTORS
330
1A
102
}
330
1A
100
AcDbPlotSettings
  1

  2

  4

  6

 40
0.0
 41
0.0
 42
0.0
 43
0.0
 44
0.0
 45
0.0
 46
0.0
 47
0.0
 48
0.0
 49
0.0
140
0.0
141
0.0
142
1.0
143
1.0
 70
   688
 72
     0
 73
     0
 74
     5
  7
monochrome.ctb
 75
    16
147
1.0
148
0.0
149
0.0
100
AcDbLayout
  1
Layout1
 70
     1
 71
     1
 10
0.0
 20
0.0
 11
420.0
 21
297.0
 12
0.0
 22
0.0
 32
0.0
 14
1.000000000000000E+20
 24
1.000000000000000E+20
 34
1.000000000000000E+20
 15
-1.000000000000000E+20
 25
-1.000000000000000E+20
 35
-1.000000000000000E+20
146
0.0
 13
0.0
 23
0.0
 33
0.0
 16
1.0
 26
0.0
 36
0.0
 17
0.0
 27
1.0
 37
0.0
 76
     0
330
1B
  0
LAYOUT
  5
26
102
{ACAD_REACTORS
330
1A
102
}
330
1A
100
AcDbPlotSettings
  1

  2

  4

  6

 40
0.0
 41
0.0
 42
0.0
 43
0.0
 44
0.0
 45
0.0
 46
0.0
 47
0.0
 48
0.0
 49
0.0
140
0.0
141
0.0
142
1.0
143
1.0
 70
   688
 72
     0
 73
     0
 74
     5
  7
monochrome.ctb
 75
    16
147
1.0
148
0.0
149
0.0
100
AcDbLayout
  1
Layout2
 70
     1
 71
     2
 10
0.0
 20
0.0
 11
12.0
 21
9.0
 12
0.0
 22
0.0
 32
0.0
 14
0.0
 24
0.0
 34
0.0
 15
0.0
 25
0.0
 35
0.0
146
0.0
 13
0.0
 23
0.0
 33
0.0
 16
1.0
 26
0.0
 36
0.0
 17
0.0
 27
1.0
 37
0.0
 76
     0
330
23
  0
LAYOUT
  5
22
102
{ACAD_REACTORS
330
1A
102
}
330
1A
100
AcDbPlotSettings
  1

  2
none_device
  4
A3
  6

 40
3.174999952316284
 41
3.174999952316284
 42
3.17498779296875
 43
3.17498779296875
 44
297.0318298339844
 45
420.1583251953125
 46
-3.16
 47
-3.1
 48
-90.0
 49
-90.0
140
329.9999999999998
141
207.0
142
1.0
143
1.0
 70
 11940
 72
     1
 73
     1
 74
     4
  7
monochrome.ctb
 75
     0
147
1.0
148
90.0
149
90.0
100
AcDbLayout
  1
Model
 70
     1
 71
     0
 10
14114.50323363575
 20
-100367.2653396513
 11
121214.5032336357
 21
-78347.26533965132
 12
0.0
 22
0.0
 32
0.0
 14
76952.94911190325
 24
-82946.574997894
 34
0.0
 15
79134.6923464979
 25
-81685.5749607007
 35
0.0
146
0.0
 13
0.0
 23
0.0
 33
0.0
 16
1.0
 26
0.0
 36
0.0
 17
0.0
 27
1.0
 37
0.0
 76
     0
330
1F
331
A2A1
  0
MLINESTYLE
  5
18
102
{ACAD_REACTORS
330
17
102
}
330
17
100
AcDbMlineStyle
  2
STANDARD
 70
     0
  3

 62
   256
 51
90.0
 52
90.0
 71
     2
 49
0.5
 62
   256
  6
BYLAYER
 49
-0.5
 62
   256
  6
BYLAYER
  0
ACDBPLACEHOLDER
  5
F
102
{ACAD_REACTORS
330
E
102
}
330
E
  0
SCALE
  5
6A4F
102
{ACAD_REACTORS
330
6A4E
102
}
330
6A4E
100
AcDbScale
 70
     0
300
1:1
140
1.0
141
1.0
290
     1
  0
SCALE
  5
6A50
102
{ACAD_REACTORS
330
6A4E
102
}
330
6A4E
100
AcDbScale
 70
     0
300
1:2
140
1.0
141
2.0
290
     0
  0
SCALE
  5
6A51
102
{ACAD_REACTORS
330
6A4E
102
}
330
6A4E
100
AcDbScale
 70
     0
300
1:4
140
1.0
141
4.0
290
     0
  0
SCALE
  5
6A52
102
{ACAD_REACTORS
330
6A4E
102
}
330
6A4E
100
AcDbScale
 70
     0
300
1:5
140
1.0
141
5.0
290
     0
  0
SCALE
  5
6A53
102
{ACAD_REACTORS
330
6A4E
102
}
330
6A4E
100
AcDbScale
 70
     0
300
1:8
140
1.0
141
8.0
290
     0
  0
SCALE
  5
6A54
102
{ACAD_REACTORS
330
6A4E
102
}
330
6A4E
100
AcDbScale
 70
     0
300
1:10
140
1.0
141
10.0
290
     0
  0
SCALE
  5
6A55
102
{ACAD_REACTORS
330
6A4E
102
}
330
6A4E
100
AcDbScale
 70
     0
300
1:16
140
1.0
141
16.0
290
     0
  0
SCALE
  5
6A56
102
{ACAD_REACTORS
330
6A4E
102
}
330
6A4E
100
AcDbScale
 70
     0
300
1:20
140
1.0
141
20.0
290
     0
  0
SCALE
  5
6A57
102
{ACAD_REACTORS
330
6A4E
102
}
330
6A4E
100
AcDbScale
 70
     0
300
1:30
140
1.0
141
30.0
290
     0
  0
SCALE
  5
6A58
102
{ACAD_REACTORS
330
6A4E
102
}
330
6A4E
100
AcDbScale
 70
     0
300
1:40
140
1.0
141
40.0
290
     0
  0
SCALE
  5
6A59
102
{ACAD_REACTORS
330
6A4E
102
}
330
6A4E
100
AcDbScale
 70
     0
300
1:50
140
1.0
141
50.0
290
     0
  0
SCALE
  5
6A5A
102
{ACAD_REACTORS
330
6A4E
102
}
330
6A4E
100
AcDbScale
 70
     0
300
1:100
140
1.0
141
100.0
290
     0
  0
SCALE
  5
6A5B
102
{ACAD_REACTORS
330
6A4E
102
}
330
6A4E
100
AcDbScale
 70
     0
300
2:1
140
2.0
141
1.0
290
     0
  0
SCALE
  5
6A5C
102
{ACAD_REACTORS
330
6A4E
102
}
330
6A4E
100
AcDbScale
 70
     0
300
4:1
140
4.0
141
1.0
290
     0
  0
SCALE
  5
6A5D
102
{ACAD_REACTORS
330
6A4E
102
}
330
6A4E
100
AcDbScale
 70
     0
300
8:1
140
8.0
141
1.0
290
     0
  0
SCALE
  5
6A5E
102
{ACAD_REACTORS
330
6A4E
102
}
330
6A4E
100
AcDbScale
 70
     0
300
10:1
140
10.0
141
1.0
290
     0
  0
SCALE
  5
6A5F
102
{ACAD_REACTORS
330
6A4E
102
}
330
6A4E
100
AcDbScale
 70
     0
300
100:1
140
100.0
141
1.0
290
     0
  0
SCALE
  5
6A60
102
{ACAD_REACTORS
330
6A4E
102
}
330
6A4E
100
AcDbScale
 70
     0
300
1/128" = 1'-0"
140
0.0078125
141
12.0
290
     0
  0
SCALE
  5
6A61
102
{ACAD_REACTORS
330
6A4E
102
}
330
6A4E
100
AcDbScale
 70
     0
300
1/64" = 1'-0"
140
0.015625
141
12.0
290
     0
  0
SCALE
  5
6A62
102
{ACAD_REACTORS
330
6A4E
102
}
330
6A4E
100
AcDbScale
 70
     0
300
1/32" = 1'-0"
140
0.03125
141
12.0
290
     0
  0
SCALE
  5
6A63
102
{ACAD_REACTORS
330
6A4E
102
}
330
6A4E
100
AcDbScale
 70
     0
300
1/16" = 1'-0"
140
0.0625
141
12.0
290
     0
  0
SCALE
  5
6A64
102
{ACAD_REACTORS
330
6A4E
102
}
330
6A4E
100
AcDbScale
 70
     0
300
3/32" = 1'-0"
140
0.09375
141
12.0
290
     0
  0
SCALE
  5
6A65
102
{ACAD_REACTORS
330
6A4E
102
}
330
6A4E
100
AcDbScale
 70
     0
300
1/8" = 1'-0"
140
0.125
141
12.0
290
     0
  0
SCALE
  5
6A66
102
{ACAD_REACTORS
330
6A4E
102
}
330
6A4E
100
AcDbScale
 70
     0
300
3/16" = 1'-0"
140
0.1875
141
12.0
290
     0
  0
SCALE
  5
6A67
102
{ACAD_REACTORS
330
6A4E
102
}
330
6A4E
100
AcDbScale
 70
     0
300
1/4" = 1'-0"
140
0.25
141
12.0
290
     0
  0
SCALE
  5
6A68
102
{ACAD_REACTORS
330
6A4E
102
}
330
6A4E
100
AcDbScale
 70
     0
300
3/8" = 1'-0"
140
0.375
141
12.0
290
     0
  0
SCALE
  5
6A69
102
{ACAD_REACTORS
330
6A4E
102
}
330
6A4E
100
AcDbScale
 70
     0
300
1/2" = 1'-0"
140
0.5
141
12.0
290
     0
  0
SCALE
  5
6A6A
102
{ACAD_REACTORS
330
6A4E
102
}
330
6A4E
100
AcDbScale
 70
     0
300
3/4" = 1'-0"
140
0.75
141
12.0
290
     0
  0
SCALE
  5
6A6B
102
{ACAD_REACTORS
330
6A4E
102
}
330
6A4E
100
AcDbScale
 70
     0
300
1" = 1'-0"
140
1.0
141
12.0
290
     0
  0
SCALE
  5
6A6C
102
{ACAD_REACTORS
330
6A4E
102
}
330
6A4E
100
AcDbScale
 70
     0
300
1-1/2" = 1'-0"
140
1.5
141
12.0
290
     0
  0
SCALE
  5
6A6D
102
{ACAD_REACTORS
330
6A4E
102
}
330
6A4E
100
AcDbScale
 70
     0
300
3" = 1'-0"
140
3.0
141
12.0
290
     0
  0
SCALE
  5
6A6E
102
{ACAD_REACTORS
330
6A4E
102
}
330
6A4E
100
AcDbScale
 70
     0
300
6" = 1'-0"
140
6.0
141
12.0
290
     0
  0
SCALE
  5
6A6F
102
{ACAD_REACTORS
330
6A4E
102
}
330
6A4E
100
AcDbScale
 70
     0
300
1'-0" = 1'-0"
140
12.0
141
12.0
290
     0
  0
DICTIONARYVAR
  5
79F
102
{ACAD_REACTORS
330
79E
102
}
330
79E
100
DictionaryVariables
280
     0
  1
1
  0
DICTIONARYVAR
  5
264F
102
{ACAD_REACTORS
330
79E
102
}
330
79E
100
DictionaryVariables
280
     0
  1
96
  0
ACAD_PROXY_OBJECT
  5
8258
102
{ACAD_REACTORS
330
8257
102
}
330
8257
100
AcDbProxyObject
 90
      499
 91
      509
 95
  6881311
 70
     0
 93
     1864
310
51B4D146518005194651A8FC812095550000000000000B08000000000000008200000000000001807E8F2048F205000200001204000000000000581F8000000000000B0807EC3FA6DEBC0E99F8000000000001C07FE8FCC0295941A4E2D20CA600E2005C008C00E8005C008321803A80170023003A00170020898006200640
310
06001202DA008C2080248020801000140019001A801B00100021803780360037803900148010001000100010002080220019001A801B0021082008600820088008200A4008600900087A08032803180260030803C803280390029803A003200170032003B80338049C09
330
0
 94
        0
  0
ENDSEC
  0
EOF
