  0
SECTION
  2
HEADER
  9
$ACADVER
  1
AC1015
  9
$ACADMAINTVER
 70
     6
  9
$DWGCODEPAGE
  3
ANSI_932
  9
$INSBASE
 10
0.0
 20
0.0
 30
0.0
  9
$EXTMIN
 10
-12527.93954992199
 20
3347.493453152749
 30
0.0
  9
$EXTMAX
 10
-6654.196183840482
 20
6120.898992362696
 30
0.0
  9
$LIMMIN
 10
-13510.25736412818
 20
1961.077543880496
  9
$LIMMAX
 10
-3010.257364128185
 20
9386.077543880496
  9
$ORTHOMODE
 70
     0
  9
$REGENMODE
 70
     1
  9
$FILLMODE
 70
     1
  9
$QTEXTMODE
 70
     0
  9
$MIRRTEXT
 70
     1
  9
$LTSCALE
 40
7.5
  9
$ATTMODE
 70
     1
  9
$TEXTSIZE
 40
3.0
  9
$TRACEWID
 40
1.0
  9
$TEXTSTYLE
  7
Standard
  9
$CLAYER
  8
02製品
  9
$CELTYPE
  6
ByLayer
  9
$CECOLOR
 62
   256
  9
$CELTSCALE
 40
1.0
  9
$DISPSILH
 70
     0
  9
$DIMSCALE
 40
25.0
  9
$DIMASZ
 40
3.0
  9
$DIMEXO
 40
1.5
  9
$DIMDLI
 40
10.0
  9
$DIMRND
 40
0.0
  9
$DIMDLE
 40
0.0
  9
$DIMEXE
 40
1.0
  9
$DIMTP
 40
0.0
  9
$DIMTM
 40
0.0
  9
$DIMTXT
 40
3.0
  9
$DIMCEN
 40
1.5
  9
$DIMTSZ
 40
0.0
  9
$DIMTOL
 70
     0
  9
$DIMLIM
 70
     0
  9
$DIMTIH
 70
     0
  9
$DIMTOH
 70
     0
  9
$DIMSE1
 70
     0
  9
$DIMSE2
 70
     0
  9
$DIMTAD
 70
     1
  9
$DIMZIN
 70
     8
  9
$DIMBLK
  1
Open
  9
$DIMASO
 70
     1
  9
$DIMSHO
 70
     1
  9
$DIMPOST
  1

  9
$DIMAPOST
  1

  9
$DIMALT
 70
     0
  9
$DIMALTD
 70
     3
  9
$DIMALTF
 40
0.03937007874016
  9
$DIMLFAC
 40
1.0
  9
$DIMTOFL
 70
     1
  9
$DIMTVP
 40
0.0
  9
$DIMTIX
 70
     0
  9
$DIMSOXD
 70
     0
  9
$DIMSAH
 70
     0
  9
$DIMBLK1
  1

  9
$DIMBLK2
  1

  9
$DIMSTYLE
  2
NEMY-25
  9
$DIMCLRD
 70
     0
  9
$DIMCLRE
 70
     0
  9
$DIMCLRT
 70
     0
  9
$DIMTFAC
 40
1.0
  9
$DIMGAP
 40
1.0
  9
$DIMJUST
 70
     0
  9
$DIMSD1
 70
     0
  9
$DIMSD2
 70
     0
  9
$DIMTOLJ
 70
     0
  9
$DIMTZIN
 70
     8
  9
$DIMALTZ
 70
     0
  9
$DIMALTTZ
 70
     0
  9
$DIMUPT
 70
     0
  9
$DIMDEC
 70
     1
  9
$DIMTDEC
 70
     1
  9
$DIMALTU
 70
     2
  9
$DIMALTTD
 70
     3
  9
$DIMTXSTY
  7
Standard
  9
$DIMAUNIT
 70
     0
  9
$DIMADEC
 70
     0
  9
$DIMALTRND
 40
0.0
  9
$DIMAZIN
 70
     0
  9
$DIMDSEP
 70
    46
  9
$DIMATFIT
 70
     3
  9
$DIMFRAC
 70
     0
  9
$DIMLDRBLK
  1
Open
  9
$DIMLUNIT
 70
     2
  9
$DIMLWD
 70
    -2
  9
$DIMLWE
 70
    -2
  9
$DIMTMOVE
 70
     0
  9
$LUNITS
 70
     2
  9
$LUPREC
 70
     4
  9
$SKETCHINC
 40
1.0
  9
$FILLETRAD
 40
0.0
  9
$AUNITS
 70
     0
  9
$AUPREC
 70
     0
  9
$MENU
  1
.
  9
$ELEVATION
 40
0.0
  9
$PELEVATION
 40
0.0
  9
$THICKNESS
 40
0.0
  9
$LIMCHECK
 70
     0
  9
$CHAMFERA
 40
10.0
  9
$CHAMFERB
 40
10.0
  9
$CHAMFERC
 40
20.0
  9
$CHAMFERD
 40
0.0
  9
$SKPOLY
 70
     0
  9
$TDCREATE
 40
2455859.405048461
  9
$TDUCREATE
 40
2455859.030048461
  9
$TDUPDATE
 40
2458240.433941794
  9
$TDUUPDATE
 40
2458240.058941794
  9
$TDINDWG
 40
2.042597037
  9
$TDUSRTIMER
 40
2458240.058826632
  9
$USRTIMER
 70
     1
  9
$ANGBASE
 50
0.0
  9
$ANGDIR
 70
     0
  9
$PDMODE
 70
     0
  9
$PDSIZE
 40
0.0
  9
$PLINEWID
 40
0.0
  9
$SPLFRAME
 70
     0
  9
$SPLINETYPE
 70
     6
  9
$SPLINESEGS
 70
     8
  9
$HANDSEED
  5
3258E
  9
$SURFTAB1
 70
     6
  9
$SURFTAB2
 70
     6
  9
$SURFTYPE
 70
     6
  9
$SURFU
 70
     6
  9
$SURFV
 70
     6
  9
$UCSBASE
  2

  9
$UCSNAME
  2

  9
$UCSORG
 10
0.0
 20
0.0
 30
0.0
  9
$UCSXDIR
 10
1.0
 20
0.0
 30
0.0
  9
$UCSYDIR
 10
0.0
 20
1.0
 30
0.0
  9
$UCSORTHOREF
  2

  9
$UCSORTHOVIEW
 70
     0
  9
$UCSORGTOP
 10
0.0
 20
0.0
 30
0.0
  9
$UCSORGBOTTOM
 10
0.0
 20
0.0
 30
0.0
  9
$UCSORGLEFT
 10
0.0
 20
0.0
 30
0.0
  9
$UCSORGRIGHT
 10
0.0
 20
0.0
 30
0.0
  9
$UCSORGFRONT
 10
0.0
 20
0.0
 30
0.0
  9
$UCSORGBACK
 10
0.0
 20
0.0
 30
0.0
  9
$PUCSBASE
  2

  9
$PUCSNAME
  2

  9
$PUCSORG
 10
0.0
 20
0.0
 30
0.0
  9
$PUCSXDIR
 10
1.0
 20
0.0
 30
0.0
  9
$PUCSYDIR
 10
0.0
 20
1.0
 30
0.0
  9
$PUCSORTHOREF
  2

  9
$PUCSORTHOVIEW
 70
     0
  9
$PUCSORGTOP
 10
0.0
 20
0.0
 30
0.0
  9
$PUCSORGBOTTOM
 10
0.0
 20
0.0
 30
0.0
  9
$PUCSORGLEFT
 10
0.0
 20
0.0
 30
0.0
  9
$PUCSORGRIGHT
 10
0.0
 20
0.0
 30
0.0
  9
$PUCSORGFRONT
 10
0.0
 20
0.0
 30
0.0
  9
$PUCSORGBACK
 10
0.0
 20
0.0
 30
0.0
  9
$USERI1
 70
     0
  9
$USERI2
 70
     0
  9
$USERI3
 70
     0
  9
$USERI4
 70
     0
  9
$USERI5
 70
     0
  9
$USERR1
 40
0.0
  9
$USERR2
 40
0.0
  9
$USERR3
 40
0.0
  9
$USERR4
 40
0.0
  9
$USERR5
 40
0.0
  9
$WORLDVIEW
 70
     1
  9
$SHADEDGE
 70
     3
  9
$SHADEDIF
 70
    70
  9
$TILEMODE
 70
     1
  9
$MAXACTVP
 70
    64
  9
$PINSBASE
 10
0.0
 20
0.0
 30
0.0
  9
$PLIMCHECK
 70
     0
  9
$PEXTMIN
 10
1.000000000000000E+20
 20
1.000000000000000E+20
 30
1.000000000000000E+20
  9
$PEXTMAX
 10
-1.000000000000000E+20
 20
-1.000000000000000E+20
 30
-1.000000000000000E+20
  9
$PLIMMIN
 10
0.0
 20
0.0
  9
$PLIMMAX
 10
0.0
 20
0.0
  9
$UNITMODE
 70
     0
  9
$VISRETAIN
 70
     1
  9
$PLINEGEN
 70
     0
  9
$PSLTSCALE
 70
     1
  9
$TREEDEPTH
 70
  3020
  9
$CMLSTYLE
  2
Standard
  9
$CMLJUST
 70
     0
  9
$CMLSCALE
 40
20.0
  9
$PROXYGRAPHICS
 70
     1
  9
$MEASUREMENT
 70
     1
  9
$CELWEIGHT
370
    -1
  9
$ENDCAPS
280
     0
  9
$JOINSTYLE
280
     0
  9
$LWDISPLAY
290
     0
  9
$INSUNITS
 70
     4
  9
$HYPERLINKBASE
  1

  9
$STYLESHEET
  1
monochrome.ctb
  9
$XEDIT
290
     1
  9
$CEPSNTYPE
380
     0
  9
$PSTYLEMODE
290
     1
  9
$FINGERPRINTGUID
  2
{FDEAD578-A652-11D2-9A35-0060089B3A3F}
  9
$VERSIONGUID
  2
{FF53CD4B-1AF9-4F2F-ABC0-CA7DF949A403}
  9
$EXTNAMES
290
     1
  9
$PSVPSCALE
 40
0.0
  9
$OLESTARTUP
290
     0
  0
ENDSEC
  0
SECTION
  2
CLASSES
  0
CLASS
  1
ACDBDICTIONARYWDFLT
  2
AcDbDictionaryWithDefault
  3
ObjectDBX Classes
 90
        0
280
     0
281
     0
  0
CLASS
  1
ACDBPLACEHOLDER
  2
AcDbPlaceHolder
  3
ObjectDBX Classes
 90
        0
280
     0
281
     0
  0
CLASS
  1
LAYOUT
  2
AcDbLayout
  3
ObjectDBX Classes
 90
        0
280
     0
281
     0
  0
CLASS
  1
DICTIONARYVAR
  2
AcDbDictionaryVar
  3
ObjectDBX Classes
 90
        0
280
     0
281
     0
  0
CLASS
  1
SCALE
  2
AcDbScale
  3
ObjectDBX Classes
 90
     1153
280
     0
281
     0
  0
CLASS
  1
MATERIAL
  2
AcDbMaterial
  3
ObjectDBX Classes
 90
     1153
280
     0
281
     0
  0
CLASS
  1
VISUALSTYLE
  2
AcDbVisualStyle
  3
ObjectDBX Classes
 90
     4095
280
     0
281
     0
  0
CLASS
  1
TABLESTYLE
  2
AcDbTableStyle
  3
ObjectDBX Classes
 90
     4095
280
     0
281
     0
  0
CLASS
  1
RASTERVARIABLES
  2
AcDbRasterVariables
  3
ISM
 90
        0
280
     0
281
     0
  0
CLASS
  1
AEC_VARS_DWG_SETUP
  2
AecDbVarsDwgSetup
  3
AecBase60
 90
      129
280
     0
281
     0
  0
CLASS
  1
AEC_DISP_REP_2D_SECTION
  2
AecDbDispRep2dSection
  3
AecBase60
 90
      129
280
     0
281
     0
  0
CLASS
  1
AEC_DISP_PROPS_2D_SECTION
  2
AecDbDispProps2dSection
  3
AecBase60
 90
      129
280
     0
281
     0
  0
CLASS
  1
AEC_DISP_REP_CLIP_VOLUME_MODEL
  2
AecDbDispRepClipVolModel
  3
AecBase60
 90
      129
280
     0
281
     0
  0
CLASS
  1
AEC_DISP_PROPS_CLIP_VOLUME
  2
AecDbDispPropsClipVol
  3
AecBase60
 90
      129
280
     0
281
     0
  0
CLASS
  1
AEC_DISP_REP_CLIP_VOLUME_PLAN
  2
AecDbDispRepClipVolPlan
  3
AecBase60
 90
      129
280
     0
281
     0
  0
CLASS
  1
AEC_DISP_REP_CLIP_VOLUME_RESULT
  2
AecDbDispRepClipVolResult
  3
AecBase60
 90
      129
280
     0
281
     0
  0
CLASS
  1
AEC_DISP_REP_CLIP_VOLUME_RESULT_SUBDIV
  2
AecDbDispRepClipVolResSubDiv
  3
AecBase60
 90
      129
280
     0
281
     0
  0
CLASS
  1
AEC_DISP_PROPS_CLIP_VOLUME_RESULT
  2
AecDbDispPropsClipVolResSubDiv
  3
AecBase60
 90
      129
280
     0
281
     0
  0
CLASS
  1
AEC_DISP_REP_DISPLAYTHEME
  2
AecDbDispRepDisplayTheme
  3
AecBase60
 90
      129
280
     0
281
     0
  0
CLASS
  1
AEC_DISP_PROPS_DISPLAYTHEME
  2
AecDbDispPropsDisplayTheme
  3
AecBase60
 90
      129
280
     0
281
     0
  0
CLASS
  1
AEC_DISP_REP_ENT_REF
  2
AecDbDispRepEntRef
  3
AecBase60
 90
      129
280
     0
281
     0
  0
CLASS
  1
AEC_DISP_PROPS_ENT_REF
  2
AecDbDispPropsEntRef
  3
AecBase60
 90
      129
280
     0
281
     0
  0
CLASS
  1
AEC_DISP_REP_LAYOUT_CURVE
  2
AecDbDispRepLayoutCurve
  3
AecBase60
 90
      129
280
     0
281
     0
  0
CLASS
  1
AEC_DISP_PROPS_LAYOUT_CURVE
  2
AecDbDispPropsLayoutCurve
  3
AecBase60
 90
      129
280
     0
281
     0
  0
CLASS
  1
AEC_DISP_REP_LAYOUT_GRID2D
  2
AecDbDispRepLayoutGrid2d
  3
AecBase60
 90
      129
280
     0
281
     0
  0
CLASS
  1
AEC_DISP_PROPS_LAYOUT_GRID2D
  2
AecDbDispPropsLayoutGrid2d
  3
AecBase60
 90
      129
280
     0
281
     0
  0
CLASS
  1
AEC_DISP_REP_LAYOUT_GRID3D
  2
AecDbDispRepLayoutGrid3d
  3
AecBase60
 90
      129
280
     0
281
     0
  0
CLASS
  1
AEC_DISP_PROPS_LAYOUT_GRID3D
  2
AecDbDispPropsLayoutGrid3d
  3
AecBase60
 90
      129
280
     0
281
     0
  0
CLASS
  1
AEC_DISP_REP_MASKBLOCK_REF
  2
AecDbDispRepMaskBlockRef
  3
AecBase60
 90
      129
280
     0
281
     0
  0
CLASS
  1
AEC_DISP_PROPS_MASKBLOCK
  2
AecDbDispPropsMaskBlock
  3
AecBase60
 90
      129
280
     0
281
     0
  0
CLASS
  1
AEC_DISP_REP_MASKBLOCK_REF_RCP
  2
AecDbDispRepMaskBlockRefRcp
  3
AecArchBase60
 90
      129
280
     0
281
     0
  0
CLASS
  1
AEC_DISP_REP_MASS_ELEM_MODEL
  2
AecDbDispRepMassElemModel
  3
AecBase60
 90
      129
280
     0
281
     0
  0
CLASS
  1
AEC_DISP_PROPS_MASS_ELEM_MODEL
  2
AecDbDispPropsMassElem
  3
AecBase60
 90
      129
280
     0
281
     0
  0
CLASS
  1
AEC_DISP_REP_MASS_ELEM_SCHEM
  2
AecDbDispRepMassElemSchem
  3
AecBase60
 90
      129
280
     0
281
     0
  0
CLASS
  1
AEC_DISPREPAECDBDISPREPMASSELEMPLAN50
  2
AecDbDispRepMassElemPlan50
  3
AecArchDACHBase60
 90
      129
280
     0
281
     0
  0
CLASS
  1
AEC_DISPROPSMASSELEMPLANCOMMON
  2
AecDbDispPropsMassElemPlanCommon
  3
AecArchDACHBase60
 90
      129
280
     0
281
     0
  0
CLASS
  1
AEC_DISPREPAECDBDISPREPMASSELEMPLAN100
  2
AecDbDispRepMassElemPlan100
  3
AecArchDACHBase60
 90
      129
280
     0
281
     0
  0
CLASS
  1
AEC_DISP_REP_MASS_ELEM_RCP
  2
AecDbDispRepMassElemRcp
  3
AecArchBase60
 90
      129
280
     0
281
     0
  0
CLASS
  1
AEC_DISP_REP_MASS_GROUP_MODEL
  2
AecDbDispRepMassGroupModel
  3
AecBase60
 90
      129
280
     0
281
     0
  0
CLASS
  1
AEC_DISP_PROPS_MASS_GROUP
  2
AecDbDispPropsMassGroup
  3
AecBase60
 90
      129
280
     0
281
     0
  0
CLASS
  1
AEC_DISP_REP_MASS_GROUP_PLAN
  2
AecDbDispRepMassGroupPlan
  3
AecBase60
 90
      129
280
     0
281
     0
  0
CLASS
  1
AEC_DISPREPAECDBDISPREPMASSGROUPPLAN50
  2
AecDbDispRepMassGroupPlan50
  3
AecArchDACHBase60
 90
      129
280
     0
281
     0
  0
CLASS
  1
AEC_DISPROPSMASSGROUPPLANCOMMON
  2
AecDbDispPropsMassGroupPlanCommon
  3
AecArchDACHBase60
 90
      129
280
     0
281
     0
  0
CLASS
  1
AEC_DISPREPAECDBDISPREPMASSGROUPPLAN100
  2
AecDbDispRepMassGroupPlan100
  3
AecArchDACHBase60
 90
      129
280
     0
281
     0
  0
CLASS
  1
AEC_DISP_REP_MASS_GROUP_RCP
  2
AecDbDispRepMassGroupRcp
  3
AecArchBase60
 90
      129
280
     0
281
     0
  0
CLASS
  1
AEC_DISP_REP_MVBLOCK_REF
  2
AecDbDispRepMvBlockRef
  3
AecBase60
 90
      129
280
     0
281
     0
  0
CLASS
  1
AEC_DISP_REP_MVBLOCK_REF_MODEL
  2
AecDbDispRepMvBlockRefModel
  3
AecBase60
 90
      129
280
     0
281
     0
  0
CLASS
  1
AEC_AECDBDISPREPMVBLOCKREFPLAN100
  2
AecDbDispRepMvBlockRefPlan100
  3
AecBase60
 90
      129
280
     0
281
     0
  0
CLASS
  1
AEC_AECDBDISPREPMVBLOCKREFPLAN50
  2
AecDbDispRepMvBlockRefPlan50
  3
AecBase60
 90
      129
280
     0
281
     0
  0
CLASS
  1
AEC_DISP_REP_POLYGON_MODEL
  2
AecDbDispRepPolygonModel
  3
AecBase60
 90
      129
280
     0
281
     0
  0
CLASS
  1
AEC_DISP_PROPS_POLYGON_MODEL
  2
AecDbDispPropsPolygonModel
  3
AecBase60
 90
      129
280
     0
281
     0
  0
CLASS
  1
AEC_DISP_REP_POLYGON_TRUECOLOUR
  2
AecDbDispRepPolygonTrueColour
  3
AecBase60
 90
      129
280
     0
281
     0
  0
CLASS
  1
AEC_DISP_PROPS_POLYGON_TRUECOLOUR
  2
AecDbDispPropsPolygonTrueColour
  3
AecBase60
 90
      129
280
     0
281
     0
  0
CLASS
  1
AEC_DISP_REP_SLICE
  2
AecDbDispRepSlice
  3
AecBase60
 90
      129
280
     0
281
     0
  0
CLASS
  1
AEC_DISP_PROPS_SLICE
  2
AecDbDispPropsSlice
  3
AecBase60
 90
      129
280
     0
281
     0
  0
CLASS
  1
AEC_DISP_REP_ANCHOR
  2
AecDbDispRepAnchor
  3
AecBase60
 90
      129
280
     0
281
     0
  0
CLASS
  1
AEC_DISP_REP_ANCHOR_ENT_TO_NODE
  2
AecDbDispRepAnchorEntToNode
  3
AecBase60
 90
      129
280
     0
281
     0
  0
CLASS
  1
AEC_DISP_PROPS_ENT
  2
AecDbDispPropsEnt
  3
AecBase60
 90
      129
280
     0
281
     0
  0
CLASS
  1
AEC_DISP_REP_MATERIAL
  2
AecDbDispRepMaterial
  3
AecBase60
 90
      129
280
     0
281
     0
  0
CLASS
  1
AEC_DISP_PROPS_MATERIAL
  2
AecDbDispPropsMaterial
  3
AecBase60
 90
      129
280
     0
281
     0
  0
CLASS
  1
AEC_DISP_REP_EDITINPLACEPROFILE
  2
AecDbDispRepEditInPlaceProfile
  3
AecBase60
 90
      129
280
     0
281
     0
  0
CLASS
  1
AEC_DISP_PROPS_EDITINPLACEPROFILE_MODEL
  2
AecDbDispPropsEditInPlaceProfile
  3
AecBase60
 90
      129
280
     0
281
     0
  0
CLASS
  1
SUN
  2
AcDbSun
  3
SCENEOE
 90
     1153
280
     0
281
     0
  0
CLASS
  1
SORTENTSTABLE
  2
AcDbSortentsTable
  3
ObjectDBX Classes
 90
        0
280
     0
281
     0
  0
CLASS
  1
MLEADERSTYLE
  2
AcDbMLeaderStyle
  3
ACDB_MLEADERSTYLE_CLASS
 90
     4095
280
     0
281
     0
  0
ENDSEC
  0
SECTION
  2
TABLES
  0
TABLE
  2
VPORT
  5
8
330
0
100
AcDbSymbolTable
 70
     1
  0
VPORT
  5
A2A1
330
8
100
AcDbSymbolTableRecord
100
AcDbViewportTableRecord
  2
*Active
 70
     0
 10
0.0
 20
0.0
 11
1.0
 21
1.0
 12
-56680606694.33289
 22
103286848301.0363
 13
0.0
 23
0.0
 14
10.0
 24
10.0
 15
10.0
 25
10.0
 16
0.0
 26
0.0
 36
1.0
 17
56680597103.26502
 27
-103286843566.8401
 37
0.0
 40
2995.609116701569
 41
2.0
 42
50.0
 43
0.0
 44
0.0
 50
0.0
 51
0.0
 71
    16
 72
   100
 73
     1
 74
     2
 75
     0
 76
     0
 77
     0
 78
     0
281
     0
 65
     1
110
0.0
120
0.0
130
0.0
111
1.0
121
0.0
131
0.0
112
0.0
122
1.0
132
0.0
 79
     0
146
0.0
  0
ENDTAB
  0
TABLE
  2
LTYPE
  5
5
330
0
100
AcDbSymbolTable
 70
     7
  0
LTYPE
  5
14
330
5
100
AcDbSymbolTableRecord
100
AcDbLinetypeTableRecord
  2
ByBlock
 70
     0
  3

 72
    65
 73
     0
 40
0.0
  0
LTYPE
  5
15
330
5
100
AcDbSymbolTableRecord
100
AcDbLinetypeTableRecord
  2
ByLayer
 70
     0
  3
Solid line
 72
    65
 73
     0
 40
0.0
  0
LTYPE
  5
16
330
5
100
AcDbSymbolTableRecord
100
AcDbLinetypeTableRecord
  2
Continuous
 70
     0
  3
Solid line
 72
    65
 73
     0
 40
0.0
  0
ENDTAB
  0
TABLE
  2
LAYER
  5
2
102
{ACAD_XDICTIONARY
360
7A6F
102
}
330
0
100
AcDbSymbolTable
 70
    13
  0
LAYER
  5
10
330
2
100
AcDbSymbolTableRecord
100
AcDbLayerTableRecord
  2
0
 70
     0
 62
     7
  6
Continuous
370
    -3
390
F
  0
LAYER
  5
45
330
2
100
AcDbSymbolTableRecord
100
AcDbLayerTableRecord
  2
01注記寸法
 70
     0
 62
     7
  6
Continuous
370
     9
390
F
  0
LAYER
  5
82BC
330
2
100
AcDbSymbolTableRecord
100
AcDbLayerTableRecord
  2
02製品
 70
     0
 62
     2
  6
Continuous
370
    15
390
F
  0
LAYER
  5
15088
330
2
100
AcDbSymbolTableRecord
100
AcDbLayerTableRecord
  2
1　製品
 70
     0
 62
     2
  6
Continuous
370
    15
390
F
  0
ENDTAB
  0
TABLE
  2
STYLE
  5
3
330
0
100
AcDbSymbolTable
 70
     4
  0
STYLE
  5
11
330
3
100
AcDbSymbolTableRecord
100
AcDbTextStyleTableRecord
  2
Standard
 70
     0
 40
0.0
 41
1.0
 50
0.0
 71
     0
 42
3.0
  3
MS Gothic.ttf
  4

1001
ACAD
1000
MS Gothic
1071
    32817
  0
STYLE
  5
19E
330
3
100
AcDbSymbolTableRecord
100
AcDbTextStyleTableRecord
  2
STYLE1
 70
     0
 40
0.0
 41
0.9
 50
0.0
 71
     0
 42
28.125
  3
TXT.shx
  4
extfont.shx
  0
STYLE
  5
C96B
330
3
100
AcDbSymbolTableRecord
100
AcDbTextStyleTableRecord
  2
Standard-tate
 70
     0
 40
0.0
 41
1.0
 50
0.0
 71
     0
 42
3.0
  3
@MS PGothic.ttf
  4

1001
ACAD
1000
@MS PGothic
1071
    32818
  0
ENDTAB
  0
TABLE
  2
VIEW
  5
6
330
0
100
AcDbSymbolTable
 70
     0
  0
ENDTAB
  0
TABLE
  2
UCS
  5
7
330
0
100
AcDbSymbolTable
 70
     0
  0
ENDTAB
  0
TABLE
  2
APPID
  5
9
330
0
100
AcDbSymbolTable
 70
    11
  0
APPID
  5
12
330
9
100
AcDbSymbolTableRecord
100
AcDbRegAppTableRecord
  2
ACAD
 70
     0
  0
APPID
  5
6A9E
330
9
100
AcDbSymbolTableRecord
100
AcDbRegAppTableRecord
  2
ACAD_DSTYLE_DIMRADIAL_EXTENSION
 70
     0
  0
APPID
  5
742C
330
9
100
AcDbSymbolTableRecord
100
AcDbRegAppTableRecord
  2
ACAD_PSEXT
 70
     0
  0
APPID
  5
742D
330
9
100
AcDbSymbolTableRecord
100
AcDbRegAppTableRecord
  2
ACAD_DSTYLE_DIMJAG
 70
     0
  0
APPID
  5
742E
330
9
100
AcDbSymbolTableRecord
100
AcDbRegAppTableRecord
  2
ACAD_DSTYLE_DIMTALN
 70
     0
  0
APPID
  5
8254
330
9
100
AcDbSymbolTableRecord
100
AcDbRegAppTableRecord
  2
AECBASE
 70
     0
  0
APPID
  5
8255
330
9
100
AcDbSymbolTableRecord
100
AcDbRegAppTableRecord
  2
AEC_2DSECTION_XDATA
 70
     0
  0
APPID
  5
8256
330
9
100
AcDbSymbolTableRecord
100
AcDbRegAppTableRecord
  2
AEC_MASSGROUP_XDADA
 70
     0
  0
APPID
  5
B0E5
330
9
100
AcDbSymbolTableRecord
100
AcDbRegAppTableRecord
  2
PE_DIMMEASUREMENT
 70
     0
  0
APPID
  5
147E0
330
9
100
AcDbSymbolTableRecord
100
AcDbRegAppTableRecord
  2
AcAecLayerStandard
 70
     0
  0
APPID
  5
15094
330
9
100
AcDbSymbolTableRecord
100
AcDbRegAppTableRecord
  2
PLOTTRANSPARENCY
 70
     0
  0
ENDTAB
  0
TABLE
  2
DIMSTYLE
  5
A
330
0
100
AcDbSymbolTable
 70
    27
100
AcDbDimStyleTable
  0
DIMSTYLE
105
4DD4
330
A
100
AcDbSymbolTableRecord
100
AcDbDimStyleTableRecord
  2
NEMY-25
 70
     0
 40
25.0
 41
3.0
 42
1.5
 43
10.0
 44
1.0
 73
     0
 74
     0
 77
     1
 78
     8
140
3.0
141
1.5
143
0.03937007874016
147
1.0
171
     3
172
     1
178
     0
271
     1
272
     1
274
     3
283
     0
284
     8
340
11
341
8F
342
8F
  0
ENDTAB
  0
TABLE
  2
BLOCK_RECORD
  5
1
330
0
100
AcDbSymbolTable
 70
    55
  0
BLOCK_RECORD
  5
1F
102
{ACAD_XDICTIONARY
360
CBD6
102
}
330
1
100
AcDbSymbolTableRecord
100
AcDbBlockTableRecord
  2
*Model_Space
340
22
  0
BLOCK_RECORD
  5
1B
330
1
100
AcDbSymbolTableRecord
100
AcDbBlockTableRecord
  2
*Paper_Space
340
1E
  0
BLOCK_RECORD
  5
23
330
1
100
AcDbSymbolTableRecord
100
AcDbBlockTableRecord
  2
*Paper_Space0
340
26
  0
BLOCK_RECORD
  5
8F
330
1
100
AcDbSymbolTableRecord
100
AcDbBlockTableRecord
  2
_Open
340
0
102
{BLKREFS
331
141AC
331
141AD
331
141B2
331
141B3
331
141B8
331
141B9
331
141BE
331
141BF
331
141C4
331
141C5
331
141CA
331
141CB
331
141D0
331
141D1
331
141D6
331
141D7
331
1401C
331
1401D
331
14029
331
1402A
331
14036
331
14037
331
1478E
331
1478F
331
14794
331
14795
331
1479A
331
1479B
331
147A0
331
147A1
331
147A6
331
147A7
331
147AC
331
147AD
331
147B2
331
147B3
331
147B8
331
147B9
331
147BE
331
147BF
331
147C7
331
147C8
331
147CD
331
147CE
331
147D6
331
147D7
331
14596
331
14597
331
145A3
331
145A4
331
145B0
331
145B1
331
145BD
331
145BE
331
145CA
331
145CB
331
145D7
331
145D8
331
145E4
331
145E5
331
145F1
331
145F2
331
14600
331
14601
331
15C74
331
15C75
331
15C90
331
15C91
331
15CA0
331
15CA1
331
15DEA
331
15DEB
331
15DF7
331
15DF8
331
1B125
331
1B126
331
1B13F
331
1B140
331
1B14C
331
1B14D
331
1B15B
331
1B15C
102
}
  0
BLOCK_RECORD
  5
152CE
102
{ACAD_XDICTIONARY
360
152CF
102
}
330
1
100
AcDbSymbolTableRecord
100
AcDbBlockTableRecord
  2
A$C20123
340
0
102
{BLKREFS
331
15C14
331
15C42
331
3060E
331
30612
331
30615
102
}
  0
BLOCK_RECORD
  5
152FD
330
1
100
AcDbSymbolTableRecord
100
AcDbBlockTableRecord
  2
A$C3C7277DA
340
0
102
{BLKREFS
331
15C43
331
15C6B
331
15C6C
331
15C6D
331
3060F
331
30610
331
30611
331
30613
331
30614
331
30616
102
}
  0
BLOCK_RECORD
  5
1B0D4
102
{ACAD_XDICTIONARY
360
1B100
102
}
330
1
100
AcDbSymbolTableRecord
100
AcDbBlockTableRecord
  2
A$C10914
340
0
102
{BLKREFS
331
324B3
331
324B4
331
324B5
331
324B6
331
324B7
331
324B8
331
324B9
331
324BA
331
324BB
331
324BC
331
324BD
331
324BE
102
}
  0
ENDTAB
  0
ENDSEC
  0
SECTION
  2
BLOCKS
  0
BLOCK
  5
20
330
1F
100
AcDbEntity
  8
0
100
AcDbBlockBegin
  2
*Model_Space
 70
     0
 10
0.0
 20
0.0
 30
0.0
  3
*Model_Space
  1
*Model_Space
  0
ENDBLK
  5
21
330
1F
100
AcDbEntity
  8
0
100
AcDbBlockEnd
  0
BLOCK
  5
1C
330
1B
100
AcDbEntity
 67
     1
  8
0
100
AcDbBlockBegin
  2
*Paper_Space
 70
     0
 10
0.0
 20
0.0
 30
0.0
  3
*Paper_Space
  1
*Paper_Space
  0
ENDBLK
  5
1D
330
1B
100
AcDbEntity
 67
     1
  8
0
100
AcDbBlockEnd
  0
BLOCK
  5
24
330
23
100
AcDbEntity
  8
0
100
AcDbBlockBegin
  2
*Paper_Space0
 70
     0
 10
0.0
 20
0.0
 30
0.0
  3
*Paper_Space0
  1
*Paper_Space0
  0
ENDBLK
  5
25
330
23
100
AcDbEntity
  8
0
100
AcDbBlockEnd
  0
BLOCK
  5
93
330
8F
100
AcDbEntity
  8
0
100
AcDbBlockBegin
  2
_Open
 70
     0
 10
0.0
 20
0.0
 30
0.0
  3
_Open
  1
_Open
  0
LINE
  5
90
330
8F
100
AcDbEntity
  8
01注記寸法
 62
     0
370
    -2
100
AcDbLine
 10
-1.0
 20
0.1666666666666667
 30
0.0
 11
0.0
 21
0.0
 31
0.0
  0
LINE
  5
91
330
8F
100
AcDbEntity
  8
01注記寸法
 62
     0
370
    -2
100
AcDbLine
 10
-1.0
 20
-0.1666666666666667
 30
0.0
 11
0.0
 21
0.0
 31
0.0
  0
LINE
  5
92
330
8F
100
AcDbEntity
  8
01注記寸法
 62
     0
370
    -2
100
AcDbLine
 10
0.0
 20
0.0
 30
0.0
 11
-1.0
 21
0.0
 31
0.0
  0
ENDBLK
  5
94
330
8F
100
AcDbEntity
  8
0
100
AcDbBlockEnd
  0
BLOCK
  5
152D1
330
152CE
100
AcDbEntity
  8
0
100
AcDbBlockBegin
  2
A$C20123
 70
     0
 10
0.0
 20
0.0
 30
0.0
  3
A$C20123
  1
A$C20123
  0
LINE
  5
152D2
330
152CE
100
AcDbEntity
  8
1　製品
100
AcDbLine
 10
127.0000000000018
 20
0.0
 30
0.0
 11
101.6000000000004
 21
11.33333333333212
 31
0.0
  0
LINE
  5
152D3
330
152CE
100
AcDbEntity
  8
1　製品
100
AcDbLine
 10
76.19999999999891
 20
0.0
 30
0.0
 11
101.6000000000004
 21
11.33333333333212
 31
0.0
  0
LINE
  5
152D4
330
152CE
100
AcDbEntity
  8
1　製品
100
AcDbLine
 10
76.19999999999891
 20
68.0
 30
0.0
 11
50.80000000000109
 21
79.33333333333212
 31
0.0
  0
LINE
  5
152D5
330
152CE
100
AcDbEntity
  8
1　製品
100
AcDbLine
 10
76.19999999999891
 20
45.33333333333212
 30
0.0
 11
50.80000000000109
 21
56.66666666666424
 31
0.0
  0
LINE
  5
152D6
330
152CE
100
AcDbEntity
  8
1　製品
100
AcDbLine
 10
50.80000000000109
 20
34.0
 30
0.0
 11
76.19999999999891
 21
22.66666666666424
 31
0.0
  0
LINE
  5
152D7
330
152CE
100
AcDbEntity
  8
1　製品
100
AcDbLine
 10
76.19999999999891
 20
45.33333333333212
 30
0.0
 11
50.80000000000109
 21
34.0
 31
0.0
  0
LINE
  5
152D8
330
152CE
100
AcDbEntity
  8
1　製品
100
AcDbLine
 10
76.19999999999891
 20
22.66666666666424
 30
0.0
 11
50.80000000000109
 21
11.33333333333212
 31
0.0
  0
LINE
  5
152D9
330
152CE
100
AcDbEntity
  8
1　製品
100
AcDbLine
 10
50.80000000000109
 20
56.66666666666424
 30
0.0
 11
76.19999999999891
 21
68.0
 31
0.0
  0
LINE
  5
152DA
330
152CE
100
AcDbEntity
  8
1　製品
100
AcDbLine
 10
25.39999999999964
 20
45.33333333333212
 30
0.0
 11
0.0
 21
56.66666666666424
 31
0.0
  0
LINE
  5
152DB
330
152CE
100
AcDbEntity
  8
1　製品
100
AcDbLine
 10
25.39999999999964
 20
45.33333333333212
 30
0.0
 11
0.0
 21
34.0
 31
0.0
  0
LINE
  5
152DC
330
152CE
100
AcDbEntity
  8
1　製品
100
AcDbLine
 10
50.80000000000109
 20
34.0
 30
0.0
 11
25.39999999999964
 21
45.33333333333212
 31
0.0
  0
LINE
  5
152DD
330
152CE
100
AcDbEntity
  8
1　製品
100
AcDbLine
 10
25.39999999999964
 20
22.66666666666424
 30
0.0
 11
50.80000000000109
 21
34.0
 31
0.0
  0
LINE
  5
152DE
330
152CE
100
AcDbEntity
  8
1　製品
100
AcDbLine
 10
25.39999999999964
 20
68.0
 30
0.0
 11
50.80000000000109
 21
56.66666666666424
 31
0.0
  0
LINE
  5
152DF
330
152CE
100
AcDbEntity
  8
1　製品
100
AcDbLine
 10
50.80000000000109
 20
56.66666666666424
 30
0.0
 11
25.39999999999964
 21
45.33333333333212
 31
0.0
  0
LINE
  5
152E0
330
152CE
100
AcDbEntity
  8
1　製品
100
AcDbLine
 10
101.6000000000004
 20
79.33333333333212
 30
0.0
 11
127.0000000000018
 21
68.0
 31
0.0
  0
LINE
  5
152E1
330
152CE
100
AcDbEntity
  8
1　製品
100
AcDbLine
 10
101.6000000000004
 20
79.33333333333212
 30
0.0
 11
76.19999999999891
 21
68.0
 31
0.0
  0
LINE
  5
152E2
330
152CE
100
AcDbEntity
  8
1　製品
100
AcDbLine
 10
127.0000000000018
 20
68.0
 30
0.0
 11
152.4000000000015
 21
79.33333333333212
 31
0.0
  0
LINE
  5
152E3
330
152CE
100
AcDbEntity
  8
1　製品
100
AcDbLine
 10
127.0000000000018
 20
45.33333333333212
 30
0.0
 11
152.4000000000015
 21
56.66666666666424
 31
0.0
  0
LINE
  5
152E4
330
152CE
100
AcDbEntity
  8
1　製品
100
AcDbLine
 10
127.0000000000018
 20
22.66666666666424
 30
0.0
 11
152.4000000000015
 21
11.33333333333212
 31
0.0
  0
LINE
  5
152E5
330
152CE
100
AcDbEntity
  8
1　製品
100
AcDbLine
 10
152.4000000000015
 20
34.0
 30
0.0
 11
127.0000000000018
 21
22.66666666666424
 31
0.0
  0
LINE
  5
152E6
330
152CE
100
AcDbEntity
  8
1　製品
100
AcDbLine
 10
127.0000000000018
 20
45.33333333333212
 30
0.0
 11
152.4000000000015
 21
34.0
 31
0.0
  0
LINE
  5
152E7
330
152CE
100
AcDbEntity
  8
1　製品
100
AcDbLine
 10
152.4000000000015
 20
56.66666666666424
 30
0.0
 11
127.0000000000018
 21
68.0
 31
0.0
  0
LINE
  5
152E8
330
152CE
100
AcDbEntity
  8
1　製品
100
AcDbLine
 10
101.6000000000004
 20
56.66666666666424
 30
0.0
 11
127.0000000000018
 21
45.33333333333212
 31
0.0
  0
LINE
  5
152E9
330
152CE
100
AcDbEntity
  8
1　製品
100
AcDbLine
 10
127.0000000000018
 20
22.66666666666424
 30
0.0
 11
101.6000000000004
 21
34.0
 31
0.0
  0
LINE
  5
152EA
330
152CE
100
AcDbEntity
  8
1　製品
100
AcDbLine
 10
101.6000000000004
 20
34.0
 30
0.0
 11
127.0000000000018
 21
45.33333333333212
 31
0.0
  0
LINE
  5
152EB
330
152CE
100
AcDbEntity
  8
1　製品
100
AcDbLine
 10
101.6000000000004
 20
56.66666666666424
 30
0.0
 11
76.19999999999891
 21
45.33333333333212
 31
0.0
  0
LINE
  5
152EC
330
152CE
100
AcDbEntity
  8
1　製品
100
AcDbLine
 10
76.19999999999891
 20
22.66666666666424
 30
0.0
 11
101.6000000000004
 21
34.0
 31
0.0
  0
LINE
  5
152ED
330
152CE
100
AcDbEntity
  8
1　製品
100
AcDbLine
 10
101.6000000000004
 20
34.0
 30
0.0
 11
76.19999999999891
 21
45.33333333333212
 31
0.0
  0
LINE
  5
152EE
330
152CE
100
AcDbEntity
  8
1　製品
100
AcDbLine
 10
101.6000000000004
 20
11.33333333333212
 30
0.0
 11
76.19999999999891
 21
22.66666666666424
 31
0.0
  0
LINE
  5
152EF
330
152CE
100
AcDbEntity
  8
1　製品
100
AcDbLine
 10
101.6000000000004
 20
11.33333333333212
 30
0.0
 11
127.0000000000018
 21
22.66666666666424
 31
0.0
  0
LINE
  5
152F0
330
152CE
100
AcDbEntity
  8
1　製品
100
AcDbLine
 10
76.19999999999891
 20
68.0
 30
0.0
 11
101.6000000000004
 21
56.66666666666424
 31
0.0
  0
LINE
  5
152F1
330
152CE
100
AcDbEntity
  8
1　製品
100
AcDbLine
 10
127.0000000000018
 20
68.0
 30
0.0
 11
101.6000000000004
 21
56.66666666666424
 31
0.0
  0
LINE
  5
152F2
330
152CE
100
AcDbEntity
  8
1　製品
100
AcDbLine
 10
152.4000000000015
 20
56.66666666666424
 30
0.0
 11
177.8000000000029
 21
45.33333333333212
 31
0.0
  0
LINE
  5
152F3
330
152CE
100
AcDbEntity
  8
1　製品
100
AcDbLine
 10
177.8000000000029
 20
22.66666666666424
 30
0.0
 11
152.4000000000015
 21
34.0
 31
0.0
  0
LINE
  5
152F4
330
152CE
100
AcDbEntity
  8
1　製品
100
AcDbLine
 10
152.4000000000015
 20
34.0
 30
0.0
 11
177.8000000000029
 21
45.33333333333212
 31
0.0
  0
LINE
  5
152F5
330
152CE
100
AcDbEntity
  8
1　製品
100
AcDbLine
 10
177.8000000000029
 20
45.33333333333212
 30
0.0
 11
203.2000000000025
 21
56.66666666666424
 31
0.0
  0
LINE
  5
152F6
330
152CE
100
AcDbEntity
  8
1　製品
100
AcDbLine
 10
177.8000000000029
 20
45.33333333333212
 30
0.0
 11
203.2000000000025
 21
34.0
 31
0.0
  0
LINE
  5
152F7
330
152CE
100
AcDbEntity
  8
1　製品
100
AcDbLine
 10
177.8000000000029
 20
68.0
 30
0.0
 11
152.4000000000015
 21
56.66666666666424
 31
0.0
  0
LINE
  5
152F8
330
152CE
100
AcDbEntity
  8
1　製品
100
AcDbLine
 10
127.0000000000018
 20
90.66666666666424
 30
0.0
 11
101.6000000000004
 21
79.33333333333212
 31
0.0
  0
LINE
  5
152F9
330
152CE
100
AcDbEntity
  8
1　製品
100
AcDbLine
 10
76.19999999999891
 20
90.66666666666424
 30
0.0
 11
101.6000000000004
 21
79.33333333333212
 31
0.0
  0
ENDBLK
  5
152FA
330
152CE
100
AcDbEntity
  8
0
100
AcDbBlockEnd
  0
BLOCK
  5
152FE
330
152FD
100
AcDbEntity
  8
0
 48
20.0
100
AcDbBlockBegin
  2
A$C3C7277DA
 70
     0
 10
0.0
 20
0.0
 30
0.0
  3
A$C3C7277DA
  1
A$C3C7277DA
  0
LINE
  5
152FF
330
152FD
100
AcDbEntity
  8
0
100
AcDbLine
 10
266.7000199373761
 20
68.00000432218076
 30
0.0
 11
304.8000199373782
 21
51.00000432218076
 31
0.0
  0
LINE
  5
15300
330
152FD
100
AcDbEntity
  8
0
100
AcDbLine
 10
228.6000199373775
 20
51.00000432218076
 30
0.0
 11
266.7000199373761
 21
68.00000432218076
 31
0.0
  0
LINE
  5
15301
330
152FD
100
AcDbEntity
  8
0
100
AcDbLine
 10
152.4000199373768
 20
51.00000432218076
 30
0.0
 11
190.5000199373753
 21
68.00000432218076
 31
0.0
  0
LINE
  5
15302
330
152FD
100
AcDbEntity
  8
0
100
AcDbLine
 10
114.3000199373746
 20
68.00000432218076
 30
0.0
 11
152.4000199373768
 21
51.00000432218076
 31
0.0
  0
LINE
  5
15303
330
152FD
100
AcDbEntity
  8
0
100
AcDbLine
 10
190.5000199373753
 20
68.00000432218076
 30
0.0
 11
228.6000199373775
 21
51.00000432218076
 31
0.0
  0
LINE
  5
15304
330
152FD
100
AcDbEntity
  8
0
100
AcDbLine
 10
228.6000199373775
 20
51.00000432218076
 30
0.0
 11
190.5000199373753
 21
34.00000432218076
 31
0.0
  0
LINE
  5
15305
330
152FD
100
AcDbEntity
  8
0
100
AcDbLine
 10
190.5000199373753
 20
34.00000432218076
 30
0.0
 11
228.6000199373775
 21
17.00000432218076
 31
0.0
  0
LINE
  5
15306
330
152FD
100
AcDbEntity
  8
0
100
AcDbLine
 10
228.6000199373775
 20
17.00000432218076
 30
0.0
 11
190.5000199373753
 21
0.0000043221807573
 31
0.0
  0
LINE
  5
15307
330
152FD
100
AcDbEntity
  8
0
100
AcDbLine
 10
38.10001993737387
 20
34.00000432218076
 30
0.0
 11
76.20001993737606
 21
17.00000432218076
 31
0.0
  0
LINE
  5
15308
330
152FD
100
AcDbEntity
  8
0
100
AcDbLine
 10
76.20001993737606
 20
17.00000432218076
 30
0.0
 11
38.10001993737387
 21
0.0000043221807573
 31
0.0
  0
LINE
  5
15309
330
152FD
100
AcDbEntity
  8
0
100
AcDbLine
 10
38.10001993737387
 20
0.0000043221807573
 30
0.0
 11
0.0000199373753276
 21
17.00000432218076
 31
0.0
  0
LINE
  5
1530A
330
152FD
100
AcDbEntity
  8
0
100
AcDbLine
 10
114.3000199373746
 20
34.00000432218076
 30
0.0
 11
76.20001993737606
 21
51.00000432218076
 31
0.0
  0
LINE
  5
1530B
330
152FD
100
AcDbEntity
  8
0
100
AcDbLine
 10
190.5000199373753
 20
34.00000432218076
 30
0.0
 11
152.4000199373768
 21
51.00000432218076
 31
0.0
  0
LINE
  5
1530C
330
152FD
100
AcDbEntity
  8
0
100
AcDbLine
 10
152.4000199373768
 20
51.00000432218076
 30
0.0
 11
114.3000199373746
 21
34.00000432218076
 31
0.0
  0
LINE
  5
1530D
330
152FD
100
AcDbEntity
  8
0
100
AcDbLine
 10
114.3000199373746
 20
34.00000432218076
 30
0.0
 11
152.4000199373768
 21
17.00000432218076
 31
0.0
  0
LINE
  5
1530E
330
152FD
100
AcDbEntity
  8
0
100
AcDbLine
 10
76.20001993737606
 20
17.00000432218076
 30
0.0
 11
114.3000199373746
 21
34.00000432218076
 31
0.0
  0
LINE
  5
1530F
330
152FD
100
AcDbEntity
  8
0
100
AcDbLine
 10
114.3000199373746
 20
0.0000043221807573
 30
0.0
 11
76.20001993737606
 21
17.00000432218076
 31
0.0
  0
LINE
  5
15310
330
152FD
100
AcDbEntity
  8
0
100
AcDbLine
 10
152.4000199373768
 20
17.00000432218076
 30
0.0
 11
114.3000199373746
 21
0.0000043221807573
 31
0.0
  0
LINE
  5
15311
330
152FD
100
AcDbEntity
  8
0
100
AcDbLine
 10
152.4000199373768
 20
17.00000432218076
 30
0.0
 11
190.5000199373753
 21
34.00000432218076
 31
0.0
  0
LINE
  5
15312
330
152FD
100
AcDbEntity
  8
0
100
AcDbLine
 10
190.5000199373753
 20
0.0000043221807573
 30
0.0
 11
152.4000199373768
 21
17.00000432218076
 31
0.0
  0
LINE
  5
15313
330
152FD
100
AcDbEntity
  8
0
100
AcDbLine
 10
304.8000199373782
 20
51.00000432218076
 30
0.0
 11
266.7000199373761
 21
34.00000432218076
 31
0.0
  0
LINE
  5
15314
330
152FD
100
AcDbEntity
  8
0
100
AcDbLine
 10
266.7000199373761
 20
34.00000432218076
 30
0.0
 11
228.6000199373775
 21
51.00000432218076
 31
0.0
  0
LINE
  5
15315
330
152FD
100
AcDbEntity
  8
0
100
AcDbLine
 10
304.8000199373782
 20
17.00000432218076
 30
0.0
 11
266.7000199373761
 21
0.0000043221807573
 31
0.0
  0
LINE
  5
15316
330
152FD
100
AcDbEntity
  8
0
100
AcDbLine
 10
266.7000199373761
 20
0.0000043221807573
 30
0.0
 11
228.6000199373775
 21
17.00000432218076
 31
0.0
  0
LINE
  5
15317
330
152FD
100
AcDbEntity
  8
0
100
AcDbLine
 10
228.6000199373775
 20
17.00000432218076
 30
0.0
 11
266.7000199373761
 21
34.00000432218076
 31
0.0
  0
LINE
  5
15318
330
152FD
100
AcDbEntity
  8
0
100
AcDbLine
 10
266.7000199373761
 20
34.00000432218076
 30
0.0
 11
304.8000199373782
 21
17.00000432218076
 31
0.0
  0
LINE
  5
15319
330
152FD
100
AcDbEntity
  8
0
100
AcDbLine
 10
228.6000199373775
 20
85.00000432218076
 30
0.0
 11
190.5000199373753
 21
68.00000432218076
 31
0.0
  0
LINE
  5
1531A
330
152FD
100
AcDbEntity
  8
0
100
AcDbLine
 10
190.5000199373753
 20
102.0000043221808
 30
0.0
 11
228.6000199373775
 21
85.00000432218076
 31
0.0
  0
LINE
  5
1531B
330
152FD
100
AcDbEntity
  8
0
100
AcDbLine
 10
190.5000199373753
 20
68.00000432218076
 30
0.0
 11
152.4000199373768
 21
85.00000432218076
 31
0.0
  0
LINE
  5
1531C
330
152FD
100
AcDbEntity
  8
0
100
AcDbLine
 10
266.7000199373761
 20
136.0000043221808
 30
0.0
 11
304.8000199373782
 21
119.0000043221808
 31
0.0
  0
LINE
  5
1531D
330
152FD
100
AcDbEntity
  8
0
100
AcDbLine
 10
304.8000199373782
 20
119.0000043221808
 30
0.0
 11
266.7000199373761
 21
102.0000043221808
 31
0.0
  0
LINE
  5
1531E
330
152FD
100
AcDbEntity
  8
0
100
AcDbLine
 10
266.7000199373761
 20
102.0000043221808
 30
0.0
 11
228.6000199373775
 21
119.0000043221808
 31
0.0
  0
LINE
  5
1531F
330
152FD
100
AcDbEntity
  8
0
100
AcDbLine
 10
266.7000199373761
 20
102.0000043221808
 30
0.0
 11
304.8000199373782
 21
85.00000432218076
 31
0.0
  0
LINE
  5
15320
330
152FD
100
AcDbEntity
  8
0
100
AcDbLine
 10
304.8000199373782
 20
85.00000432218076
 30
0.0
 11
266.7000199373761
 21
68.00000432218076
 31
0.0
  0
LINE
  5
15321
330
152FD
100
AcDbEntity
  8
0
100
AcDbLine
 10
228.6000199373775
 20
85.00000432218076
 30
0.0
 11
266.7000199373761
 21
102.0000043221808
 31
0.0
  0
LINE
  5
15322
330
152FD
100
AcDbEntity
  8
0
100
AcDbLine
 10
266.7000199373761
 20
68.00000432218076
 30
0.0
 11
228.6000199373775
 21
85.00000432218076
 31
0.0
  0
ENDBLK
  5
15323
330
152FD
100
AcDbEntity
  8
0
 48
20.0
100
AcDbBlockEnd
  0
BLOCK
  5
1B110
330
1B0D4
100
AcDbEntity
  8
0
100
AcDbBlockBegin
  2
A$C10914
 70
     0
 10
0.0
 20
0.0
 30
0.0
  3
A$C10914
  1
A$C10914
  0
LINE
  5
1B102
330
1B0D4
100
AcDbEntity
  8
02製品
  6
ByBlock
100
AcDbLine
 10
5.500000000001819
 20
0.0
 30
0.0
 11
7.10000000351647
 21
0.0
 31
0.0
  0
LINE
  5
1B103
330
1B0D4
100
AcDbEntity
  8
02製品
  6
ByBlock
100
AcDbLine
 10
5.500000000001819
 20
17.0
 30
0.0
 11
7.10000000351647
 21
17.0
 31
0.0
  0
LINE
  5
1B104
330
1B0D4
100
AcDbEntity
  8
02製品
  6
ByBlock
100
AcDbLine
 10
7.10000000351647
 20
17.0
 30
0.0
 11
7.10000000351647
 21
0.0
 31
0.0
  0
LINE
  5
1B105
330
1B0D4
100
AcDbEntity
  8
02製品
  6
ByBlock
100
AcDbLine
 10
5.500000000001819
 20
17.0
 30
0.0
 11
5.500000000001819
 21
0.0
 31
0.0
  0
LINE
  5
1B106
330
1B0D4
100
AcDbEntity
  8
02製品
  6
ByBlock
100
AcDbLine
 10
0.6960296630859375
 20
0.9944610595703125
 30
0.0
 11
5.500000000001819
 21
0.9944610595703125
 31
0.0
  0
LINE
  5
1B107
330
1B0D4
100
AcDbEntity
  8
02製品
  6
ByBlock
100
AcDbLine
 10
0.0
 20
14.80008520759657
 30
0.0
 11
0.0
 21
2.199989179011027
 31
0.0
  0
ARC
  5
1B108
330
1B0D4
100
AcDbEntity
  8
02製品
  6
ByBlock
100
AcDbCircle
 10
12.00000000000273
 20
8.50000000000091
 30
0.0
 40
12.0
100
AcDbArc
 50
161.7759804502329
 51
198.2237823143786
  0
LINE
  5
1B109
330
1B0D4
100
AcDbEntity
  8
02製品
  6
ByBlock
100
AcDbLine
 10
0.601898193359375
 20
4.747253417969659
 30
0.0
 11
5.500000000001819
 21
4.747253417969659
 31
0.0
  0
LINE
  5
1B10A
330
1B0D4
100
AcDbEntity
  8
02製品
  6
ByBlock
100
AcDbLine
 10
0.601913452151166
 20
12.25280761718841
 30
0.0
 11
5.500000000001819
 21
12.25280761718841
 31
0.0
  0
LINE
  5
1B10B
330
1B0D4
100
AcDbEntity
  8
02製品
  6
ByBlock
100
AcDbLine
 10
0.6960296630859375
 20
16.00556945800781
 30
0.0
 11
5.500000000001819
 21
16.00556945800781
 31
0.0
  0
LINE
  5
1B10C
330
1B0D4
100
AcDbEntity
  8
02製品
  6
ByBlock
100
AcDbLine
 10
0.6019017629496375
 20
12.25283127230978
 30
0.0
 11
0.0
 21
14.80008520759657
 31
0.0
  0
LINE
  5
1B10D
330
1B0D4
100
AcDbEntity
  8
02製品
  6
ByBlock
100
AcDbLine
 10
0.0
 20
2.199989179011027
 30
0.0
 11
0.6018760334500257
 21
4.747300551312037
 31
0.0
  0
LINE
  5
1B10E
330
1B0D4
100
AcDbEntity
  8
02製品
  6
ByBlock
100
AcDbLine
 10
0.0
 20
2.199989179011027
 30
0.0
 11
0.6959975911631773
 21
0.9944858559847489
 31
0.0
  0
LINE
  5
1B10F
330
1B0D4
100
AcDbEntity
  8
02製品
  6
ByBlock
100
AcDbLine
 10
0.6960187865770422
 20
16.0056252421582
 30
0.0
 11
0.0
 21
14.80008520759657
 31
0.0
  0
ENDBLK
  5
1B111
330
1B0D4
100
AcDbEntity
  8
0
100
AcDbBlockEnd
  0
ENDSEC
  0
SECTION
  2
ENTITIES
  0
LINE
  5
30354
330
1F
100
AcDbEntity
  8
02製品
100
AcDbLine
 10
-12526.73954986499
 20
3443.693502076241
 30
0.0
 11
-12527.93954992199
 21
3443.693502076241
 31
0.0
  0
LINE
  5
30355
330
1F
100
AcDbEntity
  8
02製品
100
AcDbLine
 10
-12527.93954992199
 20
3443.693502076241
 30
0.0
 11
-12527.93954992199
 21
3446.693463452431
 31
0.0
  0
LINE
  5
30356
330
1F
100
AcDbEntity
  8
02製品
100
AcDbLine
 10
-12527.93954992199
 20
3446.693463452431
 30
0.0
 11
-12526.73954986499
 21
3446.693463452431
 31
0.0
  0
LINE
  5
30357
330
1F
100
AcDbEntity
  8
02製品
100
AcDbLine
 10
-12526.73954986499
 20
3988.293482192132
 30
0.0
 11
-12527.93954992199
 21
3988.293482192132
 31
0.0
  0
LINE
  5
30358
330
1F
100
AcDbEntity
  8
02製品
100
AcDbLine
 10
-12527.93954992199
 20
3988.293482192132
 30
0.0
 11
-12527.93954992199
 21
3446.693463452431
 31
0.0
  0
LINE
  5
30359
330
1F
100
AcDbEntity
  8
02製品
100
AcDbLine
 10
-12527.93954992199
 20
3991.293473370644
 30
0.0
 11
-12526.73954986499
 21
3991.293473370644
 31
0.0
  0
LINE
  5
3035A
330
1F
100
AcDbEntity
  8
02製品
100
AcDbLine
 10
-12527.93954992199
 20
3988.293482192132
 30
0.0
 11
-12527.93954992199
 21
3991.293473370644
 31
0.0
  0
LINE
  5
3035B
330
1F
100
AcDbEntity
  8
02製品
100
AcDbLine
 10
-12526.73954986499
 20
3992.493478782746
 30
0.0
 11
-12527.93954992199
 21
3992.493478782746
 31
0.0
  0
LINE
  5
3035C
330
1F
100
AcDbEntity
  8
02製品
100
AcDbLine
 10
-12527.93954992199
 20
3992.493478782746
 30
0.0
 11
-12527.93954992199
 21
3991.293473370644
 31
0.0
  0
LINE
  5
3035D
330
1F
100
AcDbEntity
  8
02製品
100
AcDbLine
 10
-12527.93954992199
 20
3442.493481762978
 30
0.0
 11
-12526.73954986499
 21
3442.493481762978
 31
0.0
  0
LINE
  5
3035E
330
1F
100
AcDbEntity
  8
02製品
100
AcDbLine
 10
-12527.93954992199
 20
3443.693502076241
 30
0.0
 11
-12527.93954992199
 21
3442.493481762978
 31
0.0
  0
LINE
  5
3035F
330
1F
100
AcDbEntity
  8
02製品
100
AcDbLine
 10
-9177.539539565307
 20
3988.293482192132
 30
0.0
 11
-9178.739500273925
 21
3988.293482192132
 31
0.0
  0
LINE
  5
30360
330
1F
100
AcDbEntity
  8
02製品
100
AcDbLine
 10
-9178.739500273925
 20
3991.293473370644
 30
0.0
 11
-9177.539539565307
 21
3991.293473370644
 31
0.0
  0
LINE
  5
30361
330
1F
100
AcDbEntity
  8
02製品
100
AcDbLine
 10
-9177.539539565307
 20
3991.293473370644
 30
0.0
 11
-9177.539539565307
 21
3988.293482192132
 31
0.0
  0
LINE
  5
30362
330
1F
100
AcDbEntity
  8
02製品
100
AcDbLine
 10
-9178.739500273925
 20
3446.693463452431
 30
0.0
 11
-9177.539539565307
 21
3446.693463452431
 31
0.0
  0
LINE
  5
30363
330
1F
100
AcDbEntity
  8
02製品
100
AcDbLine
 10
-9177.539539565307
 20
3988.293482192132
 30
0.0
 11
-9177.539539565307
 21
3446.693463452431
 31
0.0
  0
LINE
  5
30364
330
1F
100
AcDbEntity
  8
02製品
100
AcDbLine
 10
-9177.539539565307
 20
3443.693502076241
 30
0.0
 11
-9178.739500273925
 21
3443.693502076241
 31
0.0
  0
LINE
  5
30365
330
1F
100
AcDbEntity
  8
02製品
100
AcDbLine
 10
-9177.539539565307
 20
3446.693463452431
 30
0.0
 11
-9177.539539565307
 21
3443.693502076241
 31
0.0
  0
LINE
  5
30366
330
1F
100
AcDbEntity
  8
02製品
100
AcDbLine
 10
-9178.739500273925
 20
3992.493478782746
 30
0.0
 11
-9177.539539565307
 21
3992.493478782746
 31
0.0
  0
LINE
  5
30367
330
1F
100
AcDbEntity
  8
02製品
100
AcDbLine
 10
-9177.539539565307
 20
3992.493478782746
 30
0.0
 11
-9177.539539565307
 21
3991.293473370644
 31
0.0
  0
LINE
  5
30368
330
1F
100
AcDbEntity
  8
02製品
100
AcDbLine
 10
-9177.539539565307
 20
3442.493481762978
 30
0.0
 11
-9178.739500273925
 21
3442.493481762978
 31
0.0
  0
LINE
  5
30369
330
1F
100
AcDbEntity
  8
02製品
100
AcDbLine
 10
-9177.539539565307
 20
3443.693502076241
 30
0.0
 11
-9177.539539565307
 21
3442.493481762978
 31
0.0
  0
ARC
  5
3036A
330
1F
100
AcDbEntity
  8
02製品
100
AcDbCircle
 10
-10269.73954986498
 20
3817.493476994607
 30
0.0
 40
3.600000000000179
100
AcDbArc
 50
256.4637972625478
 51
283.5362027374522
  0
LINE
  5
3036B
330
1F
100
AcDbEntity
  8
02製品
100
AcDbLine
 10
-10267.23952316211
 20
3813.993467219445
 30
0.0
 11
-10268.89700912402
 21
3813.993467219445
 31
0.0
  0
ARC
  5
3036C
330
1F
100
AcDbEntity
  8
02製品
100
AcDbCircle
 10
-10267.23954986498
 20
3817.493476994607
 30
0.0
 40
3.500000000000227
100
AcDbArc
 50
270.0
 51
90.0
  0
LINE
  5
3036D
330
1F
100
AcDbEntity
  8
02製品
100
AcDbLine
 10
-10267.23952316211
 20
3820.993466504189
 30
0.0
 11
-10268.89700912402
 21
3820.993466504189
 31
0.0
  0
ARC
  5
3036E
330
1F
100
AcDbEntity
  8
02製品
100
AcDbCircle
 10
-10269.73954986498
 20
3817.493476994607
 30
0.0
 40
3.599999999999626
100
AcDbArc
 50
76.46379726266039
 51
103.5362027373396
  0
LINE
  5
3036F
330
1F
100
AcDbEntity
  8
02製品
100
AcDbLine
 10
-10270.58215164111
 20
3820.993466504189
 30
0.0
 11
-10272.23963760303
 21
3820.993466504189
 31
0.0
  0
ARC
  5
30370
330
1F
100
AcDbEntity
  8
02製品
100
AcDbCircle
 10
-10272.23954986498
 20
3817.493476994607
 30
0.0
 40
3.500000000000227
100
AcDbArc
 50
90.0
 51
270.0
  0
LINE
  5
30371
330
1F
100
AcDbEntity
  8
02製品
100
AcDbLine
 10
-10270.58215164111
 20
3813.993467219445
 30
0.0
 11
-10272.23963760303
 21
3813.993467219445
 31
0.0
  0
ARC
  5
30372
330
1F
100
AcDbEntity
  8
02製品
100
AcDbCircle
 10
-10269.73954986498
 20
3467.493476994607
 30
0.0
 40
3.599999999999626
100
AcDbArc
 50
256.463797262541
 51
283.536202737459
  0
LINE
  5
30373
330
1F
100
AcDbEntity
  8
02製品
100
AcDbLine
 10
-10267.23952316211
 20
3463.993473179909
 30
0.0
 11
-10268.89700912402
 21
3463.993473179909
 31
0.0
  0
ARC
  5
30374
330
1F
100
AcDbEntity
  8
02製品
100
AcDbCircle
 10
-10267.23954986498
 20
3467.493476994607
 30
0.0
 40
3.500000000000227
100
AcDbArc
 50
270.0
 51
90.0
  0
LINE
  5
30375
330
1F
100
AcDbEntity
  8
02製品
100
AcDbLine
 10
-10267.23952316211
 20
3470.993502266976
 30
0.0
 11
-10268.89700912402
 21
3470.993502266976
 31
0.0
  0
ARC
  5
30376
330
1F
100
AcDbEntity
  8
02製品
100
AcDbCircle
 10
-10269.73954986498
 20
3467.493476994607
 30
0.0
 40
3.600000000000179
100
AcDbArc
 50
76.46379726266039
 51
103.5362027373396
  0
LINE
  5
30377
330
1F
100
AcDbEntity
  8
02製品
100
AcDbLine
 10
-10270.58215164111
 20
3463.993473179909
 30
0.0
 11
-10272.23963760303
 21
3463.993473179909
 31
0.0
  0
ARC
  5
30378
330
1F
100
AcDbEntity
  8
02製品
100
AcDbCircle
 10
-10284.23954986498
 20
3988.293476994624
 30
0.0
 40
3.000000000000114
100
AcDbArc
 50
90.0
 51
180.0
  0
LINE
  5
30379
330
1F
100
AcDbEntity
  8
02製品
100
AcDbLine
 10
-10242.23966621326
 20
3991.293473370644
 30
0.0
 11
-10284.23948310779
 21
3991.293473370644
 31
0.0
  0
LINE
  5
3037A
330
1F
100
AcDbEntity
  8
02製品
100
AcDbLine
 10
-10242.23966621326
 20
3992.493478782746
 30
0.0
 11
-10242.23966621326
 21
3991.293473370644
 31
0.0
  0
LINE
  5
3037B
330
1F
100
AcDbEntity
  8
02製品
100
AcDbLine
 10
-9231.539440383178
 20
3992.493478782746
 30
0.0
 11
-10242.23966621326
 21
3992.493478782746
 31
0.0
  0
LINE
  5
3037C
330
1F
100
AcDbEntity
  8
02製品
100
AcDbLine
 10
-9231.539440383178
 20
3992.493478782746
 30
0.0
 11
-9231.539440383178
 21
3991.293473370644
 31
0.0
  0
LINE
  5
3037D
330
1F
100
AcDbEntity
  8
02製品
100
AcDbLine
 10
-9231.539440383178
 20
3991.293473370644
 30
0.0
 11
-9189.539623488647
 21
3991.293473370644
 31
0.0
  0
ARC
  5
3037E
330
1F
100
AcDbEntity
  8
02製品
100
AcDbCircle
 10
-9189.539549864981
 20
3988.293476994624
 30
0.0
 40
3.000000000000114
100
AcDbArc
 50
0.0
 51
90.0
  0
LINE
  5
3037F
330
1F
100
AcDbEntity
  8
02製品
100
AcDbLine
 10
-9186.539602507812
 20
3988.293482192132
 30
0.0
 11
-9186.539602507812
 21
3446.693463452431
 31
0.0
  0
ARC
  5
30380
330
1F
100
AcDbEntity
  8
02製品
100
AcDbCircle
 10
-9189.539549864981
 20
3446.693476994618
 30
0.0
 40
3.000000000000682
100
AcDbArc
 50
270.0
 51
0.0
  0
LINE
  5
30381
330
1F
100
AcDbEntity
  8
02製品
100
AcDbLine
 10
-9231.539440383178
 20
3443.693502076241
 30
0.0
 11
-9189.539623488647
 21
3443.693502076241
 31
0.0
  0
LINE
  5
30382
330
1F
100
AcDbEntity
  8
02製品
100
AcDbLine
 10
-9231.539440383178
 20
3443.693502076241
 30
0.0
 11
-9231.539440383178
 21
3442.493481762978
 31
0.0
  0
LINE
  5
30383
330
1F
100
AcDbEntity
  8
02製品
100
AcDbLine
 10
-9231.539440383178
 20
3442.493481762978
 30
0.0
 11
-10242.23966621326
 21
3442.493481762978
 31
0.0
  0
LINE
  5
30384
330
1F
100
AcDbEntity
  8
02製品
100
AcDbLine
 10
-10242.23966621326
 20
3443.693502076241
 30
0.0
 11
-10242.23966621326
 21
3442.493481762978
 31
0.0
  0
LINE
  5
30385
330
1F
100
AcDbEntity
  8
02製品
100
AcDbLine
 10
-10242.23966621326
 20
3443.693502076241
 30
0.0
 11
-10284.23948310779
 21
3443.693502076241
 31
0.0
  0
ARC
  5
30386
330
1F
100
AcDbEntity
  8
02製品
100
AcDbCircle
 10
-10284.23954986498
 20
3446.693476994618
 30
0.0
 40
3.000000000000682
100
AcDbArc
 50
180.0
 51
270.0
  0
LINE
  5
30387
330
1F
100
AcDbEntity
  8
02製品
100
AcDbLine
 10
-10287.23950408862
 20
3988.293482192132
 30
0.0
 11
-10287.23950408862
 21
3446.693463452431
 31
0.0
  0
CIRCLE
  5
30388
330
1F
100
AcDbEntity
  8
02製品
100
AcDbCircle
 10
-10136.88954986498
 20
3822.493476994607
 30
0.0
 40
29.99999999999943
  0
CIRCLE
  5
30389
330
1F
100
AcDbEntity
  8
02製品
100
AcDbCircle
 10
-10036.88954986498
 20
3922.493476994607
 30
0.0
 40
29.99999999999943
  0
CIRCLE
  5
3038A
330
1F
100
AcDbEntity
  8
02製品
100
AcDbCircle
 10
-10036.88954986498
 20
3722.493476994607
 30
0.0
 40
29.99999999999943
  0
CIRCLE
  5
3038B
330
1F
100
AcDbEntity
  8
02製品
100
AcDbCircle
 10
-9936.889549864984
 20
3822.493476994607
 30
0.0
 40
30.0
  0
CIRCLE
  5
3038C
330
1F
100
AcDbEntity
  8
02製品
100
AcDbCircle
 10
-9836.889549864984
 20
3722.493476994607
 30
0.0
 40
29.99999999999943
  0
CIRCLE
  5
3038D
330
1F
100
AcDbEntity
  8
02製品
100
AcDbCircle
 10
-9836.889549864984
 20
3922.493476994607
 30
0.0
 40
30.0
  0
CIRCLE
  5
3038E
330
1F
100
AcDbEntity
  8
02製品
100
AcDbCircle
 10
-9736.889549864984
 20
3822.493476994607
 30
0.0
 40
30.00000000000057
  0
CIRCLE
  5
3038F
330
1F
100
AcDbEntity
  8
02製品
100
AcDbCircle
 10
-9636.889549864984
 20
3922.493476994607
 30
0.0
 40
29.99999999999943
  0
CIRCLE
  5
30390
330
1F
100
AcDbEntity
  8
02製品
100
AcDbCircle
 10
-9636.889549864984
 20
3722.493476994607
 30
0.0
 40
29.99999999999943
  0
CIRCLE
  5
30391
330
1F
100
AcDbEntity
  8
02製品
100
AcDbCircle
 10
-9536.889549864984
 20
3822.493476994607
 30
0.0
 40
29.99999999999943
  0
CIRCLE
  5
30392
330
1F
100
AcDbEntity
  8
02製品
100
AcDbCircle
 10
-9436.889549864984
 20
3922.493476994607
 30
0.0
 40
30.0
  0
CIRCLE
  5
30393
330
1F
100
AcDbEntity
  8
02製品
100
AcDbCircle
 10
-9436.889549864984
 20
3722.493476994607
 30
0.0
 40
30.0
  0
CIRCLE
  5
30394
330
1F
100
AcDbEntity
  8
02製品
100
AcDbCircle
 10
-9336.889549864984
 20
3822.493476994607
 30
0.0
 40
30.0
  0
ARC
  5
30395
330
1F
100
AcDbEntity
  8
02製品
100
AcDbCircle
 10
-9204.039549864981
 20
3467.493476994607
 30
0.0
 40
3.599999999999626
100
AcDbArc
 50
256.463797262541
 51
283.5362027373959
  0
LINE
  5
30396
330
1F
100
AcDbEntity
  8
02製品
100
AcDbLine
 10
-9201.539468993407
 20
3463.993473179909
 30
0.0
 11
-9203.196954955321
 21
3463.993473179909
 31
0.0
  0
ARC
  5
30397
330
1F
100
AcDbEntity
  8
02製品
100
AcDbCircle
 10
-9201.539549864981
 20
3467.493476994607
 30
0.0
 40
3.500000000000227
100
AcDbArc
 50
270.0
 51
90.0
  0
LINE
  5
30398
330
1F
100
AcDbEntity
  8
02製品
100
AcDbLine
 10
-9201.539468993407
 20
3470.993502266976
 30
0.0
 11
-9203.196954955321
 21
3470.993502266976
 31
0.0
  0
ARC
  5
30399
330
1F
100
AcDbEntity
  8
02製品
100
AcDbCircle
 10
-9204.039549864981
 20
3467.493476994607
 30
0.0
 40
3.600000000000179
100
AcDbArc
 50
76.46379726272346
 51
103.5362027373396
  0
LINE
  5
3039A
330
1F
100
AcDbEntity
  8
02製品
100
AcDbLine
 10
-9204.882097472411
 20
3470.993502266976
 30
0.0
 11
-9206.539583434325
 21
3470.993502266976
 31
0.0
  0
ARC
  5
3039B
330
1F
100
AcDbEntity
  8
02製品
100
AcDbCircle
 10
-9206.539549864981
 20
3467.493476994607
 30
0.0
 40
3.500000000000227
100
AcDbArc
 50
90.0
 51
270.0
  0
LINE
  5
3039C
330
1F
100
AcDbEntity
  8
02製品
100
AcDbLine
 10
-9204.882097472411
 20
3463.993473179909
 30
0.0
 11
-9206.539583434325
 21
3463.993473179909
 31
0.0
  0
ARC
  5
3039D
330
1F
100
AcDbEntity
  8
02製品
100
AcDbCircle
 10
-10269.73954986498
 20
3617.493476994607
 30
0.0
 40
3.600000000000179
100
AcDbArc
 50
256.4637972625478
 51
283.5362027374522
  0
LINE
  5
3039E
330
1F
100
AcDbEntity
  8
02製品
100
AcDbLine
 10
-10267.23952316211
 20
3613.993449338052
 30
0.0
 11
-10268.89700912402
 21
3613.993449338052
 31
0.0
  0
ARC
  5
3039F
330
1F
100
AcDbEntity
  8
02製品
100
AcDbCircle
 10
-10267.23954986498
 20
3617.493476994607
 30
0.0
 40
3.500000000000227
100
AcDbArc
 50
270.0
 51
90.0
  0
LINE
  5
303A0
330
1F
100
AcDbEntity
  8
02製品
100
AcDbLine
 10
-10267.23952316211
 20
3620.993478425118
 30
0.0
 11
-10268.89700912402
 21
3620.993478425118
 31
0.0
  0
ARC
  5
303A1
330
1F
100
AcDbEntity
  8
02製品
100
AcDbCircle
 10
-10269.73954986498
 20
3617.493476994607
 30
0.0
 40
3.600000000000179
100
AcDbArc
 50
76.46379726266039
 51
103.5362027373396
  0
LINE
  5
303A2
330
1F
100
AcDbEntity
  8
02製品
100
AcDbLine
 10
-10270.58215164111
 20
3620.993478425118
 30
0.0
 11
-10272.23963760303
 21
3620.993478425118
 31
0.0
  0
ARC
  5
303A3
330
1F
100
AcDbEntity
  8
02製品
100
AcDbCircle
 10
-10272.23954986498
 20
3617.493476994607
 30
0.0
 40
3.500000000000227
100
AcDbArc
 50
90.0
 51
270.0
  0
LINE
  5
303A4
330
1F
100
AcDbEntity
  8
02製品
100
AcDbLine
 10
-10270.58215164111
 20
3613.993449338052
 30
0.0
 11
-10272.23963760303
 21
3613.993449338052
 31
0.0
  0
ARC
  5
303A5
330
1F
100
AcDbEntity
  8
02製品
100
AcDbCircle
 10
-9204.039549864981
 20
3817.493476994607
 30
0.0
 40
3.599999999999492
100
AcDbArc
 50
76.46379726272346
 51
103.5362027373396
  0
LINE
  5
303A6
330
1F
100
AcDbEntity
  8
02製品
100
AcDbLine
 10
-9204.882097472411
 20
3820.993466504189
 30
0.0
 11
-9206.539583434325
 21
3820.993466504189
 31
0.0
  0
ARC
  5
303A7
330
1F
100
AcDbEntity
  8
02製品
100
AcDbCircle
 10
-9206.539549864981
 20
3817.493476994607
 30
0.0
 40
3.500000000000227
100
AcDbArc
 50
90.0
 51
270.0
  0
LINE
  5
303A8
330
1F
100
AcDbEntity
  8
02製品
100
AcDbLine
 10
-9204.882097472411
 20
3813.993467219445
 30
0.0
 11
-9206.539583434325
 21
3813.993467219445
 31
0.0
  0
LINE
  5
303A9
330
1F
100
AcDbEntity
  8
02製品
100
AcDbLine
 10
-10270.58215164111
 20
3470.993502266976
 30
0.0
 11
-10272.23963760303
 21
3470.993502266976
 31
0.0
  0
ARC
  5
303AA
330
1F
100
AcDbEntity
  8
02製品
100
AcDbCircle
 10
-10272.23954986498
 20
3467.493476994607
 30
0.0
 40
3.500000000000227
100
AcDbArc
 50
90.0
 51
270.0
  0
LINE
  5
303AB
330
1F
100
AcDbEntity
  8
02製品
100
AcDbLine
 10
-10273.23956512378
 20
3967.493472822282
 30
0.0
 11
-10273.23956512378
 21
3965.626729853722
 31
0.0
  0
ARC
  5
303AC
330
1F
100
AcDbEntity
  8
02製品
100
AcDbCircle
 10
-10269.73954986498
 20
3958.993476994607
 30
0.0
 40
7.500000000000165
100
AcDbArc
 50
117.8181392846656
 51
62.18186071533443
  0
LINE
  5
303AD
330
1F
100
AcDbEntity
  8
02製品
100
AcDbLine
 10
-10266.23959564136
 20
3965.626729853722
 30
0.0
 11
-10266.23959564136
 21
3967.493472822282
 31
0.0
  0
ARC
  5
303AE
330
1F
100
AcDbEntity
  8
02製品
100
AcDbCircle
 10
-10269.73954986498
 20
3967.493476994607
 30
0.0
 40
3.500000000000227
100
AcDbArc
 50
0.0
 51
180.0
  0
LINE
  5
303AF
330
1F
100
AcDbEntity
  8
02製品
100
AcDbLine
 10
-9207.539510955077
 20
3967.493472822282
 30
0.0
 11
-9207.539510955077
 21
3965.626729853722
 31
0.0
  0
ARC
  5
303B0
330
1F
100
AcDbEntity
  8
02製品
100
AcDbCircle
 10
-9204.039549864981
 20
3958.993476994607
 30
0.0
 40
7.500000000000165
100
AcDbArc
 50
117.8181392846656
 51
62.18186071533443
  0
LINE
  5
303B1
330
1F
100
AcDbEntity
  8
02製品
100
AcDbLine
 10
-9200.539541472655
 20
3965.626729853722
 30
0.0
 11
-9200.539541472655
 21
3967.493472822282
 31
0.0
  0
ARC
  5
303B2
330
1F
100
AcDbEntity
  8
02製品
100
AcDbCircle
 10
-9204.039549864981
 20
3967.493476994607
 30
0.0
 40
3.500000000000227
100
AcDbArc
 50
0.0
 51
180.0
  0
ARC
  5
303B3
330
1F
100
AcDbEntity
  8
02製品
100
AcDbCircle
 10
-9204.039549864981
 20
3617.493476994607
 30
0.0
 40
3.600000000000311
100
AcDbArc
 50
256.4637972625478
 51
283.5362027373959
  0
LINE
  5
303B4
330
1F
100
AcDbEntity
  8
02製品
100
AcDbLine
 10
-9201.539468993407
 20
3613.993449338052
 30
0.0
 11
-9203.196954955321
 21
3613.993449338052
 31
0.0
  0
ARC
  5
303B5
330
1F
100
AcDbEntity
  8
02製品
100
AcDbCircle
 10
-9201.539549864981
 20
3617.493476994607
 30
0.0
 40
3.500000000000227
100
AcDbArc
 50
270.0
 51
90.0
  0
LINE
  5
303B6
330
1F
100
AcDbEntity
  8
02製品
100
AcDbLine
 10
-9201.539468993407
 20
3620.993478425118
 30
0.0
 11
-9203.196954955321
 21
3620.993478425118
 31
0.0
  0
ARC
  5
303B7
330
1F
100
AcDbEntity
  8
02製品
100
AcDbCircle
 10
-9204.039549864981
 20
3617.493476994607
 30
0.0
 40
3.600000000000045
100
AcDbArc
 50
76.46379726272346
 51
103.5362027373396
  0
LINE
  5
303B8
330
1F
100
AcDbEntity
  8
02製品
100
AcDbLine
 10
-9204.882097472411
 20
3620.993478425118
 30
0.0
 11
-9206.539583434325
 21
3620.993478425118
 31
0.0
  0
ARC
  5
303B9
330
1F
100
AcDbEntity
  8
02製品
100
AcDbCircle
 10
-9206.539549864981
 20
3617.493476994607
 30
0.0
 40
3.500000000000227
100
AcDbArc
 50
90.0
 51
270.0
  0
LINE
  5
303BA
330
1F
100
AcDbEntity
  8
02製品
100
AcDbLine
 10
-9204.882097472411
 20
3613.993449338052
 30
0.0
 11
-9206.539583434325
 21
3613.993449338052
 31
0.0
  0
ARC
  5
303BB
330
1F
100
AcDbEntity
  8
02製品
100
AcDbCircle
 10
-9204.039549864981
 20
3817.493476994607
 30
0.0
 40
3.600000000000311
100
AcDbArc
 50
256.4637972625478
 51
283.5362027373959
  0
LINE
  5
303BC
330
1F
100
AcDbEntity
  8
02製品
100
AcDbLine
 10
-9201.539468993407
 20
3813.993467219445
 30
0.0
 11
-9203.196954955321
 21
3813.993467219445
 31
0.0
  0
ARC
  5
303BD
330
1F
100
AcDbEntity
  8
02製品
100
AcDbCircle
 10
-9201.539549864981
 20
3817.493476994607
 30
0.0
 40
3.500000000000227
100
AcDbArc
 50
270.0
 51
90.0
  0
LINE
  5
303BE
330
1F
100
AcDbEntity
  8
02製品
100
AcDbLine
 10
-9201.539468993407
 20
3820.993466504189
 30
0.0
 11
-9203.196954955321
 21
3820.993466504189
 31
0.0
  0
ARC
  5
303BF
330
1F
100
AcDbEntity
  8
02製品
100
AcDbCircle
 10
-12515.93954986495
 20
3988.293476994624
 30
0.0
 40
3.000000000000114
100
AcDbArc
 50
90.0
 51
180.0
  0
LINE
  5
303C0
330
1F
100
AcDbEntity
  8
02製品
100
AcDbLine
 10
-11463.23950313495
 20
3992.493478782746
 30
0.0
 11
-11463.23950313495
 21
3991.293473370644
 31
0.0
  0
ARC
  5
303C1
330
1F
100
AcDbEntity
  8
02製品
100
AcDbCircle
 10
-11421.23954986496
 20
3988.293476994624
 30
0.0
 40
2.999999999999829
100
AcDbArc
 50
0.0
 51
90.0
  0
LINE
  5
303C2
330
1F
100
AcDbEntity
  8
02製品
100
AcDbLine
 10
-11418.23954605029
 20
3988.293482192132
 30
0.0
 11
-11418.23954605029
 21
3446.693463452431
 31
0.0
  0
LINE
  5
303C3
330
1F
100
AcDbEntity
  8
02製品
100
AcDbLine
 10
-11463.23950313495
 20
3443.693502076241
 30
0.0
 11
-11421.23956703113
 21
3443.693502076241
 31
0.0
  0
LINE
  5
303C4
330
1F
100
AcDbEntity
  8
02製品
100
AcDbLine
 10
-11463.23950313495
 20
3442.493481762978
 30
0.0
 11
-12473.93955015109
 21
3442.493481762978
 31
0.0
  0
ARC
  5
303C5
330
1F
100
AcDbEntity
  8
02製品
100
AcDbCircle
 10
-12515.93954986495
 20
3446.693476994618
 30
0.0
 40
3.000000000000114
100
AcDbArc
 50
180.0
 51
270.0
  0
LINE
  5
303C6
330
1F
100
AcDbEntity
  8
02製品
100
AcDbLine
 10
-12518.93955007659
 20
3988.293482192132
 30
0.0
 11
-12518.93955007659
 21
3446.693463452431
 31
0.0
  0
CIRCLE
  5
303C7
330
1F
100
AcDbEntity
  8
02製品
100
AcDbCircle
 10
-12168.58954986496
 20
3822.493476994607
 30
0.0
 40
30.0
  0
CIRCLE
  5
303C8
330
1F
100
AcDbEntity
  8
02製品
100
AcDbCircle
 10
-11868.58954986496
 20
3922.493476994607
 30
0.0
 40
30.0
  0
CIRCLE
  5
303C9
330
1F
100
AcDbEntity
  8
02製品
100
AcDbCircle
 10
-11868.58954986496
 20
3722.493476994607
 30
0.0
 40
30.0
  0
CIRCLE
  5
303CA
330
1F
100
AcDbEntity
  8
02製品
100
AcDbCircle
 10
-11768.58954986495
 20
3822.493476994607
 30
0.0
 40
30.0
  0
CIRCLE
  5
303CB
330
1F
100
AcDbEntity
  8
02製品
100
AcDbCircle
 10
-11668.58954986495
 20
3922.493476994607
 30
0.0
 40
30.0
  0
LINE
  5
303CC
330
1F
100
AcDbEntity
  8
02製品
100
AcDbLine
 10
-11436.58216022418
 20
3470.993502266976
 30
0.0
 11
-11438.23952697681
 21
3470.993502266976
 31
0.0
  0
ARC
  5
303CD
330
1F
100
AcDbEntity
  8
02製品
100
AcDbCircle
 10
-11438.23954986495
 20
3467.493476994607
 30
0.0
 40
3.500000000000227
100
AcDbArc
 50
90.0
 51
270.0
  0
LINE
  5
303CE
330
1F
100
AcDbEntity
  8
02製品
100
AcDbLine
 10
-11436.58216022418
 20
3463.993473179909
 30
0.0
 11
-11438.23952697681
 21
3463.993473179909
 31
0.0
  0
CIRCLE
  5
303CF
330
1F
100
AcDbEntity
  8
02製品
100
AcDbCircle
 10
-12368.58954986495
 20
3822.493476994607
 30
0.0
 40
30.0
  0
ARC
  5
303D0
330
1F
100
AcDbEntity
  8
02製品
100
AcDbCircle
 10
-11421.23954986496
 20
3446.693476994618
 30
0.0
 40
3.000000000000114
100
AcDbArc
 50
270.0
 51
0.0
  0
LINE
  5
303D1
330
1F
100
AcDbEntity
  8
02製品
100
AcDbLine
 10
-12504.93954964445
 20
3967.493472822282
 30
0.0
 11
-12504.93954964445
 21
3965.626729853722
 31
0.0
  0
ARC
  5
303D2
330
1F
100
AcDbEntity
  8
02製品
100
AcDbCircle
 10
-12501.43954986495
 20
3958.993476994607
 30
0.0
 40
7.500000000000165
100
AcDbArc
 50
117.8181392846843
 51
62.18186071535902
  0
LINE
  5
303D3
330
1F
100
AcDbEntity
  8
02製品
100
AcDbLine
 10
-12497.93955035971
 20
3965.626729853722
 30
0.0
 11
-12497.93955035971
 21
3967.493472822282
 31
0.0
  0
ARC
  5
303D4
330
1F
100
AcDbEntity
  8
02製品
100
AcDbCircle
 10
-12501.43954986495
 20
3967.493476994607
 30
0.0
 40
3.500000000000227
100
AcDbArc
 50
0.0
 51
180.0
  0
LINE
  5
303D5
330
1F
100
AcDbEntity
  8
02製品
100
AcDbLine
 10
-11439.23957370685
 20
3967.493472822282
 30
0.0
 11
-11439.23957370685
 21
3965.626729853722
 31
0.0
  0
ARC
  5
303D6
330
1F
100
AcDbEntity
  8
02製品
100
AcDbCircle
 10
-11435.73954986495
 20
3958.993476994607
 30
0.0
 40
7.500000000000165
100
AcDbArc
 50
117.8181392846656
 51
62.18186071533443
  0
LINE
  5
303D7
330
1F
100
AcDbEntity
  8
02製品
100
AcDbLine
 10
-11432.23960422443
 20
3965.626729853722
 30
0.0
 11
-11432.23960422443
 21
3967.493472822282
 31
0.0
  0
ARC
  5
303D8
330
1F
100
AcDbEntity
  8
02製品
100
AcDbCircle
 10
-11435.73954986495
 20
3967.493476994607
 30
0.0
 40
3.500000000000227
100
AcDbArc
 50
0.0
 51
180.0
  0
ARC
  5
303D9
330
1F
100
AcDbEntity
  8
02製品
100
AcDbCircle
 10
-11435.73954986495
 20
3617.493476994607
 30
0.0
 40
3.599999999999626
100
AcDbArc
 50
256.4637972624847
 51
283.5362027373959
  0
CIRCLE
  5
303DA
330
1F
100
AcDbEntity
  8
02製品
100
AcDbCircle
 10
-11568.58954986496
 20
3822.493476994607
 30
0.0
 40
30.0
  0
ARC
  5
303DB
330
1F
100
AcDbEntity
  8
02製品
100
AcDbCircle
 10
-11433.23954986495
 20
3617.493476994607
 30
0.0
 40
3.500000000000227
100
AcDbArc
 50
270.0
 51
90.0
  0
LINE
  5
303DC
330
1F
100
AcDbEntity
  8
02製品
100
AcDbLine
 10
-11433.23953174518
 20
3620.993478425118
 30
0.0
 11
-11434.8968984978
 21
3620.993478425118
 31
0.0
  0
ARC
  5
303DD
330
1F
100
AcDbEntity
  8
02製品
100
AcDbCircle
 10
-11435.73954986495
 20
3617.493476994607
 30
0.0
 40
3.600000000000112
100
AcDbArc
 50
76.46379726277974
 51
103.5362027373396
  0
LINE
  5
303DE
330
1F
100
AcDbEntity
  8
02製品
100
AcDbLine
 10
-11436.58216022418
 20
3620.993478425118
 30
0.0
 11
-11438.23952697681
 21
3620.993478425118
 31
0.0
  0
ARC
  5
303DF
330
1F
100
AcDbEntity
  8
02製品
100
AcDbCircle
 10
-11438.23954986495
 20
3617.493476994607
 30
0.0
 40
3.500000000000227
100
AcDbArc
 50
90.0
 51
270.0
  0
LINE
  5
303E0
330
1F
100
AcDbEntity
  8
02製品
100
AcDbLine
 10
-11436.58216022418
 20
3613.993449338052
 30
0.0
 11
-11438.23952697681
 21
3613.993449338052
 31
0.0
  0
ARC
  5
303E1
330
1F
100
AcDbEntity
  8
02製品
100
AcDbCircle
 10
-11435.73954986495
 20
3817.493476994607
 30
0.0
 40
3.600000000000179
100
AcDbArc
 50
256.4637972624847
 51
283.5362027373959
  0
LINE
  5
303E2
330
1F
100
AcDbEntity
  8
02製品
100
AcDbLine
 10
-11433.23953174518
 20
3813.993467219445
 30
0.0
 11
-11434.8968984978
 21
3813.993467219445
 31
0.0
  0
ARC
  5
303E3
330
1F
100
AcDbEntity
  8
02製品
100
AcDbCircle
 10
-11433.23954986495
 20
3817.493476994607
 30
0.0
 40
3.500000000000227
100
AcDbArc
 50
270.0
 51
90.0
  0
CIRCLE
  5
303E4
330
1F
100
AcDbEntity
  8
02製品
100
AcDbCircle
 10
-12268.58954986495
 20
3722.493476994607
 30
0.0
 40
30.0
  0
ARC
  5
303E5
330
1F
100
AcDbEntity
  8
02製品
100
AcDbCircle
 10
-11435.73954986495
 20
3817.493476994607
 30
0.0
 40
3.600000000000112
100
AcDbArc
 50
76.46379726277974
 51
103.5362027373396
  0
LINE
  5
303E6
330
1F
100
AcDbEntity
  8
02製品
100
AcDbLine
 10
-11436.58216022418
 20
3820.993466504189
 30
0.0
 11
-11438.23952697681
 21
3820.993466504189
 31
0.0
  0
ARC
  5
303E7
330
1F
100
AcDbEntity
  8
02製品
100
AcDbCircle
 10
-11438.23954986495
 20
3817.493476994607
 30
0.0
 40
3.500000000000227
100
AcDbArc
 50
90.0
 51
270.0
  0
LINE
  5
303E8
330
1F
100
AcDbEntity
  8
02製品
100
AcDbLine
 10
-11436.58216022418
 20
3813.993467219445
 30
0.0
 11
-11438.23952697681
 21
3813.993467219445
 31
0.0
  0
LINE
  5
303E9
330
1F
100
AcDbEntity
  8
02製品
100
AcDbLine
 10
-12473.93955015109
 20
3992.493478782746
 30
0.0
 11
-12473.93955015109
 21
3991.293473370644
 31
0.0
  0
LINE
  5
303EA
330
1F
100
AcDbEntity
  8
02製品
100
AcDbLine
 10
-12473.93955015109
 20
3991.293473370644
 30
0.0
 11
-12515.93954958485
 21
3991.293473370644
 31
0.0
  0
LINE
  5
303EB
330
1F
100
AcDbEntity
  8
02製品
100
AcDbLine
 10
-11463.23950313495
 20
3443.693502076241
 30
0.0
 11
-11463.23950313495
 21
3442.493481762978
 31
0.0
  0
LINE
  5
303EC
330
1F
100
AcDbEntity
  8
02製品
100
AcDbLine
 10
-12498.93955052362
 20
3820.993466504189
 30
0.0
 11
-12500.59693404005
 21
3820.993466504189
 31
0.0
  0
ARC
  5
303ED
330
1F
100
AcDbEntity
  8
02製品
100
AcDbCircle
 10
-12501.43954986495
 20
3817.493476994607
 30
0.0
 40
3.600000000000112
100
AcDbArc
 50
76.46379726272346
 51
103.5362027373396
  0
LINE
  5
303EE
330
1F
100
AcDbEntity
  8
02製品
100
AcDbLine
 10
-11463.23950313495
 20
3991.293473370644
 30
0.0
 11
-11421.23956703113
 21
3991.293473370644
 31
0.0
  0
ARC
  5
303EF
330
1F
100
AcDbEntity
  8
02製品
100
AcDbCircle
 10
-12503.93954986495
 20
3817.493476994607
 30
0.0
 40
3.500000000000227
100
AcDbArc
 50
90.0
 51
270.0
  0
LINE
  5
303F0
330
1F
100
AcDbEntity
  8
02製品
100
AcDbLine
 10
-11463.23950313495
 20
3992.493478782746
 30
0.0
 11
-12473.93955015109
 21
3992.493478782746
 31
0.0
  0
LINE
  5
303F1
330
1F
100
AcDbEntity
  8
02製品
100
AcDbLine
 10
-11433.23953174518
 20
3613.993449338052
 30
0.0
 11
-11434.8968984978
 21
3613.993449338052
 31
0.0
  0
LINE
  5
303F2
330
1F
100
AcDbEntity
  8
02製品
100
AcDbLine
 10
-12498.93955052362
 20
3613.993449338052
 30
0.0
 11
-12500.59693404005
 21
3613.993449338052
 31
0.0
  0
ARC
  5
303F3
330
1F
100
AcDbEntity
  8
02製品
100
AcDbCircle
 10
-12498.93954986495
 20
3617.493476994607
 30
0.0
 40
3.500000000000227
100
AcDbArc
 50
270.0
 51
90.0
  0
LINE
  5
303F4
330
1F
100
AcDbEntity
  8
02製品
100
AcDbLine
 10
-12498.93955052362
 20
3620.993478425118
 30
0.0
 11
-12500.59693404005
 21
3620.993478425118
 31
0.0
  0
ARC
  5
303F5
330
1F
100
AcDbEntity
  8
02製品
100
AcDbCircle
 10
-12501.43954986495
 20
3617.493476994607
 30
0.0
 40
3.600000000000112
100
AcDbArc
 50
76.46379726272346
 51
103.5362027373396
  0
LINE
  5
303F6
330
1F
100
AcDbEntity
  8
02製品
100
AcDbLine
 10
-12502.28216410146
 20
3620.993478425118
 30
0.0
 11
-12503.93954948054
 21
3620.993478425118
 31
0.0
  0
ARC
  5
303F7
330
1F
100
AcDbEntity
  8
02製品
100
AcDbCircle
 10
-12503.93954986495
 20
3617.493476994607
 30
0.0
 40
3.500000000000227
100
AcDbArc
 50
90.0
 51
270.0
  0
LINE
  5
303F8
330
1F
100
AcDbEntity
  8
02製品
100
AcDbLine
 10
-12502.28216410146
 20
3613.993449338052
 30
0.0
 11
-12503.93954948054
 21
3613.993449338052
 31
0.0
  0
ARC
  5
303F9
330
1F
100
AcDbEntity
  8
02製品
100
AcDbCircle
 10
-12501.43954986495
 20
3467.493476994607
 30
0.0
 40
3.600000000000179
100
AcDbArc
 50
256.4637972624847
 51
283.5362027374522
  0
LINE
  5
303FA
330
1F
100
AcDbEntity
  8
02製品
100
AcDbLine
 10
-12498.93955052362
 20
3463.993473179909
 30
0.0
 11
-12500.59693404005
 21
3463.993473179909
 31
0.0
  0
ARC
  5
303FB
330
1F
100
AcDbEntity
  8
02製品
100
AcDbCircle
 10
-12498.93954986495
 20
3467.493476994607
 30
0.0
 40
3.500000000000227
100
AcDbArc
 50
270.0
 51
90.0
  0
LINE
  5
303FC
330
1F
100
AcDbEntity
  8
02製品
100
AcDbLine
 10
-12498.93955052362
 20
3470.993502266976
 30
0.0
 11
-12500.59693404005
 21
3470.993502266976
 31
0.0
  0
ARC
  5
303FD
330
1F
100
AcDbEntity
  8
02製品
100
AcDbCircle
 10
-12501.43954986495
 20
3467.493476994607
 30
0.0
 40
3.600000000000112
100
AcDbArc
 50
76.46379726272346
 51
103.5362027373396
  0
LINE
  5
303FE
330
1F
100
AcDbEntity
  8
02製品
100
AcDbLine
 10
-12502.28216410146
 20
3470.993502266976
 30
0.0
 11
-12503.93954948054
 21
3470.993502266976
 31
0.0
  0
ARC
  5
303FF
330
1F
100
AcDbEntity
  8
02製品
100
AcDbCircle
 10
-12503.93954986495
 20
3467.493476994607
 30
0.0
 40
3.500000000000227
100
AcDbArc
 50
90.0
 51
270.0
  0
LINE
  5
30400
330
1F
100
AcDbEntity
  8
02製品
100
AcDbLine
 10
-12502.28216410146
 20
3463.993473179909
 30
0.0
 11
-12503.93954948054
 21
3463.993473179909
 31
0.0
  0
ARC
  5
30401
330
1F
100
AcDbEntity
  8
02製品
100
AcDbCircle
 10
-11435.73954986495
 20
3467.493476994607
 30
0.0
 40
3.600000000000179
100
AcDbArc
 50
256.4637972624847
 51
283.5362027374522
  0
LINE
  5
30402
330
1F
100
AcDbEntity
  8
02製品
100
AcDbLine
 10
-11433.23953174518
 20
3463.993473179909
 30
0.0
 11
-11434.8968984978
 21
3463.993473179909
 31
0.0
  0
ARC
  5
30403
330
1F
100
AcDbEntity
  8
02製品
100
AcDbCircle
 10
-11433.23954986495
 20
3467.493476994607
 30
0.0
 40
3.500000000000227
100
AcDbArc
 50
270.0
 51
90.0
  0
LINE
  5
30404
330
1F
100
AcDbEntity
  8
02製品
100
AcDbLine
 10
-11433.23953174518
 20
3470.993502266976
 30
0.0
 11
-11434.8968984978
 21
3470.993502266976
 31
0.0
  0
ARC
  5
30405
330
1F
100
AcDbEntity
  8
02製品
100
AcDbCircle
 10
-11435.73954986495
 20
3467.493476994607
 30
0.0
 40
3.600000000000112
100
AcDbArc
 50
76.46379726277974
 51
103.5362027373396
  0
LINE
  5
30406
330
1F
100
AcDbEntity
  8
02製品
100
AcDbLine
 10
-12502.28216410146
 20
3820.993466504189
 30
0.0
 11
-12503.93954948054
 21
3820.993466504189
 31
0.0
  0
LINE
  5
30407
330
1F
100
AcDbEntity
  8
02製品
100
AcDbLine
 10
-12473.93955015109
 20
3443.693502076241
 30
0.0
 11
-12515.93954958485
 21
3443.693502076241
 31
0.0
  0
LINE
  5
30408
330
1F
100
AcDbEntity
  8
02製品
100
AcDbLine
 10
-12502.28216410146
 20
3813.993467219445
 30
0.0
 11
-12503.93954948054
 21
3813.993467219445
 31
0.0
  0
ARC
  5
30409
330
1F
100
AcDbEntity
  8
02製品
100
AcDbCircle
 10
-12501.43954986495
 20
3617.493476994607
 30
0.0
 40
3.599999999999626
100
AcDbArc
 50
256.4637972624847
 51
283.536202737459
  0
CIRCLE
  5
3040A
330
1F
100
AcDbEntity
  8
02製品
100
AcDbCircle
 10
-11668.58954986495
 20
3722.493476994607
 30
0.0
 40
30.0
  0
LINE
  5
3040B
330
1F
100
AcDbEntity
  8
02製品
100
AcDbLine
 10
-12473.93955015109
 20
3443.693502076241
 30
0.0
 11
-12473.93955015109
 21
3442.493481762978
 31
0.0
  0
CIRCLE
  5
3040C
330
1F
100
AcDbEntity
  8
02製品
100
AcDbCircle
 10
-12068.58954986495
 20
3722.493476994607
 30
0.0
 40
30.0
  0
ARC
  5
3040D
330
1F
100
AcDbEntity
  8
02製品
100
AcDbCircle
 10
-12501.43954986495
 20
3817.493476994607
 30
0.0
 40
3.600000000000179
100
AcDbArc
 50
256.4637972624847
 51
283.5362027374522
  0
LINE
  5
3040E
330
1F
100
AcDbEntity
  8
02製品
100
AcDbLine
 10
-12498.93955052362
 20
3813.993467219445
 30
0.0
 11
-12500.59693404005
 21
3813.993467219445
 31
0.0
  0
CIRCLE
  5
3040F
330
1F
100
AcDbEntity
  8
02製品
100
AcDbCircle
 10
-11968.58954986495
 20
3822.493476994607
 30
0.0
 40
30.0
  0
CIRCLE
  5
30410
330
1F
100
AcDbEntity
  8
02製品
100
AcDbCircle
 10
-12068.58954986495
 20
3922.493476994607
 30
0.0
 40
30.0
  0
LINE
  5
30411
330
1F
100
AcDbEntity
  8
02製品
100
AcDbLine
 10
-11433.23953174518
 20
3820.993466504189
 30
0.0
 11
-11434.8968984978
 21
3820.993466504189
 31
0.0
  0
CIRCLE
  5
30412
330
1F
100
AcDbEntity
  8
02製品
100
AcDbCircle
 10
-12268.58954986495
 20
3922.493476994607
 30
0.0
 40
30.0
  0
ARC
  5
30413
330
1F
100
AcDbEntity
  8
02製品
100
AcDbCircle
 10
-12498.93954986495
 20
3817.493476994607
 30
0.0
 40
3.500000000000227
100
AcDbArc
 50
270.0
 51
90.0
  0
ARC
  5
30414
330
1F
100
AcDbEntity
  8
02製品
100
AcDbCircle
 10
-11410.23954986499
 20
3988.293476994624
 30
0.0
 40
3.000000000000114
100
AcDbArc
 50
90.0
 51
180.0
  0
LINE
  5
30415
330
1F
100
AcDbEntity
  8
02製品
100
AcDbLine
 10
-10337.23945640491
 20
3991.293473370644
 30
0.0
 11
-10295.23963951038
 21
3991.293473370644
 31
0.0
  0
ARC
  5
30416
330
1F
100
AcDbEntity
  8
02製品
100
AcDbCircle
 10
-10295.23954986499
 20
3988.293476994624
 30
0.0
 40
3.000000000000114
100
AcDbArc
 50
0.0
 51
90.0
  0
ARC
  5
30417
330
1F
100
AcDbEntity
  8
02製品
100
AcDbCircle
 10
-10295.23954986499
 20
3446.693476994618
 30
0.0
 40
2.999999999999545
100
AcDbArc
 50
270.0
 51
0.0
  0
LINE
  5
30418
330
1F
100
AcDbEntity
  8
02製品
100
AcDbLine
 10
-10337.23945640491
 20
3442.493481762978
 30
0.0
 11
-11368.23959373401
 21
3442.493481762978
 31
0.0
  0
ARC
  5
30419
330
1F
100
AcDbEntity
  8
02製品
100
AcDbCircle
 10
-11410.23954986499
 20
3446.693476994618
 30
0.0
 40
2.999999999999829
100
AcDbArc
 50
180.0
 51
270.0
  0
ARC
  5
3041A
330
1F
100
AcDbEntity
  8
02製品
100
AcDbCircle
 10
-11395.73954986499
 20
3967.493476994607
 30
0.0
 40
3.500000000000227
100
AcDbArc
 50
0.0
 51
180.0
  0
LINE
  5
3041B
330
1F
100
AcDbEntity
  8
02製品
100
AcDbLine
 10
-10313.23952697681
 20
3967.493472822282
 30
0.0
 11
-10313.23952697681
 21
3965.626729853722
 31
0.0
  0
LINE
  5
3041C
330
1F
100
AcDbEntity
  8
02製品
100
AcDbLine
 10
-10337.23945640491
 20
3992.493478782746
 30
0.0
 11
-10337.23945640491
 21
3991.293473370644
 31
0.0
  0
LINE
  5
3041D
330
1F
100
AcDbEntity
  8
02製品
100
AcDbLine
 10
-10306.23955749438
 20
3965.626729853722
 30
0.0
 11
-10306.23955749438
 21
3967.493472822282
 31
0.0
  0
LINE
  5
3041E
330
1F
100
AcDbEntity
  8
02製品
100
AcDbLine
 10
-10292.23961852954
 20
3988.293482192132
 30
0.0
 11
-10292.23961852954
 21
3446.693463452431
 31
0.0
  0
LINE
  5
3041F
330
1F
100
AcDbEntity
  8
02製品
100
AcDbLine
 10
-10337.23945640491
 20
3992.493478782746
 30
0.0
 11
-11368.23959373401
 21
3992.493478782746
 31
0.0
  0
LINE
  5
30420
330
1F
100
AcDbEntity
  8
02製品
100
AcDbLine
 10
-10307.23948501514
 20
3613.993449338052
 30
0.0
 11
-10308.89697097705
 21
3613.993449338052
 31
0.0
  0
ARC
  5
30421
330
1F
100
AcDbEntity
  8
02製品
100
AcDbCircle
 10
-10307.23954986499
 20
3617.493476994607
 30
0.0
 40
3.500000000000227
100
AcDbArc
 50
270.0
 51
90.0
  0
LINE
  5
30422
330
1F
100
AcDbEntity
  8
02製品
100
AcDbLine
 10
-10307.23948501514
 20
3620.993478425118
 30
0.0
 11
-10308.89697097705
 21
3620.993478425118
 31
0.0
  0
ARC
  5
30423
330
1F
100
AcDbEntity
  8
02製品
100
AcDbCircle
 10
-10309.73954986499
 20
3617.493476994607
 30
0.0
 40
3.600000000000045
100
AcDbArc
 50
76.46379726266039
 51
103.5362027372766
  0
LINE
  5
30424
330
1F
100
AcDbEntity
  8
02製品
100
AcDbLine
 10
-10310.58211349414
 20
3620.993478425118
 30
0.0
 11
-10312.23959945605
 21
3620.993478425118
 31
0.0
  0
ARC
  5
30425
330
1F
100
AcDbEntity
  8
02製品
100
AcDbCircle
 10
-10312.23954986499
 20
3617.493476994607
 30
0.0
 40
3.500000000000227
100
AcDbArc
 50
90.0
 51
270.0
  0
LINE
  5
30426
330
1F
100
AcDbEntity
  8
02製品
100
AcDbLine
 10
-10310.58211349414
 20
3613.993449338052
 30
0.0
 11
-10312.23959945605
 21
3613.993449338052
 31
0.0
  0
ARC
  5
30427
330
1F
100
AcDbEntity
  8
02製品
100
AcDbCircle
 10
-10309.73954986499
 20
3817.493476994607
 30
0.0
 40
3.600000000000179
100
AcDbArc
 50
256.4637972626041
 51
283.5362027374522
  0
LINE
  5
30428
330
1F
100
AcDbEntity
  8
02製品
100
AcDbLine
 10
-10307.23948501514
 20
3813.993467219445
 30
0.0
 11
-10308.89697097705
 21
3813.993467219445
 31
0.0
  0
ARC
  5
30429
330
1F
100
AcDbEntity
  8
02製品
100
AcDbCircle
 10
-10307.23954986499
 20
3817.493476994607
 30
0.0
 40
3.500000000000227
100
AcDbArc
 50
270.0
 51
90.0
  0
LINE
  5
3042A
330
1F
100
AcDbEntity
  8
02製品
100
AcDbLine
 10
-10307.23948501514
 20
3820.993466504189
 30
0.0
 11
-10308.89697097705
 21
3820.993466504189
 31
0.0
  0
ARC
  5
3042B
330
1F
100
AcDbEntity
  8
02製品
100
AcDbCircle
 10
-10309.73954986499
 20
3817.493476994607
 30
0.0
 40
3.600000000000045
100
AcDbArc
 50
76.46379726266039
 51
103.5362027372766
  0
LINE
  5
3042C
330
1F
100
AcDbEntity
  8
02製品
100
AcDbLine
 10
-10310.58211349414
 20
3820.993466504189
 30
0.0
 11
-10312.23959945605
 21
3820.993466504189
 31
0.0
  0
ARC
  5
3042D
330
1F
100
AcDbEntity
  8
02製品
100
AcDbCircle
 10
-10312.23954986499
 20
3817.493476994607
 30
0.0
 40
3.500000000000227
100
AcDbArc
 50
90.0
 51
270.0
  0
LINE
  5
3042E
330
1F
100
AcDbEntity
  8
02製品
100
AcDbLine
 10
-10310.58211349414
 20
3813.993467219445
 30
0.0
 11
-10312.23959945605
 21
3813.993467219445
 31
0.0
  0
ARC
  5
3042F
330
1F
100
AcDbEntity
  8
02製品
100
AcDbCircle
 10
-11395.73954986499
 20
3817.493476994607
 30
0.0
 40
3.600000000000179
100
AcDbArc
 50
256.4637972625478
 51
283.5362027374522
  0
LINE
  5
30430
330
1F
100
AcDbEntity
  8
02製品
100
AcDbLine
 10
-11393.23956989215
 20
3813.993467219445
 30
0.0
 11
-11394.89693664477
 21
3813.993467219445
 31
0.0
  0
ARC
  5
30431
330
1F
100
AcDbEntity
  8
02製品
100
AcDbCircle
 10
-11393.23954986499
 20
3817.493476994607
 30
0.0
 40
3.500000000000227
100
AcDbArc
 50
270.0
 51
90.0
  0
LINE
  5
30432
330
1F
100
AcDbEntity
  8
02製品
100
AcDbLine
 10
-11393.23956989215
 20
3820.993466504189
 30
0.0
 11
-11394.89693664477
 21
3820.993466504189
 31
0.0
  0
ARC
  5
30433
330
1F
100
AcDbEntity
  8
02製品
100
AcDbCircle
 10
-11395.73954986499
 20
3817.493476994607
 30
0.0
 40
3.600000000000112
100
AcDbArc
 50
76.46379726266039
 51
103.5362027373396
  0
LINE
  5
30434
330
1F
100
AcDbEntity
  8
02製品
100
AcDbLine
 10
-11396.58219837115
 20
3820.993466504189
 30
0.0
 11
-11398.23956512378
 21
3820.993466504189
 31
0.0
  0
ARC
  5
30435
330
1F
100
AcDbEntity
  8
02製品
100
AcDbCircle
 10
-11398.23954986499
 20
3817.493476994607
 30
0.0
 40
3.500000000000227
100
AcDbArc
 50
90.0
 51
270.0
  0
LINE
  5
30436
330
1F
100
AcDbEntity
  8
02製品
100
AcDbLine
 10
-11396.58219837115
 20
3813.993467219445
 30
0.0
 11
-11398.23956512378
 21
3813.993467219445
 31
0.0
  0
ARC
  5
30437
330
1F
100
AcDbEntity
  8
02製品
100
AcDbCircle
 10
-11395.73954986499
 20
3617.493476994607
 30
0.0
 40
3.600000000000179
100
AcDbArc
 50
256.4637972625478
 51
283.5362027374522
  0
LINE
  5
30438
330
1F
100
AcDbEntity
  8
02製品
100
AcDbLine
 10
-11393.23956989215
 20
3613.993449338052
 30
0.0
 11
-11394.89693664477
 21
3613.993449338052
 31
0.0
  0
ARC
  5
30439
330
1F
100
AcDbEntity
  8
02製品
100
AcDbCircle
 10
-11393.23954986499
 20
3617.493476994607
 30
0.0
 40
3.500000000000227
100
AcDbArc
 50
270.0
 51
90.0
  0
LINE
  5
3043A
330
1F
100
AcDbEntity
  8
02製品
100
AcDbLine
 10
-11393.23956989215
 20
3620.993478425118
 30
0.0
 11
-11394.89693664477
 21
3620.993478425118
 31
0.0
  0
ARC
  5
3043B
330
1F
100
AcDbEntity
  8
02製品
100
AcDbCircle
 10
-11395.73954986499
 20
3617.493476994607
 30
0.0
 40
3.600000000000112
100
AcDbArc
 50
76.46379726266039
 51
103.5362027373396
  0
LINE
  5
3043C
330
1F
100
AcDbEntity
  8
02製品
100
AcDbLine
 10
-11396.58219837115
 20
3620.993478425118
 30
0.0
 11
-11398.23956512378
 21
3620.993478425118
 31
0.0
  0
ARC
  5
3043D
330
1F
100
AcDbEntity
  8
02製品
100
AcDbCircle
 10
-11398.23954986499
 20
3617.493476994607
 30
0.0
 40
3.500000000000227
100
AcDbArc
 50
90.0
 51
270.0
  0
LINE
  5
3043E
330
1F
100
AcDbEntity
  8
02製品
100
AcDbLine
 10
-11396.58219837115
 20
3613.993449338052
 30
0.0
 11
-11398.23956512378
 21
3613.993449338052
 31
0.0
  0
ARC
  5
3043F
330
1F
100
AcDbEntity
  8
02製品
100
AcDbCircle
 10
-11395.73954986499
 20
3467.493476994607
 30
0.0
 40
3.599999999999626
100
AcDbArc
 50
256.463797262541
 51
283.536202737459
  0
LINE
  5
30440
330
1F
100
AcDbEntity
  8
02製品
100
AcDbLine
 10
-11413.23955081866
 20
3988.293482192132
 30
0.0
 11
-11413.23955081866
 21
3446.693463452431
 31
0.0
  0
ARC
  5
30441
330
1F
100
AcDbEntity
  8
02製品
100
AcDbCircle
 10
-11393.23954986499
 20
3467.493476994607
 30
0.0
 40
3.500000000000227
100
AcDbArc
 50
270.0
 51
90.0
  0
LINE
  5
30442
330
1F
100
AcDbEntity
  8
02製品
100
AcDbLine
 10
-11393.23956989215
 20
3470.993502266976
 30
0.0
 11
-11394.89693664477
 21
3470.993502266976
 31
0.0
  0
ARC
  5
30443
330
1F
100
AcDbEntity
  8
02製品
100
AcDbCircle
 10
-11395.73954986499
 20
3467.493476994607
 30
0.0
 40
3.600000000000112
100
AcDbArc
 50
76.46379726266039
 51
103.5362027373396
  0
LINE
  5
30444
330
1F
100
AcDbEntity
  8
02製品
100
AcDbLine
 10
-11396.58219837115
 20
3470.993502266976
 30
0.0
 11
-11398.23956512378
 21
3470.993502266976
 31
0.0
  0
LINE
  5
30445
330
1F
100
AcDbEntity
  8
02製品
100
AcDbLine
 10
-11399.23949264453
 20
3967.493472822282
 30
0.0
 11
-11399.23949264453
 21
3965.626729853722
 31
0.0
  0
ARC
  5
30446
330
1F
100
AcDbEntity
  8
02製品
100
AcDbCircle
 10
-11395.73954986499
 20
3958.993476994607
 30
0.0
 40
7.500000000000165
100
AcDbArc
 50
117.8181392846656
 51
62.18186071533443
  0
LINE
  5
30447
330
1F
100
AcDbEntity
  8
02製品
100
AcDbLine
 10
-11392.23952316211
 20
3965.626729853722
 30
0.0
 11
-11392.23952316211
 21
3967.493472822282
 31
0.0
  0
LINE
  5
30448
330
1F
100
AcDbEntity
  8
02製品
100
AcDbLine
 10
-10307.23948501514
 20
3463.993473179909
 30
0.0
 11
-10308.89697097705
 21
3463.993473179909
 31
0.0
  0
ARC
  5
30449
330
1F
100
AcDbEntity
  8
02製品
100
AcDbCircle
 10
-10307.23954986499
 20
3467.493476994607
 30
0.0
 40
3.500000000000227
100
AcDbArc
 50
270.0
 51
90.0
  0
ARC
  5
3044A
330
1F
100
AcDbEntity
  8
02製品
100
AcDbCircle
 10
-10309.73954986499
 20
3958.993476994607
 30
0.0
 40
7.500000000000165
100
AcDbArc
 50
117.8181392846656
 51
62.18186071533443
  0
ARC
  5
3044B
330
1F
100
AcDbEntity
  8
02製品
100
AcDbCircle
 10
-10309.73954986499
 20
3467.493476994607
 30
0.0
 40
3.600000000000045
100
AcDbArc
 50
76.46379726266039
 51
103.5362027372766
  0
ARC
  5
3044C
330
1F
100
AcDbEntity
  8
02製品
100
AcDbCircle
 10
-10309.73954986499
 20
3967.493476994607
 30
0.0
 40
3.500000000000227
100
AcDbArc
 50
0.0
 51
180.0
  0
ARC
  5
3044D
330
1F
100
AcDbEntity
  8
02製品
100
AcDbCircle
 10
-10309.73954986499
 20
3617.493476994607
 30
0.0
 40
3.600000000000179
100
AcDbArc
 50
256.4637972626041
 51
283.5362027374522
  0
LINE
  5
3044E
330
1F
100
AcDbEntity
  8
02製品
100
AcDbLine
 10
-10310.58211349414
 20
3463.993473179909
 30
0.0
 11
-10312.23959945605
 21
3463.993473179909
 31
0.0
  0
CIRCLE
  5
3044F
330
1F
100
AcDbEntity
  8
02製品
100
AcDbCircle
 10
-10452.73954986499
 20
3822.493476994607
 30
0.0
 40
30.0
  0
CIRCLE
  5
30450
330
1F
100
AcDbEntity
  8
02製品
100
AcDbCircle
 10
-10552.73954986499
 20
3722.493476994607
 30
0.0
 40
30.0
  0
CIRCLE
  5
30451
330
1F
100
AcDbEntity
  8
02製品
100
AcDbCircle
 10
-10552.73954986499
 20
3922.493476994607
 30
0.0
 40
30.0
  0
CIRCLE
  5
30452
330
1F
100
AcDbEntity
  8
02製品
100
AcDbCircle
 10
-10652.73954986499
 20
3822.493476994607
 30
0.0
 40
30.0
  0
CIRCLE
  5
30453
330
1F
100
AcDbEntity
  8
02製品
100
AcDbCircle
 10
-10752.73954986499
 20
3722.493476994607
 30
0.0
 40
30.0
  0
CIRCLE
  5
30454
330
1F
100
AcDbEntity
  8
02製品
100
AcDbCircle
 10
-10752.73954986499
 20
3922.493476994607
 30
0.0
 40
30.0
  0
CIRCLE
  5
30455
330
1F
100
AcDbEntity
  8
02製品
100
AcDbCircle
 10
-10852.73954986499
 20
3822.493476994607
 30
0.0
 40
30.00000000000057
  0
CIRCLE
  5
30456
330
1F
100
AcDbEntity
  8
02製品
100
AcDbCircle
 10
-10952.73954986499
 20
3922.493476994607
 30
0.0
 40
30.00000000000057
  0
CIRCLE
  5
30457
330
1F
100
AcDbEntity
  8
02製品
100
AcDbCircle
 10
-10952.73954986499
 20
3722.493476994607
 30
0.0
 40
30.00000000000057
  0
CIRCLE
  5
30458
330
1F
100
AcDbEntity
  8
02製品
100
AcDbCircle
 10
-11052.73954986499
 20
3822.493476994607
 30
0.0
 40
30.0
  0
CIRCLE
  5
30459
330
1F
100
AcDbEntity
  8
02製品
100
AcDbCircle
 10
-11152.73954986499
 20
3722.493476994607
 30
0.0
 40
30.0
  0
CIRCLE
  5
3045A
330
1F
100
AcDbEntity
  8
02製品
100
AcDbCircle
 10
-11152.73954986499
 20
3922.493476994607
 30
0.0
 40
30.0
  0
CIRCLE
  5
3045B
330
1F
100
AcDbEntity
  8
02製品
100
AcDbCircle
 10
-11252.73954986499
 20
3822.493476994607
 30
0.0
 40
30.0
  0
LINE
  5
3045C
330
1F
100
AcDbEntity
  8
02製品
100
AcDbLine
 10
-11368.23959373401
 20
3443.693502076241
 30
0.0
 11
-11368.23959373401
 21
3442.493481762978
 31
0.0
  0
LINE
  5
3045D
330
1F
100
AcDbEntity
  8
02製品
100
AcDbLine
 10
-11368.23959373401
 20
3443.693502076241
 30
0.0
 11
-11410.23952983783
 21
3443.693502076241
 31
0.0
  0
LINE
  5
3045E
330
1F
100
AcDbEntity
  8
02製品
100
AcDbLine
 10
-11368.23959373401
 20
3992.493478782746
 30
0.0
 11
-11368.23959373401
 21
3991.293473370644
 31
0.0
  0
LINE
  5
3045F
330
1F
100
AcDbEntity
  8
02製品
100
AcDbLine
 10
-11368.23959373401
 20
3991.293473370644
 30
0.0
 11
-11410.23952983783
 21
3991.293473370644
 31
0.0
  0
LINE
  5
30460
330
1F
100
AcDbEntity
  8
02製品
100
AcDbLine
 10
-10337.23945640491
 20
3443.693502076241
 30
0.0
 11
-10337.23945640491
 21
3442.493481762978
 31
0.0
  0
LINE
  5
30461
330
1F
100
AcDbEntity
  8
02製品
100
AcDbLine
 10
-10337.23945640491
 20
3443.693502076241
 30
0.0
 11
-10295.23963951038
 21
3443.693502076241
 31
0.0
  0
LINE
  5
30462
330
1F
100
AcDbEntity
  8
02製品
100
AcDbLine
 10
-10307.23948501514
 20
3470.993502266976
 30
0.0
 11
-10308.89697097705
 21
3470.993502266976
 31
0.0
  0
ARC
  5
30463
330
1F
100
AcDbEntity
  8
02製品
100
AcDbCircle
 10
-10312.23954986499
 20
3467.493476994607
 30
0.0
 40
3.500000000000227
100
AcDbArc
 50
90.0
 51
270.0
  0
LINE
  5
30464
330
1F
100
AcDbEntity
  8
02製品
100
AcDbLine
 10
-10310.58211349414
 20
3470.993502266976
 30
0.0
 11
-10312.23959945605
 21
3470.993502266976
 31
0.0
  0
ARC
  5
30465
330
1F
100
AcDbEntity
  8
02製品
100
AcDbCircle
 10
-11398.23954986499
 20
3467.493476994607
 30
0.0
 40
3.500000000000227
100
AcDbArc
 50
90.0
 51
270.0
  0
ARC
  5
30466
330
1F
100
AcDbEntity
  8
02製品
100
AcDbCircle
 10
-10309.73954986499
 20
3467.493476994607
 30
0.0
 40
3.599999999999073
100
AcDbArc
 50
256.4637972625973
 51
283.536202737459
  0
LINE
  5
30467
330
1F
100
AcDbEntity
  8
02製品
100
AcDbLine
 10
-11393.23956989215
 20
3463.993473179909
 30
0.0
 11
-11394.89693664477
 21
3463.993473179909
 31
0.0
  0
LINE
  5
30468
330
1F
100
AcDbEntity
  8
02製品
100
AcDbLine
 10
-11396.58219837115
 20
3463.993473179909
 30
0.0
 11
-11398.23956512378
 21
3463.993473179909
 31
0.0
  0
LINE
  5
30469
330
1F
100
AcDbEntity
  8
02製品
100
AcDbLine
 10
-10254.23951171802
 20
4157.493477888676
 30
0.0
 11
-10249.73959945605
 21
4157.493477888676
 31
0.0
  0
LINE
  5
3046A
330
1F
100
AcDbEntity
  8
02製品
100
AcDbLine
 10
-10249.73959945605
 20
4157.493477888676
 30
0.0
 11
-10249.73959945605
 21
3991.293473370644
 31
0.0
  0
LINE
  5
3046B
330
1F
100
AcDbEntity
  8
02製品
100
AcDbLine
 10
-10249.73959945605
 20
3443.693502076241
 30
0.0
 11
-10249.73959945605
 21
3351.993484624001
 31
0.0
  0
LINE
  5
3046C
330
1F
100
AcDbEntity
  8
02製品
100
AcDbLine
 10
-10219.73962806628
 20
3347.493453152749
 30
0.0
 11
-10219.73962806628
 21
3351.993484624001
 31
0.0
  0
LINE
  5
3046D
330
1F
100
AcDbEntity
  8
02製品
100
AcDbLine
 10
-10359.73949455188
 20
3347.493453152749
 30
0.0
 11
-10219.73962806628
 21
3347.493453152749
 31
0.0
  0
LINE
  5
3046E
330
1F
100
AcDbEntity
  8
02製品
100
AcDbLine
 10
-10359.73949455188
 20
3351.993484624001
 30
0.0
 11
-10359.73949455188
 21
3347.493453152749
 31
0.0
  0
LINE
  5
3046F
330
1F
100
AcDbEntity
  8
02製品
100
AcDbLine
 10
-10329.73952316211
 20
3351.993484624001
 30
0.0
 11
-10359.73949455188
 21
3351.993484624001
 31
0.0
  0
LINE
  5
30470
330
1F
100
AcDbEntity
  8
02製品
100
AcDbLine
 10
-10329.73952316211
 20
4157.493477888676
 30
0.0
 11
-10329.73952316211
 21
3991.293473370644
 31
0.0
  0
LINE
  5
30471
330
1F
100
AcDbEntity
  8
02製品
100
AcDbLine
 10
-10329.73952316211
 20
3443.693502076241
 30
0.0
 11
-10329.73952316211
 21
3351.993484624001
 31
0.0
  0
LINE
  5
30472
330
1F
100
AcDbEntity
  8
02製品
100
AcDbLine
 10
-10325.23961090015
 20
4157.493477888676
 30
0.0
 11
-10329.73952316211
 21
4157.493477888676
 31
0.0
  0
LINE
  5
30473
330
1F
100
AcDbEntity
  8
02製品
100
AcDbLine
 10
-10325.23961090015
 20
4157.493477888676
 30
0.0
 11
-10325.23961090015
 21
4192.493477106365
 31
0.0
  0
ARC
  5
30474
330
1F
100
AcDbEntity
  8
02製品
100
AcDbCircle
 10
-10320.23954986497
 20
4192.493476994636
 30
0.0
 40
5.0
100
AcDbArc
 50
90.0
 51
180.0
  0
LINE
  5
30475
330
1F
100
AcDbEntity
  8
02製品
100
AcDbLine
 10
-10320.23949645923
 20
4197.493476994636
 30
0.0
 11
-10259.23962615893
 21
4197.493476994636
 31
0.0
  0
ARC
  5
30476
330
1F
100
AcDbEntity
  8
02製品
100
AcDbCircle
 10
-10259.23954986497
 20
4192.493476994636
 30
0.0
 40
5.0
100
AcDbArc
 50
0.0
 51
90.0
  0
LINE
  5
30477
330
1F
100
AcDbEntity
  8
02製品
100
AcDbLine
 10
-10254.23951171802
 20
4192.493477106365
 30
0.0
 11
-10254.23951171802
 21
4157.493477888676
 31
0.0
  0
CIRCLE
  5
30478
330
1F
100
AcDbEntity
  8
02製品
100
AcDbCircle
 10
-10269.73954986497
 20
3467.493476994636
 30
0.0
 40
2.350000000000136
  0
CIRCLE
  5
30479
330
1F
100
AcDbEntity
  8
02製品
100
AcDbCircle
 10
-10309.73954986497
 20
3967.493476994636
 30
0.0
 40
2.350000000000136
  0
CIRCLE
  5
3047A
330
1F
100
AcDbEntity
  8
02製品
100
AcDbCircle
 10
-10269.73954986497
 20
3967.493476994636
 30
0.0
 40
2.350000000000136
  0
CIRCLE
  5
3047B
330
1F
100
AcDbEntity
  8
02製品
100
AcDbCircle
 10
-10269.73954986497
 20
3817.493476994636
 30
0.0
 40
2.350000000000136
  0
CIRCLE
  5
3047C
330
1F
100
AcDbEntity
  8
02製品
100
AcDbCircle
 10
-10309.73954986497
 20
3817.493476994636
 30
0.0
 40
2.350000000000136
  0
CIRCLE
  5
3047D
330
1F
100
AcDbEntity
  8
02製品
100
AcDbCircle
 10
-10269.73954986497
 20
3617.493476994636
 30
0.0
 40
2.350000000000136
  0
CIRCLE
  5
3047E
330
1F
100
AcDbEntity
  8
02製品
100
AcDbCircle
 10
-10309.73954986497
 20
3617.493476994636
 30
0.0
 40
2.350000000000136
  0
CIRCLE
  5
3047F
330
1F
100
AcDbEntity
  8
02製品
100
AcDbCircle
 10
-10309.73954986497
 20
3467.493476994636
 30
0.0
 40
2.350000000000705
  0
CIRCLE
  5
30480
330
1F
100
AcDbEntity
  8
02製品
100
AcDbCircle
 10
-10314.73954986497
 20
4177.493476994636
 30
0.0
 40
5.0
  0
CIRCLE
  5
30481
330
1F
100
AcDbEntity
  8
02製品
100
AcDbCircle
 10
-10264.73954986497
 20
4177.493476994636
 30
0.0
 40
5.0
  0
LINE
  5
30482
330
1F
100
AcDbEntity
  8
02製品
100
AcDbLine
 10
-10219.73962806628
 20
3351.993484624001
 30
0.0
 11
-10249.73959945605
 21
3351.993484624001
 31
0.0
  0
LINE
  5
30483
330
1F
100
AcDbEntity
  8
02製品
100
AcDbLine
 10
-10359.73949455188
 20
3347.493453152749
 30
0.0
 11
-10364.7396089928
 21
3347.493453152749
 31
0.0
  0
LINE
  5
30484
330
1F
100
AcDbEntity
  8
02製品
100
AcDbLine
 10
-10364.7396089928
 20
3347.493453152749
 30
0.0
 11
-10364.7396089928
 21
3351.993484624001
 31
0.0
  0
LINE
  5
30485
330
1F
100
AcDbEntity
  8
02製品
100
AcDbLine
 10
-10364.7396089928
 20
3351.993484624001
 30
0.0
 11
-10359.73949455188
 21
3351.993484624001
 31
0.0
  0
LINE
  5
30486
330
1F
100
AcDbEntity
  8
02製品
100
AcDbLine
 10
-10214.73951362537
 20
3351.993484624001
 30
0.0
 11
-10214.73951362537
 21
3347.493453152749
 31
0.0
  0
LINE
  5
30487
330
1F
100
AcDbEntity
  8
02製品
100
AcDbLine
 10
-10214.73951362537
 20
3347.493453152749
 30
0.0
 11
-10219.73962806628
 21
3347.493453152749
 31
0.0
  0
LINE
  5
30488
330
1F
100
AcDbEntity
  8
02製品
100
AcDbLine
 10
-10219.73962806628
 20
3351.993484624001
 30
0.0
 11
-10214.73951362537
 21
3351.993484624001
 31
0.0
  0
LINE
  5
30489
330
1F
100
AcDbEntity
  8
02製品
100
AcDbLine
 10
-11380.23955844806
 20
4157.493477888676
 30
0.0
 11
-11375.73952697681
 21
4157.493477888676
 31
0.0
  0
LINE
  5
3048A
330
1F
100
AcDbEntity
  8
02製品
100
AcDbLine
 10
-11375.73952697681
 20
4157.493477888676
 30
0.0
 11
-11375.73952697681
 21
3991.293473370644
 31
0.0
  0
LINE
  5
3048B
330
1F
100
AcDbEntity
  8
02製品
100
AcDbLine
 10
-11375.73952697681
 20
3443.693502076241
 30
0.0
 11
-11375.73952697681
 21
3351.993484624001
 31
0.0
  0
LINE
  5
3048C
330
1F
100
AcDbEntity
  8
02製品
100
AcDbLine
 10
-11345.73955558704
 20
3351.993484624001
 30
0.0
 11
-11375.73952697681
 21
3351.993484624001
 31
0.0
  0
LINE
  5
3048D
330
1F
100
AcDbEntity
  8
02製品
100
AcDbLine
 10
-11345.73955558704
 20
3347.493453152749
 30
0.0
 11
-11345.73955558704
 21
3351.993484624001
 31
0.0
  0
LINE
  5
3048E
330
1F
100
AcDbEntity
  8
02製品
100
AcDbLine
 10
-11485.73954128192
 20
3347.493453152749
 30
0.0
 11
-11345.73955558704
 21
3347.493453152749
 31
0.0
  0
LINE
  5
3048F
330
1F
100
AcDbEntity
  8
02製品
100
AcDbLine
 10
-11485.73954128192
 20
3351.993484624001
 30
0.0
 11
-11485.73954128192
 21
3347.493453152749
 31
0.0
  0
LINE
  5
30490
330
1F
100
AcDbEntity
  8
02製品
100
AcDbLine
 10
-11455.73956989215
 20
3351.993484624001
 30
0.0
 11
-11485.73954128192
 21
3351.993484624001
 31
0.0
  0
LINE
  5
30491
330
1F
100
AcDbEntity
  8
02製品
100
AcDbLine
 10
-11451.2395384209
 20
4157.493477888676
 30
0.0
 11
-11455.73956989215
 21
4157.493477888676
 31
0.0
  0
LINE
  5
30492
330
1F
100
AcDbEntity
  8
02製品
100
AcDbLine
 10
-11451.2395384209
 20
4157.493477888676
 30
0.0
 11
-11451.2395384209
 21
4192.493477106365
 31
0.0
  0
ARC
  5
30493
330
1F
100
AcDbEntity
  8
02製品
100
AcDbCircle
 10
-11446.23954986497
 20
4192.493476994636
 30
0.0
 40
5.0
100
AcDbArc
 50
90.0
 51
180.0
  0
LINE
  5
30494
330
1F
100
AcDbEntity
  8
02製品
100
AcDbLine
 10
-11446.23954318927
 20
4197.493476994636
 30
0.0
 11
-11385.23955367969
 21
4197.493476994636
 31
0.0
  0
ARC
  5
30495
330
1F
100
AcDbEntity
  8
02製品
100
AcDbCircle
 10
-11385.23954986497
 20
4192.493476994636
 30
0.0
 40
5.0
100
AcDbArc
 50
0.0
 51
90.0
  0
LINE
  5
30496
330
1F
100
AcDbEntity
  8
02製品
100
AcDbLine
 10
-11380.23955844806
 20
4192.493477106365
 30
0.0
 11
-11380.23955844806
 21
4157.493477888676
 31
0.0
  0
CIRCLE
  5
30497
330
1F
100
AcDbEntity
  8
02製品
100
AcDbCircle
 10
-11395.73954986497
 20
3467.493476994636
 30
0.0
 40
2.349999999999852
  0
CIRCLE
  5
30498
330
1F
100
AcDbEntity
  8
02製品
100
AcDbCircle
 10
-11435.73954986497
 20
3967.493476994636
 30
0.0
 40
2.350000000000136
  0
CIRCLE
  5
30499
330
1F
100
AcDbEntity
  8
02製品
100
AcDbCircle
 10
-11395.73954986497
 20
3967.493476994636
 30
0.0
 40
2.349999999999852
  0
CIRCLE
  5
3049A
330
1F
100
AcDbEntity
  8
02製品
100
AcDbCircle
 10
-11395.73954986497
 20
3817.493476994636
 30
0.0
 40
2.349999999999852
  0
CIRCLE
  5
3049B
330
1F
100
AcDbEntity
  8
02製品
100
AcDbCircle
 10
-11435.73954986497
 20
3817.493476994636
 30
0.0
 40
2.350000000000136
  0
CIRCLE
  5
3049C
330
1F
100
AcDbEntity
  8
02製品
100
AcDbCircle
 10
-11395.73954986497
 20
3617.493476994636
 30
0.0
 40
2.349999999999852
  0
CIRCLE
  5
3049D
330
1F
100
AcDbEntity
  8
02製品
100
AcDbCircle
 10
-11435.73954986497
 20
3617.493476994636
 30
0.0
 40
2.350000000000136
  0
CIRCLE
  5
3049E
330
1F
100
AcDbEntity
  8
02製品
100
AcDbCircle
 10
-11435.73954986497
 20
3467.493476994636
 30
0.0
 40
2.350000000000136
  0
CIRCLE
  5
3049F
330
1F
100
AcDbEntity
  8
02製品
100
AcDbCircle
 10
-11440.73954986497
 20
4177.493476994636
 30
0.0
 40
5.0
  0
CIRCLE
  5
304A0
330
1F
100
AcDbEntity
  8
02製品
100
AcDbCircle
 10
-11390.73954986497
 20
4177.493476994636
 30
0.0
 40
5.0
  0
LINE
  5
304A1
330
1F
100
AcDbEntity
  8
02製品
100
AcDbLine
 10
-11455.73956989215
 20
4157.493477888676
 30
0.0
 11
-11455.73956989215
 21
3991.293473370644
 31
0.0
  0
LINE
  5
304A2
330
1F
100
AcDbEntity
  8
02製品
100
AcDbLine
 10
-11455.73956989215
 20
3443.693502076241
 30
0.0
 11
-11455.73956989215
 21
3351.993484624001
 31
0.0
  0
LINE
  5
304A3
330
1F
100
AcDbEntity
  8
02製品
100
AcDbLine
 10
-11485.73954128192
 20
3347.493453152749
 30
0.0
 11
-11490.73953651355
 21
3347.493453152749
 31
0.0
  0
LINE
  5
304A4
330
1F
100
AcDbEntity
  8
02製品
100
AcDbLine
 10
-11490.73953651355
 20
3347.493453152749
 30
0.0
 11
-11490.73953651355
 21
3351.993484624001
 31
0.0
  0
LINE
  5
304A5
330
1F
100
AcDbEntity
  8
02製品
100
AcDbLine
 10
-11490.73953651355
 20
3351.993484624001
 30
0.0
 11
-11485.73954128192
 21
3351.993484624001
 31
0.0
  0
LINE
  5
304A6
330
1F
100
AcDbEntity
  8
02製品
100
AcDbLine
 10
-11340.73956035541
 20
3351.993484624001
 30
0.0
 11
-11340.73956035541
 21
3347.493453152749
 31
0.0
  0
LINE
  5
304A7
330
1F
100
AcDbEntity
  8
02製品
100
AcDbLine
 10
-11340.73956035541
 20
3347.493453152749
 30
0.0
 11
-11345.73955558704
 21
3347.493453152749
 31
0.0
  0
LINE
  5
304A8
330
1F
100
AcDbEntity
  8
02製品
100
AcDbLine
 10
-11345.73955558704
 20
3351.993484624001
 30
0.0
 11
-11340.73956035541
 21
3351.993484624001
 31
0.0
  0
ARC
  5
304A9
330
1F
100
AcDbEntity
  8
02製品
100
AcDbCircle
 10
-12379.73954986499
 20
4194.493476994607
 30
0.0
 40
3.000000000000114
100
AcDbArc
 50
0.0
 51
90.0
  0
LINE
  5
304AA
330
1F
100
AcDbEntity
  8
02製品
100
AcDbLine
 10
-12376.73954390452
 20
4194.49347696853
 30
0.0
 11
-12376.73954390452
 21
4157.493477888676
 31
0.0
  0
LINE
  5
304AB
330
1F
100
AcDbEntity
  8
02製品
100
AcDbLine
 10
-12376.73954390452
 20
4157.493477888676
 30
0.0
 11
-12486.73955075906
 21
4047.493471034142
 31
0.0
  0
LINE
  5
304AC
330
1F
100
AcDbEntity
  8
02製品
100
AcDbLine
 10
-12486.73955075906
 20
4047.493471034142
 30
0.0
 11
-12486.73955075906
 21
3991.293473370644
 31
0.0
  0
LINE
  5
304AD
330
1F
100
AcDbEntity
  8
02製品
100
AcDbLine
 10
-12486.73955075906
 20
3443.693502076241
 30
0.0
 11
-12486.73955075906
 21
3347.493453152749
 31
0.0
  0
LINE
  5
304AE
330
1F
100
AcDbEntity
  8
02製品
100
AcDbLine
 10
-12486.73955075906
 20
3347.493453152749
 30
0.0
 11
-12507.23945074247
 21
3347.493453152749
 31
0.0
  0
LINE
  5
304AF
330
1F
100
AcDbEntity
  8
02製品
100
AcDbLine
 10
-12507.23945074247
 20
3351.993484624001
 30
0.0
 11
-12507.23945074247
 21
3347.493453152749
 31
0.0
  0
LINE
  5
304B0
330
1F
100
AcDbEntity
  8
02製品
100
AcDbLine
 10
-12522.23944994153
 20
3351.993484624001
 30
0.0
 11
-12507.23945074247
 21
3351.993484624001
 31
0.0
  0
LINE
  5
304B1
330
1F
100
AcDbEntity
  8
02製品
100
AcDbLine
 10
-12522.23944994153
 20
3351.993603833291
 30
0.0
 11
-12522.23944994153
 21
3351.993484624001
 31
0.0
  0
LINE
  5
304B2
330
1F
100
AcDbEntity
  8
02製品
100
AcDbLine
 10
-12526.73954986499
 20
3351.993603833291
 30
0.0
 11
-12522.23944994153
 21
3351.993603833291
 31
0.0
  0
LINE
  5
304B3
330
1F
100
AcDbEntity
  8
02製品
100
AcDbLine
 10
-12526.73954986499
 20
4197.493476994607
 30
0.0
 11
-12526.73954986499
 21
3351.993603833291
 31
0.0
  0
LINE
  5
304B4
330
1F
100
AcDbEntity
  8
02製品
100
AcDbLine
 10
-12379.7395499842
 20
4197.493476994607
 30
0.0
 11
-12526.73954986499
 21
4197.493476994607
 31
0.0
  0
CIRCLE
  5
304B5
330
1F
100
AcDbEntity
  8
02製品
100
AcDbCircle
 10
-12396.43954986499
 20
4177.493476994607
 30
0.0
 40
4.999999999999716
  0
CIRCLE
  5
304B6
330
1F
100
AcDbEntity
  8
02製品
100
AcDbCircle
 10
-12496.43954986499
 20
4177.493476994607
 30
0.0
 40
4.999999999999716
  0
CIRCLE
  5
304B7
330
1F
100
AcDbEntity
  8
02製品
100
AcDbCircle
 10
-12501.43954986499
 20
3467.493476994607
 30
0.0
 40
2.350000000000136
  0
CIRCLE
  5
304B8
330
1F
100
AcDbEntity
  8
02製品
100
AcDbCircle
 10
-12501.43954986499
 20
3617.493476994607
 30
0.0
 40
2.350000000000136
  0
CIRCLE
  5
304B9
330
1F
100
AcDbEntity
  8
02製品
100
AcDbCircle
 10
-12501.43954986499
 20
3817.493476994607
 30
0.0
 40
2.350000000000136
  0
CIRCLE
  5
304BA
330
1F
100
AcDbEntity
  8
02製品
100
AcDbCircle
 10
-12501.43954986499
 20
3967.493476994607
 30
0.0
 40
2.350000000000136
  0
LINE
  5
304BB
330
1F
100
AcDbEntity
  8
02製品
100
AcDbLine
 10
-12522.23944994153
 20
3351.993484624001
 30
0.0
 11
-12522.23944994153
 21
3347.493453152749
 31
0.0
  0
LINE
  5
304BC
330
1F
100
AcDbEntity
  8
02製品
100
AcDbLine
 10
-12507.23945074247
 20
3347.493453152749
 30
0.0
 11
-12522.23944994153
 21
3347.493453152749
 31
0.0
  0
LINE
  5
304BD
330
1F
100
AcDbEntity
  8
02製品
100
AcDbLine
 10
-12471.73955016301
 20
3351.993484624001
 30
0.0
 11
-12471.73955016301
 21
3347.493453152749
 31
0.0
  0
LINE
  5
304BE
330
1F
100
AcDbEntity
  8
02製品
100
AcDbLine
 10
-12486.73955075906
 20
3351.993484624001
 30
0.0
 11
-12471.73955016301
 21
3351.993484624001
 31
0.0
  0
LINE
  5
304BF
330
1F
100
AcDbEntity
  8
02製品
100
AcDbLine
 10
-12486.73955075906
 20
3347.493453152749
 30
0.0
 11
-12471.73955016301
 21
3347.493453152749
 31
0.0
  0
LINE
  5
304C0
330
1F
100
AcDbEntity
  8
02製品
100
AcDbLine
 10
-12466.73955120609
 20
3347.493453152749
 30
0.0
 11
-12466.73955120609
 21
3351.993484624001
 31
0.0
  0
LINE
  5
304C1
330
1F
100
AcDbEntity
  8
02製品
100
AcDbLine
 10
-12466.73955120609
 20
3351.993484624001
 30
0.0
 11
-12471.73955016301
 21
3351.993484624001
 31
0.0
  0
LINE
  5
304C2
330
1F
100
AcDbEntity
  8
02製品
100
AcDbLine
 10
-12471.73955016301
 20
3347.493453152749
 30
0.0
 11
-12466.73955120609
 21
3347.493453152749
 31
0.0
  0
LINE
  5
304C3
330
1F
100
AcDbEntity
  8
02製品
100
AcDbLine
 10
-9178.739500273925
 20
4197.493476994636
 30
0.0
 11
-9178.739500273925
 21
3351.993603833291
 31
0.0
  0
LINE
  5
304C4
330
1F
100
AcDbEntity
  8
02製品
100
AcDbLine
 10
-9178.739500273925
 20
3351.993603833291
 30
0.0
 11
-9183.239650954467
 21
3351.993603833291
 31
0.0
  0
LINE
  5
304C5
330
1F
100
AcDbEntity
  8
02製品
100
AcDbLine
 10
-9183.239650954467
 20
3351.993603833291
 30
0.0
 11
-9183.239650954467
 21
3351.993484624001
 31
0.0
  0
LINE
  5
304C6
330
1F
100
AcDbEntity
  8
02製品
100
AcDbLine
 10
-9183.239650954467
 20
3351.993484624001
 30
0.0
 11
-9198.239755858642
 21
3351.993484624001
 31
0.0
  0
LINE
  5
304C7
330
1F
100
AcDbEntity
  8
02製品
100
AcDbLine
 10
-9198.239755858642
 20
3351.993484624001
 30
0.0
 11
-9198.239755858642
 21
3347.493453152749
 31
0.0
  0
LINE
  5
304C8
330
1F
100
AcDbEntity
  8
02製品
100
AcDbLine
 10
-9218.739462126952
 20
3347.493453152749
 30
0.0
 11
-9198.239755858642
 21
3347.493453152749
 31
0.0
  0
LINE
  5
304C9
330
1F
100
AcDbEntity
  8
02製品
100
AcDbLine
 10
-9218.739462126952
 20
4047.493471034142
 30
0.0
 11
-9218.739462126952
 21
3991.293473370644
 31
0.0
  0
LINE
  5
304CA
330
1F
100
AcDbEntity
  8
02製品
100
AcDbLine
 10
-9218.739462126952
 20
3443.693502076241
 30
0.0
 11
-9218.739462126952
 21
3347.493453152749
 31
0.0
  0
LINE
  5
304CB
330
1F
100
AcDbEntity
  8
02製品
100
AcDbLine
 10
-9328.739595641357
 20
4157.493477888676
 30
0.0
 11
-9218.739462126952
 21
4047.493471034142
 31
0.0
  0
LINE
  5
304CC
330
1F
100
AcDbEntity
  8
02製品
100
AcDbLine
 10
-9328.739595641357
 20
4194.49347696853
 30
0.0
 11
-9328.739595641357
 21
4157.493477888676
 31
0.0
  0
ARC
  5
304CD
330
1F
100
AcDbEntity
  8
02製品
100
AcDbCircle
 10
-9325.739549864971
 20
4194.493476994665
 30
0.0
 40
3.000000000000682
100
AcDbArc
 50
90.0
 51
180.0
  0
LINE
  5
304CE
330
1F
100
AcDbEntity
  8
02製品
100
AcDbLine
 10
-9325.739574660522
 20
4197.493476994636
 30
0.0
 11
-9178.739500273925
 21
4197.493476994636
 31
0.0
  0
CIRCLE
  5
304CF
330
1F
100
AcDbEntity
  8
02製品
100
AcDbCircle
 10
-9309.03954986497
 20
4177.493476994636
 30
0.0
 40
4.999999999999432
  0
CIRCLE
  5
304D0
330
1F
100
AcDbEntity
  8
02製品
100
AcDbCircle
 10
-9209.03954986497
 20
4177.493476994636
 30
0.0
 40
4.999999999999432
  0
CIRCLE
  5
304D1
330
1F
100
AcDbEntity
  8
02製品
100
AcDbCircle
 10
-9204.03954986497
 20
3467.493476994636
 30
0.0
 40
2.350000000001273
  0
CIRCLE
  5
304D2
330
1F
100
AcDbEntity
  8
02製品
100
AcDbCircle
 10
-9204.03954986497
 20
3617.493476994636
 30
0.0
 40
2.350000000001273
  0
CIRCLE
  5
304D3
330
1F
100
AcDbEntity
  8
02製品
100
AcDbCircle
 10
-9204.03954986497
 20
3817.493476994636
 30
0.0
 40
2.350000000001273
  0
CIRCLE
  5
304D4
330
1F
100
AcDbEntity
  8
02製品
100
AcDbCircle
 10
-9204.03954986497
 20
3967.493476994636
 30
0.0
 40
2.350000000001273
  0
LINE
  5
304D5
330
1F
100
AcDbEntity
  8
02製品
100
AcDbLine
 10
-9183.239650954467
 20
3351.993484624001
 30
0.0
 11
-9183.239650954467
 21
3347.493453152749
 31
0.0
  0
LINE
  5
304D6
330
1F
100
AcDbEntity
  8
02製品
100
AcDbLine
 10
-9198.239755858642
 20
3347.493453152749
 30
0.0
 11
-9183.239650954467
 21
3347.493453152749
 31
0.0
  0
LINE
  5
304D7
330
1F
100
AcDbEntity
  8
02製品
100
AcDbLine
 10
-9233.739567031127
 20
3351.993484624001
 30
0.0
 11
-9233.739567031127
 21
3347.493453152749
 31
0.0
  0
LINE
  5
304D8
330
1F
100
AcDbEntity
  8
02製品
100
AcDbLine
 10
-9218.739462126952
 20
3351.993484624001
 30
0.0
 11
-9233.739567031127
 21
3351.993484624001
 31
0.0
  0
LINE
  5
304D9
330
1F
100
AcDbEntity
  8
02製品
100
AcDbLine
 10
-9218.739462126952
 20
3347.493453152749
 30
0.0
 11
-9233.739567031127
 21
3347.493453152749
 31
0.0
  0
LINE
  5
304DA
330
1F
100
AcDbEntity
  8
02製品
100
AcDbLine
 10
-9238.739443053466
 20
3347.493453152749
 30
0.0
 11
-9238.739443053466
 21
3351.993484624001
 31
0.0
  0
LINE
  5
304DB
330
1F
100
AcDbEntity
  8
02製品
100
AcDbLine
 10
-9238.739443053466
 20
3351.993484624001
 30
0.0
 11
-9233.739567031127
 21
3351.993484624001
 31
0.0
  0
LINE
  5
304DC
330
1F
100
AcDbEntity
  8
02製品
100
AcDbLine
 10
-9233.739567031127
 20
3347.493453152749
 30
0.0
 11
-9238.739443053466
 21
3347.493453152749
 31
0.0
  0
LINE
  5
304DD
330
1F
100
AcDbEntity
  8
02製品
100
AcDbLine
 10
-12376.73954390452
 20
4157.493477888676
 30
0.0
 11
-11455.73956989215
 21
4157.493477888676
 31
0.0
  0
LINE
  5
304DE
330
1F
100
AcDbEntity
  8
02製品
100
AcDbLine
 10
-12379.7395499842
 20
4197.493476994607
 30
0.0
 11
-11446.23954318927
 21
4197.493476994607
 31
0.0
  0
LINE
  5
304DF
330
1F
100
AcDbEntity
  8
02製品
100
AcDbLine
 10
-9328.739595641357
 20
4157.493477888676
 30
0.0
 11
-10249.73959945605
 21
4157.493477888676
 31
0.0
  0
LINE
  5
304E0
330
1F
100
AcDbEntity
  8
02製品
100
AcDbLine
 10
-9325.739574660522
 20
4197.493476994636
 30
0.0
 11
-10259.23962615893
 21
4197.493476994636
 31
0.0
  0
LINE
  5
304E1
330
1F
100
AcDbEntity
  8
02製品
100
AcDbLine
 10
-10320.23949645923
 20
4197.493476994636
 30
0.0
 11
-11385.23955367969
 21
4197.493476994636
 31
0.0
  0
LINE
  5
304E2
330
1F
100
AcDbEntity
  8
02製品
100
AcDbLine
 10
-10329.73952316211
 20
4157.493477888676
 30
0.0
 11
-11375.73952697681
 21
4157.493477888676
 31
0.0
  0
LINE
  5
304E6
330
1F
100
AcDbEntity
  8
02製品
100
AcDbLine
 10
-12521.43946800472
 20
5165.298979556102
 30
0.0
 11
-12527.939467906
 21
5165.298979556102
 31
0.0
  0
LINE
  5
304E7
330
1F
100
AcDbEntity
  8
02製品
100
AcDbLine
 10
-12521.43946800472
 20
6066.298957740803
 30
0.0
 11
-12527.939467906
 21
6066.298957740803
 31
0.0
  0
LINE
  5
304E8
330
1F
100
AcDbEntity
  8
02製品
100
AcDbLine
 10
-12527.939467906
 20
5165.298979556102
 30
0.0
 11
-12527.939467906
 21
6066.298957740803
 31
0.0
  0
LINE
  5
304E9
330
1F
100
AcDbEntity
  8
02製品
100
AcDbLine
 10
-12526.739467849
 20
6108.298953449268
 30
0.0
 11
-12527.939467906
 21
6108.298953449268
 31
0.0
  0
LINE
  5
304EA
330
1F
100
AcDbEntity
  8
02製品
100
AcDbLine
 10
-12526.739467849
 20
6066.298957740803
 30
0.0
 11
-12526.739467849
 21
6073.798950588245
 31
0.0
  0
LINE
  5
304EB
330
1F
100
AcDbEntity
  8
02製品
100
AcDbLine
 10
-12527.939467906
 20
6066.298957740803
 30
0.0
 11
-12527.939467906
 21
6108.298953449268
 31
0.0
  0
LINE
  5
304EC
330
1F
100
AcDbEntity
  8
02製品
100
AcDbLine
 10
-12527.939467906
 20
6111.298974430103
 30
0.0
 11
-12526.739467849
 21
6111.298974430103
 31
0.0
  0
LINE
  5
304ED
330
1F
100
AcDbEntity
  8
02製品
100
AcDbLine
 10
-12527.939467906
 20
6108.298953449268
 30
0.0
 11
-12527.939467906
 21
6111.298974430103
 31
0.0
  0
LINE
  5
304EE
330
1F
100
AcDbEntity
  8
02製品
100
AcDbLine
 10
-12527.939467906
 20
5123.298980122347
 30
0.0
 11
-12526.739467849
 21
5123.298980122347
 31
0.0
  0
LINE
  5
304EF
330
1F
100
AcDbEntity
  8
02製品
100
AcDbLine
 10
-12526.739467849
 20
5157.798979258079
 30
0.0
 11
-12526.739467849
 21
5165.298979556102
 31
0.0
  0
LINE
  5
304F0
330
1F
100
AcDbEntity
  8
02製品
100
AcDbLine
 10
-12527.939467906
 20
5165.298979556102
 30
0.0
 11
-12527.939467906
 21
5123.298980122347
 31
0.0
  0
LINE
  5
304F1
330
1F
100
AcDbEntity
  8
02製品
100
AcDbLine
 10
-12526.739467849
 20
5120.29898009627
 30
0.0
 11
-12527.939467906
 21
5120.29898009627
 31
0.0
  0
LINE
  5
304F2
330
1F
100
AcDbEntity
  8
02製品
100
AcDbLine
 10
-12527.939467906
 20
5120.29898009627
 30
0.0
 11
-12527.939467906
 21
5123.298980122347
 31
0.0
  0
LINE
  5
304F3
330
1F
100
AcDbEntity
  8
02製品
100
AcDbLine
 10
-9184.039463271361
 20
6066.298957740803
 30
0.0
 11
-9177.539457549316
 21
6066.298957740803
 31
0.0
  0
LINE
  5
304F4
330
1F
100
AcDbEntity
  8
02製品
100
AcDbLine
 10
-9184.039463271361
 20
5165.298979556102
 30
0.0
 11
-9177.539457549316
 21
5165.298979556102
 31
0.0
  0
LINE
  5
304F5
330
1F
100
AcDbEntity
  8
02製品
100
AcDbLine
 10
-9177.539457549316
 20
6066.298957740803
 30
0.0
 11
-9177.539457549316
 21
5165.298979556102
 31
0.0
  0
LINE
  5
304F6
330
1F
100
AcDbEntity
  8
02製品
100
AcDbLine
 10
-9177.539457549316
 20
6108.298953449268
 30
0.0
 11
-9178.739418257934
 21
6108.298953449268
 31
0.0
  0
LINE
  5
304F7
330
1F
100
AcDbEntity
  8
02製品
100
AcDbLine
 10
-9178.739418257934
 20
6111.298974430103
 30
0.0
 11
-9177.539457549316
 21
6111.298974430103
 31
0.0
  0
LINE
  5
304F8
330
1F
100
AcDbEntity
  8
02製品
100
AcDbLine
 10
-9177.539457549316
 20
6111.298974430103
 30
0.0
 11
-9177.539457549316
 21
6108.298953449268
 31
0.0
  0
LINE
  5
304F9
330
1F
100
AcDbEntity
  8
02製品
100
AcDbLine
 10
-9178.739418257934
 20
6073.798950588245
 30
0.0
 11
-9178.739418257934
 21
6066.298957740803
 31
0.0
  0
LINE
  5
304FA
330
1F
100
AcDbEntity
  8
02製品
100
AcDbLine
 10
-9177.539457549316
 20
6066.298957740803
 30
0.0
 11
-9177.539457549316
 21
6108.298953449268
 31
0.0
  0
LINE
  5
304FB
330
1F
100
AcDbEntity
  8
02製品
100
AcDbLine
 10
-9178.739418257934
 20
5123.298980122347
 30
0.0
 11
-9177.539457549316
 21
5123.298980122347
 31
0.0
  0
LINE
  5
304FC
330
1F
100
AcDbEntity
  8
02製品
100
AcDbLine
 10
-9178.739418257934
 20
5165.298979556102
 30
0.0
 11
-9178.739418257934
 21
5157.798979258079
 31
0.0
  0
LINE
  5
304FD
330
1F
100
AcDbEntity
  8
02製品
100
AcDbLine
 10
-9177.539457549316
 20
5165.298979556102
 30
0.0
 11
-9177.539457549316
 21
5123.298980122347
 31
0.0
  0
LINE
  5
304FE
330
1F
100
AcDbEntity
  8
02製品
100
AcDbLine
 10
-9177.539457549316
 20
5120.29898009627
 30
0.0
 11
-9178.739418257934
 21
5120.29898009627
 31
0.0
  0
LINE
  5
304FF
330
1F
100
AcDbEntity
  8
02製品
100
AcDbLine
 10
-9177.539457549316
 20
5123.298980122347
 30
0.0
 11
-9177.539457549316
 21
5120.29898009627
 31
0.0
  0
LINE
  5
30500
330
1F
100
AcDbEntity
  8
02製品
100
AcDbLine
 10
-9231.539358367187
 20
5116.598980095152
 30
0.0
 11
-10242.23958419726
 21
5116.598980095152
 31
0.0
  0
LINE
  5
30501
330
1F
100
AcDbEntity
  8
02製品
100
AcDbLine
 10
-10242.23958419726
 20
5123.098979996432
 30
0.0
 11
-10242.23958419726
 21
5116.598980095152
 31
0.0
  0
LINE
  5
30502
330
1F
100
AcDbEntity
  8
02製品
100
AcDbLine
 10
-9231.539358367187
 20
5123.098979996432
 30
0.0
 11
-9231.539358367187
 21
5122.298979958434
 31
0.0
  0
LINE
  5
30503
330
1F
100
AcDbEntity
  8
02製品
100
AcDbLine
 10
-9231.539358367187
 20
5117.798980152149
 30
0.0
 11
-9231.539358367187
 21
5116.598980095152
 31
0.0
  0
LINE
  5
30504
330
1F
100
AcDbEntity
  8
02製品
100
AcDbLine
 10
-10284.2394010918
 20
5117.798980152091
 30
0.0
 11
-10284.2394010918
 21
5116.598980095152
 31
0.0
  0
LINE
  5
30505
330
1F
100
AcDbEntity
  8
02製品
100
AcDbLine
 10
-10242.23958419726
 20
5117.798980152091
 30
0.0
 11
-10249.73951744006
 21
5117.798980152091
 31
0.0
  0
LINE
  5
30506
330
1F
100
AcDbEntity
  8
02製品
100
AcDbLine
 10
-10242.23958419726
 20
5116.598980095152
 30
0.0
 11
-10284.2394010918
 21
5116.598980095152
 31
0.0
  0
LINE
  5
30507
330
1F
100
AcDbEntity
  8
02製品
100
AcDbLine
 10
-9189.539541472655
 20
5116.598980095152
 30
0.0
 11
-9189.539541472655
 21
5117.798980152091
 31
0.0
  0
LINE
  5
30508
330
1F
100
AcDbEntity
  8
02製品
100
AcDbLine
 10
-9231.539358367187
 20
5116.598980095152
 30
0.0
 11
-9189.539541472655
 21
5116.598980095152
 31
0.0
  0
LINE
  5
30509
330
1F
100
AcDbEntity
  8
02製品
100
AcDbLine
 10
-9186.53952049182
 20
5117.798980152091
 30
0.0
 11
-9186.53952049182
 21
5116.598980095152
 31
0.0
  0
LINE
  5
3050A
330
1F
100
AcDbEntity
  8
02製品
100
AcDbLine
 10
-9186.53952049182
 20
5116.598980095152
 30
0.0
 11
-9189.539541472655
 21
5116.598980095152
 31
0.0
  0
LINE
  5
3050B
330
1F
100
AcDbEntity
  8
02製品
100
AcDbLine
 10
-10287.23942207263
 20
5116.598980095152
 30
0.0
 11
-10287.23942207263
 21
5117.798980152091
 31
0.0
  0
LINE
  5
3050C
330
1F
100
AcDbEntity
  8
02製品
100
AcDbLine
 10
-10284.2394010918
 20
5116.598980095152
 30
0.0
 11
-10287.23942207263
 21
5116.598980095152
 31
0.0
  0
LINE
  5
3050D
330
1F
100
AcDbEntity
  8
02製品
100
AcDbLine
 10
-12473.9394681351
 20
6108.498986637134
 30
0.0
 11
-12473.9394681351
 21
6109.29900017931
 31
0.0
  0
LINE
  5
3050E
330
1F
100
AcDbEntity
  8
02製品
100
AcDbLine
 10
-12473.9394681351
 20
6113.798972045917
 30
0.0
 11
-12473.9394681351
 21
6114.99899235918
 31
0.0
  0
LINE
  5
3050F
330
1F
100
AcDbEntity
  8
02製品
100
AcDbLine
 10
-12473.9394681351
 20
6114.99899235918
 30
0.0
 11
-11463.23942111896
 21
6114.99899235918
 31
0.0
  0
LINE
  5
30510
330
1F
100
AcDbEntity
  8
02製品
100
AcDbLine
 10
-11463.23942111896
 20
6108.498986637134
 30
0.0
 11
-11463.23942111896
 21
6114.99899235918
 31
0.0
  0
LINE
  5
30511
330
1F
100
AcDbEntity
  8
02製品
100
AcDbLine
 10
-11421.23948501514
 20
6113.798972045917
 30
0.0
 11
-11421.23948501514
 21
6114.99899235918
 31
0.0
  0
LINE
  5
30512
330
1F
100
AcDbEntity
  8
02製品
100
AcDbLine
 10
-11463.23942111896
 20
6113.798972045917
 30
0.0
 11
-11455.73948787616
 21
6113.798972045917
 31
0.0
  0
LINE
  5
30513
330
1F
100
AcDbEntity
  8
02製品
100
AcDbLine
 10
-11463.23942111896
 20
6114.99899235918
 30
0.0
 11
-11421.23948501514
 21
6114.99899235918
 31
0.0
  0
LINE
  5
30514
330
1F
100
AcDbEntity
  8
02製品
100
AcDbLine
 10
-12515.93946756886
 20
6114.99899235918
 30
0.0
 11
-12515.93946756886
 21
6113.798972045917
 31
0.0
  0
LINE
  5
30515
330
1F
100
AcDbEntity
  8
02製品
100
AcDbLine
 10
-12473.9394681351
 20
6114.99899235918
 30
0.0
 11
-12515.93946756886
 21
6114.99899235918
 31
0.0
  0
LINE
  5
30516
330
1F
100
AcDbEntity
  8
02製品
100
AcDbLine
 10
-11418.2394640343
 20
6114.99899235918
 30
0.0
 11
-11418.2394640343
 21
6113.798972045917
 31
0.0
  0
LINE
  5
30517
330
1F
100
AcDbEntity
  8
02製品
100
AcDbLine
 10
-11421.23948501514
 20
6114.99899235918
 30
0.0
 11
-11418.2394640343
 21
6114.99899235918
 31
0.0
  0
LINE
  5
30518
330
1F
100
AcDbEntity
  8
02製品
100
AcDbLine
 10
-12518.93946806059
 20
6113.798972045917
 30
0.0
 11
-12518.93946806059
 21
6114.99899235918
 31
0.0
  0
LINE
  5
30519
330
1F
100
AcDbEntity
  8
02製品
100
AcDbLine
 10
-12518.93946806059
 20
6114.99899235918
 30
0.0
 11
-12515.93946756886
 21
6114.99899235918
 31
0.0
  0
LINE
  5
3051A
330
1F
100
AcDbEntity
  8
02製品
100
AcDbLine
 10
-10242.23958419726
 20
6114.99899235918
 30
0.0
 11
-9231.539358367187
 21
6114.99899235918
 31
0.0
  0
LINE
  5
3051B
330
1F
100
AcDbEntity
  8
02製品
100
AcDbLine
 10
-9231.539358367187
 20
6108.498986637134
 30
0.0
 11
-9231.539358367187
 21
6109.29900017931
 31
0.0
  0
LINE
  5
3051C
330
1F
100
AcDbEntity
  8
02製品
100
AcDbLine
 10
-9231.539358367187
 20
6113.798972045917
 30
0.0
 11
-9231.539358367187
 21
6114.99899235918
 31
0.0
  0
LINE
  5
3051D
330
1F
100
AcDbEntity
  8
02製品
100
AcDbLine
 10
-10242.23958419726
 20
6108.498986637134
 30
0.0
 11
-10242.23958419726
 21
6114.99899235918
 31
0.0
  0
LINE
  5
3051E
330
1F
100
AcDbEntity
  8
02製品
100
AcDbLine
 10
-9189.539541472655
 20
6113.798972045917
 30
0.0
 11
-9189.539541472655
 21
6114.99899235918
 31
0.0
  0
LINE
  5
3051F
330
1F
100
AcDbEntity
  8
02製品
100
AcDbLine
 10
-9231.539358367187
 20
6114.99899235918
 30
0.0
 11
-9189.539541472655
 21
6114.99899235918
 31
0.0
  0
LINE
  5
30520
330
1F
100
AcDbEntity
  8
02製品
100
AcDbLine
 10
-10284.2394010918
 20
6114.99899235918
 30
0.0
 11
-10284.2394010918
 21
6113.798972045917
 31
0.0
  0
LINE
  5
30521
330
1F
100
AcDbEntity
  8
02製品
100
AcDbLine
 10
-10287.23942207263
 20
6113.798972045917
 30
0.0
 11
-10287.23942207263
 21
6114.99899235918
 31
0.0
  0
LINE
  5
30522
330
1F
100
AcDbEntity
  8
02製品
100
AcDbLine
 10
-10287.23942207263
 20
6114.99899235918
 30
0.0
 11
-10284.2394010918
 21
6114.99899235918
 31
0.0
  0
LINE
  5
30523
330
1F
100
AcDbEntity
  8
02製品
100
AcDbLine
 10
-10249.73951744006
 20
6113.798972045917
 30
0.0
 11
-10242.23958419726
 21
6113.798972045917
 31
0.0
  0
LINE
  5
30524
330
1F
100
AcDbEntity
  8
02製品
100
AcDbLine
 10
-10242.23958419726
 20
6114.99899235918
 30
0.0
 11
-10284.2394010918
 21
6114.99899235918
 31
0.0
  0
LINE
  5
30525
330
1F
100
AcDbEntity
  8
02製品
100
AcDbLine
 10
-9186.53952049182
 20
6114.99899235918
 30
0.0
 11
-9186.53952049182
 21
6113.798972045917
 31
0.0
  0
LINE
  5
30526
330
1F
100
AcDbEntity
  8
02製品
100
AcDbLine
 10
-9189.539541472655
 20
6114.99899235918
 30
0.0
 11
-9186.53952049182
 21
6114.99899235918
 31
0.0
  0
LINE
  5
30527
330
1F
100
AcDbEntity
  8
02製品
100
AcDbLine
 10
-11463.23942111896
 20
5123.098979996432
 30
0.0
 11
-11463.23942111896
 21
5116.598980095152
 31
0.0
  0
LINE
  5
30528
330
1F
100
AcDbEntity
  8
02製品
100
AcDbLine
 10
-11463.23942111896
 20
5116.598980095152
 30
0.0
 11
-12473.9394681351
 21
5116.598980095152
 31
0.0
  0
LINE
  5
30529
330
1F
100
AcDbEntity
  8
02製品
100
AcDbLine
 10
-12473.9394681351
 20
5123.098979996432
 30
0.0
 11
-12473.9394681351
 21
5122.298979958434
 31
0.0
  0
LINE
  5
3052A
330
1F
100
AcDbEntity
  8
02製品
100
AcDbLine
 10
-12473.9394681351
 20
5117.798980152149
 30
0.0
 11
-12473.9394681351
 21
5116.598980095152
 31
0.0
  0
LINE
  5
3052B
330
1F
100
AcDbEntity
  8
02製品
100
AcDbLine
 10
-12515.93946756886
 20
5117.798980152149
 30
0.0
 11
-12515.93946756886
 21
5116.598980095152
 31
0.0
  0
LINE
  5
3052C
330
1F
100
AcDbEntity
  8
02製品
100
AcDbLine
 10
-12473.9394681351
 20
5116.598980095152
 30
0.0
 11
-12515.93946756886
 21
5116.598980095152
 31
0.0
  0
LINE
  5
3052D
330
1F
100
AcDbEntity
  8
02製品
100
AcDbLine
 10
-11421.23948501514
 20
5116.598980095152
 30
0.0
 11
-11421.23948501514
 21
5117.798980152149
 31
0.0
  0
LINE
  5
3052E
330
1F
100
AcDbEntity
  8
02製品
100
AcDbLine
 10
-11418.2394640343
 20
5117.798980152149
 30
0.0
 11
-11418.2394640343
 21
5116.598980095152
 31
0.0
  0
LINE
  5
3052F
330
1F
100
AcDbEntity
  8
02製品
100
AcDbLine
 10
-11418.2394640343
 20
5116.598980095152
 30
0.0
 11
-11421.23948501514
 21
5116.598980095152
 31
0.0
  0
LINE
  5
30530
330
1F
100
AcDbEntity
  8
02製品
100
AcDbLine
 10
-11455.73948787616
 20
5117.798980152149
 30
0.0
 11
-11463.23942111896
 21
5117.798980152149
 31
0.0
  0
LINE
  5
30531
330
1F
100
AcDbEntity
  8
02製品
100
AcDbLine
 10
-11463.23942111896
 20
5116.598980095152
 30
0.0
 11
-11421.23948501514
 21
5116.598980095152
 31
0.0
  0
LINE
  5
30532
330
1F
100
AcDbEntity
  8
02製品
100
AcDbLine
 10
-12518.93946806059
 20
5116.598980095152
 30
0.0
 11
-12518.93946806059
 21
5117.798980152149
 31
0.0
  0
LINE
  5
30533
330
1F
100
AcDbEntity
  8
02製品
100
AcDbLine
 10
-12515.93946756886
 20
5116.598980095152
 30
0.0
 11
-12518.93946806059
 21
5116.598980095152
 31
0.0
  0
LINE
  5
30534
330
1F
100
AcDbEntity
  8
02製品
100
AcDbLine
 10
-11368.23951171802
 20
6108.498986637134
 30
0.0
 11
-11368.23951171802
 21
6114.99899235918
 31
0.0
  0
LINE
  5
30535
330
1F
100
AcDbEntity
  8
02製品
100
AcDbLine
 10
-10337.23937438892
 20
6108.498986637134
 30
0.0
 11
-10337.23937438892
 21
6114.99899235918
 31
0.0
  0
LINE
  5
30536
330
1F
100
AcDbEntity
  8
02製品
100
AcDbLine
 10
-11368.23951171802
 20
6114.99899235918
 30
0.0
 11
-10337.23937438892
 21
6114.99899235918
 31
0.0
  0
LINE
  5
30537
330
1F
100
AcDbEntity
  8
02製品
100
AcDbLine
 10
-10292.23953651355
 20
6114.99899235918
 30
0.0
 11
-10292.23953651355
 21
6113.798972045917
 31
0.0
  0
LINE
  5
30538
330
1F
100
AcDbEntity
  8
02製品
100
AcDbLine
 10
-10295.23955749438
 20
6113.798972045917
 30
0.0
 11
-10295.23955749438
 21
6114.99899235918
 31
0.0
  0
LINE
  5
30539
330
1F
100
AcDbEntity
  8
02製品
100
AcDbLine
 10
-10295.23955749438
 20
6114.99899235918
 30
0.0
 11
-10292.23953651355
 21
6114.99899235918
 31
0.0
  0
LINE
  5
3053A
330
1F
100
AcDbEntity
  8
02製品
100
AcDbLine
 10
-10337.23937438892
 20
6113.798972045917
 30
0.0
 11
-10329.73944114612
 21
6113.798972045917
 31
0.0
  0
LINE
  5
3053B
330
1F
100
AcDbEntity
  8
02製品
100
AcDbLine
 10
-10337.23937438892
 20
6114.99899235918
 30
0.0
 11
-10295.23955749438
 21
6114.99899235918
 31
0.0
  0
LINE
  5
3053C
330
1F
100
AcDbEntity
  8
02製品
100
AcDbLine
 10
-11410.23944782184
 20
6114.99899235918
 30
0.0
 11
-11410.23944782184
 21
6113.798972045917
 31
0.0
  0
LINE
  5
3053D
330
1F
100
AcDbEntity
  8
02製品
100
AcDbLine
 10
-11375.73944496081
 20
6113.798972045917
 30
0.0
 11
-11368.23951171802
 21
6113.798972045917
 31
0.0
  0
LINE
  5
3053E
330
1F
100
AcDbEntity
  8
02製品
100
AcDbLine
 10
-11368.23951171802
 20
6114.99899235918
 30
0.0
 11
-11410.23944782184
 21
6114.99899235918
 31
0.0
  0
LINE
  5
3053F
330
1F
100
AcDbEntity
  8
02製品
100
AcDbLine
 10
-11413.23946880267
 20
6113.798972045917
 30
0.0
 11
-11413.23946880267
 21
6114.99899235918
 31
0.0
  0
LINE
  5
30540
330
1F
100
AcDbEntity
  8
02製品
100
AcDbLine
 10
-11413.23946880267
 20
6114.99899235918
 30
0.0
 11
-11410.23944782184
 21
6114.99899235918
 31
0.0
  0
LINE
  5
30541
330
1F
100
AcDbEntity
  8
02製品
100
AcDbLine
 10
-10337.23937438892
 20
5116.598980095152
 30
0.0
 11
-11368.23951171802
 21
5116.598980095152
 31
0.0
  0
LINE
  5
30542
330
1F
100
AcDbEntity
  8
02製品
100
AcDbLine
 10
-10337.23937438892
 20
5123.098979996432
 30
0.0
 11
-10337.23937438892
 21
5116.598980095152
 31
0.0
  0
LINE
  5
30543
330
1F
100
AcDbEntity
  8
02製品
100
AcDbLine
 10
-11368.23951171802
 20
5123.098979996432
 30
0.0
 11
-11368.23951171802
 21
5116.598980095152
 31
0.0
  0
LINE
  5
30544
330
1F
100
AcDbEntity
  8
02製品
100
AcDbLine
 10
-10295.23955749438
 20
5116.598980095152
 30
0.0
 11
-10295.23955749438
 21
5117.798980152149
 31
0.0
  0
LINE
  5
30545
330
1F
100
AcDbEntity
  8
02製品
100
AcDbLine
 10
-10292.23953651355
 20
5117.798980152149
 30
0.0
 11
-10292.23953651355
 21
5116.598980095152
 31
0.0
  0
LINE
  5
30546
330
1F
100
AcDbEntity
  8
02製品
100
AcDbLine
 10
-10292.23953651355
 20
5116.598980095152
 30
0.0
 11
-10295.23955749438
 21
5116.598980095152
 31
0.0
  0
LINE
  5
30547
330
1F
100
AcDbEntity
  8
02製品
100
AcDbLine
 10
-11413.23946880267
 20
5116.598980095152
 30
0.0
 11
-11413.23946880267
 21
5117.798980152149
 31
0.0
  0
LINE
  5
30548
330
1F
100
AcDbEntity
  8
02製品
100
AcDbLine
 10
-11410.23944782184
 20
5117.798980152149
 30
0.0
 11
-11410.23944782184
 21
5116.598980095152
 31
0.0
  0
LINE
  5
30549
330
1F
100
AcDbEntity
  8
02製品
100
AcDbLine
 10
-11410.23944782184
 20
5116.598980095152
 30
0.0
 11
-11413.23946880267
 21
5116.598980095152
 31
0.0
  0
LINE
  5
3054A
330
1F
100
AcDbEntity
  8
02製品
100
AcDbLine
 10
-10329.73944114612
 20
5117.798980152149
 30
0.0
 11
-10337.23937438892
 21
5117.798980152149
 31
0.0
  0
LINE
  5
3054B
330
1F
100
AcDbEntity
  8
02製品
100
AcDbLine
 10
-10337.23937438892
 20
5116.598980095152
 30
0.0
 11
-10295.23955749438
 21
5116.598980095152
 31
0.0
  0
LINE
  5
3054C
330
1F
100
AcDbEntity
  8
02製品
100
AcDbLine
 10
-11368.23951171802
 20
5117.798980152149
 30
0.0
 11
-11375.73944496081
 21
5117.798980152149
 31
0.0
  0
LINE
  5
3054D
330
1F
100
AcDbEntity
  8
02製品
100
AcDbLine
 10
-11368.23951171802
 20
5116.598980095152
 30
0.0
 11
-11410.23944782184
 21
5116.598980095152
 31
0.0
  0
LINE
  5
3054E
330
1F
100
AcDbEntity
  8
02製品
100
AcDbLine
 10
-10289.73947929309
 20
6108.498986637134
 30
0.0
 11
-10289.73947929309
 21
6109.29900017931
 31
0.0
  0
LINE
  5
3054F
330
1F
100
AcDbEntity
  8
02製品
100
AcDbLine
 10
-10273.20753501819
 20
6109.29900017931
 30
0.0
 11
-10272.43839668201
 21
6108.498986637134
 31
0.0
  0
LINE
  5
30550
330
1F
100
AcDbEntity
  8
02製品
100
AcDbLine
 10
-10272.43839668201
 20
5123.098979996432
 30
0.0
 11
-10273.20753501819
 21
5122.298979958434
 31
0.0
  0
LINE
  5
30551
330
1F
100
AcDbEntity
  8
02製品
100
AcDbLine
 10
-10289.73947929309
 20
5122.298979958434
 30
0.0
 11
-10289.73947929309
 21
5123.098979996432
 31
0.0
  0
LINE
  5
30552
330
1F
100
AcDbEntity
  8
02製品
100
AcDbLine
 10
-10307.04056190417
 20
5123.098979996432
 30
0.0
 11
-10306.27142356799
 21
5122.298979958434
 31
0.0
  0
LINE
  5
30553
330
1F
100
AcDbEntity
  8
02製品
100
AcDbLine
 10
-10306.27142356799
 20
6109.29900017931
 30
0.0
 11
-10307.04056190417
 21
6108.498986637134
 31
0.0
  0
LINE
  5
30554
330
1F
100
AcDbEntity
  8
02製品
100
AcDbLine
 10
-10307.11661743091
 20
6109.29900017931
 30
0.0
 11
-10307.88575576709
 21
6108.498986637134
 31
0.0
  0
LINE
  5
30555
330
1F
100
AcDbEntity
  8
02製品
100
AcDbLine
 10
-10271.59320281909
 20
6108.498986637134
 30
0.0
 11
-10272.36234115527
 21
6109.29900017931
 31
0.0
  0
LINE
  5
30556
330
1F
100
AcDbEntity
  8
02製品
100
AcDbLine
 10
-10307.88575576709
 20
5123.098979996432
 30
0.0
 11
-10307.11661743091
 21
5122.298979958434
 31
0.0
  0
LINE
  5
30557
330
1F
100
AcDbEntity
  8
02製品
100
AcDbLine
 10
-10272.36234115527
 20
5122.298979958434
 30
0.0
 11
-10271.59320281909
 21
5123.098979996432
 31
0.0
  0
LINE
  5
30558
330
1F
100
AcDbEntity
  8
02製品
100
AcDbLine
 10
-11415.73952602313
 20
6108.498986637134
 30
0.0
 11
-11415.73952602313
 21
6109.29900017931
 31
0.0
  0
LINE
  5
30559
330
1F
100
AcDbEntity
  8
02製品
100
AcDbLine
 10
-11399.20758174823
 20
6109.29900017931
 30
0.0
 11
-11398.43844341205
 21
6108.498986637134
 31
0.0
  0
LINE
  5
3055A
330
1F
100
AcDbEntity
  8
02製品
100
AcDbLine
 10
-11398.43844341205
 20
5123.098979996432
 30
0.0
 11
-11399.20758174823
 21
5122.298979958434
 31
0.0
  0
LINE
  5
3055B
330
1F
100
AcDbEntity
  8
02製品
100
AcDbLine
 10
-11415.73952602313
 20
5122.298979958434
 30
0.0
 11
-11415.73952602313
 21
5123.098979996432
 31
0.0
  0
LINE
  5
3055C
330
1F
100
AcDbEntity
  8
02製品
100
AcDbLine
 10
-11433.04048942493
 20
5123.098979996432
 30
0.0
 11
-11432.27135108874
 21
5122.298979958434
 31
0.0
  0
LINE
  5
3055D
330
1F
100
AcDbEntity
  8
02製品
100
AcDbLine
 10
-11432.27135108874
 20
6109.29900017931
 30
0.0
 11
-11433.04048942493
 21
6108.498986637134
 31
0.0
  0
LINE
  5
3055E
330
1F
100
AcDbEntity
  8
02製品
100
AcDbLine
 10
-11397.59313033984
 20
6108.498986637134
 30
0.0
 11
-11398.36226867602
 21
6109.29900017931
 31
0.0
  0
LINE
  5
3055F
330
1F
100
AcDbEntity
  8
02製品
100
AcDbLine
 10
-11433.11666416095
 20
6109.29900017931
 30
0.0
 11
-11433.88580249713
 21
6108.498986637134
 31
0.0
  0
LINE
  5
30560
330
1F
100
AcDbEntity
  8
02製品
100
AcDbLine
 10
-11398.36226867602
 20
5122.298979958434
 30
0.0
 11
-11397.59313033984
 21
5123.098979996432
 31
0.0
  0
LINE
  5
30561
330
1F
100
AcDbEntity
  8
02製品
100
AcDbLine
 10
-11433.88580249713
 20
5123.098979996432
 30
0.0
 11
-11433.11666416095
 21
5122.298979958434
 31
0.0
  0
LINE
  5
30562
330
1F
100
AcDbEntity
  8
02製品
100
AcDbLine
 10
-10325.23952888415
 20
5117.798980152149
 30
0.0
 11
-10325.23952888415
 21
5122.298979958434
 31
0.0
  0
LINE
  5
30563
330
1F
100
AcDbEntity
  8
02製品
100
AcDbLine
 10
-10320.23941444324
 20
5122.298979958434
 30
0.0
 11
-10320.23941444324
 21
5117.798980152149
 31
0.0
  0
LINE
  5
30564
330
1F
100
AcDbEntity
  8
02製品
100
AcDbLine
 10
-10320.23941444324
 20
5117.798980152149
 30
0.0
 11
-10325.23952888415
 21
5117.798980152149
 31
0.0
  0
LINE
  5
30565
330
1F
100
AcDbEntity
  8
02製品
100
AcDbLine
 10
-10325.23952888415
 20
5122.298979958434
 30
0.0
 11
-10320.23941444324
 21
5122.298979958434
 31
0.0
  0
LINE
  5
30566
330
1F
100
AcDbEntity
  8
02製品
100
AcDbLine
 10
-10254.23942970203
 20
5122.298979958434
 30
0.0
 11
-10254.23942970203
 21
5117.798980152149
 31
0.0
  0
LINE
  5
30567
330
1F
100
AcDbEntity
  8
02製品
100
AcDbLine
 10
-10254.23942970203
 20
5117.798980152149
 30
0.0
 11
-10259.23954414294
 21
5117.798980152149
 31
0.0
  0
LINE
  5
30568
330
1F
100
AcDbEntity
  8
02製品
100
AcDbLine
 10
-10259.23954414294
 20
5117.798980152149
 30
0.0
 11
-10259.23954414294
 21
5122.298979958434
 31
0.0
  0
LINE
  5
30569
330
1F
100
AcDbEntity
  8
02製品
100
AcDbLine
 10
-10259.23954414294
 20
5122.298979958434
 30
0.0
 11
-10254.23942970203
 21
5122.298979958434
 31
0.0
  0
LINE
  5
3056A
330
1F
100
AcDbEntity
  8
02製品
100
AcDbLine
 10
-10320.23941444324
 20
5117.798980152149
 30
0.0
 11
-10259.23954414294
 21
5117.798980152149
 31
0.0
  0
LINE
  5
3056B
330
1F
100
AcDbEntity
  8
02製品
100
AcDbLine
 10
-10259.23954414294
 20
5122.298979958434
 30
0.0
 11
-10320.23941444324
 21
5122.298979958434
 31
0.0
  0
LINE
  5
3056C
330
1F
100
AcDbEntity
  8
02製品
100
AcDbLine
 10
-10254.23942970203
 20
5122.298979958434
 30
0.0
 11
-10254.23942970203
 21
5123.098979996432
 31
0.0
  0
LINE
  5
3056D
330
1F
100
AcDbEntity
  8
02製品
100
AcDbLine
 10
-10249.73951744006
 20
5117.798980152149
 30
0.0
 11
-10249.73951744006
 21
5123.098979996432
 31
0.0
  0
LINE
  5
3056E
330
1F
100
AcDbEntity
  8
02製品
100
AcDbLine
 10
-10254.23942970203
 20
5117.798980152149
 30
0.0
 11
-10249.73951744006
 21
5117.798980152149
 31
0.0
  0
LINE
  5
3056F
330
1F
100
AcDbEntity
  8
02製品
100
AcDbLine
 10
-10325.23952888415
 20
5123.098979996432
 30
0.0
 11
-10325.23952888415
 21
5122.298979958434
 31
0.0
  0
LINE
  5
30570
330
1F
100
AcDbEntity
  8
02製品
100
AcDbLine
 10
-10329.73944114612
 20
5123.098979996432
 30
0.0
 11
-10329.73944114612
 21
5117.798980152149
 31
0.0
  0
LINE
  5
30571
330
1F
100
AcDbEntity
  8
02製品
100
AcDbLine
 10
-10325.23952888415
 20
5117.798980152149
 30
0.0
 11
-10329.73944114612
 21
5117.798980152149
 31
0.0
  0
LINE
  5
30572
330
1F
100
AcDbEntity
  8
02製品
100
AcDbLine
 10
-11380.23947643207
 20
5122.298979958434
 30
0.0
 11
-11380.23947643207
 21
5117.798980152149
 31
0.0
  0
LINE
  5
30573
330
1F
100
AcDbEntity
  8
02製品
100
AcDbLine
 10
-11380.23947643207
 20
5117.798980152149
 30
0.0
 11
-11385.2394716637
 21
5117.798980152149
 31
0.0
  0
LINE
  5
30574
330
1F
100
AcDbEntity
  8
02製品
100
AcDbLine
 10
-11385.2394716637
 20
5117.798980152149
 30
0.0
 11
-11385.2394716637
 21
5122.298979958434
 31
0.0
  0
LINE
  5
30575
330
1F
100
AcDbEntity
  8
02製品
100
AcDbLine
 10
-11385.2394716637
 20
5122.298979958434
 30
0.0
 11
-11380.23947643207
 21
5122.298979958434
 31
0.0
  0
LINE
  5
30576
330
1F
100
AcDbEntity
  8
02製品
100
AcDbLine
 10
-11451.23945640491
 20
5117.798980152149
 30
0.0
 11
-11451.23945640491
 21
5122.298979958434
 31
0.0
  0
LINE
  5
30577
330
1F
100
AcDbEntity
  8
02製品
100
AcDbLine
 10
-11446.23946117328
 20
5122.298979958434
 30
0.0
 11
-11446.23946117328
 21
5117.798980152149
 31
0.0
  0
LINE
  5
30578
330
1F
100
AcDbEntity
  8
02製品
100
AcDbLine
 10
-11446.23946117328
 20
5117.798980152149
 30
0.0
 11
-11451.23945640491
 21
5117.798980152149
 31
0.0
  0
LINE
  5
30579
330
1F
100
AcDbEntity
  8
02製品
100
AcDbLine
 10
-11451.23945640491
 20
5122.298979958434
 30
0.0
 11
-11446.23946117328
 21
5122.298979958434
 31
0.0
  0
LINE
  5
3057A
330
1F
100
AcDbEntity
  8
02製品
100
AcDbLine
 10
-11446.23946117328
 20
5117.798980152149
 30
0.0
 11
-11385.2394716637
 21
5117.798980152149
 31
0.0
  0
LINE
  5
3057B
330
1F
100
AcDbEntity
  8
02製品
100
AcDbLine
 10
-11385.2394716637
 20
5122.298979958434
 30
0.0
 11
-11446.23946117328
 21
5122.298979958434
 31
0.0
  0
LINE
  5
3057C
330
1F
100
AcDbEntity
  8
02製品
100
AcDbLine
 10
-11380.23947643207
 20
5122.298979958434
 30
0.0
 11
-11380.23947643207
 21
5123.098979996432
 31
0.0
  0
LINE
  5
3057D
330
1F
100
AcDbEntity
  8
02製品
100
AcDbLine
 10
-11375.73944496081
 20
5117.798980152149
 30
0.0
 11
-11375.73944496081
 21
5123.098979996432
 31
0.0
  0
LINE
  5
3057E
330
1F
100
AcDbEntity
  8
02製品
100
AcDbLine
 10
-11380.23947643207
 20
5117.798980152149
 30
0.0
 11
-11375.73944496081
 21
5117.798980152149
 31
0.0
  0
LINE
  5
3057F
330
1F
100
AcDbEntity
  8
02製品
100
AcDbLine
 10
-11451.23945640491
 20
5123.098979996432
 30
0.0
 11
-11451.23945640491
 21
5122.298979958434
 31
0.0
  0
LINE
  5
30580
330
1F
100
AcDbEntity
  8
02製品
100
AcDbLine
 10
-11455.73948787616
 20
5123.098979996432
 30
0.0
 11
-11455.73948787616
 21
5117.798980152149
 31
0.0
  0
LINE
  5
30581
330
1F
100
AcDbEntity
  8
02製品
100
AcDbLine
 10
-11451.23945640491
 20
5117.798980152149
 30
0.0
 11
-11455.73948787616
 21
5117.798980152149
 31
0.0
  0
LINE
  5
30582
330
1F
100
AcDbEntity
  8
02製品
100
AcDbLine
 10
-11385.2394716637
 20
6109.29900017931
 30
0.0
 11
-11385.2394716637
 21
6113.798972045917
 31
0.0
  0
LINE
  5
30583
330
1F
100
AcDbEntity
  8
02製品
100
AcDbLine
 10
-11446.23946117328
 20
6109.29900017931
 30
0.0
 11
-11385.2394716637
 21
6109.29900017931
 31
0.0
  0
LINE
  5
30584
330
1F
100
AcDbEntity
  8
02製品
100
AcDbLine
 10
-11446.23946117328
 20
6113.798972045917
 30
0.0
 11
-11446.23946117328
 21
6109.29900017931
 31
0.0
  0
LINE
  5
30585
330
1F
100
AcDbEntity
  8
02製品
100
AcDbLine
 10
-11385.2394716637
 20
6113.798972045917
 30
0.0
 11
-11446.23946117328
 21
6113.798972045917
 31
0.0
  0
LINE
  5
30586
330
1F
100
AcDbEntity
  8
02製品
100
AcDbLine
 10
-11451.23945640491
 20
6109.29900017931
 30
0.0
 11
-11451.23945640491
 21
6113.798972045917
 31
0.0
  0
LINE
  5
30587
330
1F
100
AcDbEntity
  8
02製品
100
AcDbLine
 10
-11451.23945640491
 20
6113.798972045917
 30
0.0
 11
-11446.23946117328
 21
6113.798972045917
 31
0.0
  0
LINE
  5
30588
330
1F
100
AcDbEntity
  8
02製品
100
AcDbLine
 10
-11446.23946117328
 20
6109.29900017931
 30
0.0
 11
-11451.23945640491
 21
6109.29900017931
 31
0.0
  0
LINE
  5
30589
330
1F
100
AcDbEntity
  8
02製品
100
AcDbLine
 10
-11380.23947643207
 20
6113.798972045917
 30
0.0
 11
-11380.23947643207
 21
6109.29900017931
 31
0.0
  0
LINE
  5
3058A
330
1F
100
AcDbEntity
  8
02製品
100
AcDbLine
 10
-11380.23947643207
 20
6109.29900017931
 30
0.0
 11
-11385.2394716637
 21
6109.29900017931
 31
0.0
  0
LINE
  5
3058B
330
1F
100
AcDbEntity
  8
02製品
100
AcDbLine
 10
-11385.2394716637
 20
6113.798972045917
 30
0.0
 11
-11380.23947643207
 21
6113.798972045917
 31
0.0
  0
LINE
  5
3058C
330
1F
100
AcDbEntity
  8
02製品
100
AcDbLine
 10
-11380.23947643207
 20
6108.498986637134
 30
0.0
 11
-11380.23947643207
 21
6109.29900017931
 31
0.0
  0
LINE
  5
3058D
330
1F
100
AcDbEntity
  8
02製品
100
AcDbLine
 10
-11375.73944496081
 20
6108.498986637134
 30
0.0
 11
-11375.73944496081
 21
6113.798972045917
 31
0.0
  0
LINE
  5
3058E
330
1F
100
AcDbEntity
  8
02製品
100
AcDbLine
 10
-11380.23947643207
 20
6113.798972045917
 30
0.0
 11
-11375.73944496081
 21
6113.798972045917
 31
0.0
  0
LINE
  5
3058F
330
1F
100
AcDbEntity
  8
02製品
100
AcDbLine
 10
-11451.23945640491
 20
6109.29900017931
 30
0.0
 11
-11451.23945640491
 21
6108.498986637134
 31
0.0
  0
LINE
  5
30590
330
1F
100
AcDbEntity
  8
02製品
100
AcDbLine
 10
-11455.73948787616
 20
6113.798972045917
 30
0.0
 11
-11455.73948787616
 21
6108.498986637134
 31
0.0
  0
LINE
  5
30591
330
1F
100
AcDbEntity
  8
02製品
100
AcDbLine
 10
-11451.23945640491
 20
6113.798972045917
 30
0.0
 11
-11455.73948787616
 21
6113.798972045917
 31
0.0
  0
LINE
  5
30592
330
1F
100
AcDbEntity
  8
02製品
100
AcDbLine
 10
-10254.23942970203
 20
6113.798972045917
 30
0.0
 11
-10254.23942970203
 21
6109.29900017931
 31
0.0
  0
LINE
  5
30593
330
1F
100
AcDbEntity
  8
02製品
100
AcDbLine
 10
-10254.23942970203
 20
6109.29900017931
 30
0.0
 11
-10259.23954414294
 21
6109.29900017931
 31
0.0
  0
LINE
  5
30594
330
1F
100
AcDbEntity
  8
02製品
100
AcDbLine
 10
-10259.23954414294
 20
6109.29900017931
 30
0.0
 11
-10259.23954414294
 21
6113.798972045917
 31
0.0
  0
LINE
  5
30595
330
1F
100
AcDbEntity
  8
02製品
100
AcDbLine
 10
-10259.23954414294
 20
6113.798972045917
 30
0.0
 11
-10254.23942970203
 21
6113.798972045917
 31
0.0
  0
LINE
  5
30596
330
1F
100
AcDbEntity
  8
02製品
100
AcDbLine
 10
-10320.23941444324
 20
6109.29900017931
 30
0.0
 11
-10259.23954414294
 21
6109.29900017931
 31
0.0
  0
LINE
  5
30597
330
1F
100
AcDbEntity
  8
02製品
100
AcDbLine
 10
-10320.23941444324
 20
6113.798972045917
 30
0.0
 11
-10320.23941444324
 21
6109.29900017931
 31
0.0
  0
LINE
  5
30598
330
1F
100
AcDbEntity
  8
02製品
100
AcDbLine
 10
-10259.23954414294
 20
6113.798972045917
 30
0.0
 11
-10320.23941444324
 21
6113.798972045917
 31
0.0
  0
LINE
  5
30599
330
1F
100
AcDbEntity
  8
02製品
100
AcDbLine
 10
-10325.23952888415
 20
6109.29900017931
 30
0.0
 11
-10325.23952888415
 21
6113.798972045917
 31
0.0
  0
LINE
  5
3059A
330
1F
100
AcDbEntity
  8
02製品
100
AcDbLine
 10
-10320.23941444324
 20
6109.29900017931
 30
0.0
 11
-10325.23952888415
 21
6109.29900017931
 31
0.0
  0
LINE
  5
3059B
330
1F
100
AcDbEntity
  8
02製品
100
AcDbLine
 10
-10325.23952888415
 20
6113.798972045917
 30
0.0
 11
-10320.23941444324
 21
6113.798972045917
 31
0.0
  0
LINE
  5
3059C
330
1F
100
AcDbEntity
  8
02製品
100
AcDbLine
 10
-10254.23942970203
 20
6108.498986637134
 30
0.0
 11
-10254.23942970203
 21
6109.29900017931
 31
0.0
  0
LINE
  5
3059D
330
1F
100
AcDbEntity
  8
02製品
100
AcDbLine
 10
-10249.73951744006
 20
6108.498986637134
 30
0.0
 11
-10249.73951744006
 21
6113.798972045917
 31
0.0
  0
LINE
  5
3059E
330
1F
100
AcDbEntity
  8
02製品
100
AcDbLine
 10
-10254.23942970203
 20
6113.798972045917
 30
0.0
 11
-10249.73951744006
 21
6113.798972045917
 31
0.0
  0
LINE
  5
3059F
330
1F
100
AcDbEntity
  8
02製品
100
AcDbLine
 10
-10325.23952888415
 20
6109.29900017931
 30
0.0
 11
-10325.23952888415
 21
6108.498986637134
 31
0.0
  0
LINE
  5
305A0
330
1F
100
AcDbEntity
  8
02製品
100
AcDbLine
 10
-10329.73944114612
 20
6113.798972045917
 30
0.0
 11
-10329.73944114612
 21
6108.498986637134
 31
0.0
  0
LINE
  5
305A1
330
1F
100
AcDbEntity
  8
02製品
100
AcDbLine
 10
-10325.23952888415
 20
6113.798972045917
 30
0.0
 11
-10329.73944114612
 21
6113.798972045917
 31
0.0
  0
LINE
  5
305A2
330
1F
100
AcDbEntity
  8
02製品
100
AcDbLine
 10
-12522.23946804271
 20
6073.798950588245
 30
0.0
 11
-12522.23946804271
 21
6066.298957740803
 31
0.0
  0
LINE
  5
305A3
330
1F
100
AcDbEntity
  8
02製品
100
AcDbLine
 10
-12522.23946804271
 20
5165.298979556102
 30
0.0
 11
-12522.23946804271
 21
5157.798979258079
 31
0.0
  0
LINE
  5
305A4
330
1F
100
AcDbEntity
  8
02製品
100
AcDbLine
 10
-12522.23946804271
 20
6101.298983966846
 30
0.0
 11
-12521.43946800472
 21
6101.298983966846
 31
0.0
  0
LINE
  5
305A5
330
1F
100
AcDbEntity
  8
02製品
100
AcDbLine
 10
-12522.23946804271
 20
5130.298980338413
 30
0.0
 11
-12521.43946800472
 21
5130.298980338413
 31
0.0
  0
LINE
  5
305A6
330
1F
100
AcDbEntity
  8
02製品
100
AcDbLine
 10
-9183.239568938476
 20
5130.298980338413
 30
0.0
 11
-9184.039463271361
 21
5130.298980338413
 31
0.0
  0
LINE
  5
305A7
330
1F
100
AcDbEntity
  8
02製品
100
AcDbLine
 10
-9183.239568938476
 20
5157.798979258079
 30
0.0
 11
-9183.239568938476
 21
5165.298979556102
 31
0.0
  0
LINE
  5
305A8
330
1F
100
AcDbEntity
  8
02製品
100
AcDbLine
 10
-9183.239568938476
 20
6066.298957740803
 30
0.0
 11
-9183.239568938476
 21
6073.798950588245
 31
0.0
  0
LINE
  5
305A9
330
1F
100
AcDbEntity
  8
02製品
100
AcDbLine
 10
-9183.239568938476
 20
6101.298983966846
 30
0.0
 11
-9184.039463271361
 21
6101.298983966846
 31
0.0
  0
LINE
  5
305AA
330
1F
100
AcDbEntity
  8
02製品
100
AcDbLine
 10
-9178.739418257934
 20
6076.79897156908
 30
0.0
 11
-9183.239568938476
 21
6076.79897156908
 31
0.0
  0
LINE
  5
305AB
330
1F
100
AcDbEntity
  8
02製品
100
AcDbLine
 10
-9183.239568938476
 20
6076.79897156908
 30
0.0
 11
-9183.239568938476
 21
6109.29900017931
 31
0.0
  0
LINE
  5
305AC
330
1F
100
AcDbEntity
  8
02製品
100
AcDbLine
 10
-9183.239568938476
 20
6109.29900017931
 30
0.0
 11
-9325.73949264453
 21
6109.29900017931
 31
0.0
  0
LINE
  5
305AD
330
1F
100
AcDbEntity
  8
02製品
100
AcDbLine
 10
-9325.73949264453
 20
6109.29900017931
 30
0.0
 11
-9325.73949264453
 21
6113.798972045917
 31
0.0
  0
LINE
  5
305AE
330
1F
100
AcDbEntity
  8
02製品
100
AcDbLine
 10
-9325.73949264453
 20
6113.798972045917
 30
0.0
 11
-9178.739418257934
 21
6113.798972045917
 31
0.0
  0
LINE
  5
305AF
330
1F
100
AcDbEntity
  8
02製品
100
AcDbLine
 10
-9178.739418257934
 20
6113.798972045917
 30
0.0
 11
-9178.739418257934
 21
6076.79897156908
 31
0.0
  0
LINE
  5
305B0
330
1F
100
AcDbEntity
  8
02製品
100
AcDbLine
 10
-9328.739513625365
 20
6113.798972045917
 30
0.0
 11
-9328.739513625365
 21
6109.29900017931
 31
0.0
  0
LINE
  5
305B1
330
1F
100
AcDbEntity
  8
02製品
100
AcDbLine
 10
-9328.739513625365
 20
6109.29900017931
 30
0.0
 11
-9325.73949264453
 21
6109.29900017931
 31
0.0
  0
LINE
  5
305B2
330
1F
100
AcDbEntity
  8
02製品
100
AcDbLine
 10
-9325.73949264453
 20
6113.798972045917
 30
0.0
 11
-9328.739513625365
 21
6113.798972045917
 31
0.0
  0
LINE
  5
305B3
330
1F
100
AcDbEntity
  8
02製品
100
AcDbLine
 10
-9183.239568938476
 20
6073.798950588245
 30
0.0
 11
-9178.739418257934
 21
6073.798950588245
 31
0.0
  0
LINE
  5
305B4
330
1F
100
AcDbEntity
  8
02製品
100
AcDbLine
 10
-9183.239568938476
 20
6076.79897156908
 30
0.0
 11
-9183.239568938476
 21
6073.798950588245
 31
0.0
  0
LINE
  5
305B5
330
1F
100
AcDbEntity
  8
02製品
100
AcDbLine
 10
-9178.739418257934
 20
6073.798950588245
 30
0.0
 11
-9178.739418257934
 21
6076.79897156908
 31
0.0
  0
LINE
  5
305B6
330
1F
100
AcDbEntity
  8
02製品
100
AcDbLine
 10
-9193.739523162109
 20
6109.29900017931
 30
0.0
 11
-9192.939628829223
 21
6108.498986637134
 31
0.0
  0
LINE
  5
305B7
330
1F
100
AcDbEntity
  8
02製品
100
AcDbLine
 10
-12522.23946804271
 20
5157.798979258079
 30
0.0
 11
-12526.739467849
 21
5157.798979258079
 31
0.0
  0
LINE
  5
305B8
330
1F
100
AcDbEntity
  8
02製品
100
AcDbLine
 10
-12522.23946804271
 20
5154.798980628986
 30
0.0
 11
-12522.23946804271
 21
5157.798979258079
 31
0.0
  0
LINE
  5
305B9
330
1F
100
AcDbEntity
  8
02製品
100
AcDbLine
 10
-12526.739467849
 20
5154.798980628986
 30
0.0
 11
-12522.23946804271
 21
5154.798980628986
 31
0.0
  0
LINE
  5
305BA
330
1F
100
AcDbEntity
  8
02製品
100
AcDbLine
 10
-12526.739467849
 20
5157.798979258079
 30
0.0
 11
-12526.739467849
 21
5154.798980628986
 31
0.0
  0
LINE
  5
305BB
330
1F
100
AcDbEntity
  8
02製品
100
AcDbLine
 10
-12522.23946804271
 20
5122.298979958434
 30
0.0
 11
-12379.73946796821
 21
5122.298979958434
 31
0.0
  0
LINE
  5
305BC
330
1F
100
AcDbEntity
  8
02製品
100
AcDbLine
 10
-12379.73946796821
 20
5122.298979958434
 30
0.0
 11
-12379.73946796821
 21
5117.798980152149
 31
0.0
  0
LINE
  5
305BD
330
1F
100
AcDbEntity
  8
02製品
100
AcDbLine
 10
-12379.73946796821
 20
5117.798980152149
 30
0.0
 11
-12526.739467849
 21
5117.798980152149
 31
0.0
  0
LINE
  5
305BE
330
1F
100
AcDbEntity
  8
02製品
100
AcDbLine
 10
-12526.739467849
 20
5117.798980152149
 30
0.0
 11
-12526.739467849
 21
5154.798980628986
 31
0.0
  0
LINE
  5
305BF
330
1F
100
AcDbEntity
  8
02製品
100
AcDbLine
 10
-12522.23946804271
 20
5154.798980628986
 30
0.0
 11
-12522.23946804271
 21
5122.298979958434
 31
0.0
  0
LINE
  5
305C0
330
1F
100
AcDbEntity
  8
02製品
100
AcDbLine
 10
-12376.73946188853
 20
5117.798980152149
 30
0.0
 11
-12376.73946188853
 21
5122.298979958434
 31
0.0
  0
LINE
  5
305C1
330
1F
100
AcDbEntity
  8
02製品
100
AcDbLine
 10
-12379.73946796821
 20
5117.798980152149
 30
0.0
 11
-12376.73946188853
 21
5117.798980152149
 31
0.0
  0
LINE
  5
305C2
330
1F
100
AcDbEntity
  8
02製品
100
AcDbLine
 10
-12376.73946188853
 20
5122.298979958434
 30
0.0
 11
-12379.73946796821
 21
5122.298979958434
 31
0.0
  0
LINE
  5
305C3
330
1F
100
AcDbEntity
  8
02製品
100
AcDbLine
 10
-12511.73936760144
 20
5122.298979958434
 30
0.0
 11
-12512.5393681051
 21
5123.098979996432
 31
0.0
  0
LINE
  5
305C4
330
1F
100
AcDbEntity
  8
02製品
100
AcDbLine
 10
-9178.739418257934
 20
5154.798980628986
 30
0.0
 11
-9183.239568938476
 21
5154.798980628986
 31
0.0
  0
LINE
  5
305C5
330
1F
100
AcDbEntity
  8
02製品
100
AcDbLine
 10
-9183.239568938476
 20
5157.798979258079
 30
0.0
 11
-9178.739418257934
 21
5157.798979258079
 31
0.0
  0
LINE
  5
305C6
330
1F
100
AcDbEntity
  8
02製品
100
AcDbLine
 10
-9178.739418257934
 20
5157.798979258079
 30
0.0
 11
-9178.739418257934
 21
5154.798980628986
 31
0.0
  0
LINE
  5
305C7
330
1F
100
AcDbEntity
  8
02製品
100
AcDbLine
 10
-9183.239568938476
 20
5154.798980628986
 30
0.0
 11
-9183.239568938476
 21
5157.798979258079
 31
0.0
  0
LINE
  5
305C8
330
1F
100
AcDbEntity
  8
02製品
100
AcDbLine
 10
-9325.73949264453
 20
5117.798980152149
 30
0.0
 11
-9178.739418257934
 21
5117.798980152149
 31
0.0
  0
LINE
  5
305C9
330
1F
100
AcDbEntity
  8
02製品
100
AcDbLine
 10
-9325.73949264453
 20
5122.298979958434
 30
0.0
 11
-9325.73949264453
 21
5117.798980152149
 31
0.0
  0
LINE
  5
305CA
330
1F
100
AcDbEntity
  8
02製品
100
AcDbLine
 10
-9183.239568938476
 20
5122.298979958434
 30
0.0
 11
-9325.73949264453
 21
5122.298979958434
 31
0.0
  0
LINE
  5
305CB
330
1F
100
AcDbEntity
  8
02製品
100
AcDbLine
 10
-9178.739418257934
 20
5117.798980152149
 30
0.0
 11
-9178.739418257934
 21
5154.798980628986
 31
0.0
  0
LINE
  5
305CC
330
1F
100
AcDbEntity
  8
02製品
100
AcDbLine
 10
-9183.239568938476
 20
5154.798980628986
 30
0.0
 11
-9183.239568938476
 21
5122.298979958434
 31
0.0
  0
LINE
  5
305CD
330
1F
100
AcDbEntity
  8
02製品
100
AcDbLine
 10
-9325.73949264453
 20
5117.798980152149
 30
0.0
 11
-9328.739513625365
 21
5117.798980152149
 31
0.0
  0
LINE
  5
305CE
330
1F
100
AcDbEntity
  8
02製品
100
AcDbLine
 10
-9328.739513625365
 20
5117.798980152149
 30
0.0
 11
-9328.739513625365
 21
5122.298979958434
 31
0.0
  0
LINE
  5
305CF
330
1F
100
AcDbEntity
  8
02製品
100
AcDbLine
 10
-9328.739513625365
 20
5122.298979958434
 30
0.0
 11
-9325.73949264453
 21
5122.298979958434
 31
0.0
  0
LINE
  5
305D0
330
1F
100
AcDbEntity
  8
02製品
100
AcDbLine
 10
-9193.739523162109
 20
5122.298979958434
 30
0.0
 11
-9192.939628829223
 21
5123.098979996432
 31
0.0
  0
LINE
  5
305D1
330
1F
100
AcDbEntity
  8
02製品
100
AcDbLine
 10
-12379.73946796821
 20
6109.29900017931
 30
0.0
 11
-12379.73946796821
 21
6113.798972045917
 31
0.0
  0
LINE
  5
305D2
330
1F
100
AcDbEntity
  8
02製品
100
AcDbLine
 10
-12379.73946796821
 20
6113.798972045917
 30
0.0
 11
-12376.73946188853
 21
6113.798972045917
 31
0.0
  0
LINE
  5
305D3
330
1F
100
AcDbEntity
  8
02製品
100
AcDbLine
 10
-12376.73946188853
 20
6113.798972045917
 30
0.0
 11
-12376.73946188853
 21
6109.29900017931
 31
0.0
  0
LINE
  5
305D4
330
1F
100
AcDbEntity
  8
02製品
100
AcDbLine
 10
-12376.73946188853
 20
6109.29900017931
 30
0.0
 11
-12379.73946796821
 21
6109.29900017931
 31
0.0
  0
LINE
  5
305D5
330
1F
100
AcDbEntity
  8
02製品
100
AcDbLine
 10
-12522.23946804271
 20
6109.29900017931
 30
0.0
 11
-12379.73946796821
 21
6109.29900017931
 31
0.0
  0
LINE
  5
305D6
330
1F
100
AcDbEntity
  8
02製品
100
AcDbLine
 10
-12522.23946804271
 20
6076.79897156908
 30
0.0
 11
-12522.23946804271
 21
6109.29900017931
 31
0.0
  0
LINE
  5
305D7
330
1F
100
AcDbEntity
  8
02製品
100
AcDbLine
 10
-12526.739467849
 20
6076.79897156908
 30
0.0
 11
-12522.23946804271
 21
6076.79897156908
 31
0.0
  0
LINE
  5
305D8
330
1F
100
AcDbEntity
  8
02製品
100
AcDbLine
 10
-12379.73946796821
 20
6113.798972045917
 30
0.0
 11
-12526.739467849
 21
6113.798972045917
 31
0.0
  0
LINE
  5
305D9
330
1F
100
AcDbEntity
  8
02製品
100
AcDbLine
 10
-12526.739467849
 20
6113.798972045917
 30
0.0
 11
-12526.739467849
 21
6076.79897156908
 31
0.0
  0
LINE
  5
305DA
330
1F
100
AcDbEntity
  8
02製品
100
AcDbLine
 10
-12522.23946804271
 20
6073.798950588245
 30
0.0
 11
-12526.739467849
 21
6073.798950588245
 31
0.0
  0
LINE
  5
305DB
330
1F
100
AcDbEntity
  8
02製品
100
AcDbLine
 10
-12522.23946804271
 20
6076.79897156908
 30
0.0
 11
-12522.23946804271
 21
6073.798950588245
 31
0.0
  0
LINE
  5
305DC
330
1F
100
AcDbEntity
  8
02製品
100
AcDbLine
 10
-12526.739467849
 20
6073.798950588245
 30
0.0
 11
-12526.739467849
 21
6076.79897156908
 31
0.0
  0
LINE
  5
305DD
330
1F
100
AcDbEntity
  8
02製品
100
AcDbLine
 10
-12511.73936760144
 20
6109.29900017931
 30
0.0
 11
-12512.5393681051
 21
6108.498986637134
 31
0.0
  0
LINE
  5
305DE
330
1F
100
AcDbEntity
  8
02製品
100
AcDbLine
 10
-12481.43946843312
 20
6068.498965179462
 30
0.0
 11
-12481.43946843312
 21
5163.098979568023
 31
0.0
  0
LINE
  5
305DF
330
1F
100
AcDbEntity
  8
02製品
100
AcDbLine
 10
-12481.43946843312
 20
5163.098979568023
 30
0.0
 11
-12521.43946800472
 21
5163.098979568023
 31
0.0
  0
LINE
  5
305E0
330
1F
100
AcDbEntity
  8
02製品
100
AcDbLine
 10
-12481.43946843312
 20
6068.498965179462
 30
0.0
 11
-12521.43946800472
 21
6068.498965179462
 31
0.0
  0
LINE
  5
305E1
330
1F
100
AcDbEntity
  8
02製品
100
AcDbLine
 10
-12521.43946800472
 20
6068.498965179462
 30
0.0
 11
-12521.43946800472
 21
5163.098979568023
 31
0.0
  0
LINE
  5
305E2
330
1F
100
AcDbEntity
  8
02製品
100
AcDbLine
 10
-9224.039425124389
 20
5163.098979568023
 30
0.0
 11
-9184.039463271361
 21
5163.098979568023
 31
0.0
  0
LINE
  5
305E3
330
1F
100
AcDbEntity
  8
02製品
100
AcDbLine
 10
-9224.039425124389
 20
5163.098979568023
 30
0.0
 11
-9224.039425124389
 21
6068.498965179462
 31
0.0
  0
LINE
  5
305E4
330
1F
100
AcDbEntity
  8
02製品
100
AcDbLine
 10
-9224.039425124389
 20
6068.498965179462
 30
0.0
 11
-9184.039463271361
 21
6068.498965179462
 31
0.0
  0
LINE
  5
305E5
330
1F
100
AcDbEntity
  8
02製品
100
AcDbLine
 10
-9184.039463271361
 20
5163.098979568023
 30
0.0
 11
-9184.039463271361
 21
6068.498965179462
 31
0.0
  0
LINE
  5
305E6
330
1F
100
AcDbEntity
  8
02製品
100
AcDbLine
 10
-12521.43946800472
 20
5123.098979996432
 30
0.0
 11
-11415.73952602313
 21
5123.098979996432
 31
0.0
  0
LINE
  5
305E7
330
1F
100
AcDbEntity
  8
02製品
100
AcDbLine
 10
-11415.73952602313
 20
5163.098979568023
 30
0.0
 11
-11415.73952602313
 21
5123.098979996432
 31
0.0
  0
LINE
  5
305E8
330
1F
100
AcDbEntity
  8
02製品
100
AcDbLine
 10
-12521.43946800472
 20
5163.098979568023
 30
0.0
 11
-12521.43946800472
 21
5123.098979996432
 31
0.0
  0
LINE
  5
305E9
330
1F
100
AcDbEntity
  8
02製品
100
AcDbLine
 10
-12521.43946800472
 20
5163.098979568023
 30
0.0
 11
-11415.73952602313
 21
5163.098979568023
 31
0.0
  0
LINE
  5
305EA
330
1F
100
AcDbEntity
  8
02製品
100
AcDbLine
 10
-9184.039463271361
 20
6068.498965179462
 30
0.0
 11
-10289.73947929309
 21
6068.498965179462
 31
0.0
  0
LINE
  5
305EB
330
1F
100
AcDbEntity
  8
02製品
100
AcDbLine
 10
-10289.73947929309
 20
6068.498965179462
 30
0.0
 11
-10289.73947929309
 21
6108.498986637134
 31
0.0
  0
LINE
  5
305EC
330
1F
100
AcDbEntity
  8
02製品
100
AcDbLine
 10
-9184.039463271361
 20
6068.498965179462
 30
0.0
 11
-9184.039463271361
 21
6108.498986637134
 31
0.0
  0
LINE
  5
305ED
330
1F
100
AcDbEntity
  8
02製品
100
AcDbLine
 10
-9184.039463271361
 20
6108.498986637134
 30
0.0
 11
-10289.73947929309
 21
6108.498986637134
 31
0.0
  0
LINE
  5
305EE
330
1F
100
AcDbEntity
  8
02製品
100
AcDbLine
 10
-12521.43946800472
 20
6068.498965179462
 30
0.0
 11
-11415.73952602313
 21
6068.498965179462
 31
0.0
  0
LINE
  5
305EF
330
1F
100
AcDbEntity
  8
02製品
100
AcDbLine
 10
-12521.43946800472
 20
6108.498986637134
 30
0.0
 11
-11415.73952602313
 21
6108.498986637134
 31
0.0
  0
LINE
  5
305F0
330
1F
100
AcDbEntity
  8
02製品
100
AcDbLine
 10
-11415.73952602313
 20
6068.498965179462
 30
0.0
 11
-11415.73952602313
 21
6108.498986637134
 31
0.0
  0
LINE
  5
305F1
330
1F
100
AcDbEntity
  8
02製品
100
AcDbLine
 10
-12521.43946800472
 20
6068.498965179462
 30
0.0
 11
-12521.43946800472
 21
6108.498986637134
 31
0.0
  0
LINE
  5
305F2
330
1F
100
AcDbEntity
  8
02製品
100
AcDbLine
 10
-9184.039463271361
 20
5123.098979996432
 30
0.0
 11
-10289.73947929309
 21
5123.098979996432
 31
0.0
  0
LINE
  5
305F3
330
1F
100
AcDbEntity
  8
02製品
100
AcDbLine
 10
-10289.73947929309
 20
5163.098979568023
 30
0.0
 11
-10289.73947929309
 21
5123.098979996432
 31
0.0
  0
LINE
  5
305F4
330
1F
100
AcDbEntity
  8
02製品
100
AcDbLine
 10
-9184.039463271361
 20
5163.098979568023
 30
0.0
 11
-10289.73947929309
 21
5163.098979568023
 31
0.0
  0
LINE
  5
305F5
330
1F
100
AcDbEntity
  8
02製品
100
AcDbLine
 10
-9184.039463271361
 20
5163.098979568023
 30
0.0
 11
-9184.039463271361
 21
5123.098979996432
 31
0.0
  0
LINE
  5
305F6
330
1F
100
AcDbEntity
  8
02製品
100
AcDbLine
 10
-11953.58948873447
 20
6068.498965179462
 30
0.0
 11
-11953.58948873447
 21
5163.098979568023
 31
0.0
  0
LINE
  5
305F7
330
1F
100
AcDbEntity
  8
02製品
100
AcDbLine
 10
-11983.58946012424
 20
6068.498965179462
 30
0.0
 11
-11983.58946012424
 21
5163.098979568023
 31
0.0
  0
LINE
  5
305F8
330
1F
100
AcDbEntity
  8
02製品
100
AcDbLine
 10
-9751.8895761864
 20
5163.098979568023
 30
0.0
 11
-9751.8895761864
 21
6068.498965179462
 31
0.0
  0
LINE
  5
305F9
330
1F
100
AcDbEntity
  8
02製品
100
AcDbLine
 10
-9721.88936637805
 20
5163.098979568023
 30
0.0
 11
-9721.88936637805
 21
6068.498965179462
 31
0.0
  0
LINE
  5
305FA
330
1F
100
AcDbEntity
  8
02製品
100
AcDbLine
 10
-10867.73942874835
 20
5163.098979568023
 30
0.0
 11
-10867.73942874835
 21
6068.498965179462
 31
0.0
  0
LINE
  5
305FB
330
1F
100
AcDbEntity
  8
02製品
100
AcDbLine
 10
-10837.73945735858
 20
5163.098979568023
 30
0.0
 11
-10837.73945735858
 21
6068.498965179462
 31
0.0
  0
LINE
  5
305FC
330
1F
100
AcDbEntity
  8
02製品
100
AcDbLine
 10
-11455.73948787616
 20
5163.098979568023
 30
0.0
 11
-11415.73952602313
 21
5163.098979568023
 31
0.0
  0
LINE
  5
305FD
330
1F
100
AcDbEntity
  8
02製品
100
AcDbLine
 10
-11455.73948787616
 20
5163.098979568023
 30
0.0
 11
-11455.73948787616
 21
6068.498965179462
 31
0.0
  0
LINE
  5
305FE
330
1F
100
AcDbEntity
  8
02製品
100
AcDbLine
 10
-11455.73948787616
 20
6068.498965179462
 30
0.0
 11
-11415.73952602313
 21
6068.498965179462
 31
0.0
  0
LINE
  5
305FF
330
1F
100
AcDbEntity
  8
02製品
100
AcDbLine
 10
-11415.73952602313
 20
5163.098979568023
 30
0.0
 11
-11415.73952602313
 21
6068.498965179462
 31
0.0
  0
LINE
  5
30600
330
1F
100
AcDbEntity
  8
02製品
100
AcDbLine
 10
-10249.73951744006
 20
6068.498965179462
 30
0.0
 11
-10249.73951744006
 21
5163.098979568023
 31
0.0
  0
LINE
  5
30601
330
1F
100
AcDbEntity
  8
02製品
100
AcDbLine
 10
-10249.73951744006
 20
5163.098979568023
 30
0.0
 11
-10289.73947929309
 21
5163.098979568023
 31
0.0
  0
LINE
  5
30602
330
1F
100
AcDbEntity
  8
02製品
100
AcDbLine
 10
-10249.73951744006
 20
6068.498965179462
 30
0.0
 11
-10289.73947929309
 21
6068.498965179462
 31
0.0
  0
LINE
  5
30603
330
1F
100
AcDbEntity
  8
02製品
100
AcDbLine
 10
-10289.73947929309
 20
6068.498965179462
 30
0.0
 11
-10289.73947929309
 21
5163.098979568023
 31
0.0
  0
LINE
  5
30604
330
1F
100
AcDbEntity
  8
02製品
100
AcDbLine
 10
-11375.73944496081
 20
6068.498965179462
 30
0.0
 11
-11375.73944496081
 21
5163.098979568023
 31
0.0
  0
LINE
  5
30605
330
1F
100
AcDbEntity
  8
02製品
100
AcDbLine
 10
-11375.73944496081
 20
5163.098979568023
 30
0.0
 11
-11415.73952602313
 21
5163.098979568023
 31
0.0
  0
LINE
  5
30606
330
1F
100
AcDbEntity
  8
02製品
100
AcDbLine
 10
-11375.73944496081
 20
6068.498965179462
 30
0.0
 11
-11415.73952602313
 21
6068.498965179462
 31
0.0
  0
LINE
  5
30607
330
1F
100
AcDbEntity
  8
02製品
100
AcDbLine
 10
-10329.73944114612
 20
5163.098979568023
 30
0.0
 11
-10289.73947929309
 21
5163.098979568023
 31
0.0
  0
LINE
  5
30608
330
1F
100
AcDbEntity
  8
02製品
100
AcDbLine
 10
-10329.73944114612
 20
5163.098979568023
 30
0.0
 11
-10329.73944114612
 21
6068.498965179462
 31
0.0
  0
LINE
  5
30609
330
1F
100
AcDbEntity
  8
02製品
100
AcDbLine
 10
-10329.73944114612
 20
6068.498965179462
 30
0.0
 11
-10289.73947929309
 21
6068.498965179462
 31
0.0
  0
LINE
  5
3060A
330
1F
100
AcDbEntity
  8
02製品
100
AcDbLine
 10
-10289.73947929309
 20
5123.098979996432
 30
0.0
 11
-11415.73952602313
 21
5123.098979996432
 31
0.0
  0
LINE
  5
3060B
330
1F
100
AcDbEntity
  8
02製品
100
AcDbLine
 10
-10289.73947929309
 20
5163.098979568023
 30
0.0
 11
-11415.73952602313
 21
5163.098979568023
 31
0.0
  0
LINE
  5
3060C
330
1F
100
AcDbEntity
  8
02製品
100
AcDbLine
 10
-11415.73952602313
 20
6068.498965179462
 30
0.0
 11
-10289.73947929309
 21
6068.498965179462
 31
0.0
  0
LINE
  5
3060D
330
1F
100
AcDbEntity
  8
02製品
100
AcDbLine
 10
-11415.73952602313
 20
6108.498986637134
 30
0.0
 11
-10289.73947929309
 21
6108.498986637134
 31
0.0
  0
INSERT
  5
3060E
330
1F
100
AcDbEntity
  8
02製品
100
AcDbBlockReference
  2
A$C20123
 10
-12121.95090299452
 20
5541.584693911132
 30
0.0
 41
1.5
 42
1.5
 43
1.5
  0
INSERT
  5
3060F
330
1F
100
AcDbEntity
  8
02製品
100
AcDbBlockReference
  2
A$C3C7277DA
 10
-12176.63951203188
 20
6068.49895477805
 30
0.0
 50
179.9999999999174
  0
INSERT
  5
30610
330
1F
100
AcDbEntity
  8
02製品
100
AcDbBlockReference
  2
A$C3C7277DA
 10
-11760.53950781356
 20
5163.098975245897
 30
0.0
 50
359.9999999999174
  0
INSERT
  5
30611
330
1F
100
AcDbEntity
  8
02製品
100
AcDbBlockReference
  2
A$C3C7277DA
 10
-10634.53946108357
 20
5163.098975245897
 30
0.0
 50
359.9999999999174
  0
INSERT
  5
30612
330
1F
100
AcDbEntity
  8
02製品
100
AcDbBlockReference
  2
A$C20123
 10
-11006.10090863871
 20
5541.584693911132
 30
0.0
 41
1.5
 42
1.5
 43
1.5
  0
INSERT
  5
30613
330
1F
100
AcDbEntity
  8
02製品
100
AcDbBlockReference
  2
A$C3C7277DA
 10
-11070.93942502341
 20
6068.49895477805
 30
0.0
 50
179.9999999999174
  0
INSERT
  5
30614
330
1F
100
AcDbEntity
  8
02製品
100
AcDbBlockReference
  2
A$C3C7277DA
 10
-9528.839482081865
 20
5163.098975245897
 30
0.0
 50
359.9999999999174
  0
INSERT
  5
30615
330
1F
100
AcDbEntity
  8
02製品
100
AcDbBlockReference
  2
A$C20123
 10
-9890.250877262826
 20
5541.584693911132
 30
0.0
 41
1.5
 42
1.5
 43
1.5
  0
INSERT
  5
30616
330
1F
100
AcDbEntity
  8
02製品
100
AcDbBlockReference
  2
A$C3C7277DA
 10
-9944.939486300187
 20
6068.49895477805
 30
0.0
 50
179.9999999999174
  0
ARC
  5
30618
330
1F
100
AcDbEntity
  8
02製品
100
AcDbCircle
 10
-6681.296175737776
 20
3617.493476994638
 30
0.0
 40
3.600000000000179
100
AcDbArc
 50
256.4637972625619
 51
283.5362027373959
  0
LINE
  5
30619
330
1F
100
AcDbEntity
  8
02製品
100
AcDbLine
 10
-6678.7961671547
 20
3613.993449338053
 30
0.0
 11
-6680.453533907325
 21
3613.993449338053
 31
0.0
  0
ARC
  5
3061A
330
1F
100
AcDbEntity
  8
02製品
100
AcDbCircle
 10
-6678.796175737776
 20
3617.493476994638
 30
0.0
 40
3.500000000000227
100
AcDbArc
 50
270.0
 51
90.0
  0
LINE
  5
3061B
330
1F
100
AcDbEntity
  8
02製品
100
AcDbLine
 10
-6678.7961671547
 20
3620.99347842512
 30
0.0
 11
-6680.453533907325
 21
3620.99347842512
 31
0.0
  0
ARC
  5
3061C
330
1F
100
AcDbEntity
  8
02製品
100
AcDbCircle
 10
-6681.296175737776
 20
3617.493476994638
 30
0.0
 40
3.600000000000179
100
AcDbArc
 50
76.46379726260409
 51
103.5362027374522
  0
LINE
  5
3061D
330
1F
100
AcDbEntity
  8
02製品
100
AcDbLine
 10
-6682.138795633704
 20
3620.99347842512
 30
0.0
 11
-6683.796162386328
 21
3620.99347842512
 31
0.0
  0
ARC
  5
3061E
330
1F
100
AcDbEntity
  8
02製品
100
AcDbCircle
 10
-6683.796175737776
 20
3617.493476994638
 30
0.0
 40
3.500000000000227
100
AcDbArc
 50
90.0
 51
270.0
  0
LINE
  5
3061F
330
1F
100
AcDbEntity
  8
02製品
100
AcDbLine
 10
-6682.138795633704
 20
3613.993449338053
 30
0.0
 11
-6683.796162386328
 21
3613.993449338053
 31
0.0
  0
ARC
  5
30620
330
1F
100
AcDbEntity
  8
02製品
100
AcDbCircle
 10
-7637.296175737783
 20
3817.493476994638
 30
0.0
 40
3.600000000000179
100
AcDbArc
 50
256.4637972626605
 51
283.5362027374522
  0
LINE
  5
30621
330
1F
100
AcDbEntity
  8
02製品
100
AcDbLine
 10
-7634.796174843699
 20
3813.993467219447
 30
0.0
 11
-7636.453560222775
 21
3813.993467219447
 31
0.0
  0
ARC
  5
30622
330
1F
100
AcDbEntity
  8
02製品
100
AcDbCircle
 10
-7634.796175737783
 20
3817.493476994638
 30
0.0
 40
3.500000000000227
100
AcDbArc
 50
270.0
 51
90.0
  0
LINE
  5
30623
330
1F
100
AcDbEntity
  8
02製品
100
AcDbLine
 10
-7634.796174843699
 20
3820.993466504191
 30
0.0
 11
-7636.453560222775
 21
3820.993466504191
 31
0.0
  0
ARC
  5
30624
330
1F
100
AcDbEntity
  8
02製品
100
AcDbCircle
 10
-7637.296175737783
 20
3817.493476994638
 30
0.0
 40
3.600000000000179
100
AcDbArc
 50
76.46379726248473
 51
103.5362027373396
  0
LINE
  5
30625
330
1F
100
AcDbEntity
  8
02製品
100
AcDbLine
 10
-7638.138790284187
 20
3820.993466504191
 30
0.0
 11
-7639.796175663263
 21
3820.993466504191
 31
0.0
  0
ARC
  5
30626
330
1F
100
AcDbEntity
  8
02製品
100
AcDbCircle
 10
-7639.796175737783
 20
3817.493476994638
 30
0.0
 40
3.500000000000227
100
AcDbArc
 50
90.0
 51
270.0
  0
LINE
  5
30627
330
1F
100
AcDbEntity
  8
02製品
100
AcDbLine
 10
-7638.138790284187
 20
3813.993467219447
 30
0.0
 11
-7639.796175663263
 21
3813.993467219447
 31
0.0
  0
ARC
  5
30628
330
1F
100
AcDbEntity
  8
02製品
100
AcDbCircle
 10
-7637.296175737783
 20
3467.493476994638
 30
0.0
 40
3.599999999999626
100
AcDbArc
 50
256.4637972626605
 51
283.536202737459
  0
LINE
  5
30629
330
1F
100
AcDbEntity
  8
02製品
100
AcDbLine
 10
-7634.796174843699
 20
3463.993473179911
 30
0.0
 11
-7636.453560222775
 21
3463.993473179911
 31
0.0
  0
ARC
  5
3062A
330
1F
100
AcDbEntity
  8
02製品
100
AcDbCircle
 10
-7634.796175737783
 20
3467.493476994638
 30
0.0
 40
3.500000000000227
100
AcDbArc
 50
270.0
 51
90.0
  0
LINE
  5
3062B
330
1F
100
AcDbEntity
  8
02製品
100
AcDbLine
 10
-7634.796174843699
 20
3470.993502266978
 30
0.0
 11
-7636.453560222775
 21
3470.993502266978
 31
0.0
  0
ARC
  5
3062C
330
1F
100
AcDbEntity
  8
02製品
100
AcDbCircle
 10
-7637.296175737783
 20
3467.493476994638
 30
0.0
 40
3.600000000000179
100
AcDbArc
 50
76.46379726248473
 51
103.5362027373396
  0
LINE
  5
3062D
330
1F
100
AcDbEntity
  8
02製品
100
AcDbLine
 10
-7638.138790284187
 20
3470.993502266978
 30
0.0
 11
-7639.796175663263
 21
3470.993502266978
 31
0.0
  0
ARC
  5
3062E
330
1F
100
AcDbEntity
  8
02製品
100
AcDbCircle
 10
-7639.796175737783
 20
3467.493476994638
 30
0.0
 40
3.500000000000227
100
AcDbArc
 50
90.0
 51
270.0
  0
LINE
  5
3062F
330
1F
100
AcDbEntity
  8
02製品
100
AcDbLine
 10
-7638.138790284187
 20
3463.993473179911
 30
0.0
 11
-7639.796175663263
 21
3463.993473179911
 31
0.0
  0
ARC
  5
30630
330
1F
100
AcDbEntity
  8
02製品
100
AcDbCircle
 10
-7651.79617573778
 20
3988.293476994626
 30
0.0
 40
3.000000000000682
100
AcDbArc
 50
90.0
 51
180.0
  0
LINE
  5
30631
330
1F
100
AcDbEntity
  8
02製品
100
AcDbLine
 10
-7609.796176333815
 20
3991.293473370646
 30
0.0
 11
-7651.796175767571
 21
3991.293473370646
 31
0.0
  0
LINE
  5
30632
330
1F
100
AcDbEntity
  8
02製品
100
AcDbLine
 10
-7609.796176333815
 20
3992.493478782748
 30
0.0
 11
-7609.796176333815
 21
3991.293473370646
 31
0.0
  0
LINE
  5
30633
330
1F
100
AcDbEntity
  8
02製品
100
AcDbLine
 10
-6708.796198149115
 20
3992.493478782748
 30
0.0
 11
-7609.796176333815
 21
3992.493478782748
 31
0.0
  0
LINE
  5
30634
330
1F
100
AcDbEntity
  8
02製品
100
AcDbLine
 10
-6708.796198149115
 20
3992.493478782748
 30
0.0
 11
-6708.796198149115
 21
3991.293473370646
 31
0.0
  0
LINE
  5
30635
330
1F
100
AcDbEntity
  8
02製品
100
AcDbLine
 10
-6708.796198149115
 20
3991.293473370646
 30
0.0
 11
-6666.79620244065
 21
3991.293473370646
 31
0.0
  0
LINE
  5
30636
330
1F
100
AcDbEntity
  8
02製品
100
AcDbLine
 10
-6663.796181459815
 20
3988.293482192134
 30
0.0
 11
-6663.796181459815
 21
3446.693463452433
 31
0.0
  0
ARC
  5
30637
330
1F
100
AcDbEntity
  8
02製品
100
AcDbCircle
 10
-6666.79617573778
 20
3446.69347699462
 30
0.0
 40
3.000000000000682
100
AcDbArc
 50
270.0
 51
0.0
  0
LINE
  5
30638
330
1F
100
AcDbEntity
  8
02製品
100
AcDbLine
 10
-6708.796198149115
 20
3443.693502076243
 30
0.0
 11
-6666.79620244065
 21
3443.693502076243
 31
0.0
  0
LINE
  5
30639
330
1F
100
AcDbEntity
  8
02製品
100
AcDbLine
 10
-6708.796198149115
 20
3443.693502076243
 30
0.0
 11
-6708.796198149115
 21
3442.49348176298
 31
0.0
  0
LINE
  5
3063A
330
1F
100
AcDbEntity
  8
02製品
100
AcDbLine
 10
-6708.796198149115
 20
3442.49348176298
 30
0.0
 11
-7609.796176333815
 21
3442.49348176298
 31
0.0
  0
LINE
  5
3063B
330
1F
100
AcDbEntity
  8
02製品
100
AcDbLine
 10
-7609.796176333815
 20
3443.693502076243
 30
0.0
 11
-7609.796176333815
 21
3442.49348176298
 31
0.0
  0
LINE
  5
3063C
330
1F
100
AcDbEntity
  8
02製品
100
AcDbLine
 10
-7609.796176333815
 20
3443.693502076243
 30
0.0
 11
-7651.796175767571
 21
3443.693502076243
 31
0.0
  0
ARC
  5
3063D
330
1F
100
AcDbEntity
  8
02製品
100
AcDbCircle
 10
-7651.79617573778
 20
3446.69347699462
 30
0.0
 40
3.000000000000682
100
AcDbArc
 50
180.0
 51
270.0
  0
LINE
  5
3063E
330
1F
100
AcDbEntity
  8
02製品
100
AcDbLine
 10
-7654.796175793648
 20
3988.293482192134
 30
0.0
 11
-7654.796175793648
 21
3446.693463452433
 31
0.0
  0
CIRCLE
  5
3063F
330
1F
100
AcDbEntity
  8
02製品
100
AcDbCircle
 10
-7559.29617573778
 20
3822.493476994638
 30
0.0
 40
30.0
  0
CIRCLE
  5
30640
330
1F
100
AcDbEntity
  8
02製品
100
AcDbCircle
 10
-7459.29617573778
 20
3922.493476994638
 30
0.0
 40
30.0
  0
CIRCLE
  5
30641
330
1F
100
AcDbEntity
  8
02製品
100
AcDbCircle
 10
-7459.29617573778
 20
3642.493476994638
 30
0.0
 40
30.0
  0
CIRCLE
  5
30642
330
1F
100
AcDbEntity
  8
02製品
100
AcDbCircle
 10
-7359.29617573778
 20
3822.493476994638
 30
0.0
 40
29.99999999999886
  0
CIRCLE
  5
30643
330
1F
100
AcDbEntity
  8
02製品
100
AcDbCircle
 10
-7259.29617573778
 20
3642.493476994638
 30
0.0
 40
30.0
  0
CIRCLE
  5
30644
330
1F
100
AcDbEntity
  8
02製品
100
AcDbCircle
 10
-7259.29617573778
 20
3922.493476994638
 30
0.0
 40
29.99999999999886
  0
CIRCLE
  5
30645
330
1F
100
AcDbEntity
  8
02製品
100
AcDbCircle
 10
-7159.29617573778
 20
3822.493476994638
 30
0.0
 40
30.0
  0
CIRCLE
  5
30646
330
1F
100
AcDbEntity
  8
02製品
100
AcDbCircle
 10
-7059.29617573778
 20
3922.493476994638
 30
0.0
 40
30.0
  0
CIRCLE
  5
30647
330
1F
100
AcDbEntity
  8
02製品
100
AcDbCircle
 10
-7059.29617573778
 20
3642.493476994638
 30
0.0
 40
30.0
  0
CIRCLE
  5
30648
330
1F
100
AcDbEntity
  8
02製品
100
AcDbCircle
 10
-6959.29617573778
 20
3822.493476994638
 30
0.0
 40
30.0
  0
CIRCLE
  5
30649
330
1F
100
AcDbEntity
  8
02製品
100
AcDbCircle
 10
-6859.29617573778
 20
3922.493476994638
 30
0.0
 40
30.0
  0
CIRCLE
  5
3064A
330
1F
100
AcDbEntity
  8
02製品
100
AcDbCircle
 10
-6859.29617573778
 20
3642.493476994638
 30
0.0
 40
30.0
  0
CIRCLE
  5
3064B
330
1F
100
AcDbEntity
  8
02製品
100
AcDbCircle
 10
-6759.29617573778
 20
3822.493476994638
 30
0.0
 40
30.0
  0
ARC
  5
3064C
330
1F
100
AcDbEntity
  8
02製品
100
AcDbCircle
 10
-6681.296175737776
 20
3467.493476994638
 30
0.0
 40
3.599999999999626
100
AcDbArc
 50
256.4637972625551
 51
283.5362027373959
  0
LINE
  5
3064D
330
1F
100
AcDbEntity
  8
02製品
100
AcDbLine
 10
-6678.7961671547
 20
3463.993473179911
 30
0.0
 11
-6680.453533907325
 21
3463.993473179911
 31
0.0
  0
ARC
  5
3064E
330
1F
100
AcDbEntity
  8
02製品
100
AcDbCircle
 10
-6678.796175737776
 20
3467.493476994638
 30
0.0
 40
3.500000000000227
100
AcDbArc
 50
270.0
 51
90.0
  0
LINE
  5
3064F
330
1F
100
AcDbEntity
  8
02製品
100
AcDbLine
 10
-6678.7961671547
 20
3470.993502266978
 30
0.0
 11
-6680.453533907325
 21
3470.993502266978
 31
0.0
  0
ARC
  5
30650
330
1F
100
AcDbEntity
  8
02製品
100
AcDbCircle
 10
-6681.296175737776
 20
3467.493476994638
 30
0.0
 40
3.600000000000179
100
AcDbArc
 50
76.46379726260409
 51
103.5362027374522
  0
LINE
  5
30651
330
1F
100
AcDbEntity
  8
02製品
100
AcDbLine
 10
-6682.138795633704
 20
3470.993502266978
 30
0.0
 11
-6683.796162386328
 21
3470.993502266978
 31
0.0
  0
ARC
  5
30652
330
1F
100
AcDbEntity
  8
02製品
100
AcDbCircle
 10
-6683.796175737776
 20
3467.493476994638
 30
0.0
 40
3.500000000000227
100
AcDbArc
 50
90.0
 51
270.0
  0
LINE
  5
30653
330
1F
100
AcDbEntity
  8
02製品
100
AcDbLine
 10
-6682.138795633704
 20
3463.993473179911
 30
0.0
 11
-6683.796162386328
 21
3463.993473179911
 31
0.0
  0
ARC
  5
30654
330
1F
100
AcDbEntity
  8
02製品
100
AcDbCircle
 10
-7637.296175737783
 20
3617.493476994638
 30
0.0
 40
3.600000000000179
100
AcDbArc
 50
256.4637972626605
 51
283.5362027374522
  0
LINE
  5
30655
330
1F
100
AcDbEntity
  8
02製品
100
AcDbLine
 10
-7634.796174843699
 20
3613.993449338053
 30
0.0
 11
-7636.453560222775
 21
3613.993449338053
 31
0.0
  0
ARC
  5
30656
330
1F
100
AcDbEntity
  8
02製品
100
AcDbCircle
 10
-7634.796175737783
 20
3617.493476994638
 30
0.0
 40
3.500000000000227
100
AcDbArc
 50
270.0
 51
90.0
  0
LINE
  5
30657
330
1F
100
AcDbEntity
  8
02製品
100
AcDbLine
 10
-7634.796174843699
 20
3620.99347842512
 30
0.0
 11
-7636.453560222775
 21
3620.99347842512
 31
0.0
  0
ARC
  5
30658
330
1F
100
AcDbEntity
  8
02製品
100
AcDbCircle
 10
-7637.296175737783
 20
3617.493476994638
 30
0.0
 40
3.600000000000179
100
AcDbArc
 50
76.46379726248473
 51
103.5362027373396
  0
LINE
  5
30659
330
1F
100
AcDbEntity
  8
02製品
100
AcDbLine
 10
-7638.138790284187
 20
3620.99347842512
 30
0.0
 11
-7639.796175663263
 21
3620.99347842512
 31
0.0
  0
ARC
  5
3065A
330
1F
100
AcDbEntity
  8
02製品
100
AcDbCircle
 10
-7639.796175737783
 20
3617.493476994638
 30
0.0
 40
3.500000000000227
100
AcDbArc
 50
90.0
 51
270.0
  0
LINE
  5
3065B
330
1F
100
AcDbEntity
  8
02製品
100
AcDbLine
 10
-7638.138790284187
 20
3613.993449338053
 30
0.0
 11
-7639.796175663263
 21
3613.993449338053
 31
0.0
  0
ARC
  5
3065C
330
1F
100
AcDbEntity
  8
02製品
100
AcDbCircle
 10
-6681.296175737776
 20
3817.493476994638
 30
0.0
 40
3.600000000000179
100
AcDbArc
 50
256.4637972625619
 51
283.5362027373959
  0
LINE
  5
3065D
330
1F
100
AcDbEntity
  8
02製品
100
AcDbLine
 10
-6678.7961671547
 20
3813.993467219447
 30
0.0
 11
-6680.453533907325
 21
3813.993467219447
 31
0.0
  0
ARC
  5
3065E
330
1F
100
AcDbEntity
  8
02製品
100
AcDbCircle
 10
-6678.796175737776
 20
3817.493476994638
 30
0.0
 40
3.500000000000227
100
AcDbArc
 50
270.0
 51
90.0
  0
LINE
  5
3065F
330
1F
100
AcDbEntity
  8
02製品
100
AcDbLine
 10
-6678.7961671547
 20
3820.993466504191
 30
0.0
 11
-6680.453533907325
 21
3820.993466504191
 31
0.0
  0
ARC
  5
30660
330
1F
100
AcDbEntity
  8
02製品
100
AcDbCircle
 10
-6681.296175737776
 20
3817.493476994638
 30
0.0
 40
3.600000000000179
100
AcDbArc
 50
76.46379726260409
 51
103.5362027374522
  0
LINE
  5
30661
330
1F
100
AcDbEntity
  8
02製品
100
AcDbLine
 10
-6682.138795633704
 20
3820.993466504191
 30
0.0
 11
-6683.796162386328
 21
3820.993466504191
 31
0.0
  0
ARC
  5
30662
330
1F
100
AcDbEntity
  8
02製品
100
AcDbCircle
 10
-6683.796175737776
 20
3817.493476994638
 30
0.0
 40
3.500000000000227
100
AcDbArc
 50
90.0
 51
270.0
  0
LINE
  5
30663
330
1F
100
AcDbEntity
  8
02製品
100
AcDbLine
 10
-6682.138795633704
 20
3813.993467219447
 30
0.0
 11
-6683.796162386328
 21
3813.993467219447
 31
0.0
  0
ARC
  5
30664
330
1F
100
AcDbEntity
  8
02製品
100
AcDbCircle
 10
-6681.296175737776
 20
3967.493476994638
 30
0.0
 40
3.499999999999091
100
AcDbArc
 50
0.0
 51
180.0
  0
ARC
  5
30665
330
1F
100
AcDbEntity
  8
02製品
100
AcDbCircle
 10
-7637.296175737783
 20
3958.993476994608
 30
0.0
 40
7.500000000000165
100
AcDbArc
 50
117.8181392844358
 51
62.18186071538393
  0
LINE
  5
30666
330
1F
100
AcDbEntity
  8
02製品
100
AcDbLine
 10
-7633.796176542432
 20
3965.626729853724
 30
0.0
 11
-7633.796176542432
 21
3967.493472822283
 31
0.0
  0
ARC
  5
30667
330
1F
100
AcDbEntity
  8
02製品
100
AcDbCircle
 10
-7637.296175737783
 20
3967.493476994638
 30
0.0
 40
3.500000000000227
100
AcDbArc
 50
0.0
 51
180.0
  0
LINE
  5
30668
330
1F
100
AcDbEntity
  8
02製品
100
AcDbLine
 10
-7640.796175827176
 20
3967.493472822283
 30
0.0
 11
-7640.796175827176
 21
3965.626729853724
 31
0.0
  0
LINE
  5
30669
330
1F
100
AcDbEntity
  8
02製品
100
AcDbLine
 10
-6684.796149511725
 20
3967.493472822283
 30
0.0
 11
-6684.796149511725
 21
3965.626729853724
 31
0.0
  0
ARC
  5
3066A
330
1F
100
AcDbEntity
  8
02製品
100
AcDbCircle
 10
-6666.79617573778
 20
3988.293476994626
 30
0.0
 40
3.000000000000682
100
AcDbArc
 50
0.0
 51
90.0
  0
ARC
  5
3066B
330
1F
100
AcDbEntity
  8
02製品
100
AcDbCircle
 10
-6681.296175737776
 20
3958.993476994608
 30
0.0
 40
7.499999999999635
100
AcDbArc
 50
117.8181392845662
 51
62.1818607154522
  0
LINE
  5
3066C
330
1F
100
AcDbEntity
  8
02製品
100
AcDbLine
 10
-6677.796180029303
 20
3965.626729853724
 30
0.0
 11
-6677.796180029303
 21
3967.493472822283
 31
0.0
  0
LINE
  5
3066D
330
1F
100
AcDbEntity
  8
02製品
100
AcDbLine
 10
-7657.296175737783
 20
3443.693502076243
 30
0.0
 11
-7658.496175794766
 21
3443.693502076243
 31
0.0
  0
LINE
  5
3066E
330
1F
100
AcDbEntity
  8
02製品
100
AcDbLine
 10
-7658.496175794766
 20
3446.693463452433
 30
0.0
 11
-7657.296175737783
 21
3446.693463452433
 31
0.0
  0
LINE
  5
3066F
330
1F
100
AcDbEntity
  8
02製品
100
AcDbLine
 10
-7658.496175794766
 20
3443.693502076243
 30
0.0
 11
-7658.496175794766
 21
3446.693463452433
 31
0.0
  0
LINE
  5
30670
330
1F
100
AcDbEntity
  8
02製品
100
AcDbLine
 10
-7658.496175794766
 20
3991.293473370646
 30
0.0
 11
-7657.296175737783
 21
3991.293473370646
 31
0.0
  0
LINE
  5
30671
330
1F
100
AcDbEntity
  8
02製品
100
AcDbLine
 10
-7657.296175737783
 20
3988.293482192134
 30
0.0
 11
-7658.496175794766
 21
3988.293482192134
 31
0.0
  0
LINE
  5
30672
330
1F
100
AcDbEntity
  8
02製品
100
AcDbLine
 10
-7658.496175794766
 20
3988.293482192134
 30
0.0
 11
-7658.496175794766
 21
3991.293473370646
 31
0.0
  0
LINE
  5
30673
330
1F
100
AcDbEntity
  8
02製品
100
AcDbLine
 10
-7658.496175794766
 20
3988.293482192134
 30
0.0
 11
-7658.496175794766
 21
3446.693463452433
 31
0.0
  0
LINE
  5
30674
330
1F
100
AcDbEntity
  8
02製品
100
AcDbLine
 10
-7658.496175794766
 20
3442.49348176298
 30
0.0
 11
-7657.296175737754
 21
3442.49348176298
 31
0.0
  0
LINE
  5
30675
330
1F
100
AcDbEntity
  8
02製品
100
AcDbLine
 10
-7658.496175794766
 20
3443.693502076243
 30
0.0
 11
-7658.496175794766
 21
3442.49348176298
 31
0.0
  0
LINE
  5
30676
330
1F
100
AcDbEntity
  8
02製品
100
AcDbLine
 10
-7657.296175737754
 20
3992.493478782748
 30
0.0
 11
-7658.496175794766
 21
3992.493478782748
 31
0.0
  0
LINE
  5
30677
330
1F
100
AcDbEntity
  8
02製品
100
AcDbLine
 10
-7658.496175794766
 20
3992.493478782748
 30
0.0
 11
-7658.496175794766
 21
3991.293473370646
 31
0.0
  0
LINE
  5
30678
330
1F
100
AcDbEntity
  8
02製品
100
AcDbLine
 10
-6660.096163530738
 20
3988.293482192134
 30
0.0
 11
-6661.296183844001
 21
3988.293482192134
 31
0.0
  0
LINE
  5
30679
330
1F
100
AcDbEntity
  8
02製品
100
AcDbLine
 10
-6660.096163530738
 20
3988.293482192134
 30
0.0
 11
-6660.096163530738
 21
3446.693463452433
 31
0.0
  0
LINE
  5
3067A
330
1F
100
AcDbEntity
  8
02製品
100
AcDbLine
 10
-6661.296183844001
 20
3446.693463452433
 30
0.0
 11
-6660.096163530738
 21
3446.693463452433
 31
0.0
  0
LINE
  5
3067B
330
1F
100
AcDbEntity
  8
02製品
100
AcDbLine
 10
-6660.096163530738
 20
3446.693463452433
 30
0.0
 11
-6660.096163530738
 21
3443.693502076243
 31
0.0
  0
LINE
  5
3067C
330
1F
100
AcDbEntity
  8
02製品
100
AcDbLine
 10
-6660.096163530738
 20
3443.693502076243
 30
0.0
 11
-6661.296183844001
 21
3443.693502076243
 31
0.0
  0
LINE
  5
3067D
330
1F
100
AcDbEntity
  8
02製品
100
AcDbLine
 10
-6661.296183844001
 20
3991.293473370646
 30
0.0
 11
-6660.096163530738
 21
3991.293473370646
 31
0.0
  0
LINE
  5
3067E
330
1F
100
AcDbEntity
  8
02製品
100
AcDbLine
 10
-6660.096163530738
 20
3991.293473370646
 30
0.0
 11
-6660.096163530738
 21
3988.293482192134
 31
0.0
  0
LINE
  5
3067F
330
1F
100
AcDbEntity
  8
02製品
100
AcDbLine
 10
-6661.296183844001
 20
3992.493478782748
 30
0.0
 11
-6660.096163530738
 21
3992.493478782748
 31
0.0
  0
LINE
  5
30680
330
1F
100
AcDbEntity
  8
02製品
100
AcDbLine
 10
-6660.096163530738
 20
3992.493478782748
 30
0.0
 11
-6660.096163530738
 21
3991.293473370646
 31
0.0
  0
LINE
  5
30681
330
1F
100
AcDbEntity
  8
02製品
100
AcDbLine
 10
-6660.096163530738
 20
3442.49348176298
 30
0.0
 11
-6661.296183844001
 21
3442.49348176298
 31
0.0
  0
LINE
  5
30682
330
1F
100
AcDbEntity
  8
02製品
100
AcDbLine
 10
-6660.096163530738
 20
3443.693502076243
 30
0.0
 11
-6660.096163530738
 21
3442.49348176298
 31
0.0
  0
LINE
  5
30683
330
1F
100
AcDbEntity
  8
02製品
100
AcDbLine
 10
-7627.296176408321
 20
3351.993603833293
 30
0.0
 11
-7627.296176408321
 21
3351.993484624003
 31
0.0
  0
LINE
  5
30684
330
1F
100
AcDbEntity
  8
02製品
100
AcDbLine
 10
-6691.296155233771
 20
3351.993603833293
 30
0.0
 11
-6691.296155233771
 21
3351.993484624003
 31
0.0
  0
ARC
  5
30685
330
1F
100
AcDbEntity
  8
02製品
100
AcDbCircle
 10
-6698.29617573778
 20
4194.493476994667
 30
0.0
 40
3.000000000000682
100
AcDbArc
 50
90.0
 51
180.0
  0
LINE
  5
30686
330
1F
100
AcDbEntity
  8
02製品
100
AcDbLine
 10
-6661.296183844001
 20
4197.493476994638
 30
0.0
 11
-6698.296184320838
 21
4197.493476994638
 31
0.0
  0
LINE
  5
30687
330
1F
100
AcDbEntity
  8
02製品
100
AcDbLine
 10
-6661.296183844001
 20
4197.493476994638
 30
0.0
 11
-6661.296183844001
 21
3351.993603833293
 31
0.0
  0
LINE
  5
30688
330
1F
100
AcDbEntity
  8
02製品
100
AcDbLine
 10
-6701.296205301673
 20
4194.493476968531
 30
0.0
 11
-6701.296205301673
 21
3991.293473370646
 31
0.0
  0
LINE
  5
30689
330
1F
100
AcDbEntity
  8
02製品
100
AcDbLine
 10
-6701.296205301673
 20
3443.693502076243
 30
0.0
 11
-6701.296205301673
 21
3351.993603833293
 31
0.0
  0
CIRCLE
  5
3068A
330
1F
100
AcDbEntity
  8
02製品
100
AcDbCircle
 10
-6681.296175737776
 20
3467.493476994638
 30
0.0
 40
2.350000000000136
  0
CIRCLE
  5
3068B
330
1F
100
AcDbEntity
  8
02製品
100
AcDbCircle
 10
-6681.296175737776
 20
3617.493476994638
 30
0.0
 40
2.350000000000136
  0
CIRCLE
  5
3068C
330
1F
100
AcDbEntity
  8
02製品
100
AcDbCircle
 10
-6681.296175737776
 20
3817.493476994638
 30
0.0
 40
2.350000000000136
  0
CIRCLE
  5
3068D
330
1F
100
AcDbEntity
  8
02製品
100
AcDbCircle
 10
-6681.296175737776
 20
3967.493476994638
 30
0.0
 40
2.350000000000136
  0
LINE
  5
3068E
330
1F
100
AcDbEntity
  8
02製品
100
AcDbLine
 10
-6701.296205301673
 20
3351.993603833293
 30
0.0
 11
-6661.296183844001
 21
3351.993603833293
 31
0.0
  0
LINE
  5
3068F
330
1F
100
AcDbEntity
  8
02製品
100
AcDbLine
 10
-6676.296169538886
 20
3351.993484624003
 30
0.0
 11
-6676.296169538886
 21
3347.493453152751
 31
0.0
  0
LINE
  5
30690
330
1F
100
AcDbEntity
  8
02製品
100
AcDbLine
 10
-6701.296205301673
 20
3347.493453152751
 30
0.0
 11
-6676.296169538886
 21
3347.493453152751
 31
0.0
  0
LINE
  5
30691
330
1F
100
AcDbEntity
  8
02製品
100
AcDbLine
 10
-6701.296205301673
 20
3347.493453152751
 30
0.0
 11
-6701.296205301673
 21
3351.993484624003
 31
0.0
  0
LINE
  5
30692
330
1F
100
AcDbEntity
  8
02製品
100
AcDbLine
 10
-6701.296205301673
 20
3351.993484624003
 30
0.0
 11
-6676.296169538886
 21
3351.993484624003
 31
0.0
  0
LINE
  5
30693
330
1F
100
AcDbEntity
  8
02製品
100
AcDbLine
 10
-6661.296183844001
 20
3347.493453152751
 30
0.0
 11
-6676.296169538886
 21
3347.493453152751
 31
0.0
  0
LINE
  5
30694
330
1F
100
AcDbEntity
  8
02製品
100
AcDbLine
 10
-6665.796155710608
 20
3351.993484624003
 30
0.0
 11
-6676.296169538886
 21
3351.993484624003
 31
0.0
  0
LINE
  5
30695
330
1F
100
AcDbEntity
  8
02製品
100
AcDbLine
 10
-6661.296183844001
 20
3351.993484624003
 30
0.0
 11
-6661.296183844001
 21
3347.493453152751
 31
0.0
  0
LINE
  5
30696
330
1F
100
AcDbEntity
  8
02製品
100
AcDbLine
 10
-6661.296183844001
 20
3351.993484624003
 30
0.0
 11
-6665.796155710608
 21
3351.993484624003
 31
0.0
  0
LINE
  5
30697
330
1F
100
AcDbEntity
  8
02製品
100
AcDbLine
 10
-6665.796155710608
 20
3351.993603833293
 30
0.0
 11
-6665.796155710608
 21
3351.993484624003
 31
0.0
  0
LINE
  5
30698
330
1F
100
AcDbEntity
  8
02製品
100
AcDbLine
 10
-6661.296183844001
 20
3351.993603833293
 30
0.0
 11
-6661.296183844001
 21
3351.993484624003
 31
0.0
  0
LINE
  5
30699
330
1F
100
AcDbEntity
  8
02製品
100
AcDbLine
 10
-7617.296176631839
 20
3351.993603833293
 30
0.0
 11
-7657.296175737783
 21
3351.993603833293
 31
0.0
  0
LINE
  5
3069A
330
1F
100
AcDbEntity
  8
02製品
100
AcDbLine
 10
-7657.296175737783
 20
4197.493476994638
 30
0.0
 11
-7620.296175260932
 21
4197.493476994638
 31
0.0
  0
ARC
  5
3069B
330
1F
100
AcDbEntity
  8
02製品
100
AcDbCircle
 10
-7620.29617573778
 20
4194.493476994667
 30
0.0
 40
3.000000000000114
100
AcDbArc
 50
0.0
 51
90.0
  0
LINE
  5
3069C
330
1F
100
AcDbEntity
  8
02製品
100
AcDbLine
 10
-7617.296176631839
 20
4194.493476968531
 30
0.0
 11
-7617.296176631839
 21
3991.293473370646
 31
0.0
  0
LINE
  5
3069D
330
1F
100
AcDbEntity
  8
02製品
100
AcDbLine
 10
-7617.296176631839
 20
3443.693502076243
 30
0.0
 11
-7617.296176631839
 21
3351.993603833293
 31
0.0
  0
CIRCLE
  5
3069E
330
1F
100
AcDbEntity
  8
02製品
100
AcDbCircle
 10
-7637.296175737783
 20
3467.493476994638
 30
0.0
 40
2.350000000000136
  0
CIRCLE
  5
3069F
330
1F
100
AcDbEntity
  8
02製品
100
AcDbCircle
 10
-7637.296175737783
 20
3817.493476994638
 30
0.0
 40
2.350000000000136
  0
CIRCLE
  5
306A0
330
1F
100
AcDbEntity
  8
02製品
100
AcDbCircle
 10
-7637.296175737783
 20
3617.493476994638
 30
0.0
 40
2.350000000000136
  0
LINE
  5
306A1
330
1F
100
AcDbEntity
  8
02製品
100
AcDbLine
 10
-7657.296175737783
 20
4197.493476994638
 30
0.0
 11
-7657.296175737783
 21
3351.993603833293
 31
0.0
  0
CIRCLE
  5
306A2
330
1F
100
AcDbEntity
  8
02製品
100
AcDbCircle
 10
-7637.296175737783
 20
3967.493476994638
 30
0.0
 40
2.350000000000136
  0
LINE
  5
306A3
330
1F
100
AcDbEntity
  8
02製品
100
AcDbLine
 10
-7652.796175931484
 20
3351.993484624003
 30
0.0
 11
-7642.296176073045
 21
3351.993484624003
 31
0.0
  0
LINE
  5
306A4
330
1F
100
AcDbEntity
  8
02製品
100
AcDbLine
 10
-7642.296176073045
 20
3351.993484624003
 30
0.0
 11
-7642.296176073045
 21
3347.493453152751
 31
0.0
  0
LINE
  5
306A5
330
1F
100
AcDbEntity
  8
02製品
100
AcDbLine
 10
-7657.296175737783
 20
3347.493453152751
 30
0.0
 11
-7642.296176073045
 21
3347.493453152751
 31
0.0
  0
LINE
  5
306A6
330
1F
100
AcDbEntity
  8
02製品
100
AcDbLine
 10
-7657.296175737783
 20
3351.993484624003
 30
0.0
 11
-7657.296175737783
 21
3347.493453152751
 31
0.0
  0
LINE
  5
306A7
330
1F
100
AcDbEntity
  8
02製品
100
AcDbLine
 10
-7617.296176631839
 20
3347.493453152751
 30
0.0
 11
-7617.296176631839
 21
3351.993484624003
 31
0.0
  0
LINE
  5
306A8
330
1F
100
AcDbEntity
  8
02製品
100
AcDbLine
 10
-7617.296176631839
 20
3347.493453152751
 30
0.0
 11
-7642.296176073045
 21
3347.493453152751
 31
0.0
  0
LINE
  5
306A9
330
1F
100
AcDbEntity
  8
02製品
100
AcDbLine
 10
-7617.296176631839
 20
3351.993484624003
 30
0.0
 11
-7642.296176073045
 21
3351.993484624003
 31
0.0
  0
LINE
  5
306AA
330
1F
100
AcDbEntity
  8
02製品
100
AcDbLine
 10
-7657.296175737783
 20
3351.993484624003
 30
0.0
 11
-7652.796175931484
 21
3351.993484624003
 31
0.0
  0
LINE
  5
306AB
330
1F
100
AcDbEntity
  8
02製品
100
AcDbLine
 10
-7652.796175931484
 20
3351.993603833293
 30
0.0
 11
-7652.796175931484
 21
3351.993484624003
 31
0.0
  0
LINE
  5
306AC
330
1F
100
AcDbEntity
  8
02製品
100
AcDbLine
 10
-7657.296175737783
 20
3351.993603833293
 30
0.0
 11
-7657.296175737783
 21
3351.993484624003
 31
0.0
  0
LINE
  5
306AD
330
1F
100
AcDbEntity
  8
02製品
100
AcDbLine
 10
-7617.296176631839
 20
4157.493477888678
 30
0.0
 11
-6701.296205301673
 21
4157.493477888678
 31
0.0
  0
LINE
  5
306AE
330
1F
100
AcDbEntity
  8
02製品
100
AcDbLine
 10
-7617.296176631839
 20
4194.293477075447
 30
0.0
 11
-7611.996176321894
 21
4194.293477075447
 31
0.0
  0
LINE
  5
306AF
330
1F
100
AcDbEntity
  8
02製品
100
AcDbLine
 10
-7611.996176321894
 20
4194.293477075447
 30
0.0
 11
-7611.996176321894
 21
4197.493476994638
 31
0.0
  0
LINE
  5
306B0
330
1F
100
AcDbEntity
  8
02製品
100
AcDbLine
 10
-7611.996176321894
 20
4197.493476994638
 30
0.0
 11
-6706.596190710456
 21
4197.493476994638
 31
0.0
  0
LINE
  5
306B1
330
1F
100
AcDbEntity
  8
02製品
100
AcDbLine
 10
-6706.596190710456
 20
4197.493476994638
 30
0.0
 11
-6706.596190710456
 21
4194.293477075447
 31
0.0
  0
LINE
  5
306B2
330
1F
100
AcDbEntity
  8
02製品
100
AcDbLine
 10
-6706.596190710456
 20
4194.293477075447
 30
0.0
 11
-6701.296205301673
 21
4194.293477075447
 31
0.0
  0
LINE
  5
306B3
330
1F
100
AcDbEntity
  8
02製品
100
AcDbLine
 10
-6706.596190710456
 20
4197.493476994638
 30
0.0
 11
-6698.296184320838
 21
4197.493476994638
 31
0.0
  0
LINE
  5
306B4
330
1F
100
AcDbEntity
  8
02製品
100
AcDbLine
 10
-7611.996176321894
 20
4197.493476994638
 30
0.0
 11
-7620.296175260932
 21
4197.493476994638
 31
0.0
  0
INSERT
  5
324B3
330
1F
100
AcDbEntity
  8
02製品
100
AcDbBlockReference
  2
A$C10914
 10
-9200.539520491819
 20
6120.898992362696
 30
0.0
 41
-1.0
 50
89.99999999999987
  0
INSERT
  5
324B4
330
1F
100
AcDbEntity
  8
02製品
100
AcDbBlockReference
  2
A$C10914
 10
-10256.23942207263
 20
6120.898992362692
 30
0.0
 41
-1.0
 50
89.99999999999987
  0
INSERT
  5
324B5
330
1F
100
AcDbEntity
  8
02製品
100
AcDbBlockReference
  2
A$C10914
 10
-10323.23942207263
 20
6120.898992362692
 30
0.0
 50
270.0
  0
INSERT
  5
324B6
330
1F
100
AcDbEntity
  8
02製品
100
AcDbBlockReference
  2
A$C10914
 10
-11382.23946880267
 20
6120.898992362692
 30
0.0
 41
-1.0
 50
89.99999999999987
  0
INSERT
  5
324B7
330
1F
100
AcDbEntity
  8
02製品
100
AcDbBlockReference
  2
A$C10914
 10
-11449.23946880267
 20
6120.898992362692
 30
0.0
 50
270.0
  0
INSERT
  5
324B8
330
1F
100
AcDbEntity
  8
02製品
100
AcDbBlockReference
  2
A$C10914
 10
-12504.93946806059
 20
6120.898992362696
 30
0.0
 50
270.0
  0
INSERT
  5
324B9
330
1F
100
AcDbEntity
  8
02製品
100
AcDbBlockReference
  2
A$C10914
 10
-12504.93946806059
 20
5110.698980091633
 30
0.0
 41
-1.0
 50
270.0
  0
INSERT
  5
324BA
330
1F
100
AcDbEntity
  8
02製品
100
AcDbBlockReference
  2
A$C10914
 10
-11382.2394640343
 20
5110.698980091636
 30
0.0
 50
90.0
  0
INSERT
  5
324BB
330
1F
100
AcDbEntity
  8
02製品
100
AcDbBlockReference
  2
A$C10914
 10
-11449.2394640343
 20
5110.698980091636
 30
0.0
 41
-1.0
 50
270.0
  0
INSERT
  5
324BC
330
1F
100
AcDbEntity
  8
02製品
100
AcDbBlockReference
  2
A$C10914
 10
-10256.23953651355
 20
5110.698980091636
 30
0.0
 50
90.0
  0
INSERT
  5
324BD
330
1F
100
AcDbEntity
  8
02製品
100
AcDbBlockReference
  2
A$C10914
 10
-10323.23953651355
 20
5110.698980091636
 30
0.0
 41
-1.0
 50
270.0
  0
INSERT
  5
324BE
330
1F
100
AcDbEntity
  8
02製品
100
AcDbBlockReference
  2
A$C10914
 10
-9200.539520491819
 20
5110.698980091633
 30
0.0
 50
90.0
  0
LINE
  5
324BF
330
1F
100
AcDbEntity
  8
02製品
  6
ByBlock
100
AcDbLine
 10
-7658.896175741294
 20
4168.993476994639
 30
0.0
 11
-7657.29617573778
 21
4168.993476994639
 31
0.0
  0
LINE
  5
324C0
330
1F
100
AcDbEntity
  8
02製品
  6
ByBlock
100
AcDbLine
 10
-7658.896175741294
 20
4185.993476994639
 30
0.0
 11
-7657.29617573778
 21
4185.993476994639
 31
0.0
  0
LINE
  5
324C1
330
1F
100
AcDbEntity
  8
02製品
  6
ByBlock
100
AcDbLine
 10
-7657.29617573778
 20
4185.993476994639
 30
0.0
 11
-7657.29617573778
 21
4168.993476994639
 31
0.0
  0
LINE
  5
324C2
330
1F
100
AcDbEntity
  8
02製品
  6
ByBlock
100
AcDbLine
 10
-7658.896175741294
 20
4185.993476994639
 30
0.0
 11
-7658.896175741294
 21
4168.993476994639
 31
0.0
  0
LINE
  5
324C3
330
1F
100
AcDbEntity
  8
02製品
  6
ByBlock
100
AcDbLine
 10
-7663.70014607821
 20
4169.987938054211
 30
0.0
 11
-7658.896175741294
 21
4169.987938054211
 31
0.0
  0
LINE
  5
324C4
330
1F
100
AcDbEntity
  8
02製品
  6
ByBlock
100
AcDbLine
 10
-7664.396175741296
 20
4183.793562202237
 30
0.0
 11
-7664.396175741296
 21
4171.193466173651
 31
0.0
  0
ARC
  5
324C5
330
1F
100
AcDbEntity
  8
02製品
  6
ByBlock
100
AcDbCircle
 10
-7652.396175741294
 20
4177.49347699464
 30
0.0
 40
12.0
100
AcDbArc
 50
161.7759804502329
 51
198.2237823143827
  0
LINE
  5
324C6
330
1F
100
AcDbEntity
  8
02製品
  6
ByBlock
100
AcDbLine
 10
-7663.794277547937
 20
4173.740730412609
 30
0.0
 11
-7658.896175741294
 21
4173.740730412609
 31
0.0
  0
LINE
  5
324C7
330
1F
100
AcDbEntity
  8
02製品
  6
ByBlock
100
AcDbLine
 10
-7663.794262289146
 20
4181.246284611828
 30
0.0
 11
-7658.896175741294
 21
4181.246284611828
 31
0.0
  0
LINE
  5
324C8
330
1F
100
AcDbEntity
  8
02製品
  6
ByBlock
100
AcDbLine
 10
-7663.70014607821
 20
4184.999046452647
 30
0.0
 11
-7658.896175741294
 21
4184.999046452647
 31
0.0
  0
LINE
  5
324C9
330
1F
100
AcDbEntity
  8
02製品
  6
ByBlock
100
AcDbLine
 10
-7663.794273978347
 20
4181.246308266949
 30
0.0
 11
-7664.396175741296
 21
4183.793562202237
 31
0.0
  0
LINE
  5
324CA
330
1F
100
AcDbEntity
  8
02製品
  6
ByBlock
100
AcDbLine
 10
-7664.396175741296
 20
4171.193466173651
 30
0.0
 11
-7663.794299707846
 21
4173.740777545951
 31
0.0
  0
LINE
  5
324CB
330
1F
100
AcDbEntity
  8
02製品
  6
ByBlock
100
AcDbLine
 10
-7664.396175741296
 20
4171.193466173651
 30
0.0
 11
-7663.700178150133
 21
4169.987962850624
 31
0.0
  0
LINE
  5
324CC
330
1F
100
AcDbEntity
  8
02製品
  6
ByBlock
100
AcDbLine
 10
-7663.700156954719
 20
4184.999102236799
 30
0.0
 11
-7664.396175741296
 21
4183.793562202237
 31
0.0
  0
LINE
  5
324CD
330
1F
100
AcDbEntity
  8
02製品
  6
ByBlock
100
AcDbLine
 10
-6659.696183840484
 20
4168.993476994639
 30
0.0
 11
-6661.296183843999
 21
4168.993476994639
 31
0.0
  0
LINE
  5
324CE
330
1F
100
AcDbEntity
  8
02製品
  6
ByBlock
100
AcDbLine
 10
-6659.696183840484
 20
4185.993476994639
 30
0.0
 11
-6661.296183843999
 21
4185.993476994639
 31
0.0
  0
LINE
  5
324CF
330
1F
100
AcDbEntity
  8
02製品
  6
ByBlock
100
AcDbLine
 10
-6661.296183843999
 20
4185.993476994639
 30
0.0
 11
-6661.296183843999
 21
4168.993476994639
 31
0.0
  0
LINE
  5
324D0
330
1F
100
AcDbEntity
  8
02製品
  6
ByBlock
100
AcDbLine
 10
-6659.696183840484
 20
4185.993476994639
 30
0.0
 11
-6659.696183840484
 21
4168.993476994639
 31
0.0
  0
LINE
  5
324D1
330
1F
100
AcDbEntity
  8
02製品
  6
ByBlock
100
AcDbLine
 10
-6654.892213503568
 20
4169.987938054211
 30
0.0
 11
-6659.696183840484
 21
4169.987938054211
 31
0.0
  0
LINE
  5
324D2
330
1F
100
AcDbEntity
  8
02製品
  6
ByBlock
100
AcDbLine
 10
-6654.196183840482
 20
4183.793562202237
 30
0.0
 11
-6654.196183840482
 21
4171.193466173651
 31
0.0
  0
ARC
  5
324D3
330
1F
100
AcDbEntity
  8
02製品
  6
ByBlock
100
AcDbCircle
 10
-6666.196183840486
 20
4177.49347699464
 30
0.0
 40
12.0
100
AcDbArc
 50
341.7762176856256
 51
18.22401954975885
  0
LINE
  5
324D4
330
1F
100
AcDbEntity
  8
02製品
  6
ByBlock
100
AcDbLine
 10
-6654.798082033842
 20
4173.740730412609
 30
0.0
 11
-6659.696183840484
 21
4173.740730412609
 31
0.0
  0
LINE
  5
324D5
330
1F
100
AcDbEntity
  8
02製品
  6
ByBlock
100
AcDbLine
 10
-6654.798097292634
 20
4181.246284611828
 30
0.0
 11
-6659.696183840484
 21
4181.246284611828
 31
0.0
  0
LINE
  5
324D6
330
1F
100
AcDbEntity
  8
02製品
  6
ByBlock
100
AcDbLine
 10
-6654.892213503568
 20
4184.999046452647
 30
0.0
 11
-6659.696183840484
 21
4184.999046452647
 31
0.0
  0
LINE
  5
324D7
330
1F
100
AcDbEntity
  8
02製品
  6
ByBlock
100
AcDbLine
 10
-6654.798085603432
 20
4181.246308266949
 30
0.0
 11
-6654.196183840482
 21
4183.793562202237
 31
0.0
  0
LINE
  5
324D8
330
1F
100
AcDbEntity
  8
02製品
  6
ByBlock
100
AcDbLine
 10
-6654.196183840482
 20
4171.193466173651
 30
0.0
 11
-6654.798059873932
 21
4173.740777545951
 31
0.0
  0
LINE
  5
324D9
330
1F
100
AcDbEntity
  8
02製品
  6
ByBlock
100
AcDbLine
 10
-6654.196183840482
 20
4171.193466173651
 30
0.0
 11
-6654.892181431645
 21
4169.987962850624
 31
0.0
  0
LINE
  5
324DA
330
1F
100
AcDbEntity
  8
02製品
  6
ByBlock
100
AcDbLine
 10
-6654.892202627059
 20
4184.999102236799
 30
0.0
 11
-6654.196183840482
 21
4183.793562202237
 31
0.0
  0
ENDSEC
  0
SECTION
  2
OBJECTS
  0
DICTIONARY
  5
C
330
0
100
AcDbDictionary
281
     1
  3
ACAD_DETAILVIEWSTYLE
350
ADAF
  3
ACAD_GROUP
350
D
  3
ACAD_IMAGE_VARS
350
6A88
  3
ACAD_LAYOUT
350
1A
  3
ACAD_MLINESTYLE
350
17
  3
ACAD_PLOTSETTINGS
350
19
  3
ACAD_PLOTSTYLENAME
350
E
  3
ACAD_SCALELIST
350
6A4E
  3
ACAD_SECTIONVIEWSTYLE
350
ADB0
  3
AcadDim
350
813A
  3
AcDbVariableDictionary
350
79E
  3
AEC_DISP_REPS
350
8259
  3
AEC_DISPLAY_PROPS_DEFAULTS
350
825B
  3
AEC_VARS
350
8257
  3
APPDATA
350
6A87
  3
DWGPROPS
350
3258D
  0
DICTIONARY
  5
7A6F
330
2
100
AcDbDictionary
280
     1
281
     1
  3
ACAD_LAYERFILTERS
360
A22F
  3
ACAD_LAYERSTATES
360
7A70
  3
ACLYDICTIONARY
360
163AB
  0
DICTIONARY
  5
CBD6
330
1F
100
AcDbDictionary
280
     1
281
     1
  3
ACAD_SORTENTS
360
CBD7
  0
DICTIONARY
  5
152CF
330
152CE
100
AcDbDictionary
280
     1
281
     1
  3
ACAD_SORTENTS
360
152D0
  0
DICTIONARY
  5
1B100
330
1B0D4
100
AcDbDictionary
280
     1
281
     1
  3
ACAD_SORTENTS
360
1B101
  0
DICTIONARY
  5
ADAF
102
{ACAD_REACTORS
330
C
102
}
330
C
100
AcDbDictionary
281
     1
  0
DICTIONARY
  5
D
102
{ACAD_REACTORS
330
C
102
}
330
C
100
AcDbDictionary
281
     1
  0
RASTERVARIABLES
  5
6A88
102
{ACAD_REACTORS
330
C
102
}
330
C
100
AcDbRasterVariables
 90
        0
 70
     1
 71
     1
 72
     1
  0
DICTIONARY
  5
1A
102
{ACAD_REACTORS
330
C
102
}
330
C
100
AcDbDictionary
281
     1
  3
Layout1
350
1E
  3
Layout2
350
26
  3
Model
350
22
  0
DICTIONARY
  5
17
102
{ACAD_REACTORS
330
C
102
}
330
C
100
AcDbDictionary
281
     1
  3
Standard
350
18
  0
DICTIONARY
  5
19
102
{ACAD_REACTORS
330
C
102
}
330
C
100
AcDbDictionary
281
     1
  0
ACDBDICTIONARYWDFLT
  5
E
102
{ACAD_REACTORS
330
C
102
}
330
C
100
AcDbDictionary
281
     1
  3
Normal
350
F
100
AcDbDictionaryWithDefault
340
F
  0
DICTIONARY
  5
6A4E
102
{ACAD_REACTORS
330
C
102
}
330
C
100
AcDbDictionary
281
     1
  3
A0
350
6A4F
  3
A1
350
6A50
  3
A2
350
6A51
  3
A3
350
6A52
  3
A4
350
6A53
  3
A5
350
6A54
  3
A6
350
6A55
  3
A7
350
6A56
  3
A8
350
6A57
  3
A9
350
6A58
  3
B0
350
6A59
  3
B1
350
6A5A
  3
B2
350
6A5B
  3
B3
350
6A5C
  3
B4
350
6A5D
  3
B5
350
6A5E
  3
B6
350
6A5F
  3
B7
350
6A60
  3
B8
350
6A61
  3
B9
350
6A62
  3
C0
350
6A63
  3
C1
350
6A64
  3
C2
350
6A65
  3
C3
350
6A66
  3
C4
350
6A67
  3
C5
350
6A68
  3
C6
350
6A69
  3
C7
350
6A6A
  3
C8
350
6A6B
  3
C9
350
6A6C
  3
D0
350
6A6D
  3
D1
350
6A6E
  3
D2
350
6A6F
  0
DICTIONARY
  5
ADB0
102
{ACAD_REACTORS
330
C
102
}
330
C
100
AcDbDictionary
281
     1
  0
XRECORD
  5
813A
102
{ACAD_REACTORS
330
C
102
}
330
C
100
AcDbXrecord
280
     1
340
0
 72
     0
 71
     0
 70
     0
 69
     0
 68
     1
 67
     3
 66
     0
 65
     0
 64
     0
 63
     3
 62
     1
 61
     0
 60
     0
 40
0.0
  0
DICTIONARY
  5
79E
102
{ACAD_REACTORS
330
C
102
}
330
C
100
AcDbDictionary
281
     1
  3
DIMASSOC
350
79F
  3
SORTENTS
350
264F
  0
DICTIONARY
  5
8259
102
{ACAD_REACTORS
330
C
102
}
330
C
100
AcDbDictionary
281
     1
  0
DICTIONARY
  5
825B
102
{ACAD_REACTORS
330
C
102
}
330
C
100
AcDbDictionary
281
     1
  0
DICTIONARY
  5
8257
102
{ACAD_REACTORS
330
C
102
}
330
C
100
AcDbDictionary
281
     1
  0
DICTIONARY
  5
6A87
102
{ACAD_REACTORS
330
C
102
}
330
C
100
AcDbDictionary
281
     1
  0
XRECORD
  5
3258D
102
{ACAD_REACTORS
330
C
102
}
330
C
100
AcDbXrecord
280
     1
  1
DWGPROPS COOKIE
  2

  3

  4

  6

  7

  8
2121
  9

300
=
301
=
302
=
303
=
304
=
305
=
306
=
307
=
308
=
309
=
 40
0.0
 41
2455859.030048461
 42
2458240.058941794
  1

 90
        0
  0
DICTIONARY
  5
A22F
102
{ACAD_REACTORS
330
7A6F
102
}
330
7A6F
100
AcDbDictionary
280
     1
281
     1
  0
DICTIONARY
  5
7A70
102
{ACAD_REACTORS
330
7A6F
102
}
330
7A6F
100
AcDbDictionary
281
     1
  0
DICTIONARY
  5
163AB
102
{ACAD_REACTORS
330
7A6F
102
}
330
7A6F
100
AcDbDictionary
281
     1
1001
ACAD
1000
<All
  0
SORTENTSTABLE
  5
CBD7
102
{ACAD_REACTORS
330
CBD6
102
}
330
CBD6
100
AcDbSortentsTable
330
1F
331
0
  5
98EA
  0
SORTENTSTABLE
  5
152D0
102
{ACAD_REACTORS
330
152CF
102
}
330
152CF
100
AcDbSortentsTable
330
152CE
  0
SORTENTSTABLE
  5
1B101
102
{ACAD_REACTORS
330
1B100
102
}
330
1B100
100
AcDbSortentsTable
330
1B0D4
  0
LAYOUT
  5
1E
102
{ACAD_REACTORS
330
1A
102
}
330
1A
100
AcDbPlotSettings
  1

  2

  4

  6

 40
0.0
 41
0.0
 42
0.0
 43
0.0
 44
0.0
 45
0.0
 46
0.0
 47
0.0
 48
0.0
 49
0.0
140
0.0
141
0.0
142
1.0
143
1.0
 70
   688
 72
     0
 73
     0
 74
     5
  7
monochrome.ctb
 75
    16
147
1.0
148
0.0
149
0.0
100
AcDbLayout
  1
Layout1
 70
     1
 71
     1
 10
0.0
 20
0.0
 11
420.0
 21
297.0
 12
0.0
 22
0.0
 32
0.0
 14
1.000000000000000E+20
 24
1.000000000000000E+20
 34
1.000000000000000E+20
 15
-1.000000000000000E+20
 25
-1.000000000000000E+20
 35
-1.000000000000000E+20
146
0.0
 13
0.0
 23
0.0
 33
0.0
 16
1.0
 26
0.0
 36
0.0
 17
0.0
 27
1.0
 37
0.0
 76
     0
330
1B
  0
LAYOUT
  5
26
102
{ACAD_REACTORS
330
1A
102
}
330
1A
100
AcDbPlotSettings
  1

  2

  4

  6

 40
0.0
 41
0.0
 42
0.0
 43
0.0
 44
0.0
 45
0.0
 46
0.0
 47
0.0
 48
0.0
 49
0.0
140
0.0
141
0.0
142
1.0
143
1.0
 70
   688
 72
     0
 73
     0
 74
     5
  7
monochrome.ctb
 75
    16
147
1.0
148
0.0
149
0.0
100
AcDbLayout
  1
Layout2
 70
     1
 71
     2
 10
0.0
 20
0.0
 11
12.0
 21
9.0
 12
0.0
 22
0.0
 32
0.0
 14
0.0
 24
0.0
 34
0.0
 15
0.0
 25
0.0
 35
0.0
146
0.0
 13
0.0
 23
0.0
 33
0.0
 16
1.0
 26
0.0
 36
0.0
 17
0.0
 27
1.0
 37
0.0
 76
     0
330
23
  0
LAYOUT
  5
22
102
{ACAD_REACTORS
330
1A
102
}
330
1A
100
AcDbPlotSettings
  1

  2
none_device
  4
A3
  6

 40
3.174999952316284
 41
3.174999952316284
 42
3.17498779296875
 43
3.17498779296875
 44
297.0318298339844
 45
420.1583251953125
 46
-3.16
 47
-3.1
 48
-90.0
 49
-90.0
140
329.9999999999998
141
207.0
142
1.0
143
1.0
 70
 11940
 72
     1
 73
     1
 74
     4
  7
monochrome.ctb
 75
     0
147
1.0
148
90.0
149
90.0
100
AcDbLayout
  1
Model
 70
     1
 71
     0
 10
-13510.25736412818
 20
1961.077543880496
 11
-3010.257364128185
 21
9386.077543880496
 12
0.0
 22
0.0
 32
0.0
 14
-12527.93954992199
 24
3347.493453152749
 34
0.0
 15
-6654.196183840482
 25
6120.898992362696
 35
0.0
146
0.0
 13
0.0
 23
0.0
 33
0.0
 16
1.0
 26
0.0
 36
0.0
 17
0.0
 27
1.0
 37
0.0
 76
     0
330
1F
331
A2A1
  0
MLINESTYLE
  5
18
102
{ACAD_REACTORS
330
17
102
}
330
17
100
AcDbMlineStyle
  2
STANDARD
 70
     0
  3

 62
   256
 51
90.0
 52
90.0
 71
     2
 49
0.5
 62
   256
  6
BYLAYER
 49
-0.5
 62
   256
  6
BYLAYER
  0
ACDBPLACEHOLDER
  5
F
102
{ACAD_REACTORS
330
E
102
}
330
E
  0
SCALE
  5
6A4F
102
{ACAD_REACTORS
330
6A4E
102
}
330
6A4E
100
AcDbScale
 70
     0
300
1:1
140
1.0
141
1.0
290
     1
  0
SCALE
  5
6A50
102
{ACAD_REACTORS
330
6A4E
102
}
330
6A4E
100
AcDbScale
 70
     0
300
1:2
140
1.0
141
2.0
290
     0
  0
SCALE
  5
6A51
102
{ACAD_REACTORS
330
6A4E
102
}
330
6A4E
100
AcDbScale
 70
     0
300
1:4
140
1.0
141
4.0
290
     0
  0
SCALE
  5
6A52
102
{ACAD_REACTORS
330
6A4E
102
}
330
6A4E
100
AcDbScale
 70
     0
300
1:5
140
1.0
141
5.0
290
     0
  0
SCALE
  5
6A53
102
{ACAD_REACTORS
330
6A4E
102
}
330
6A4E
100
AcDbScale
 70
     0
300
1:8
140
1.0
141
8.0
290
     0
  0
SCALE
  5
6A54
102
{ACAD_REACTORS
330
6A4E
102
}
330
6A4E
100
AcDbScale
 70
     0
300
1:10
140
1.0
141
10.0
290
     0
  0
SCALE
  5
6A55
102
{ACAD_REACTORS
330
6A4E
102
}
330
6A4E
100
AcDbScale
 70
     0
300
1:16
140
1.0
141
16.0
290
     0
  0
SCALE
  5
6A56
102
{ACAD_REACTORS
330
6A4E
102
}
330
6A4E
100
AcDbScale
 70
     0
300
1:20
140
1.0
141
20.0
290
     0
  0
SCALE
  5
6A57
102
{ACAD_REACTORS
330
6A4E
102
}
330
6A4E
100
AcDbScale
 70
     0
300
1:30
140
1.0
141
30.0
290
     0
  0
SCALE
  5
6A58
102
{ACAD_REACTORS
330
6A4E
102
}
330
6A4E
100
AcDbScale
 70
     0
300
1:40
140
1.0
141
40.0
290
     0
  0
SCALE
  5
6A59
102
{ACAD_REACTORS
330
6A4E
102
}
330
6A4E
100
AcDbScale
 70
     0
300
1:50
140
1.0
141
50.0
290
     0
  0
SCALE
  5
6A5A
102
{ACAD_REACTORS
330
6A4E
102
}
330
6A4E
100
AcDbScale
 70
     0
300
1:100
140
1.0
141
100.0
290
     0
  0
SCALE
  5
6A5B
102
{ACAD_REACTORS
330
6A4E
102
}
330
6A4E
100
AcDbScale
 70
     0
300
2:1
140
2.0
141
1.0
290
     0
  0
SCALE
  5
6A5C
102
{ACAD_REACTORS
330
6A4E
102
}
330
6A4E
100
AcDbScale
 70
     0
300
4:1
140
4.0
141
1.0
290
     0
  0
SCALE
  5
6A5D
102
{ACAD_REACTORS
330
6A4E
102
}
330
6A4E
100
AcDbScale
 70
     0
300
8:1
140
8.0
141
1.0
290
     0
  0
SCALE
  5
6A5E
102
{ACAD_REACTORS
330
6A4E
102
}
330
6A4E
100
AcDbScale
 70
     0
300
10:1
140
10.0
141
1.0
290
     0
  0
SCALE
  5
6A5F
102
{ACAD_REACTORS
330
6A4E
102
}
330
6A4E
100
AcDbScale
 70
     0
300
100:1
140
100.0
141
1.0
290
     0
  0
SCALE
  5
6A60
102
{ACAD_REACTORS
330
6A4E
102
}
330
6A4E
100
AcDbScale
 70
     0
300
1/128" = 1'-0"
140
0.0078125
141
12.0
290
     0
  0
SCALE
  5
6A61
102
{ACAD_REACTORS
330
6A4E
102
}
330
6A4E
100
AcDbScale
 70
     0
300
1/64" = 1'-0"
140
0.015625
141
12.0
290
     0
  0
SCALE
  5
6A62
102
{ACAD_REACTORS
330
6A4E
102
}
330
6A4E
100
AcDbScale
 70
     0
300
1/32" = 1'-0"
140
0.03125
141
12.0
290
     0
  0
SCALE
  5
6A63
102
{ACAD_REACTORS
330
6A4E
102
}
330
6A4E
100
AcDbScale
 70
     0
300
1/16" = 1'-0"
140
0.0625
141
12.0
290
     0
  0
SCALE
  5
6A64
102
{ACAD_REACTORS
330
6A4E
102
}
330
6A4E
100
AcDbScale
 70
     0
300
3/32" = 1'-0"
140
0.09375
141
12.0
290
     0
  0
SCALE
  5
6A65
102
{ACAD_REACTORS
330
6A4E
102
}
330
6A4E
100
AcDbScale
 70
     0
300
1/8" = 1'-0"
140
0.125
141
12.0
290
     0
  0
SCALE
  5
6A66
102
{ACAD_REACTORS
330
6A4E
102
}
330
6A4E
100
AcDbScale
 70
     0
300
3/16" = 1'-0"
140
0.1875
141
12.0
290
     0
  0
SCALE
  5
6A67
102
{ACAD_REACTORS
330
6A4E
102
}
330
6A4E
100
AcDbScale
 70
     0
300
1/4" = 1'-0"
140
0.25
141
12.0
290
     0
  0
SCALE
  5
6A68
102
{ACAD_REACTORS
330
6A4E
102
}
330
6A4E
100
AcDbScale
 70
     0
300
3/8" = 1'-0"
140
0.375
141
12.0
290
     0
  0
SCALE
  5
6A69
102
{ACAD_REACTORS
330
6A4E
102
}
330
6A4E
100
AcDbScale
 70
     0
300
1/2" = 1'-0"
140
0.5
141
12.0
290
     0
  0
SCALE
  5
6A6A
102
{ACAD_REACTORS
330
6A4E
102
}
330
6A4E
100
AcDbScale
 70
     0
300
3/4" = 1'-0"
140
0.75
141
12.0
290
     0
  0
SCALE
  5
6A6B
102
{ACAD_REACTORS
330
6A4E
102
}
330
6A4E
100
AcDbScale
 70
     0
300
1" = 1'-0"
140
1.0
141
12.0
290
     0
  0
SCALE
  5
6A6C
102
{ACAD_REACTORS
330
6A4E
102
}
330
6A4E
100
AcDbScale
 70
     0
300
1-1/2" = 1'-0"
140
1.5
141
12.0
290
     0
  0
SCALE
  5
6A6D
102
{ACAD_REACTORS
330
6A4E
102
}
330
6A4E
100
AcDbScale
 70
     0
300
3" = 1'-0"
140
3.0
141
12.0
290
     0
  0
SCALE
  5
6A6E
102
{ACAD_REACTORS
330
6A4E
102
}
330
6A4E
100
AcDbScale
 70
     0
300
6" = 1'-0"
140
6.0
141
12.0
290
     0
  0
SCALE
  5
6A6F
102
{ACAD_REACTORS
330
6A4E
102
}
330
6A4E
100
AcDbScale
 70
     0
300
1'-0" = 1'-0"
140
12.0
141
12.0
290
     0
  0
DICTIONARYVAR
  5
79F
102
{ACAD_REACTORS
330
79E
102
}
330
79E
100
DictionaryVariables
280
     0
  1
1
  0
DICTIONARYVAR
  5
264F
102
{ACAD_REACTORS
330
79E
102
}
330
79E
100
DictionaryVariables
280
     0
  1
96
  0
ENDSEC
  0
EOF
