  0
SECTION
  2
HEADER
  9
$ACADVER
  1
AC1015
  9
$ACADMAINTVER
 70
     6
  9
$DWGCODEPAGE
  3
ANSI_932
  9
$INSBASE
 10
0.0
 20
0.0
 30
0.0
  9
$EXTMIN
 10
-12548.23944305347
 20
3347.493453152738
 30
0.0
  9
$EXTMAX
 10
-6570.196176628322
 20
6204.898980098666
 30
0.0
  9
$LIMMIN
 10
-13510.25736412818
 20
1961.077543880496
  9
$LIMMAX
 10
-3010.257364128185
 20
9386.077543880496
  9
$ORTHOMODE
 70
     0
  9
$REGENMODE
 70
     1
  9
$FILLMODE
 70
     1
  9
$QTEXTMODE
 70
     0
  9
$MIRRTEXT
 70
     1
  9
$LTSCALE
 40
7.5
  9
$ATTMODE
 70
     1
  9
$TEXTSIZE
 40
3.0
  9
$TRACEWID
 40
1.0
  9
$TEXTSTYLE
  7
Standard
  9
$CLAYER
  8
02製品
  9
$CELTYPE
  6
ByLayer
  9
$CECOLOR
 62
   256
  9
$CELTSCALE
 40
1.0
  9
$DISPSILH
 70
     0
  9
$DIMSCALE
 40
25.0
  9
$DIMASZ
 40
3.0
  9
$DIMEXO
 40
1.5
  9
$DIMDLI
 40
10.0
  9
$DIMRND
 40
0.0
  9
$DIMDLE
 40
0.0
  9
$DIMEXE
 40
1.0
  9
$DIMTP
 40
0.0
  9
$DIMTM
 40
0.0
  9
$DIMTXT
 40
3.0
  9
$DIMCEN
 40
1.5
  9
$DIMTSZ
 40
0.0
  9
$DIMTOL
 70
     0
  9
$DIMLIM
 70
     0
  9
$DIMTIH
 70
     0
  9
$DIMTOH
 70
     0
  9
$DIMSE1
 70
     0
  9
$DIMSE2
 70
     0
  9
$DIMTAD
 70
     1
  9
$DIMZIN
 70
     8
  9
$DIMBLK
  1
Open
  9
$DIMASO
 70
     1
  9
$DIMSHO
 70
     1
  9
$DIMPOST
  1

  9
$DIMAPOST
  1

  9
$DIMALT
 70
     0
  9
$DIMALTD
 70
     3
  9
$DIMALTF
 40
0.03937007874016
  9
$DIMLFAC
 40
1.0
  9
$DIMTOFL
 70
     1
  9
$DIMTVP
 40
0.0
  9
$DIMTIX
 70
     0
  9
$DIMSOXD
 70
     0
  9
$DIMSAH
 70
     0
  9
$DIMBLK1
  1

  9
$DIMBLK2
  1

  9
$DIMSTYLE
  2
NEMY-25
  9
$DIMCLRD
 70
     0
  9
$DIMCLRE
 70
     0
  9
$DIMCLRT
 70
     0
  9
$DIMTFAC
 40
1.0
  9
$DIMGAP
 40
1.0
  9
$DIMJUST
 70
     0
  9
$DIMSD1
 70
     0
  9
$DIMSD2
 70
     0
  9
$DIMTOLJ
 70
     0
  9
$DIMTZIN
 70
     8
  9
$DIMALTZ
 70
     0
  9
$DIMALTTZ
 70
     0
  9
$DIMUPT
 70
     0
  9
$DIMDEC
 70
     1
  9
$DIMTDEC
 70
     1
  9
$DIMALTU
 70
     2
  9
$DIMALTTD
 70
     3
  9
$DIMTXSTY
  7
Standard
  9
$DIMAUNIT
 70
     0
  9
$DIMADEC
 70
     0
  9
$DIMALTRND
 40
0.0
  9
$DIMAZIN
 70
     0
  9
$DIMDSEP
 70
    46
  9
$DIMATFIT
 70
     3
  9
$DIMFRAC
 70
     0
  9
$DIMLDRBLK
  1
Open
  9
$DIMLUNIT
 70
     2
  9
$DIMLWD
 70
    -2
  9
$DIMLWE
 70
    -2
  9
$DIMTMOVE
 70
     0
  9
$LUNITS
 70
     2
  9
$LUPREC
 70
     4
  9
$SKETCHINC
 40
1.0
  9
$FILLETRAD
 40
0.0
  9
$AUNITS
 70
     0
  9
$AUPREC
 70
     0
  9
$MENU
  1
.
  9
$ELEVATION
 40
0.0
  9
$PELEVATION
 40
0.0
  9
$THICKNESS
 40
0.0
  9
$LIMCHECK
 70
     0
  9
$CHAMFERA
 40
10.0
  9
$CHAMFERB
 40
10.0
  9
$CHAMFERC
 40
20.0
  9
$CHAMFERD
 40
0.0
  9
$SKPOLY
 70
     0
  9
$TDCREATE
 40
2455859.405048461
  9
$TDUCREATE
 40
2455859.030048461
  9
$TDUPDATE
 40
2458240.421792778
  9
$TDUUPDATE
 40
2458240.046792778
  9
$TDINDWG
 40
2.007170162
  9
$TDUSRTIMER
 40
2458240.046490648
  9
$USRTIMER
 70
     1
  9
$ANGBASE
 50
0.0
  9
$ANGDIR
 70
     0
  9
$PDMODE
 70
     0
  9
$PDSIZE
 40
0.0
  9
$PLINEWID
 40
0.0
  9
$SPLFRAME
 70
     0
  9
$SPLINETYPE
 70
     6
  9
$SPLINESEGS
 70
     8
  9
$HANDSEED
  5
1D8DA
  9
$SURFTAB1
 70
     6
  9
$SURFTAB2
 70
     6
  9
$SURFTYPE
 70
     6
  9
$SURFU
 70
     6
  9
$SURFV
 70
     6
  9
$UCSBASE
  2

  9
$UCSNAME
  2

  9
$UCSORG
 10
0.0
 20
0.0
 30
0.0
  9
$UCSXDIR
 10
1.0
 20
0.0
 30
0.0
  9
$UCSYDIR
 10
0.0
 20
1.0
 30
0.0
  9
$UCSORTHOREF
  2

  9
$UCSORTHOVIEW
 70
     0
  9
$UCSORGTOP
 10
0.0
 20
0.0
 30
0.0
  9
$UCSORGBOTTOM
 10
0.0
 20
0.0
 30
0.0
  9
$UCSORGLEFT
 10
0.0
 20
0.0
 30
0.0
  9
$UCSORGRIGHT
 10
0.0
 20
0.0
 30
0.0
  9
$UCSORGFRONT
 10
0.0
 20
0.0
 30
0.0
  9
$UCSORGBACK
 10
0.0
 20
0.0
 30
0.0
  9
$PUCSBASE
  2

  9
$PUCSNAME
  2

  9
$PUCSORG
 10
0.0
 20
0.0
 30
0.0
  9
$PUCSXDIR
 10
1.0
 20
0.0
 30
0.0
  9
$PUCSYDIR
 10
0.0
 20
1.0
 30
0.0
  9
$PUCSORTHOREF
  2

  9
$PUCSORTHOVIEW
 70
     0
  9
$PUCSORGTOP
 10
0.0
 20
0.0
 30
0.0
  9
$PUCSORGBOTTOM
 10
0.0
 20
0.0
 30
0.0
  9
$PUCSORGLEFT
 10
0.0
 20
0.0
 30
0.0
  9
$PUCSORGRIGHT
 10
0.0
 20
0.0
 30
0.0
  9
$PUCSORGFRONT
 10
0.0
 20
0.0
 30
0.0
  9
$PUCSORGBACK
 10
0.0
 20
0.0
 30
0.0
  9
$USERI1
 70
     0
  9
$USERI2
 70
     0
  9
$USERI3
 70
     0
  9
$USERI4
 70
     0
  9
$USERI5
 70
     0
  9
$USERR1
 40
0.0
  9
$USERR2
 40
0.0
  9
$USERR3
 40
0.0
  9
$USERR4
 40
0.0
  9
$USERR5
 40
0.0
  9
$WORLDVIEW
 70
     1
  9
$SHADEDGE
 70
     3
  9
$SHADEDIF
 70
    70
  9
$TILEMODE
 70
     1
  9
$MAXACTVP
 70
    64
  9
$PINSBASE
 10
0.0
 20
0.0
 30
0.0
  9
$PLIMCHECK
 70
     0
  9
$PEXTMIN
 10
1.000000000000000E+20
 20
1.000000000000000E+20
 30
1.000000000000000E+20
  9
$PEXTMAX
 10
-1.000000000000000E+20
 20
-1.000000000000000E+20
 30
-1.000000000000000E+20
  9
$PLIMMIN
 10
0.0
 20
0.0
  9
$PLIMMAX
 10
0.0
 20
0.0
  9
$UNITMODE
 70
     0
  9
$VISRETAIN
 70
     1
  9
$PLINEGEN
 70
     0
  9
$PSLTSCALE
 70
     1
  9
$TREEDEPTH
 70
  3020
  9
$CMLSTYLE
  2
Standard
  9
$CMLJUST
 70
     0
  9
$CMLSCALE
 40
20.0
  9
$PROXYGRAPHICS
 70
     1
  9
$MEASUREMENT
 70
     1
  9
$CELWEIGHT
370
    -1
  9
$ENDCAPS
280
     0
  9
$JOINSTYLE
280
     0
  9
$LWDISPLAY
290
     0
  9
$INSUNITS
 70
     4
  9
$HYPERLINKBASE
  1

  9
$STYLESHEET
  1
monochrome.ctb
  9
$XEDIT
290
     1
  9
$CEPSNTYPE
380
     0
  9
$PSTYLEMODE
290
     1
  9
$FINGERPRINTGUID
  2
{FDEAD578-A652-11D2-9A35-0060089B3A3F}
  9
$VERSIONGUID
  2
{FF53CD4B-1AF9-4F2F-ABC0-CA7DF949A403}
  9
$EXTNAMES
290
     1
  9
$PSVPSCALE
 40
0.0
  9
$OLESTARTUP
290
     0
  0
ENDSEC
  0
SECTION
  2
CLASSES
  0
CLASS
  1
ACDBDICTIONARYWDFLT
  2
AcDbDictionaryWithDefault
  3
ObjectDBX Classes
 90
        0
280
     0
281
     0
  0
CLASS
  1
ACDBPLACEHOLDER
  2
AcDbPlaceHolder
  3
ObjectDBX Classes
 90
        0
280
     0
281
     0
  0
CLASS
  1
LAYOUT
  2
AcDbLayout
  3
ObjectDBX Classes
 90
        0
280
     0
281
     0
  0
CLASS
  1
DICTIONARYVAR
  2
AcDbDictionaryVar
  3
ObjectDBX Classes
 90
        0
280
     0
281
     0
  0
CLASS
  1
SCALE
  2
AcDbScale
  3
ObjectDBX Classes
 90
     1153
280
     0
281
     0
  0
CLASS
  1
MATERIAL
  2
AcDbMaterial
  3
ObjectDBX Classes
 90
     1153
280
     0
281
     0
  0
CLASS
  1
VISUALSTYLE
  2
AcDbVisualStyle
  3
ObjectDBX Classes
 90
     4095
280
     0
281
     0
  0
CLASS
  1
TABLESTYLE
  2
AcDbTableStyle
  3
ObjectDBX Classes
 90
     4095
280
     0
281
     0
  0
CLASS
  1
RASTERVARIABLES
  2
AcDbRasterVariables
  3
ISM
 90
        0
280
     0
281
     0
  0
CLASS
  1
AEC_VARS_DWG_SETUP
  2
AecDbVarsDwgSetup
  3
AecBase60
 90
      129
280
     0
281
     0
  0
CLASS
  1
AEC_DISP_REP_2D_SECTION
  2
AecDbDispRep2dSection
  3
AecBase60
 90
      129
280
     0
281
     0
  0
CLASS
  1
AEC_DISP_PROPS_2D_SECTION
  2
AecDbDispProps2dSection
  3
AecBase60
 90
      129
280
     0
281
     0
  0
CLASS
  1
AEC_DISP_REP_CLIP_VOLUME_MODEL
  2
AecDbDispRepClipVolModel
  3
AecBase60
 90
      129
280
     0
281
     0
  0
CLASS
  1
AEC_DISP_PROPS_CLIP_VOLUME
  2
AecDbDispPropsClipVol
  3
AecBase60
 90
      129
280
     0
281
     0
  0
CLASS
  1
AEC_DISP_REP_CLIP_VOLUME_PLAN
  2
AecDbDispRepClipVolPlan
  3
AecBase60
 90
      129
280
     0
281
     0
  0
CLASS
  1
AEC_DISP_REP_CLIP_VOLUME_RESULT
  2
AecDbDispRepClipVolResult
  3
AecBase60
 90
      129
280
     0
281
     0
  0
CLASS
  1
AEC_DISP_REP_CLIP_VOLUME_RESULT_SUBDIV
  2
AecDbDispRepClipVolResSubDiv
  3
AecBase60
 90
      129
280
     0
281
     0
  0
CLASS
  1
AEC_DISP_PROPS_CLIP_VOLUME_RESULT
  2
AecDbDispPropsClipVolResSubDiv
  3
AecBase60
 90
      129
280
     0
281
     0
  0
CLASS
  1
AEC_DISP_REP_DISPLAYTHEME
  2
AecDbDispRepDisplayTheme
  3
AecBase60
 90
      129
280
     0
281
     0
  0
CLASS
  1
AEC_DISP_PROPS_DISPLAYTHEME
  2
AecDbDispPropsDisplayTheme
  3
AecBase60
 90
      129
280
     0
281
     0
  0
CLASS
  1
AEC_DISP_REP_ENT_REF
  2
AecDbDispRepEntRef
  3
AecBase60
 90
      129
280
     0
281
     0
  0
CLASS
  1
AEC_DISP_PROPS_ENT_REF
  2
AecDbDispPropsEntRef
  3
AecBase60
 90
      129
280
     0
281
     0
  0
CLASS
  1
AEC_DISP_REP_LAYOUT_CURVE
  2
AecDbDispRepLayoutCurve
  3
AecBase60
 90
      129
280
     0
281
     0
  0
CLASS
  1
AEC_DISP_PROPS_LAYOUT_CURVE
  2
AecDbDispPropsLayoutCurve
  3
AecBase60
 90
      129
280
     0
281
     0
  0
CLASS
  1
AEC_DISP_REP_LAYOUT_GRID2D
  2
AecDbDispRepLayoutGrid2d
  3
AecBase60
 90
      129
280
     0
281
     0
  0
CLASS
  1
AEC_DISP_PROPS_LAYOUT_GRID2D
  2
AecDbDispPropsLayoutGrid2d
  3
AecBase60
 90
      129
280
     0
281
     0
  0
CLASS
  1
AEC_DISP_REP_LAYOUT_GRID3D
  2
AecDbDispRepLayoutGrid3d
  3
AecBase60
 90
      129
280
     0
281
     0
  0
CLASS
  1
AEC_DISP_PROPS_LAYOUT_GRID3D
  2
AecDbDispPropsLayoutGrid3d
  3
AecBase60
 90
      129
280
     0
281
     0
  0
CLASS
  1
AEC_DISP_REP_MASKBLOCK_REF
  2
AecDbDispRepMaskBlockRef
  3
AecBase60
 90
      129
280
     0
281
     0
  0
CLASS
  1
AEC_DISP_PROPS_MASKBLOCK
  2
AecDbDispPropsMaskBlock
  3
AecBase60
 90
      129
280
     0
281
     0
  0
CLASS
  1
AEC_DISP_REP_MASKBLOCK_REF_RCP
  2
AecDbDispRepMaskBlockRefRcp
  3
AecArchBase60
 90
      129
280
     0
281
     0
  0
CLASS
  1
AEC_DISP_REP_MASS_ELEM_MODEL
  2
AecDbDispRepMassElemModel
  3
AecBase60
 90
      129
280
     0
281
     0
  0
CLASS
  1
AEC_DISP_PROPS_MASS_ELEM_MODEL
  2
AecDbDispPropsMassElem
  3
AecBase60
 90
      129
280
     0
281
     0
  0
CLASS
  1
AEC_DISP_REP_MASS_ELEM_SCHEM
  2
AecDbDispRepMassElemSchem
  3
AecBase60
 90
      129
280
     0
281
     0
  0
CLASS
  1
AEC_DISPREPAECDBDISPREPMASSELEMPLAN50
  2
AecDbDispRepMassElemPlan50
  3
AecArchDACHBase60
 90
      129
280
     0
281
     0
  0
CLASS
  1
AEC_DISPROPSMASSELEMPLANCOMMON
  2
AecDbDispPropsMassElemPlanCommon
  3
AecArchDACHBase60
 90
      129
280
     0
281
     0
  0
CLASS
  1
AEC_DISPREPAECDBDISPREPMASSELEMPLAN100
  2
AecDbDispRepMassElemPlan100
  3
AecArchDACHBase60
 90
      129
280
     0
281
     0
  0
CLASS
  1
AEC_DISP_REP_MASS_ELEM_RCP
  2
AecDbDispRepMassElemRcp
  3
AecArchBase60
 90
      129
280
     0
281
     0
  0
CLASS
  1
AEC_DISP_REP_MASS_GROUP_MODEL
  2
AecDbDispRepMassGroupModel
  3
AecBase60
 90
      129
280
     0
281
     0
  0
CLASS
  1
AEC_DISP_PROPS_MASS_GROUP
  2
AecDbDispPropsMassGroup
  3
AecBase60
 90
      129
280
     0
281
     0
  0
CLASS
  1
AEC_DISP_REP_MASS_GROUP_PLAN
  2
AecDbDispRepMassGroupPlan
  3
AecBase60
 90
      129
280
     0
281
     0
  0
CLASS
  1
AEC_DISPREPAECDBDISPREPMASSGROUPPLAN50
  2
AecDbDispRepMassGroupPlan50
  3
AecArchDACHBase60
 90
      129
280
     0
281
     0
  0
CLASS
  1
AEC_DISPROPSMASSGROUPPLANCOMMON
  2
AecDbDispPropsMassGroupPlanCommon
  3
AecArchDACHBase60
 90
      129
280
     0
281
     0
  0
CLASS
  1
AEC_DISPREPAECDBDISPREPMASSGROUPPLAN100
  2
AecDbDispRepMassGroupPlan100
  3
AecArchDACHBase60
 90
      129
280
     0
281
     0
  0
CLASS
  1
AEC_DISP_REP_MASS_GROUP_RCP
  2
AecDbDispRepMassGroupRcp
  3
AecArchBase60
 90
      129
280
     0
281
     0
  0
CLASS
  1
AEC_DISP_REP_MVBLOCK_REF
  2
AecDbDispRepMvBlockRef
  3
AecBase60
 90
      129
280
     0
281
     0
  0
CLASS
  1
AEC_DISP_REP_MVBLOCK_REF_MODEL
  2
AecDbDispRepMvBlockRefModel
  3
AecBase60
 90
      129
280
     0
281
     0
  0
CLASS
  1
AEC_AECDBDISPREPMVBLOCKREFPLAN100
  2
AecDbDispRepMvBlockRefPlan100
  3
AecBase60
 90
      129
280
     0
281
     0
  0
CLASS
  1
AEC_AECDBDISPREPMVBLOCKREFPLAN50
  2
AecDbDispRepMvBlockRefPlan50
  3
AecBase60
 90
      129
280
     0
281
     0
  0
CLASS
  1
AEC_DISP_REP_POLYGON_MODEL
  2
AecDbDispRepPolygonModel
  3
AecBase60
 90
      129
280
     0
281
     0
  0
CLASS
  1
AEC_DISP_PROPS_POLYGON_MODEL
  2
AecDbDispPropsPolygonModel
  3
AecBase60
 90
      129
280
     0
281
     0
  0
CLASS
  1
AEC_DISP_REP_POLYGON_TRUECOLOUR
  2
AecDbDispRepPolygonTrueColour
  3
AecBase60
 90
      129
280
     0
281
     0
  0
CLASS
  1
AEC_DISP_PROPS_POLYGON_TRUECOLOUR
  2
AecDbDispPropsPolygonTrueColour
  3
AecBase60
 90
      129
280
     0
281
     0
  0
CLASS
  1
AEC_DISP_REP_SLICE
  2
AecDbDispRepSlice
  3
AecBase60
 90
      129
280
     0
281
     0
  0
CLASS
  1
AEC_DISP_PROPS_SLICE
  2
AecDbDispPropsSlice
  3
AecBase60
 90
      129
280
     0
281
     0
  0
CLASS
  1
AEC_DISP_REP_ANCHOR
  2
AecDbDispRepAnchor
  3
AecBase60
 90
      129
280
     0
281
     0
  0
CLASS
  1
AEC_DISP_REP_ANCHOR_ENT_TO_NODE
  2
AecDbDispRepAnchorEntToNode
  3
AecBase60
 90
      129
280
     0
281
     0
  0
CLASS
  1
AEC_DISP_PROPS_ENT
  2
AecDbDispPropsEnt
  3
AecBase60
 90
      129
280
     0
281
     0
  0
CLASS
  1
AEC_DISP_REP_MATERIAL
  2
AecDbDispRepMaterial
  3
AecBase60
 90
      129
280
     0
281
     0
  0
CLASS
  1
AEC_DISP_PROPS_MATERIAL
  2
AecDbDispPropsMaterial
  3
AecBase60
 90
      129
280
     0
281
     0
  0
CLASS
  1
AEC_DISP_REP_EDITINPLACEPROFILE
  2
AecDbDispRepEditInPlaceProfile
  3
AecBase60
 90
      129
280
     0
281
     0
  0
CLASS
  1
AEC_DISP_PROPS_EDITINPLACEPROFILE_MODEL
  2
AecDbDispPropsEditInPlaceProfile
  3
AecBase60
 90
      129
280
     0
281
     0
  0
CLASS
  1
SUN
  2
AcDbSun
  3
SCENEOE
 90
     1153
280
     0
281
     0
  0
CLASS
  1
SORTENTSTABLE
  2
AcDbSortentsTable
  3
ObjectDBX Classes
 90
        0
280
     0
281
     0
  0
CLASS
  1
MLEADERSTYLE
  2
AcDbMLeaderStyle
  3
ACDB_MLEADERSTYLE_CLASS
 90
     4095
280
     0
281
     0
  0
ENDSEC
  0
SECTION
  2
TABLES
  0
TABLE
  2
VPORT
  5
8
330
0
100
AcDbSymbolTable
 70
     1
  0
VPORT
  5
A2A1
330
8
100
AcDbSymbolTableRecord
100
AcDbViewportTableRecord
  2
*Active
 70
     0
 10
0.0
 20
0.0
 11
1.0
 21
1.0
 12
-56680606662.48283
 22
103286848343.0363
 13
0.0
 23
0.0
 14
10.0
 24
10.0
 15
10.0
 25
10.0
 16
0.0
 26
0.0
 36
1.0
 17
56680597103.26502
 27
-103286843566.8401
 37
0.0
 40
3048.802065876826
 41
2.0
 42
50.0
 43
0.0
 44
0.0
 50
0.0
 51
0.0
 71
    16
 72
   100
 73
     1
 74
     2
 75
     0
 76
     0
 77
     0
 78
     0
281
     0
 65
     1
110
0.0
120
0.0
130
0.0
111
1.0
121
0.0
131
0.0
112
0.0
122
1.0
132
0.0
 79
     0
146
0.0
  0
ENDTAB
  0
TABLE
  2
LTYPE
  5
5
330
0
100
AcDbSymbolTable
 70
     2
  0
LTYPE
  5
14
330
5
100
AcDbSymbolTableRecord
100
AcDbLinetypeTableRecord
  2
ByBlock
 70
     0
  3

 72
    65
 73
     0
 40
0.0
  0
LTYPE
  5
15
330
5
100
AcDbSymbolTableRecord
100
AcDbLinetypeTableRecord
  2
ByLayer
 70
     0
  3
Solid line
 72
    65
 73
     0
 40
0.0
  0
LTYPE
  5
16
330
5
100
AcDbSymbolTableRecord
100
AcDbLinetypeTableRecord
  2
Continuous
 70
     0
  3
Solid line
 72
    65
 73
     0
 40
0.0
  0
ENDTAB
  0
TABLE
  2
LAYER
  5
2
102
{ACAD_XDICTIONARY
360
7A6F
102
}
330
0
100
AcDbSymbolTable
 70
     5
  0
LAYER
  5
10
330
2
100
AcDbSymbolTableRecord
100
AcDbLayerTableRecord
  2
0
 70
     0
 62
     7
  6
Continuous
370
    -3
390
F
  0
LAYER
  5
45
330
2
100
AcDbSymbolTableRecord
100
AcDbLayerTableRecord
  2
01注記寸法
 70
     0
 62
     7
  6
Continuous
370
     9
390
F
  0
LAYER
  5
82BC
330
2
100
AcDbSymbolTableRecord
100
AcDbLayerTableRecord
  2
02製品
 70
     0
 62
     2
  6
Continuous
370
    15
390
F
  0
LAYER
  5
15088
330
2
100
AcDbSymbolTableRecord
100
AcDbLayerTableRecord
  2
1　製品
 70
     0
 62
     2
  6
Continuous
370
    15
390
F
  0
ENDTAB
  0
TABLE
  2
STYLE
  5
3
330
0
100
AcDbSymbolTable
 70
     3
  0
STYLE
  5
11
330
3
100
AcDbSymbolTableRecord
100
AcDbTextStyleTableRecord
  2
Standard
 70
     0
 40
0.0
 41
1.0
 50
0.0
 71
     0
 42
3.0
  3
MS Gothic.ttf
  4

1001
ACAD
1000
MS Gothic
1071
    32817
  0
STYLE
  5
19E
330
3
100
AcDbSymbolTableRecord
100
AcDbTextStyleTableRecord
  2
STYLE1
 70
     0
 40
0.0
 41
0.9
 50
0.0
 71
     0
 42
28.125
  3
TXT.shx
  4
extfont.shx
  0
STYLE
  5
C96B
330
3
100
AcDbSymbolTableRecord
100
AcDbTextStyleTableRecord
  2
Standard-tate
 70
     0
 40
0.0
 41
1.0
 50
0.0
 71
     0
 42
3.0
  3
@MS PGothic.ttf
  4

1001
ACAD
1000
@MS PGothic
1071
    32818
  0
ENDTAB
  0
TABLE
  2
VIEW
  5
6
330
0
100
AcDbSymbolTable
 70
     0
  0
ENDTAB
  0
TABLE
  2
UCS
  5
7
330
0
100
AcDbSymbolTable
 70
     0
  0
ENDTAB
  0
TABLE
  2
APPID
  5
9
330
0
100
AcDbSymbolTable
 70
    11
  0
APPID
  5
12
330
9
100
AcDbSymbolTableRecord
100
AcDbRegAppTableRecord
  2
ACAD
 70
     0
  0
APPID
  5
6A9E
330
9
100
AcDbSymbolTableRecord
100
AcDbRegAppTableRecord
  2
ACAD_DSTYLE_DIMRADIAL_EXTENSION
 70
     0
  0
APPID
  5
742C
330
9
100
AcDbSymbolTableRecord
100
AcDbRegAppTableRecord
  2
ACAD_PSEXT
 70
     0
  0
APPID
  5
742D
330
9
100
AcDbSymbolTableRecord
100
AcDbRegAppTableRecord
  2
ACAD_DSTYLE_DIMJAG
 70
     0
  0
APPID
  5
742E
330
9
100
AcDbSymbolTableRecord
100
AcDbRegAppTableRecord
  2
ACAD_DSTYLE_DIMTALN
 70
     0
  0
APPID
  5
8254
330
9
100
AcDbSymbolTableRecord
100
AcDbRegAppTableRecord
  2
AECBASE
 70
     0
  0
APPID
  5
8255
330
9
100
AcDbSymbolTableRecord
100
AcDbRegAppTableRecord
  2
AEC_2DSECTION_XDATA
 70
     0
  0
APPID
  5
8256
330
9
100
AcDbSymbolTableRecord
100
AcDbRegAppTableRecord
  2
AEC_MASSGROUP_XDADA
 70
     0
  0
APPID
  5
B0E5
330
9
100
AcDbSymbolTableRecord
100
AcDbRegAppTableRecord
  2
PE_DIMMEASUREMENT
 70
     0
  0
APPID
  5
147E0
330
9
100
AcDbSymbolTableRecord
100
AcDbRegAppTableRecord
  2
AcAecLayerStandard
 70
     0
  0
APPID
  5
15094
330
9
100
AcDbSymbolTableRecord
100
AcDbRegAppTableRecord
  2
PLOTTRANSPARENCY
 70
     0
  0
ENDTAB
  0
TABLE
  2
DIMSTYLE
  5
A
330
0
100
AcDbSymbolTable
 70
     1
100
AcDbDimStyleTable
  0
DIMSTYLE
105
4DD4
330
A
100
AcDbSymbolTableRecord
100
AcDbDimStyleTableRecord
  2
NEMY-25
 70
     0
 40
25.0
 41
3.0
 42
1.5
 43
10.0
 44
1.0
 73
     0
 74
     0
 77
     1
 78
     8
140
3.0
141
1.5
143
0.03937007874016
147
1.0
171
     3
172
     1
178
     0
271
     1
272
     1
274
     3
283
     0
284
     8
340
11
341
8F
342
8F
  0
ENDTAB
  0
TABLE
  2
BLOCK_RECORD
  5
1
330
0
100
AcDbSymbolTable
 70
     9
  0
BLOCK_RECORD
  5
1F
102
{ACAD_XDICTIONARY
360
CBD6
102
}
330
1
100
AcDbSymbolTableRecord
100
AcDbBlockTableRecord
  2
*Model_Space
340
22
  0
BLOCK_RECORD
  5
1B
330
1
100
AcDbSymbolTableRecord
100
AcDbBlockTableRecord
  2
*Paper_Space
340
1E
  0
BLOCK_RECORD
  5
23
330
1
100
AcDbSymbolTableRecord
100
AcDbBlockTableRecord
  2
*Paper_Space0
340
26
  0
BLOCK_RECORD
  5
8F
330
1
100
AcDbSymbolTableRecord
100
AcDbBlockTableRecord
  2
_Open
340
0
102
{BLKREFS
331
1B125
331
1B126
331
1B13F
331
1B140
331
1B14C
331
1B14D
331
1B15B
331
1B15C
102
}
  0
BLOCK_RECORD
  5
152CE
102
{ACAD_XDICTIONARY
360
152CF
102
}
330
1
100
AcDbSymbolTableRecord
100
AcDbBlockTableRecord
  2
A$C20123
340
0
102
{BLKREFS
331
1B0B9
331
1B0BE
331
1B0C1
102
}
  0
BLOCK_RECORD
  5
152FD
330
1
100
AcDbSymbolTableRecord
100
AcDbBlockTableRecord
  2
A$C3C7277DA
340
0
102
{BLKREFS
331
1B08E
331
1B08F
331
1B0BD
331
1B0BF
331
1B0C0
331
1B0C2
102
}
  0
BLOCK_RECORD
  5
1B0D4
102
{ACAD_XDICTIONARY
360
1B100
102
}
330
1
100
AcDbSymbolTableRecord
100
AcDbBlockTableRecord
  2
A$C10914
340
0
102
{BLKREFS
331
1B112
331
1B113
331
1B114
331
1B115
331
1B116
331
1B117
331
1B118
331
1B119
331
1B11A
331
1B11B
331
1B11C
331
1B11D
102
}
  0
ENDTAB
  0
ENDSEC
  0
SECTION
  2
BLOCKS
  0
BLOCK
  5
20
330
1F
100
AcDbEntity
  8
0
100
AcDbBlockBegin
  2
*Model_Space
 70
     0
 10
0.0
 20
0.0
 30
0.0
  3
*Model_Space
  1

  0
ENDBLK
  5
21
330
1F
100
AcDbEntity
  8
0
100
AcDbBlockEnd
  0
BLOCK
  5
1C
330
1B
100
AcDbEntity
 67
     1
  8
0
100
AcDbBlockBegin
  2
*Paper_Space
 70
     0
 10
0.0
 20
0.0
 30
0.0
  3
*Paper_Space
  1

  0
ENDBLK
  5
1D
330
1B
100
AcDbEntity
 67
     1
  8
0
100
AcDbBlockEnd
  0
BLOCK
  5
24
330
23
100
AcDbEntity
  8
0
100
AcDbBlockBegin
  2
*Paper_Space0
 70
     0
 10
0.0
 20
0.0
 30
0.0
  3
*Paper_Space0
  1

  0
ENDBLK
  5
25
330
23
100
AcDbEntity
  8
0
100
AcDbBlockEnd
  0
BLOCK
  5
93
330
8F
100
AcDbEntity
  8
0
100
AcDbBlockBegin
  2
_Open
 70
     0
 10
0.0
 20
0.0
 30
0.0
  3
_Open
  1

  0
LINE
  5
90
330
8F
100
AcDbEntity
  8
01注記寸法
 62
     0
370
    -2
100
AcDbLine
 10
-1.0
 20
0.1666666666666667
 30
0.0
 11
0.0
 21
0.0
 31
0.0
  0
LINE
  5
91
330
8F
100
AcDbEntity
  8
01注記寸法
 62
     0
370
    -2
100
AcDbLine
 10
-1.0
 20
-0.1666666666666667
 30
0.0
 11
0.0
 21
0.0
 31
0.0
  0
LINE
  5
92
330
8F
100
AcDbEntity
  8
01注記寸法
 62
     0
370
    -2
100
AcDbLine
 10
0.0
 20
0.0
 30
0.0
 11
-1.0
 21
0.0
 31
0.0
  0
ENDBLK
  5
94
330
8F
100
AcDbEntity
  8
0
100
AcDbBlockEnd
  0
BLOCK
  5
152D1
330
152CE
100
AcDbEntity
  8
0
100
AcDbBlockBegin
  2
A$C20123
 70
     0
 10
0.0
 20
0.0
 30
0.0
  3
A$C20123
  1

  0
LINE
  5
152D2
330
152CE
100
AcDbEntity
  8
1　製品
100
AcDbLine
 10
127.0000000000018
 20
0.0
 30
0.0
 11
101.6000000000004
 21
11.33333333333212
 31
0.0
  0
LINE
  5
152D3
330
152CE
100
AcDbEntity
  8
1　製品
100
AcDbLine
 10
76.19999999999891
 20
0.0
 30
0.0
 11
101.6000000000004
 21
11.33333333333212
 31
0.0
  0
LINE
  5
152D4
330
152CE
100
AcDbEntity
  8
1　製品
100
AcDbLine
 10
76.19999999999891
 20
68.0
 30
0.0
 11
50.80000000000109
 21
79.33333333333212
 31
0.0
  0
LINE
  5
152D5
330
152CE
100
AcDbEntity
  8
1　製品
100
AcDbLine
 10
76.19999999999891
 20
45.33333333333212
 30
0.0
 11
50.80000000000109
 21
56.66666666666424
 31
0.0
  0
LINE
  5
152D6
330
152CE
100
AcDbEntity
  8
1　製品
100
AcDbLine
 10
50.80000000000109
 20
34.0
 30
0.0
 11
76.19999999999891
 21
22.66666666666424
 31
0.0
  0
LINE
  5
152D7
330
152CE
100
AcDbEntity
  8
1　製品
100
AcDbLine
 10
76.19999999999891
 20
45.33333333333212
 30
0.0
 11
50.80000000000109
 21
34.0
 31
0.0
  0
LINE
  5
152D8
330
152CE
100
AcDbEntity
  8
1　製品
100
AcDbLine
 10
76.19999999999891
 20
22.66666666666424
 30
0.0
 11
50.80000000000109
 21
11.33333333333212
 31
0.0
  0
LINE
  5
152D9
330
152CE
100
AcDbEntity
  8
1　製品
100
AcDbLine
 10
50.80000000000109
 20
56.66666666666424
 30
0.0
 11
76.19999999999891
 21
68.0
 31
0.0
  0
LINE
  5
152DA
330
152CE
100
AcDbEntity
  8
1　製品
100
AcDbLine
 10
25.39999999999964
 20
45.33333333333212
 30
0.0
 11
0.0
 21
56.66666666666424
 31
0.0
  0
LINE
  5
152DB
330
152CE
100
AcDbEntity
  8
1　製品
100
AcDbLine
 10
25.39999999999964
 20
45.33333333333212
 30
0.0
 11
0.0
 21
34.0
 31
0.0
  0
LINE
  5
152DC
330
152CE
100
AcDbEntity
  8
1　製品
100
AcDbLine
 10
50.80000000000109
 20
34.0
 30
0.0
 11
25.39999999999964
 21
45.33333333333212
 31
0.0
  0
LINE
  5
152DD
330
152CE
100
AcDbEntity
  8
1　製品
100
AcDbLine
 10
25.39999999999964
 20
22.66666666666424
 30
0.0
 11
50.80000000000109
 21
34.0
 31
0.0
  0
LINE
  5
152DE
330
152CE
100
AcDbEntity
  8
1　製品
100
AcDbLine
 10
25.39999999999964
 20
68.0
 30
0.0
 11
50.80000000000109
 21
56.66666666666424
 31
0.0
  0
LINE
  5
152DF
330
152CE
100
AcDbEntity
  8
1　製品
100
AcDbLine
 10
50.80000000000109
 20
56.66666666666424
 30
0.0
 11
25.39999999999964
 21
45.33333333333212
 31
0.0
  0
LINE
  5
152E0
330
152CE
100
AcDbEntity
  8
1　製品
100
AcDbLine
 10
101.6000000000004
 20
79.33333333333212
 30
0.0
 11
127.0000000000018
 21
68.0
 31
0.0
  0
LINE
  5
152E1
330
152CE
100
AcDbEntity
  8
1　製品
100
AcDbLine
 10
101.6000000000004
 20
79.33333333333212
 30
0.0
 11
76.19999999999891
 21
68.0
 31
0.0
  0
LINE
  5
152E2
330
152CE
100
AcDbEntity
  8
1　製品
100
AcDbLine
 10
127.0000000000018
 20
68.0
 30
0.0
 11
152.4000000000015
 21
79.33333333333212
 31
0.0
  0
LINE
  5
152E3
330
152CE
100
AcDbEntity
  8
1　製品
100
AcDbLine
 10
127.0000000000018
 20
45.33333333333212
 30
0.0
 11
152.4000000000015
 21
56.66666666666424
 31
0.0
  0
LINE
  5
152E4
330
152CE
100
AcDbEntity
  8
1　製品
100
AcDbLine
 10
127.0000000000018
 20
22.66666666666424
 30
0.0
 11
152.4000000000015
 21
11.33333333333212
 31
0.0
  0
LINE
  5
152E5
330
152CE
100
AcDbEntity
  8
1　製品
100
AcDbLine
 10
152.4000000000015
 20
34.0
 30
0.0
 11
127.0000000000018
 21
22.66666666666424
 31
0.0
  0
LINE
  5
152E6
330
152CE
100
AcDbEntity
  8
1　製品
100
AcDbLine
 10
127.0000000000018
 20
45.33333333333212
 30
0.0
 11
152.4000000000015
 21
34.0
 31
0.0
  0
LINE
  5
152E7
330
152CE
100
AcDbEntity
  8
1　製品
100
AcDbLine
 10
152.4000000000015
 20
56.66666666666424
 30
0.0
 11
127.0000000000018
 21
68.0
 31
0.0
  0
LINE
  5
152E8
330
152CE
100
AcDbEntity
  8
1　製品
100
AcDbLine
 10
101.6000000000004
 20
56.66666666666424
 30
0.0
 11
127.0000000000018
 21
45.33333333333212
 31
0.0
  0
LINE
  5
152E9
330
152CE
100
AcDbEntity
  8
1　製品
100
AcDbLine
 10
127.0000000000018
 20
22.66666666666424
 30
0.0
 11
101.6000000000004
 21
34.0
 31
0.0
  0
LINE
  5
152EA
330
152CE
100
AcDbEntity
  8
1　製品
100
AcDbLine
 10
101.6000000000004
 20
34.0
 30
0.0
 11
127.0000000000018
 21
45.33333333333212
 31
0.0
  0
LINE
  5
152EB
330
152CE
100
AcDbEntity
  8
1　製品
100
AcDbLine
 10
101.6000000000004
 20
56.66666666666424
 30
0.0
 11
76.19999999999891
 21
45.33333333333212
 31
0.0
  0
LINE
  5
152EC
330
152CE
100
AcDbEntity
  8
1　製品
100
AcDbLine
 10
76.19999999999891
 20
22.66666666666424
 30
0.0
 11
101.6000000000004
 21
34.0
 31
0.0
  0
LINE
  5
152ED
330
152CE
100
AcDbEntity
  8
1　製品
100
AcDbLine
 10
101.6000000000004
 20
34.0
 30
0.0
 11
76.19999999999891
 21
45.33333333333212
 31
0.0
  0
LINE
  5
152EE
330
152CE
100
AcDbEntity
  8
1　製品
100
AcDbLine
 10
101.6000000000004
 20
11.33333333333212
 30
0.0
 11
76.19999999999891
 21
22.66666666666424
 31
0.0
  0
LINE
  5
152EF
330
152CE
100
AcDbEntity
  8
1　製品
100
AcDbLine
 10
101.6000000000004
 20
11.33333333333212
 30
0.0
 11
127.0000000000018
 21
22.66666666666424
 31
0.0
  0
LINE
  5
152F0
330
152CE
100
AcDbEntity
  8
1　製品
100
AcDbLine
 10
76.19999999999891
 20
68.0
 30
0.0
 11
101.6000000000004
 21
56.66666666666424
 31
0.0
  0
LINE
  5
152F1
330
152CE
100
AcDbEntity
  8
1　製品
100
AcDbLine
 10
127.0000000000018
 20
68.0
 30
0.0
 11
101.6000000000004
 21
56.66666666666424
 31
0.0
  0
LINE
  5
152F2
330
152CE
100
AcDbEntity
  8
1　製品
100
AcDbLine
 10
152.4000000000015
 20
56.66666666666424
 30
0.0
 11
177.8000000000029
 21
45.33333333333212
 31
0.0
  0
LINE
  5
152F3
330
152CE
100
AcDbEntity
  8
1　製品
100
AcDbLine
 10
177.8000000000029
 20
22.66666666666424
 30
0.0
 11
152.4000000000015
 21
34.0
 31
0.0
  0
LINE
  5
152F4
330
152CE
100
AcDbEntity
  8
1　製品
100
AcDbLine
 10
152.4000000000015
 20
34.0
 30
0.0
 11
177.8000000000029
 21
45.33333333333212
 31
0.0
  0
LINE
  5
152F5
330
152CE
100
AcDbEntity
  8
1　製品
100
AcDbLine
 10
177.8000000000029
 20
45.33333333333212
 30
0.0
 11
203.2000000000025
 21
56.66666666666424
 31
0.0
  0
LINE
  5
152F6
330
152CE
100
AcDbEntity
  8
1　製品
100
AcDbLine
 10
177.8000000000029
 20
45.33333333333212
 30
0.0
 11
203.2000000000025
 21
34.0
 31
0.0
  0
LINE
  5
152F7
330
152CE
100
AcDbEntity
  8
1　製品
100
AcDbLine
 10
177.8000000000029
 20
68.0
 30
0.0
 11
152.4000000000015
 21
56.66666666666424
 31
0.0
  0
LINE
  5
152F8
330
152CE
100
AcDbEntity
  8
1　製品
100
AcDbLine
 10
127.0000000000018
 20
90.66666666666424
 30
0.0
 11
101.6000000000004
 21
79.33333333333212
 31
0.0
  0
LINE
  5
152F9
330
152CE
100
AcDbEntity
  8
1　製品
100
AcDbLine
 10
76.19999999999891
 20
90.66666666666424
 30
0.0
 11
101.6000000000004
 21
79.33333333333212
 31
0.0
  0
ENDBLK
  5
152FA
330
152CE
100
AcDbEntity
  8
0
100
AcDbBlockEnd
  0
BLOCK
  5
152FE
330
152FD
100
AcDbEntity
  8
0
 48
20.0
100
AcDbBlockBegin
  2
A$C3C7277DA
 70
     0
 10
0.0
 20
0.0
 30
0.0
  3
A$C3C7277DA
  1

  0
LINE
  5
152FF
330
152FD
100
AcDbEntity
  8
0
100
AcDbLine
 10
266.7000199373761
 20
68.00000432218076
 30
0.0
 11
304.8000199373782
 21
51.00000432218076
 31
0.0
  0
LINE
  5
15300
330
152FD
100
AcDbEntity
  8
0
100
AcDbLine
 10
228.6000199373775
 20
51.00000432218076
 30
0.0
 11
266.7000199373761
 21
68.00000432218076
 31
0.0
  0
LINE
  5
15301
330
152FD
100
AcDbEntity
  8
0
100
AcDbLine
 10
152.4000199373768
 20
51.00000432218076
 30
0.0
 11
190.5000199373753
 21
68.00000432218076
 31
0.0
  0
LINE
  5
15302
330
152FD
100
AcDbEntity
  8
0
100
AcDbLine
 10
114.3000199373746
 20
68.00000432218076
 30
0.0
 11
152.4000199373768
 21
51.00000432218076
 31
0.0
  0
LINE
  5
15303
330
152FD
100
AcDbEntity
  8
0
100
AcDbLine
 10
190.5000199373753
 20
68.00000432218076
 30
0.0
 11
228.6000199373775
 21
51.00000432218076
 31
0.0
  0
LINE
  5
15304
330
152FD
100
AcDbEntity
  8
0
100
AcDbLine
 10
228.6000199373775
 20
51.00000432218076
 30
0.0
 11
190.5000199373753
 21
34.00000432218076
 31
0.0
  0
LINE
  5
15305
330
152FD
100
AcDbEntity
  8
0
100
AcDbLine
 10
190.5000199373753
 20
34.00000432218076
 30
0.0
 11
228.6000199373775
 21
17.00000432218076
 31
0.0
  0
LINE
  5
15306
330
152FD
100
AcDbEntity
  8
0
100
AcDbLine
 10
228.6000199373775
 20
17.00000432218076
 30
0.0
 11
190.5000199373753
 21
0.0000043221807573
 31
0.0
  0
LINE
  5
15307
330
152FD
100
AcDbEntity
  8
0
100
AcDbLine
 10
38.10001993737387
 20
34.00000432218076
 30
0.0
 11
76.20001993737606
 21
17.00000432218076
 31
0.0
  0
LINE
  5
15308
330
152FD
100
AcDbEntity
  8
0
100
AcDbLine
 10
76.20001993737606
 20
17.00000432218076
 30
0.0
 11
38.10001993737387
 21
0.0000043221807573
 31
0.0
  0
LINE
  5
15309
330
152FD
100
AcDbEntity
  8
0
100
AcDbLine
 10
38.10001993737387
 20
0.0000043221807573
 30
0.0
 11
0.0000199373753276
 21
17.00000432218076
 31
0.0
  0
LINE
  5
1530A
330
152FD
100
AcDbEntity
  8
0
100
AcDbLine
 10
114.3000199373746
 20
34.00000432218076
 30
0.0
 11
76.20001993737606
 21
51.00000432218076
 31
0.0
  0
LINE
  5
1530B
330
152FD
100
AcDbEntity
  8
0
100
AcDbLine
 10
190.5000199373753
 20
34.00000432218076
 30
0.0
 11
152.4000199373768
 21
51.00000432218076
 31
0.0
  0
LINE
  5
1530C
330
152FD
100
AcDbEntity
  8
0
100
AcDbLine
 10
152.4000199373768
 20
51.00000432218076
 30
0.0
 11
114.3000199373746
 21
34.00000432218076
 31
0.0
  0
LINE
  5
1530D
330
152FD
100
AcDbEntity
  8
0
100
AcDbLine
 10
114.3000199373746
 20
34.00000432218076
 30
0.0
 11
152.4000199373768
 21
17.00000432218076
 31
0.0
  0
LINE
  5
1530E
330
152FD
100
AcDbEntity
  8
0
100
AcDbLine
 10
76.20001993737606
 20
17.00000432218076
 30
0.0
 11
114.3000199373746
 21
34.00000432218076
 31
0.0
  0
LINE
  5
1530F
330
152FD
100
AcDbEntity
  8
0
100
AcDbLine
 10
114.3000199373746
 20
0.0000043221807573
 30
0.0
 11
76.20001993737606
 21
17.00000432218076
 31
0.0
  0
LINE
  5
15310
330
152FD
100
AcDbEntity
  8
0
100
AcDbLine
 10
152.4000199373768
 20
17.00000432218076
 30
0.0
 11
114.3000199373746
 21
0.0000043221807573
 31
0.0
  0
LINE
  5
15311
330
152FD
100
AcDbEntity
  8
0
100
AcDbLine
 10
152.4000199373768
 20
17.00000432218076
 30
0.0
 11
190.5000199373753
 21
34.00000432218076
 31
0.0
  0
LINE
  5
15312
330
152FD
100
AcDbEntity
  8
0
100
AcDbLine
 10
190.5000199373753
 20
0.0000043221807573
 30
0.0
 11
152.4000199373768
 21
17.00000432218076
 31
0.0
  0
LINE
  5
15313
330
152FD
100
AcDbEntity
  8
0
100
AcDbLine
 10
304.8000199373782
 20
51.00000432218076
 30
0.0
 11
266.7000199373761
 21
34.00000432218076
 31
0.0
  0
LINE
  5
15314
330
152FD
100
AcDbEntity
  8
0
100
AcDbLine
 10
266.7000199373761
 20
34.00000432218076
 30
0.0
 11
228.6000199373775
 21
51.00000432218076
 31
0.0
  0
LINE
  5
15315
330
152FD
100
AcDbEntity
  8
0
100
AcDbLine
 10
304.8000199373782
 20
17.00000432218076
 30
0.0
 11
266.7000199373761
 21
0.0000043221807573
 31
0.0
  0
LINE
  5
15316
330
152FD
100
AcDbEntity
  8
0
100
AcDbLine
 10
266.7000199373761
 20
0.0000043221807573
 30
0.0
 11
228.6000199373775
 21
17.00000432218076
 31
0.0
  0
LINE
  5
15317
330
152FD
100
AcDbEntity
  8
0
100
AcDbLine
 10
228.6000199373775
 20
17.00000432218076
 30
0.0
 11
266.7000199373761
 21
34.00000432218076
 31
0.0
  0
LINE
  5
15318
330
152FD
100
AcDbEntity
  8
0
100
AcDbLine
 10
266.7000199373761
 20
34.00000432218076
 30
0.0
 11
304.8000199373782
 21
17.00000432218076
 31
0.0
  0
LINE
  5
15319
330
152FD
100
AcDbEntity
  8
0
100
AcDbLine
 10
228.6000199373775
 20
85.00000432218076
 30
0.0
 11
190.5000199373753
 21
68.00000432218076
 31
0.0
  0
LINE
  5
1531A
330
152FD
100
AcDbEntity
  8
0
100
AcDbLine
 10
190.5000199373753
 20
102.0000043221808
 30
0.0
 11
228.6000199373775
 21
85.00000432218076
 31
0.0
  0
LINE
  5
1531B
330
152FD
100
AcDbEntity
  8
0
100
AcDbLine
 10
190.5000199373753
 20
68.00000432218076
 30
0.0
 11
152.4000199373768
 21
85.00000432218076
 31
0.0
  0
LINE
  5
1531C
330
152FD
100
AcDbEntity
  8
0
100
AcDbLine
 10
266.7000199373761
 20
136.0000043221808
 30
0.0
 11
304.8000199373782
 21
119.0000043221808
 31
0.0
  0
LINE
  5
1531D
330
152FD
100
AcDbEntity
  8
0
100
AcDbLine
 10
304.8000199373782
 20
119.0000043221808
 30
0.0
 11
266.7000199373761
 21
102.0000043221808
 31
0.0
  0
LINE
  5
1531E
330
152FD
100
AcDbEntity
  8
0
100
AcDbLine
 10
266.7000199373761
 20
102.0000043221808
 30
0.0
 11
228.6000199373775
 21
119.0000043221808
 31
0.0
  0
LINE
  5
1531F
330
152FD
100
AcDbEntity
  8
0
100
AcDbLine
 10
266.7000199373761
 20
102.0000043221808
 30
0.0
 11
304.8000199373782
 21
85.00000432218076
 31
0.0
  0
LINE
  5
15320
330
152FD
100
AcDbEntity
  8
0
100
AcDbLine
 10
304.8000199373782
 20
85.00000432218076
 30
0.0
 11
266.7000199373761
 21
68.00000432218076
 31
0.0
  0
LINE
  5
15321
330
152FD
100
AcDbEntity
  8
0
100
AcDbLine
 10
228.6000199373775
 20
85.00000432218076
 30
0.0
 11
266.7000199373761
 21
102.0000043221808
 31
0.0
  0
LINE
  5
15322
330
152FD
100
AcDbEntity
  8
0
100
AcDbLine
 10
266.7000199373761
 20
68.00000432218076
 30
0.0
 11
228.6000199373775
 21
85.00000432218076
 31
0.0
  0
ENDBLK
  5
15323
330
152FD
100
AcDbEntity
  8
0
 48
20.0
100
AcDbBlockEnd
  0
BLOCK
  5
1B110
330
1B0D4
100
AcDbEntity
  8
0
100
AcDbBlockBegin
  2
A$C10914
 70
     0
 10
0.0
 20
0.0
 30
0.0
  3
A$C10914
  1

  0
LINE
  5
1B102
330
1B0D4
100
AcDbEntity
  8
02製品
  6
ByBlock
100
AcDbLine
 10
5.500000000001819
 20
0.0
 30
0.0
 11
7.10000000351647
 21
0.0
 31
0.0
  0
LINE
  5
1B103
330
1B0D4
100
AcDbEntity
  8
02製品
  6
ByBlock
100
AcDbLine
 10
5.500000000001819
 20
17.0
 30
0.0
 11
7.10000000351647
 21
17.0
 31
0.0
  0
LINE
  5
1B104
330
1B0D4
100
AcDbEntity
  8
02製品
  6
ByBlock
100
AcDbLine
 10
7.10000000351647
 20
17.0
 30
0.0
 11
7.10000000351647
 21
0.0
 31
0.0
  0
LINE
  5
1B105
330
1B0D4
100
AcDbEntity
  8
02製品
  6
ByBlock
100
AcDbLine
 10
5.500000000001819
 20
17.0
 30
0.0
 11
5.500000000001819
 21
0.0
 31
0.0
  0
LINE
  5
1B106
330
1B0D4
100
AcDbEntity
  8
02製品
  6
ByBlock
100
AcDbLine
 10
0.6960296630859375
 20
0.9944610595703125
 30
0.0
 11
5.500000000001819
 21
0.9944610595703125
 31
0.0
  0
LINE
  5
1B107
330
1B0D4
100
AcDbEntity
  8
02製品
  6
ByBlock
100
AcDbLine
 10
0.0
 20
14.80008520759657
 30
0.0
 11
0.0
 21
2.199989179011027
 31
0.0
  0
ARC
  5
1B108
330
1B0D4
100
AcDbEntity
  8
02製品
  6
ByBlock
100
AcDbCircle
 10
12.00000000000273
 20
8.50000000000091
 30
0.0
 40
12.0
100
AcDbArc
 50
161.7759804502329
 51
198.2237823143786
  0
LINE
  5
1B109
330
1B0D4
100
AcDbEntity
  8
02製品
  6
ByBlock
100
AcDbLine
 10
0.601898193359375
 20
4.747253417969659
 30
0.0
 11
5.500000000001819
 21
4.747253417969659
 31
0.0
  0
LINE
  5
1B10A
330
1B0D4
100
AcDbEntity
  8
02製品
  6
ByBlock
100
AcDbLine
 10
0.601913452151166
 20
12.25280761718841
 30
0.0
 11
5.500000000001819
 21
12.25280761718841
 31
0.0
  0
LINE
  5
1B10B
330
1B0D4
100
AcDbEntity
  8
02製品
  6
ByBlock
100
AcDbLine
 10
0.6960296630859375
 20
16.00556945800781
 30
0.0
 11
5.500000000001819
 21
16.00556945800781
 31
0.0
  0
LINE
  5
1B10C
330
1B0D4
100
AcDbEntity
  8
02製品
  6
ByBlock
100
AcDbLine
 10
0.6019017629496375
 20
12.25283127230978
 30
0.0
 11
0.0
 21
14.80008520759657
 31
0.0
  0
LINE
  5
1B10D
330
1B0D4
100
AcDbEntity
  8
02製品
  6
ByBlock
100
AcDbLine
 10
0.0
 20
2.199989179011027
 30
0.0
 11
0.6018760334500257
 21
4.747300551312037
 31
0.0
  0
LINE
  5
1B10E
330
1B0D4
100
AcDbEntity
  8
02製品
  6
ByBlock
100
AcDbLine
 10
0.0
 20
2.199989179011027
 30
0.0
 11
0.6959975911631773
 21
0.9944858559847489
 31
0.0
  0
LINE
  5
1B10F
330
1B0D4
100
AcDbEntity
  8
02製品
  6
ByBlock
100
AcDbLine
 10
0.6960187865770422
 20
16.0056252421582
 30
0.0
 11
0.0
 21
14.80008520759657
 31
0.0
  0
ENDBLK
  5
1B111
330
1B0D4
100
AcDbEntity
  8
0
100
AcDbBlockEnd
  0
ENDSEC
  0
SECTION
  2
ENTITIES
  0
LINE
  5
1AD03
330
1F
100
AcDbEntity
  8
02製品
  6
Continuous
100
AcDbLine
 10
-9305.43944305347
 20
4197.493453152738
 30
0.0
 11
-10259.23944305347
 21
4197.493453152738
 31
0.0
  0
LINE
  5
1AD04
330
1F
100
AcDbEntity
  8
02製品
  6
Continuous
100
AcDbLine
 10
-9308.439443053456
 20
4157.493453152738
 30
0.0
 11
-10249.73944305347
 21
4157.493453152738
 31
0.0
  0
CIRCLE
  5
1AD05
330
1F
100
AcDbEntity
  8
02製品
  6
Continuous
100
AcDbCircle
 10
-10164.73944305347
 20
4177.493453152738
 30
0.0
 40
5.0
  0
LINE
  5
1AD06
330
1F
100
AcDbEntity
  8
02製品
  6
Continuous
100
AcDbLine
 10
-11455.73944305347
 20
4157.493453152738
 30
0.0
 11
-12397.03944305347
 21
4157.493453152738
 31
0.0
  0
LINE
  5
1AD07
330
1F
100
AcDbEntity
  8
02製品
  6
Continuous
100
AcDbLine
 10
-11446.23944305347
 20
4197.493453152738
 30
0.0
 11
-12400.03944305347
 21
4197.493453152738
 31
0.0
  0
CIRCLE
  5
1AD08
330
1F
100
AcDbEntity
  8
02製品
  6
Continuous
100
AcDbCircle
 10
-11540.73944305347
 20
4177.493453152738
 30
0.0
 40
5.0
  0
LINE
  5
1AD09
330
1F
100
AcDbEntity
  8
02製品
  6
Continuous
100
AcDbLine
 10
-10320.23944305347
 20
4197.493453152738
 30
0.0
 11
-11385.23944305347
 21
4197.493453152738
 31
0.0
  0
LINE
  5
1AD0A
330
1F
100
AcDbEntity
  8
02製品
  6
Continuous
100
AcDbLine
 10
-10329.73944305347
 20
4157.493453152738
 30
0.0
 11
-11375.73944305347
 21
4157.493453152738
 31
0.0
  0
CIRCLE
  5
1AD0B
330
1F
100
AcDbEntity
  8
02製品
  6
Continuous
100
AcDbCircle
 10
-10414.73944305347
 20
4177.493453152738
 30
0.0
 40
5.0
  0
CIRCLE
  5
1AD0C
330
1F
100
AcDbEntity
  8
02製品
  6
Continuous
100
AcDbCircle
 10
-11290.73944305347
 20
4177.493453152738
 30
0.0
 40
5.000000000001137
  0
LINE
  5
1AD0D
330
1F
100
AcDbEntity
  8
02製品
  6
Continuous
100
AcDbLine
 10
-10254.23944305347
 20
4157.493453152738
 30
0.0
 11
-10249.73944305347
 21
4157.493453152738
 31
0.0
  0
LINE
  5
1AD0E
330
1F
100
AcDbEntity
  8
02製品
  6
Continuous
100
AcDbLine
 10
-10219.73944305347
 20
3351.993453152738
 30
0.0
 11
-10249.73944305347
 21
3351.993453152738
 31
0.0
  0
LINE
  5
1AD0F
330
1F
100
AcDbEntity
  8
02製品
  6
Continuous
100
AcDbLine
 10
-10219.73944305347
 20
3347.493453152738
 30
0.0
 11
-10219.73944305347
 21
3351.993453152738
 31
0.0
  0
LINE
  5
1AD10
330
1F
100
AcDbEntity
  8
02製品
  6
Continuous
100
AcDbLine
 10
-10359.73944305347
 20
3347.493453152738
 30
0.0
 11
-10219.73944305347
 21
3347.493453152738
 31
0.0
  0
LINE
  5
1AD11
330
1F
100
AcDbEntity
  8
02製品
  6
Continuous
100
AcDbLine
 10
-10359.73944305347
 20
3351.993453152738
 30
0.0
 11
-10359.73944305347
 21
3347.493453152738
 31
0.0
  0
LINE
  5
1AD12
330
1F
100
AcDbEntity
  8
02製品
  6
Continuous
100
AcDbLine
 10
-10329.73944305347
 20
3351.993453152738
 30
0.0
 11
-10359.73944305347
 21
3351.993453152738
 31
0.0
  0
LINE
  5
1AD13
330
1F
100
AcDbEntity
  8
02製品
  6
Continuous
100
AcDbLine
 10
-10329.73944305347
 20
4157.493453152738
 30
0.0
 11
-10329.73944305347
 21
3991.293453152741
 31
0.0
  0
LINE
  5
1AD14
330
1F
100
AcDbEntity
  8
02製品
  6
Continuous
100
AcDbLine
 10
-10329.73944305347
 20
3443.693453152742
 30
0.0
 11
-10329.73944305347
 21
3351.993453152738
 31
0.0
  0
LINE
  5
1AD15
330
1F
100
AcDbEntity
  8
02製品
  6
Continuous
100
AcDbLine
 10
-10325.23944305347
 20
4157.493453152738
 30
0.0
 11
-10329.73944305347
 21
4157.493453152738
 31
0.0
  0
LINE
  5
1AD16
330
1F
100
AcDbEntity
  8
02製品
  6
Continuous
100
AcDbLine
 10
-10325.23944305347
 20
4157.493453152738
 30
0.0
 11
-10325.23944305347
 21
4192.493453152738
 31
0.0
  0
ARC
  5
1AD17
330
1F
100
AcDbEntity
  8
02製品
  6
Continuous
100
AcDbCircle
 10
-10320.23944305347
 20
4192.493453152738
 30
0.0
 40
5.0
100
AcDbArc
 50
90.0
 51
180.0
  0
LINE
  5
1AD18
330
1F
100
AcDbEntity
  8
02製品
  6
Continuous
100
AcDbLine
 10
-10320.23944305347
 20
4197.493453152738
 30
0.0
 11
-10259.23944305347
 21
4197.493453152738
 31
0.0
  0
ARC
  5
1AD19
330
1F
100
AcDbEntity
  8
02製品
  6
Continuous
100
AcDbCircle
 10
-10259.23944305347
 20
4192.493453152738
 30
0.0
 40
5.000000000001137
100
AcDbArc
 50
0.0
 51
90.0
  0
LINE
  5
1AD1A
330
1F
100
AcDbEntity
  8
02製品
  6
Continuous
100
AcDbLine
 10
-10254.23944305347
 20
4192.493453152738
 30
0.0
 11
-10254.23944305347
 21
4157.493453152738
 31
0.0
  0
CIRCLE
  5
1AD1B
330
1F
100
AcDbEntity
  8
02製品
  6
Continuous
100
AcDbCircle
 10
-10269.73944305347
 20
3467.493453152738
 30
0.0
 40
2.349999999999
  0
CIRCLE
  5
1AD1C
330
1F
100
AcDbEntity
  8
02製品
  6
Continuous
100
AcDbCircle
 10
-10309.73944305347
 20
3967.493453152738
 30
0.0
 40
2.349999999999
  0
CIRCLE
  5
1AD1D
330
1F
100
AcDbEntity
  8
02製品
  6
Continuous
100
AcDbCircle
 10
-10269.73944305347
 20
3967.493453152738
 30
0.0
 40
2.349999999999
  0
CIRCLE
  5
1AD1E
330
1F
100
AcDbEntity
  8
02製品
  6
Continuous
100
AcDbCircle
 10
-10269.73944305347
 20
3817.493453152738
 30
0.0
 40
2.349999999999
  0
CIRCLE
  5
1AD1F
330
1F
100
AcDbEntity
  8
02製品
  6
Continuous
100
AcDbCircle
 10
-10309.73944305347
 20
3817.493453152738
 30
0.0
 40
2.349999999999
  0
CIRCLE
  5
1AD20
330
1F
100
AcDbEntity
  8
02製品
  6
Continuous
100
AcDbCircle
 10
-10269.73944305347
 20
3617.493453152738
 30
0.0
 40
2.349999999999
  0
CIRCLE
  5
1AD21
330
1F
100
AcDbEntity
  8
02製品
  6
Continuous
100
AcDbCircle
 10
-10309.73944305347
 20
3617.493453152738
 30
0.0
 40
2.349999999999
  0
CIRCLE
  5
1AD22
330
1F
100
AcDbEntity
  8
02製品
  6
Continuous
100
AcDbCircle
 10
-10309.73944305347
 20
3467.493453152738
 30
0.0
 40
2.350000000000136
  0
CIRCLE
  5
1AD23
330
1F
100
AcDbEntity
  8
02製品
  6
Continuous
100
AcDbCircle
 10
-10314.73944305347
 20
4177.493453152738
 30
0.0
 40
5.0
  0
CIRCLE
  5
1AD24
330
1F
100
AcDbEntity
  8
02製品
  6
Continuous
100
AcDbCircle
 10
-10264.73944305347
 20
4177.493453152738
 30
0.0
 40
5.0
  0
LINE
  5
1AD25
330
1F
100
AcDbEntity
  8
02製品
  6
Continuous
100
AcDbLine
 10
-10249.73944305347
 20
4157.493453152738
 30
0.0
 11
-10249.73944305347
 21
3991.293453152723
 31
0.0
  0
LINE
  5
1AD26
330
1F
100
AcDbEntity
  8
02製品
  6
Continuous
100
AcDbLine
 10
-10249.73944305347
 20
3443.69345315272
 30
0.0
 11
-10249.73944305347
 21
3351.993453152738
 31
0.0
  0
LINE
  5
1AD27
330
1F
100
AcDbEntity
  8
02製品
  6
Continuous
100
AcDbLine
 10
-10214.73944305347
 20
3351.993453152738
 30
0.0
 11
-10214.73944305347
 21
3347.493453152738
 31
0.0
  0
LINE
  5
1AD28
330
1F
100
AcDbEntity
  8
02製品
  6
Continuous
100
AcDbLine
 10
-10214.73944305347
 20
3347.493453152738
 30
0.0
 11
-10219.73944305347
 21
3347.493453152738
 31
0.0
  0
LINE
  5
1AD29
330
1F
100
AcDbEntity
  8
02製品
  6
Continuous
100
AcDbLine
 10
-10219.73944305347
 20
3351.993453152738
 30
0.0
 11
-10214.73944305347
 21
3351.993453152738
 31
0.0
  0
LINE
  5
1AD2A
330
1F
100
AcDbEntity
  8
02製品
  6
Continuous
100
AcDbLine
 10
-10364.73944305347
 20
3347.493453152738
 30
0.0
 11
-10364.73944305347
 21
3351.993453152738
 31
0.0
  0
LINE
  5
1AD2B
330
1F
100
AcDbEntity
  8
02製品
  6
Continuous
100
AcDbLine
 10
-10359.73944305347
 20
3347.493453152738
 30
0.0
 11
-10364.73944305347
 21
3347.493453152738
 31
0.0
  0
LINE
  5
1AD2C
330
1F
100
AcDbEntity
  8
02製品
  6
Continuous
100
AcDbLine
 10
-10364.73944305347
 20
3351.993453152738
 30
0.0
 11
-10359.73944305347
 21
3351.993453152738
 31
0.0
  0
LINE
  5
1AD2D
330
1F
100
AcDbEntity
  8
02製品
  6
Continuous
100
AcDbLine
 10
-11380.23944305347
 20
4157.493453152738
 30
0.0
 11
-11375.73944305347
 21
4157.493453152738
 31
0.0
  0
LINE
  5
1AD2E
330
1F
100
AcDbEntity
  8
02製品
  6
Continuous
100
AcDbLine
 10
-11375.73944305347
 20
4157.493453152738
 30
0.0
 11
-11375.73944305347
 21
3991.293453152741
 31
0.0
  0
LINE
  5
1AD2F
330
1F
100
AcDbEntity
  8
02製品
  6
Continuous
100
AcDbLine
 10
-11375.73944305347
 20
3443.693453152742
 30
0.0
 11
-11375.73944305347
 21
3351.993453152738
 31
0.0
  0
LINE
  5
1AD30
330
1F
100
AcDbEntity
  8
02製品
  6
Continuous
100
AcDbLine
 10
-11345.73944305347
 20
3351.993453152738
 30
0.0
 11
-11375.73944305347
 21
3351.993453152738
 31
0.0
  0
LINE
  5
1AD31
330
1F
100
AcDbEntity
  8
02製品
  6
Continuous
100
AcDbLine
 10
-11345.73944305347
 20
3347.493453152738
 30
0.0
 11
-11345.73944305347
 21
3351.993453152738
 31
0.0
  0
LINE
  5
1AD32
330
1F
100
AcDbEntity
  8
02製品
  6
Continuous
100
AcDbLine
 10
-11485.73944305347
 20
3347.493453152738
 30
0.0
 11
-11345.73944305347
 21
3347.493453152738
 31
0.0
  0
LINE
  5
1AD33
330
1F
100
AcDbEntity
  8
02製品
  6
Continuous
100
AcDbLine
 10
-11485.73944305347
 20
3351.993453152738
 30
0.0
 11
-11485.73944305347
 21
3347.493453152738
 31
0.0
  0
LINE
  5
1AD34
330
1F
100
AcDbEntity
  8
02製品
  6
Continuous
100
AcDbLine
 10
-11455.73944305347
 20
3351.993453152738
 30
0.0
 11
-11485.73944305347
 21
3351.993453152738
 31
0.0
  0
LINE
  5
1AD35
330
1F
100
AcDbEntity
  8
02製品
  6
Continuous
100
AcDbLine
 10
-11455.73944305347
 20
4157.493453152738
 30
0.0
 11
-11455.73944305347
 21
3991.293453152744
 31
0.0
  0
LINE
  5
1AD36
330
1F
100
AcDbEntity
  8
02製品
  6
Continuous
100
AcDbLine
 10
-11455.73944305347
 20
3443.693453152746
 30
0.0
 11
-11455.73944305347
 21
3351.993453152738
 31
0.0
  0
LINE
  5
1AD37
330
1F
100
AcDbEntity
  8
02製品
  6
Continuous
100
AcDbLine
 10
-11451.23944305347
 20
4157.493453152738
 30
0.0
 11
-11455.73944305347
 21
4157.493453152738
 31
0.0
  0
LINE
  5
1AD38
330
1F
100
AcDbEntity
  8
02製品
  6
Continuous
100
AcDbLine
 10
-11451.23944305347
 20
4157.493453152738
 30
0.0
 11
-11451.23944305347
 21
4192.493453152738
 31
0.0
  0
ARC
  5
1AD39
330
1F
100
AcDbEntity
  8
02製品
  6
Continuous
100
AcDbCircle
 10
-11446.23944305347
 20
4192.493453152738
 30
0.0
 40
5.0
100
AcDbArc
 50
90.0
 51
180.0
  0
LINE
  5
1AD3A
330
1F
100
AcDbEntity
  8
02製品
  6
Continuous
100
AcDbLine
 10
-11446.23944305347
 20
4197.493453152738
 30
0.0
 11
-11385.23944305347
 21
4197.493453152738
 31
0.0
  0
ARC
  5
1AD3B
330
1F
100
AcDbEntity
  8
02製品
  6
Continuous
100
AcDbCircle
 10
-11385.23944305347
 20
4192.493453152738
 30
0.0
 40
5.0
100
AcDbArc
 50
0.0
 51
90.0
  0
LINE
  5
1AD3C
330
1F
100
AcDbEntity
  8
02製品
  6
Continuous
100
AcDbLine
 10
-11380.23944305347
 20
4192.493453152738
 30
0.0
 11
-11380.23944305347
 21
4157.493453152738
 31
0.0
  0
CIRCLE
  5
1AD3D
330
1F
100
AcDbEntity
  8
02製品
  6
Continuous
100
AcDbCircle
 10
-11395.73944305347
 20
3467.493453152738
 30
0.0
 40
2.349999999999
  0
CIRCLE
  5
1AD3E
330
1F
100
AcDbEntity
  8
02製品
  6
Continuous
100
AcDbCircle
 10
-11435.73944305347
 20
3967.493453152738
 30
0.0
 40
2.349999999999
  0
CIRCLE
  5
1AD3F
330
1F
100
AcDbEntity
  8
02製品
  6
Continuous
100
AcDbCircle
 10
-11395.73944305347
 20
3967.493453152738
 30
0.0
 40
2.349999999999
  0
CIRCLE
  5
1AD40
330
1F
100
AcDbEntity
  8
02製品
  6
Continuous
100
AcDbCircle
 10
-11395.73944305347
 20
3817.493453152738
 30
0.0
 40
2.349999999999
  0
CIRCLE
  5
1AD41
330
1F
100
AcDbEntity
  8
02製品
  6
Continuous
100
AcDbCircle
 10
-11435.73944305347
 20
3817.493453152738
 30
0.0
 40
2.349999999999
  0
CIRCLE
  5
1AD42
330
1F
100
AcDbEntity
  8
02製品
  6
Continuous
100
AcDbCircle
 10
-11395.73944305347
 20
3617.493453152738
 30
0.0
 40
2.349999999999
  0
CIRCLE
  5
1AD43
330
1F
100
AcDbEntity
  8
02製品
  6
Continuous
100
AcDbCircle
 10
-11435.73944305347
 20
3617.493453152738
 30
0.0
 40
2.349999999999
  0
CIRCLE
  5
1AD44
330
1F
100
AcDbEntity
  8
02製品
  6
Continuous
100
AcDbCircle
 10
-11435.73944305347
 20
3467.493453152738
 30
0.0
 40
2.349999999999
  0
CIRCLE
  5
1AD45
330
1F
100
AcDbEntity
  8
02製品
  6
Continuous
100
AcDbCircle
 10
-11440.73944305347
 20
4177.493453152738
 30
0.0
 40
5.000000000001137
  0
CIRCLE
  5
1AD46
330
1F
100
AcDbEntity
  8
02製品
  6
Continuous
100
AcDbCircle
 10
-11390.73944305347
 20
4177.493453152738
 30
0.0
 40
5.000000000001137
  0
LINE
  5
1AD47
330
1F
100
AcDbEntity
  8
02製品
  6
Continuous
100
AcDbLine
 10
-11340.73944305347
 20
3351.993453152738
 30
0.0
 11
-11340.73944305347
 21
3347.493453152738
 31
0.0
  0
LINE
  5
1AD48
330
1F
100
AcDbEntity
  8
02製品
  6
Continuous
100
AcDbLine
 10
-11340.73944305347
 20
3347.493453152738
 30
0.0
 11
-11345.73944305347
 21
3347.493453152738
 31
0.0
  0
LINE
  5
1AD49
330
1F
100
AcDbEntity
  8
02製品
  6
Continuous
100
AcDbLine
 10
-11345.73944305347
 20
3351.993453152738
 30
0.0
 11
-11340.73944305347
 21
3351.993453152738
 31
0.0
  0
LINE
  5
1AD4A
330
1F
100
AcDbEntity
  8
02製品
  6
Continuous
100
AcDbLine
 10
-11485.73944305347
 20
3347.493453152738
 30
0.0
 11
-11490.73944305347
 21
3347.493453152738
 31
0.0
  0
LINE
  5
1AD4B
330
1F
100
AcDbEntity
  8
02製品
  6
Continuous
100
AcDbLine
 10
-11490.73944305347
 20
3347.493453152738
 30
0.0
 11
-11490.73944305347
 21
3351.993453152738
 31
0.0
  0
LINE
  5
1AD4C
330
1F
100
AcDbEntity
  8
02製品
  6
Continuous
100
AcDbLine
 10
-11490.73944305347
 20
3351.993453152738
 30
0.0
 11
-11485.73944305347
 21
3351.993453152738
 31
0.0
  0
ARC
  5
1AD4D
330
1F
100
AcDbEntity
  8
02製品
  6
Continuous
100
AcDbCircle
 10
-12400.03944305347
 20
4194.493453152745
 30
0.0
 40
2.999999999999545
100
AcDbArc
 50
0.0
 51
90.0
  0
LINE
  5
1AD4E
330
1F
100
AcDbEntity
  8
02製品
  6
Continuous
100
AcDbLine
 10
-12397.03944305347
 20
4194.493453152745
 30
0.0
 11
-12397.03944305347
 21
4157.493453152745
 31
0.0
  0
LINE
  5
1AD4F
330
1F
100
AcDbEntity
  8
02製品
  6
Continuous
100
AcDbLine
 10
-12397.03944305347
 20
4157.493453152745
 30
0.0
 11
-12507.03944305347
 21
4047.493453152745
 31
0.0
  0
LINE
  5
1AD50
330
1F
100
AcDbEntity
  8
02製品
  6
Continuous
100
AcDbLine
 10
-12507.03944305347
 20
4047.493453152745
 30
0.0
 11
-12507.03944305347
 21
3991.293453152744
 31
0.0
  0
LINE
  5
1AD51
330
1F
100
AcDbEntity
  8
02製品
  6
Continuous
100
AcDbLine
 10
-12507.03944305347
 20
3443.693453152746
 30
0.0
 11
-12507.03944305347
 21
3347.493453152745
 31
0.0
  0
LINE
  5
1AD52
330
1F
100
AcDbEntity
  8
02製品
  6
Continuous
100
AcDbLine
 10
-12507.03944305347
 20
3347.493453152745
 30
0.0
 11
-12527.53934305347
 21
3347.493453152745
 31
0.0
  0
LINE
  5
1AD53
330
1F
100
AcDbEntity
  8
02製品
  6
Continuous
100
AcDbLine
 10
-12527.53934305347
 20
3351.993453152745
 30
0.0
 11
-12527.53934305347
 21
3347.493453152745
 31
0.0
  0
LINE
  5
1AD54
330
1F
100
AcDbEntity
  8
02製品
  6
Continuous
100
AcDbLine
 10
-12542.53934305347
 20
3351.993453152745
 30
0.0
 11
-12527.53934305347
 21
3351.993453152745
 31
0.0
  0
LINE
  5
1AD55
330
1F
100
AcDbEntity
  8
02製品
  6
Continuous
100
AcDbLine
 10
-12542.53934305347
 20
3351.993553152743
 30
0.0
 11
-12542.53934305347
 21
3351.993453152745
 31
0.0
  0
LINE
  5
1AD56
330
1F
100
AcDbEntity
  8
02製品
  6
Continuous
100
AcDbLine
 10
-12547.03944305347
 20
3351.993553152743
 30
0.0
 11
-12542.53934305347
 21
3351.993553152743
 31
0.0
  0
LINE
  5
1AD57
330
1F
100
AcDbEntity
  8
02製品
  6
Continuous
100
AcDbLine
 10
-12547.03944305347
 20
4197.493453152745
 30
0.0
 11
-12547.03944305347
 21
3351.993553152743
 31
0.0
  0
LINE
  5
1AD58
330
1F
100
AcDbEntity
  8
02製品
  6
Continuous
100
AcDbLine
 10
-12400.03944305347
 20
4197.493453152745
 30
0.0
 11
-12547.03944305347
 21
4197.493453152745
 31
0.0
  0
CIRCLE
  5
1AD59
330
1F
100
AcDbEntity
  8
02製品
  6
Continuous
100
AcDbCircle
 10
-12416.73944305347
 20
4177.493453152745
 30
0.0
 40
4.999999999998863
  0
CIRCLE
  5
1AD5A
330
1F
100
AcDbEntity
  8
02製品
  6
Continuous
100
AcDbCircle
 10
-12516.73944305347
 20
4177.493453152745
 30
0.0
 40
5.0
  0
CIRCLE
  5
1AD5B
330
1F
100
AcDbEntity
  8
02製品
  6
Continuous
100
AcDbCircle
 10
-12521.73944305347
 20
3467.493453152745
 30
0.0
 40
2.350000000000136
  0
CIRCLE
  5
1AD5C
330
1F
100
AcDbEntity
  8
02製品
  6
Continuous
100
AcDbCircle
 10
-12521.73944305347
 20
3617.493453152745
 30
0.0
 40
2.350000000000136
  0
CIRCLE
  5
1AD5D
330
1F
100
AcDbEntity
  8
02製品
  6
Continuous
100
AcDbCircle
 10
-12521.73944305347
 20
3817.493453152745
 30
0.0
 40
2.350000000000136
  0
CIRCLE
  5
1AD5E
330
1F
100
AcDbEntity
  8
02製品
  6
Continuous
100
AcDbCircle
 10
-12521.73944305347
 20
3967.493453152745
 30
0.0
 40
2.350000000000136
  0
LINE
  5
1AD5F
330
1F
100
AcDbEntity
  8
02製品
  6
Continuous
100
AcDbLine
 10
-12542.53934305347
 20
3351.993453152745
 30
0.0
 11
-12542.53934305347
 21
3347.493453152745
 31
0.0
  0
LINE
  5
1AD60
330
1F
100
AcDbEntity
  8
02製品
  6
Continuous
100
AcDbLine
 10
-12527.53934305347
 20
3347.493453152745
 30
0.0
 11
-12542.53934305347
 21
3347.493453152745
 31
0.0
  0
LINE
  5
1AD61
330
1F
100
AcDbEntity
  8
02製品
  6
Continuous
100
AcDbLine
 10
-12471.73944305347
 20
3351.993453152745
 30
0.0
 11
-12471.73944305347
 21
3347.493453152745
 31
0.0
  0
LINE
  5
1AD62
330
1F
100
AcDbEntity
  8
02製品
  6
Continuous
100
AcDbLine
 10
-12507.03944305347
 20
3351.993453152745
 30
0.0
 11
-12471.73944305347
 21
3351.993453152745
 31
0.0
  0
LINE
  5
1AD63
330
1F
100
AcDbEntity
  8
02製品
  6
Continuous
100
AcDbLine
 10
-12507.03944305347
 20
3347.493453152745
 30
0.0
 11
-12471.73944305347
 21
3347.493453152745
 31
0.0
  0
LINE
  5
1AD64
330
1F
100
AcDbEntity
  8
02製品
  6
Continuous
100
AcDbLine
 10
-12466.73944305347
 20
3347.493453152745
 30
0.0
 11
-12466.73944305347
 21
3351.993453152745
 31
0.0
  0
LINE
  5
1AD65
330
1F
100
AcDbEntity
  8
02製品
  6
Continuous
100
AcDbLine
 10
-12466.73944305347
 20
3351.993453152745
 30
0.0
 11
-12471.73944305347
 21
3351.993453152745
 31
0.0
  0
LINE
  5
1AD66
330
1F
100
AcDbEntity
  8
02製品
  6
Continuous
100
AcDbLine
 10
-12471.73944305347
 20
3347.493453152745
 30
0.0
 11
-12466.73944305347
 21
3347.493453152745
 31
0.0
  0
LINE
  5
1AD67
330
1F
100
AcDbEntity
  8
02製品
  6
Continuous
100
AcDbLine
 10
-9158.43944305347
 20
4197.493453152749
 30
0.0
 11
-9158.43944305347
 21
3351.99355315275
 31
0.0
  0
LINE
  5
1AD68
330
1F
100
AcDbEntity
  8
02製品
  6
Continuous
100
AcDbLine
 10
-9158.43944305347
 20
3351.99355315275
 30
0.0
 11
-9162.939543053468
 21
3351.99355315275
 31
0.0
  0
LINE
  5
1AD69
330
1F
100
AcDbEntity
  8
02製品
  6
Continuous
100
AcDbLine
 10
-9162.939543053468
 20
3351.99355315275
 30
0.0
 11
-9162.939543053468
 21
3351.993453152749
 31
0.0
  0
LINE
  5
1AD6A
330
1F
100
AcDbEntity
  8
02製品
  6
Continuous
100
AcDbLine
 10
-9162.939543053468
 20
3351.993453152749
 30
0.0
 11
-9177.939543053468
 21
3351.993453152749
 31
0.0
  0
LINE
  5
1AD6B
330
1F
100
AcDbEntity
  8
02製品
  6
Continuous
100
AcDbLine
 10
-9177.939543053468
 20
3351.993453152749
 30
0.0
 11
-9177.939543053468
 21
3347.493453152749
 31
0.0
  0
LINE
  5
1AD6C
330
1F
100
AcDbEntity
  8
02製品
  6
Continuous
100
AcDbLine
 10
-9198.43944305347
 20
3347.493453152749
 30
0.0
 11
-9177.939543053468
 21
3347.493453152749
 31
0.0
  0
LINE
  5
1AD6D
330
1F
100
AcDbEntity
  8
02製品
  6
Continuous
100
AcDbLine
 10
-9198.43944305347
 20
4047.493453152749
 30
0.0
 11
-9198.43944305347
 21
3991.293453152723
 31
0.0
  0
LINE
  5
1AD6E
330
1F
100
AcDbEntity
  8
02製品
  6
Continuous
100
AcDbLine
 10
-9198.43944305347
 20
3443.69345315272
 30
0.0
 11
-9198.43944305347
 21
3347.493453152749
 31
0.0
  0
LINE
  5
1AD6F
330
1F
100
AcDbEntity
  8
02製品
  6
Continuous
100
AcDbLine
 10
-9308.43944305347
 20
4157.493453152749
 30
0.0
 11
-9198.43944305347
 21
4047.493453152749
 31
0.0
  0
LINE
  5
1AD70
330
1F
100
AcDbEntity
  8
02製品
  6
Continuous
100
AcDbLine
 10
-9308.43944305347
 20
4194.493453152752
 30
0.0
 11
-9308.43944305347
 21
4157.493453152749
 31
0.0
  0
CIRCLE
  5
1AD71
330
1F
100
AcDbEntity
  8
02製品
  6
Continuous
100
AcDbCircle
 10
-9288.739443053466
 20
4177.493453152749
 30
0.0
 40
4.999999999999432
  0
CIRCLE
  5
1AD72
330
1F
100
AcDbEntity
  8
02製品
  6
Continuous
100
AcDbCircle
 10
-9188.739443053466
 20
4177.493453152749
 30
0.0
 40
5.0
  0
CIRCLE
  5
1AD73
330
1F
100
AcDbEntity
  8
02製品
  6
Continuous
100
AcDbCircle
 10
-9183.739443053466
 20
3467.493453152749
 30
0.0
 40
2.350000000000705
  0
CIRCLE
  5
1AD74
330
1F
100
AcDbEntity
  8
02製品
  6
Continuous
100
AcDbCircle
 10
-9183.739443053466
 20
3617.493453152749
 30
0.0
 40
2.350000000000705
  0
CIRCLE
  5
1AD75
330
1F
100
AcDbEntity
  8
02製品
  6
Continuous
100
AcDbCircle
 10
-9183.739443053466
 20
3817.493453152749
 30
0.0
 40
2.350000000000705
  0
CIRCLE
  5
1AD76
330
1F
100
AcDbEntity
  8
02製品
  6
Continuous
100
AcDbCircle
 10
-9183.739443053466
 20
3967.493453152749
 30
0.0
 40
2.350000000000705
  0
ARC
  5
1AD77
330
1F
100
AcDbEntity
  8
02製品
  6
Continuous
100
AcDbCircle
 10
-9305.43944305347
 20
4194.493453152752
 30
0.0
 40
3.000000000000682
100
AcDbArc
 50
90.0
 51
180.0
  0
LINE
  5
1AD78
330
1F
100
AcDbEntity
  8
02製品
  6
Continuous
100
AcDbLine
 10
-9305.43944305347
 20
4197.493453152749
 30
0.0
 11
-9158.43944305347
 21
4197.493453152749
 31
0.0
  0
LINE
  5
1AD79
330
1F
100
AcDbEntity
  8
02製品
  6
Continuous
100
AcDbLine
 10
-9162.939543053468
 20
3351.993453152749
 30
0.0
 11
-9162.939543053468
 21
3347.493453152749
 31
0.0
  0
LINE
  5
1AD7A
330
1F
100
AcDbEntity
  8
02製品
  6
Continuous
100
AcDbLine
 10
-9177.939543053468
 20
3347.493453152749
 30
0.0
 11
-9162.939543053468
 21
3347.493453152749
 31
0.0
  0
LINE
  5
1AD7B
330
1F
100
AcDbEntity
  8
02製品
  6
Continuous
100
AcDbLine
 10
-9233.739443053466
 20
3351.993453152749
 30
0.0
 11
-9233.739443053466
 21
3347.493453152749
 31
0.0
  0
LINE
  5
1AD7C
330
1F
100
AcDbEntity
  8
02製品
  6
Continuous
100
AcDbLine
 10
-9198.43944305347
 20
3351.993453152749
 30
0.0
 11
-9233.739443053466
 21
3351.993453152749
 31
0.0
  0
LINE
  5
1AD7D
330
1F
100
AcDbEntity
  8
02製品
  6
Continuous
100
AcDbLine
 10
-9198.43944305347
 20
3347.493453152749
 30
0.0
 11
-9233.739443053466
 21
3347.493453152749
 31
0.0
  0
LINE
  5
1AD7E
330
1F
100
AcDbEntity
  8
02製品
  6
Continuous
100
AcDbLine
 10
-9238.739443053466
 20
3347.493453152749
 30
0.0
 11
-9238.739443053466
 21
3351.993453152749
 31
0.0
  0
LINE
  5
1AD7F
330
1F
100
AcDbEntity
  8
02製品
  6
Continuous
100
AcDbLine
 10
-9238.739443053466
 20
3351.993453152749
 30
0.0
 11
-9233.739443053466
 21
3351.993453152749
 31
0.0
  0
LINE
  5
1AD80
330
1F
100
AcDbEntity
  8
02製品
  6
Continuous
100
AcDbLine
 10
-9233.739443053466
 20
3347.493453152749
 30
0.0
 11
-9238.739443053466
 21
3347.493453152749
 31
0.0
  0
LINE
  5
1AD81
330
1F
100
AcDbEntity
  8
02製品
  6
Continuous
100
AcDbLine
 10
-9157.239443053466
 20
3988.293453152748
 30
0.0
 11
-9158.43944305347
 21
3988.293453152748
 31
0.0
  0
LINE
  5
1AD82
330
1F
100
AcDbEntity
  8
02製品
  6
Continuous
100
AcDbLine
 10
-9158.43944305347
 20
3991.293453152748
 30
0.0
 11
-9157.239443053466
 21
3991.293453152748
 31
0.0
  0
LINE
  5
1AD83
330
1F
100
AcDbEntity
  8
02製品
  6
Continuous
100
AcDbLine
 10
-9157.239443053466
 20
3991.293453152748
 30
0.0
 11
-9157.239443053466
 21
3988.293453152748
 31
0.0
  0
LINE
  5
1AD84
330
1F
100
AcDbEntity
  8
02製品
  6
Continuous
100
AcDbLine
 10
-9158.43944305347
 20
3446.693453152749
 30
0.0
 11
-9157.239443053466
 21
3446.693453152749
 31
0.0
  0
LINE
  5
1AD85
330
1F
100
AcDbEntity
  8
02製品
  6
Continuous
100
AcDbLine
 10
-9157.239443053466
 20
3988.293453152748
 30
0.0
 11
-9157.239443053466
 21
3446.693453152749
 31
0.0
  0
LINE
  5
1AD86
330
1F
100
AcDbEntity
  8
02製品
  6
Continuous
100
AcDbLine
 10
-9157.239443053466
 20
3443.693453152749
 30
0.0
 11
-9158.43944305347
 21
3443.693453152749
 31
0.0
  0
LINE
  5
1AD87
330
1F
100
AcDbEntity
  8
02製品
  6
Continuous
100
AcDbLine
 10
-9157.239443053466
 20
3446.693453152749
 30
0.0
 11
-9157.239443053466
 21
3443.693453152749
 31
0.0
  0
LINE
  5
1AD88
330
1F
100
AcDbEntity
  8
02製品
  6
Continuous
100
AcDbLine
 10
-9158.43944305347
 20
3992.493453152749
 30
0.0
 11
-9157.239443053466
 21
3992.493453152749
 31
0.0
  0
LINE
  5
1AD89
330
1F
100
AcDbEntity
  8
02製品
  6
Continuous
100
AcDbLine
 10
-9157.239443053466
 20
3992.493453152749
 30
0.0
 11
-9157.239443053466
 21
3991.293453152748
 31
0.0
  0
LINE
  5
1AD8A
330
1F
100
AcDbEntity
  8
02製品
  6
Continuous
100
AcDbLine
 10
-9157.239443053466
 20
3442.493453152749
 30
0.0
 11
-9158.43944305347
 21
3442.493453152749
 31
0.0
  0
LINE
  5
1AD8B
330
1F
100
AcDbEntity
  8
02製品
  6
Continuous
100
AcDbLine
 10
-9157.239443053466
 20
3443.693453152749
 30
0.0
 11
-9157.239443053466
 21
3442.493453152749
 31
0.0
  0
LINE
  5
1AD8C
330
1F
100
AcDbEntity
  8
02製品
  6
Continuous
100
AcDbLine
 10
-12547.03944305347
 20
3988.293453152744
 30
0.0
 11
-12548.23944305347
 21
3988.293453152744
 31
0.0
  0
LINE
  5
1AD8D
330
1F
100
AcDbEntity
  8
02製品
  6
Continuous
100
AcDbLine
 10
-12548.23944305347
 20
3446.693453152742
 30
0.0
 11
-12547.03944305347
 21
3446.693453152742
 31
0.0
  0
LINE
  5
1AD8E
330
1F
100
AcDbEntity
  8
02製品
  6
Continuous
100
AcDbLine
 10
-12548.23944305347
 20
3988.293453152744
 30
0.0
 11
-12548.23944305347
 21
3446.693453152742
 31
0.0
  0
LINE
  5
1AD8F
330
1F
100
AcDbEntity
  8
02製品
  6
Continuous
100
AcDbLine
 10
-12547.03944305347
 20
3443.693453152746
 30
0.0
 11
-12548.23944305347
 21
3443.693453152746
 31
0.0
  0
LINE
  5
1AD90
330
1F
100
AcDbEntity
  8
02製品
  6
Continuous
100
AcDbLine
 10
-12548.23944305347
 20
3443.693453152746
 30
0.0
 11
-12548.23944305347
 21
3446.693453152742
 31
0.0
  0
LINE
  5
1AD91
330
1F
100
AcDbEntity
  8
02製品
  6
Continuous
100
AcDbLine
 10
-12548.23944305347
 20
3991.293453152744
 30
0.0
 11
-12547.03944305347
 21
3991.293453152744
 31
0.0
  0
LINE
  5
1AD92
330
1F
100
AcDbEntity
  8
02製品
  6
Continuous
100
AcDbLine
 10
-12548.23944305347
 20
3988.293453152744
 30
0.0
 11
-12548.23944305347
 21
3991.293453152744
 31
0.0
  0
LINE
  5
1AD93
330
1F
100
AcDbEntity
  8
02製品
  6
Continuous
100
AcDbLine
 10
-12548.23944305347
 20
3442.493453152745
 30
0.0
 11
-12547.03944305347
 21
3442.493453152745
 31
0.0
  0
LINE
  5
1AD94
330
1F
100
AcDbEntity
  8
02製品
  6
Continuous
100
AcDbLine
 10
-12548.23944305347
 20
3443.693453152746
 30
0.0
 11
-12548.23944305347
 21
3442.493453152745
 31
0.0
  0
LINE
  5
1AD95
330
1F
100
AcDbEntity
  8
02製品
  6
Continuous
100
AcDbLine
 10
-12547.03944305347
 20
3992.493453152745
 30
0.0
 11
-12548.23944305347
 21
3992.493453152745
 31
0.0
  0
LINE
  5
1AD96
330
1F
100
AcDbEntity
  8
02製品
  6
Continuous
100
AcDbLine
 10
-12548.23944305347
 20
3992.493453152745
 30
0.0
 11
-12548.23944305347
 21
3991.293453152744
 31
0.0
  0
LINE
  5
1AD97
330
1F
100
AcDbEntity
  8
02製品
  6
Continuous
100
AcDbLine
 10
-12519.23944305347
 20
3813.993453152745
 30
0.0
 11
-12520.89682807615
 21
3813.993453152745
 31
0.0
  0
ARC
  5
1AD98
330
1F
100
AcDbEntity
  8
02製品
  6
Continuous
100
AcDbCircle
 10
-12519.23944305347
 20
3817.493453152745
 30
0.0
 40
3.500000000000227
100
AcDbArc
 50
270.0
 51
90.0
  0
LINE
  5
1AD99
330
1F
100
AcDbEntity
  8
02製品
  6
Continuous
100
AcDbLine
 10
-12519.23944305347
 20
3820.993453152745
 30
0.0
 11
-12520.89682807615
 21
3820.993453152745
 31
0.0
  0
ARC
  5
1AD9A
330
1F
100
AcDbEntity
  8
02製品
  6
Continuous
100
AcDbCircle
 10
-12521.73944305347
 20
3817.493453152745
 30
0.0
 40
3.600000000000179
100
AcDbArc
 50
76.4637972625444
 51
103.5362027372766
  0
LINE
  5
1AD9B
330
1F
100
AcDbEntity
  8
02製品
  6
Continuous
100
AcDbLine
 10
-12522.58205803078
 20
3820.993453152745
 30
0.0
 11
-12524.23944305347
 21
3820.993453152745
 31
0.0
  0
ARC
  5
1AD9C
330
1F
100
AcDbEntity
  8
02製品
  6
Continuous
100
AcDbCircle
 10
-12524.23944305347
 20
3817.493453152745
 30
0.0
 40
3.500000000000227
100
AcDbArc
 50
90.0
 51
270.0
  0
LINE
  5
1AD9D
330
1F
100
AcDbEntity
  8
02製品
  6
Continuous
100
AcDbLine
 10
-12522.58205803078
 20
3813.993453152745
 30
0.0
 11
-12524.23944305347
 21
3813.993453152745
 31
0.0
  0
ARC
  5
1AD9E
330
1F
100
AcDbEntity
  8
02製品
  6
Continuous
100
AcDbCircle
 10
-12521.73944305347
 20
3467.493453152745
 30
0.0
 40
3.600000000000997
100
AcDbArc
 50
256.463797262727
 51
283.5362027374522
  0
LINE
  5
1AD9F
330
1F
100
AcDbEntity
  8
02製品
  6
Continuous
100
AcDbLine
 10
-12519.23944305347
 20
3463.993453152745
 30
0.0
 11
-12520.89682807615
 21
3463.993453152745
 31
0.0
  0
ARC
  5
1ADA0
330
1F
100
AcDbEntity
  8
02製品
  6
Continuous
100
AcDbCircle
 10
-12519.23944305347
 20
3467.493453152745
 30
0.0
 40
3.500000000000796
100
AcDbArc
 50
270.0
 51
90.0
  0
LINE
  5
1ADA1
330
1F
100
AcDbEntity
  8
02製品
  6
Continuous
100
AcDbLine
 10
-12519.23944305347
 20
3470.993453152741
 30
0.0
 11
-12520.89682807615
 21
3470.993453152741
 31
0.0
  0
ARC
  5
1ADA2
330
1F
100
AcDbEntity
  8
02製品
  6
Continuous
100
AcDbCircle
 10
-12521.73944305347
 20
3467.493453152745
 30
0.0
 40
3.599999999999626
100
AcDbArc
 50
76.46379726254273
 51
103.53620273728
  0
LINE
  5
1ADA3
330
1F
100
AcDbEntity
  8
02製品
  6
Continuous
100
AcDbLine
 10
-12522.58205803078
 20
3463.993453152745
 30
0.0
 11
-12524.23944305347
 21
3463.993453152745
 31
0.0
  0
ARC
  5
1ADA4
330
1F
100
AcDbEntity
  8
02製品
  6
Continuous
100
AcDbCircle
 10
-12536.23944305347
 20
3988.293453152744
 30
0.0
 40
3.000000000000682
100
AcDbArc
 50
90.0
 51
180.0
  0
LINE
  5
1ADA5
330
1F
100
AcDbEntity
  8
02製品
  6
Continuous
100
AcDbLine
 10
-12494.23944305347
 20
3991.293453152744
 30
0.0
 11
-12536.23944305347
 21
3991.293453152744
 31
0.0
  0
LINE
  5
1ADA6
330
1F
100
AcDbEntity
  8
02製品
  6
Continuous
100
AcDbLine
 10
-12494.23944305347
 20
3992.493453152745
 30
0.0
 11
-12494.23944305347
 21
3991.293453152744
 31
0.0
  0
LINE
  5
1ADA7
330
1F
100
AcDbEntity
  8
02製品
  6
Continuous
100
AcDbLine
 10
-11463.23944305347
 20
3992.493453152745
 30
0.0
 11
-12494.23944305347
 21
3992.493453152745
 31
0.0
  0
LINE
  5
1ADA8
330
1F
100
AcDbEntity
  8
02製品
  6
Continuous
100
AcDbLine
 10
-11463.23944305347
 20
3992.493453152745
 30
0.0
 11
-11463.23944305347
 21
3991.293453152744
 31
0.0
  0
LINE
  5
1ADA9
330
1F
100
AcDbEntity
  8
02製品
  6
Continuous
100
AcDbLine
 10
-11463.23944305347
 20
3991.293453152744
 30
0.0
 11
-11421.23944305347
 21
3991.293453152744
 31
0.0
  0
ARC
  5
1ADAA
330
1F
100
AcDbEntity
  8
02製品
  6
Continuous
100
AcDbCircle
 10
-11421.23944305347
 20
3988.293453152744
 30
0.0
 40
3.000000000000682
100
AcDbArc
 50
0.0
 51
90.0
  0
LINE
  5
1ADAB
330
1F
100
AcDbEntity
  8
02製品
  6
Continuous
100
AcDbLine
 10
-11418.23944305347
 20
3988.293453152744
 30
0.0
 11
-11418.23944305347
 21
3446.693453152742
 31
0.0
  0
ARC
  5
1ADAC
330
1F
100
AcDbEntity
  8
02製品
  6
Continuous
100
AcDbCircle
 10
-11421.23944305347
 20
3446.693453152742
 30
0.0
 40
3.000000000000682
100
AcDbArc
 50
270.0
 51
0.0
  0
LINE
  5
1ADAD
330
1F
100
AcDbEntity
  8
02製品
  6
Continuous
100
AcDbLine
 10
-11463.23944305347
 20
3443.693453152746
 30
0.0
 11
-11421.23944305347
 21
3443.693453152746
 31
0.0
  0
LINE
  5
1ADAE
330
1F
100
AcDbEntity
  8
02製品
  6
Continuous
100
AcDbLine
 10
-11463.23944305347
 20
3443.693453152746
 30
0.0
 11
-11463.23944305347
 21
3442.493453152745
 31
0.0
  0
LINE
  5
1ADAF
330
1F
100
AcDbEntity
  8
02製品
  6
Continuous
100
AcDbLine
 10
-11463.23944305347
 20
3442.493453152745
 30
0.0
 11
-12494.23944305347
 21
3442.493453152745
 31
0.0
  0
LINE
  5
1ADB0
330
1F
100
AcDbEntity
  8
02製品
  6
Continuous
100
AcDbLine
 10
-12494.23944305347
 20
3443.693453152746
 30
0.0
 11
-12494.23944305347
 21
3442.493453152745
 31
0.0
  0
LINE
  5
1ADB1
330
1F
100
AcDbEntity
  8
02製品
  6
Continuous
100
AcDbLine
 10
-12494.23944305347
 20
3443.693453152746
 30
0.0
 11
-12536.23944305347
 21
3443.693453152746
 31
0.0
  0
ARC
  5
1ADB2
330
1F
100
AcDbEntity
  8
02製品
  6
Continuous
100
AcDbCircle
 10
-12536.23944305347
 20
3446.693453152742
 30
0.0
 40
3.000000000000682
100
AcDbArc
 50
180.0
 51
270.0
  0
LINE
  5
1ADB3
330
1F
100
AcDbEntity
  8
02製品
  6
Continuous
100
AcDbLine
 10
-12539.23944305347
 20
3988.293453152744
 30
0.0
 11
-12539.23944305347
 21
3446.693453152742
 31
0.0
  0
CIRCLE
  5
1ADB4
330
1F
100
AcDbEntity
  8
02製品
  6
Continuous
100
AcDbCircle
 10
-12378.73944305347
 20
3822.493453152745
 30
0.0
 40
30.0
  0
CIRCLE
  5
1ADB5
330
1F
100
AcDbEntity
  8
02製品
  6
Continuous
100
AcDbCircle
 10
-12278.73944305347
 20
3922.493453152745
 30
0.0
 40
30.0
  0
CIRCLE
  5
1ADB6
330
1F
100
AcDbEntity
  8
02製品
  6
Continuous
100
AcDbCircle
 10
-12278.73944305347
 20
3722.493453152745
 30
0.0
 40
30.0
  0
CIRCLE
  5
1ADB7
330
1F
100
AcDbEntity
  8
02製品
  6
Continuous
100
AcDbCircle
 10
-12178.73944305347
 20
3822.493453152745
 30
0.0
 40
30.0
  0
CIRCLE
  5
1ADB8
330
1F
100
AcDbEntity
  8
02製品
  6
Continuous
100
AcDbCircle
 10
-12078.73944305347
 20
3722.493453152745
 30
0.0
 40
30.0
  0
CIRCLE
  5
1ADB9
330
1F
100
AcDbEntity
  8
02製品
  6
Continuous
100
AcDbCircle
 10
-12078.73944305347
 20
3922.493453152745
 30
0.0
 40
30.0
  0
CIRCLE
  5
1ADBA
330
1F
100
AcDbEntity
  8
02製品
  6
Continuous
100
AcDbCircle
 10
-11978.73944305347
 20
3822.493453152745
 30
0.0
 40
30.0
  0
CIRCLE
  5
1ADBB
330
1F
100
AcDbEntity
  8
02製品
  6
Continuous
100
AcDbCircle
 10
-11878.73944305347
 20
3922.493453152745
 30
0.0
 40
30.0
  0
CIRCLE
  5
1ADBC
330
1F
100
AcDbEntity
  8
02製品
  6
Continuous
100
AcDbCircle
 10
-11878.73944305347
 20
3722.493453152745
 30
0.0
 40
30.0
  0
CIRCLE
  5
1ADBD
330
1F
100
AcDbEntity
  8
02製品
  6
Continuous
100
AcDbCircle
 10
-11778.73944305347
 20
3822.493453152745
 30
0.0
 40
30.0
  0
CIRCLE
  5
1ADBE
330
1F
100
AcDbEntity
  8
02製品
  6
Continuous
100
AcDbCircle
 10
-11678.73944305347
 20
3922.493453152745
 30
0.0
 40
30.0
  0
CIRCLE
  5
1ADBF
330
1F
100
AcDbEntity
  8
02製品
  6
Continuous
100
AcDbCircle
 10
-11678.73944305347
 20
3722.493453152745
 30
0.0
 40
30.0
  0
CIRCLE
  5
1ADC0
330
1F
100
AcDbEntity
  8
02製品
  6
Continuous
100
AcDbCircle
 10
-11578.73944305347
 20
3822.493453152745
 30
0.0
 40
29.99999999999886
  0
ARC
  5
1ADC1
330
1F
100
AcDbEntity
  8
02製品
  6
Continuous
100
AcDbCircle
 10
-11435.73944305347
 20
3467.493453152745
 30
0.0
 40
3.600000000000445
100
AcDbArc
 50
256.4637972625461
 51
283.5362027373363
  0
LINE
  5
1ADC2
330
1F
100
AcDbEntity
  8
02製品
  6
Continuous
100
AcDbLine
 10
-11433.23944305347
 20
3463.993453152745
 30
0.0
 11
-11434.89682807615
 21
3463.993453152745
 31
0.0
  0
ARC
  5
1ADC3
330
1F
100
AcDbEntity
  8
02製品
  6
Continuous
100
AcDbCircle
 10
-11433.23944305347
 20
3467.493453152745
 30
0.0
 40
3.500000000000227
100
AcDbArc
 50
270.0
 51
90.0
  0
LINE
  5
1ADC4
330
1F
100
AcDbEntity
  8
02製品
  6
Continuous
100
AcDbLine
 10
-11433.23944305347
 20
3470.993453152741
 30
0.0
 11
-11434.89682807615
 21
3470.993453152741
 31
0.0
  0
ARC
  5
1ADC5
330
1F
100
AcDbEntity
  8
02製品
  6
Continuous
100
AcDbCircle
 10
-11435.73944305347
 20
3467.493453152745
 30
0.0
 40
3.599999999999892
100
AcDbArc
 50
76.46379726266207
 51
103.5362027374573
  0
LINE
  5
1ADC6
330
1F
100
AcDbEntity
  8
02製品
  6
Continuous
100
AcDbLine
 10
-11436.58205803079
 20
3470.993453152741
 30
0.0
 11
-11438.23944305347
 21
3470.993453152741
 31
0.0
  0
ARC
  5
1ADC7
330
1F
100
AcDbEntity
  8
02製品
  6
Continuous
100
AcDbCircle
 10
-11438.23944305347
 20
3467.493453152745
 30
0.0
 40
3.500000000000227
100
AcDbArc
 50
90.0
 51
270.0
  0
LINE
  5
1ADC8
330
1F
100
AcDbEntity
  8
02製品
  6
Continuous
100
AcDbLine
 10
-11436.58205803079
 20
3463.993453152745
 30
0.0
 11
-11438.23944305347
 21
3463.993453152745
 31
0.0
  0
ARC
  5
1ADC9
330
1F
100
AcDbEntity
  8
02製品
  6
Continuous
100
AcDbCircle
 10
-12521.73944305347
 20
3617.493453152745
 30
0.0
 40
3.599999999999892
100
AcDbArc
 50
256.4637972627218
 51
283.5362027374572
  0
LINE
  5
1ADCA
330
1F
100
AcDbEntity
  8
02製品
  6
Continuous
100
AcDbLine
 10
-12519.23944305347
 20
3613.993453152745
 30
0.0
 11
-12520.89682807615
 21
3613.993453152745
 31
0.0
  0
ARC
  5
1ADCB
330
1F
100
AcDbEntity
  8
02製品
  6
Continuous
100
AcDbCircle
 10
-12519.23944305347
 20
3617.493453152745
 30
0.0
 40
3.500000000000227
100
AcDbArc
 50
270.0
 51
90.0
  0
LINE
  5
1ADCC
330
1F
100
AcDbEntity
  8
02製品
  6
Continuous
100
AcDbLine
 10
-12519.23944305347
 20
3620.993453152741
 30
0.0
 11
-12520.89682807615
 21
3620.993453152741
 31
0.0
  0
ARC
  5
1ADCD
330
1F
100
AcDbEntity
  8
02製品
  6
Continuous
100
AcDbCircle
 10
-12521.73944305347
 20
3617.493453152745
 30
0.0
 40
3.600000000000179
100
AcDbArc
 50
76.4637972625444
 51
103.5362027372766
  0
LINE
  5
1ADCE
330
1F
100
AcDbEntity
  8
02製品
  6
Continuous
100
AcDbLine
 10
-12522.58205803078
 20
3620.993453152741
 30
0.0
 11
-12524.23944305347
 21
3620.993453152741
 31
0.0
  0
ARC
  5
1ADCF
330
1F
100
AcDbEntity
  8
02製品
  6
Continuous
100
AcDbCircle
 10
-12524.23944305347
 20
3617.493453152745
 30
0.0
 40
3.500000000000227
100
AcDbArc
 50
90.0
 51
270.0
  0
LINE
  5
1ADD0
330
1F
100
AcDbEntity
  8
02製品
  6
Continuous
100
AcDbLine
 10
-12522.58205803078
 20
3613.993453152745
 30
0.0
 11
-12524.23944305347
 21
3613.993453152745
 31
0.0
  0
LINE
  5
1ADD1
330
1F
100
AcDbEntity
  8
02製品
  6
Continuous
100
AcDbLine
 10
-12522.58205803078
 20
3470.993453152741
 30
0.0
 11
-12524.23944305347
 21
3470.993453152741
 31
0.0
  0
ARC
  5
1ADD2
330
1F
100
AcDbEntity
  8
02製品
  6
Continuous
100
AcDbCircle
 10
-12524.23944305347
 20
3467.493453152745
 30
0.0
 40
3.500000000000796
100
AcDbArc
 50
90.0
 51
270.0
  0
LINE
  5
1ADD3
330
1F
100
AcDbEntity
  8
02製品
  6
Continuous
100
AcDbLine
 10
-12525.23944305347
 20
3967.493453152745
 30
0.0
 11
-12525.23944305347
 21
3965.626702733452
 31
0.0
  0
ARC
  5
1ADD4
330
1F
100
AcDbEntity
  8
02製品
  6
Continuous
100
AcDbCircle
 10
-12521.73944305347
 20
3958.993453152745
 30
0.0
 40
7.500000000000165
100
AcDbArc
 50
117.8181392845912
 51
62.1818607152846
  0
LINE
  5
1ADD5
330
1F
100
AcDbEntity
  8
02製品
  6
Continuous
100
AcDbLine
 10
-12518.23944305347
 20
3965.626702733452
 30
0.0
 11
-12518.23944305347
 21
3967.493453152745
 31
0.0
  0
ARC
  5
1ADD6
330
1F
100
AcDbEntity
  8
02製品
  6
Continuous
100
AcDbCircle
 10
-12521.73944305347
 20
3967.493453152745
 30
0.0
 40
3.500000000000227
100
AcDbArc
 50
0.0
 51
180.0
  0
LINE
  5
1ADD7
330
1F
100
AcDbEntity
  8
02製品
  6
Continuous
100
AcDbLine
 10
-11439.23944305347
 20
3967.493453152745
 30
0.0
 11
-11439.23944305347
 21
3965.626702733452
 31
0.0
  0
ARC
  5
1ADD8
330
1F
100
AcDbEntity
  8
02製品
  6
Continuous
100
AcDbCircle
 10
-11435.73944305347
 20
3958.993453152745
 30
0.0
 40
7.500000000000696
100
AcDbArc
 50
117.8181392847138
 51
62.18186071534834
  0
LINE
  5
1ADD9
330
1F
100
AcDbEntity
  8
02製品
  6
Continuous
100
AcDbLine
 10
-11432.23944305347
 20
3965.626702733452
 30
0.0
 11
-11432.23944305347
 21
3967.493453152745
 31
0.0
  0
ARC
  5
1ADDA
330
1F
100
AcDbEntity
  8
02製品
  6
Continuous
100
AcDbCircle
 10
-11435.73944305347
 20
3967.493453152745
 30
0.0
 40
3.500000000001364
100
AcDbArc
 50
0.0
 51
180.0
  0
ARC
  5
1ADDB
330
1F
100
AcDbEntity
  8
02製品
  6
Continuous
100
AcDbCircle
 10
-11435.73944305347
 20
3617.493453152745
 30
0.0
 40
3.599999999999892
100
AcDbArc
 50
256.4637972625427
 51
283.5362027373379
  0
LINE
  5
1ADDC
330
1F
100
AcDbEntity
  8
02製品
  6
Continuous
100
AcDbLine
 10
-11433.23944305347
 20
3613.993453152745
 30
0.0
 11
-11434.89682807615
 21
3613.993453152745
 31
0.0
  0
ARC
  5
1ADDD
330
1F
100
AcDbEntity
  8
02製品
  6
Continuous
100
AcDbCircle
 10
-11433.23944305347
 20
3617.493453152745
 30
0.0
 40
3.500000000000227
100
AcDbArc
 50
270.0
 51
90.0
  0
LINE
  5
1ADDE
330
1F
100
AcDbEntity
  8
02製品
  6
Continuous
100
AcDbLine
 10
-11433.23944305347
 20
3620.993453152741
 30
0.0
 11
-11434.89682807615
 21
3620.993453152741
 31
0.0
  0
ARC
  5
1ADDF
330
1F
100
AcDbEntity
  8
02製品
  6
Continuous
100
AcDbCircle
 10
-11435.73944305347
 20
3617.493453152745
 30
0.0
 40
3.600000000000445
100
AcDbArc
 50
76.46379726266377
 51
103.5362027374539
  0
LINE
  5
1ADE0
330
1F
100
AcDbEntity
  8
02製品
  6
Continuous
100
AcDbLine
 10
-11436.58205803079
 20
3620.993453152741
 30
0.0
 11
-11438.23944305347
 21
3620.993453152741
 31
0.0
  0
ARC
  5
1ADE1
330
1F
100
AcDbEntity
  8
02製品
  6
Continuous
100
AcDbCircle
 10
-11438.23944305347
 20
3617.493453152745
 30
0.0
 40
3.500000000000227
100
AcDbArc
 50
90.0
 51
270.0
  0
LINE
  5
1ADE2
330
1F
100
AcDbEntity
  8
02製品
  6
Continuous
100
AcDbLine
 10
-11436.58205803079
 20
3613.993453152745
 30
0.0
 11
-11438.23944305347
 21
3613.993453152745
 31
0.0
  0
ARC
  5
1ADE3
330
1F
100
AcDbEntity
  8
02製品
  6
Continuous
100
AcDbCircle
 10
-11435.73944305347
 20
3817.493453152745
 30
0.0
 40
3.600000000000445
100
AcDbArc
 50
256.4637972625461
 51
283.5362027373363
  0
LINE
  5
1ADE4
330
1F
100
AcDbEntity
  8
02製品
  6
Continuous
100
AcDbLine
 10
-11433.23944305347
 20
3813.993453152745
 30
0.0
 11
-11434.89682807615
 21
3813.993453152745
 31
0.0
  0
ARC
  5
1ADE5
330
1F
100
AcDbEntity
  8
02製品
  6
Continuous
100
AcDbCircle
 10
-11433.23944305347
 20
3817.493453152745
 30
0.0
 40
3.500000000000227
100
AcDbArc
 50
270.0
 51
90.0
  0
LINE
  5
1ADE6
330
1F
100
AcDbEntity
  8
02製品
  6
Continuous
100
AcDbLine
 10
-11433.23944305347
 20
3820.993453152745
 30
0.0
 11
-11434.89682807615
 21
3820.993453152745
 31
0.0
  0
ARC
  5
1ADE7
330
1F
100
AcDbEntity
  8
02製品
  6
Continuous
100
AcDbCircle
 10
-11435.73944305347
 20
3817.493453152745
 30
0.0
 40
3.600000000000445
100
AcDbArc
 50
76.46379726266377
 51
103.5362027374539
  0
LINE
  5
1ADE8
330
1F
100
AcDbEntity
  8
02製品
  6
Continuous
100
AcDbLine
 10
-11436.58205803079
 20
3820.993453152745
 30
0.0
 11
-11438.23944305347
 21
3820.993453152745
 31
0.0
  0
ARC
  5
1ADE9
330
1F
100
AcDbEntity
  8
02製品
  6
Continuous
100
AcDbCircle
 10
-11438.23944305347
 20
3817.493453152745
 30
0.0
 40
3.500000000000227
100
AcDbArc
 50
90.0
 51
270.0
  0
LINE
  5
1ADEA
330
1F
100
AcDbEntity
  8
02製品
  6
Continuous
100
AcDbLine
 10
-11436.58205803079
 20
3813.993453152745
 30
0.0
 11
-11438.23944305347
 21
3813.993453152745
 31
0.0
  0
ARC
  5
1ADEB
330
1F
100
AcDbEntity
  8
02製品
  6
Continuous
100
AcDbCircle
 10
-12521.73944305347
 20
3817.493453152745
 30
0.0
 40
3.600000000000445
100
AcDbArc
 50
256.4637972627235
 51
283.5362027374538
  0
ARC
  5
1ADEC
330
1F
100
AcDbEntity
  8
02製品
  6
Continuous
100
AcDbCircle
 10
-9183.739443053466
 20
3617.49345315272
 30
0.0
 40
3.599999999999759
100
AcDbArc
 50
256.4637972625427
 51
283.5362027373379
  0
LINE
  5
1ADED
330
1F
100
AcDbEntity
  8
02製品
  6
Continuous
100
AcDbLine
 10
-9181.239443053466
 20
3613.993453152723
 30
0.0
 11
-9182.896828076151
 21
3613.993453152723
 31
0.0
  0
ARC
  5
1ADEE
330
1F
100
AcDbEntity
  8
02製品
  6
Continuous
100
AcDbCircle
 10
-9181.239443053466
 20
3617.49345315272
 30
0.0
 40
3.500000000000227
100
AcDbArc
 50
270.0
 51
90.0
  0
LINE
  5
1ADEF
330
1F
100
AcDbEntity
  8
02製品
  6
Continuous
100
AcDbLine
 10
-9181.239443053466
 20
3620.993453152723
 30
0.0
 11
-9182.896828076151
 21
3620.993453152723
 31
0.0
  0
ARC
  5
1ADF0
330
1F
100
AcDbEntity
  8
02製品
  6
Continuous
100
AcDbCircle
 10
-9183.739443053466
 20
3617.49345315272
 30
0.0
 40
3.600000000000311
100
AcDbArc
 50
76.46379726266377
 51
103.5362027374556
  0
LINE
  5
1ADF1
330
1F
100
AcDbEntity
  8
02製品
  6
Continuous
100
AcDbLine
 10
-9184.582058030788
 20
3620.993453152723
 30
0.0
 11
-9186.239443053466
 21
3620.993453152723
 31
0.0
  0
ARC
  5
1ADF2
330
1F
100
AcDbEntity
  8
02製品
  6
Continuous
100
AcDbCircle
 10
-9186.239443053466
 20
3617.49345315272
 30
0.0
 40
3.500000000000227
100
AcDbArc
 50
90.0
 51
270.0
  0
LINE
  5
1ADF3
330
1F
100
AcDbEntity
  8
02製品
  6
Continuous
100
AcDbLine
 10
-9184.582058030788
 20
3613.993453152723
 30
0.0
 11
-9186.239443053466
 21
3613.993453152723
 31
0.0
  0
ARC
  5
1ADF4
330
1F
100
AcDbEntity
  8
02製品
  6
Continuous
100
AcDbCircle
 10
-10269.73944305347
 20
3817.49345315272
 30
0.0
 40
3.600000000000179
100
AcDbArc
 50
256.4637972625444
 51
283.5362027373363
  0
LINE
  5
1ADF5
330
1F
100
AcDbEntity
  8
02製品
  6
Continuous
100
AcDbLine
 10
-10267.23944305347
 20
3813.993453152723
 30
0.0
 11
-10268.89682807615
 21
3813.993453152723
 31
0.0
  0
ARC
  5
1ADF6
330
1F
100
AcDbEntity
  8
02製品
  6
Continuous
100
AcDbCircle
 10
-10267.23944305347
 20
3817.49345315272
 30
0.0
 40
3.500000000000227
100
AcDbArc
 50
270.0
 51
90.0
  0
LINE
  5
1ADF7
330
1F
100
AcDbEntity
  8
02製品
  6
Continuous
100
AcDbLine
 10
-10267.23944305347
 20
3820.993453152723
 30
0.0
 11
-10268.89682807615
 21
3820.993453152723
 31
0.0
  0
ARC
  5
1ADF8
330
1F
100
AcDbEntity
  8
02製品
  6
Continuous
100
AcDbCircle
 10
-10269.73944305347
 20
3817.49345315272
 30
0.0
 40
3.600000000000179
100
AcDbArc
 50
76.46379726266377
 51
103.5362027374556
  0
LINE
  5
1ADF9
330
1F
100
AcDbEntity
  8
02製品
  6
Continuous
100
AcDbLine
 10
-10270.58205803079
 20
3820.993453152723
 30
0.0
 11
-10272.23944305347
 21
3820.993453152723
 31
0.0
  0
ARC
  5
1ADFA
330
1F
100
AcDbEntity
  8
02製品
  6
Continuous
100
AcDbCircle
 10
-10272.23944305347
 20
3817.49345315272
 30
0.0
 40
3.500000000000227
100
AcDbArc
 50
90.0
 51
270.0
  0
LINE
  5
1ADFB
330
1F
100
AcDbEntity
  8
02製品
  6
Continuous
100
AcDbLine
 10
-10270.58205803079
 20
3813.993453152723
 30
0.0
 11
-10272.23944305347
 21
3813.993453152723
 31
0.0
  0
ARC
  5
1ADFC
330
1F
100
AcDbEntity
  8
02製品
  6
Continuous
100
AcDbCircle
 10
-10269.73944305347
 20
3467.49345315272
 30
0.0
 40
3.600000000000731
100
AcDbArc
 50
256.4637972625461
 51
283.5362027373345
  0
LINE
  5
1ADFD
330
1F
100
AcDbEntity
  8
02製品
  6
Continuous
100
AcDbLine
 10
-10267.23944305347
 20
3463.993453152723
 30
0.0
 11
-10268.89682807615
 21
3463.993453152723
 31
0.0
  0
ARC
  5
1ADFE
330
1F
100
AcDbEntity
  8
02製品
  6
Continuous
100
AcDbCircle
 10
-10267.23944305347
 20
3467.49345315272
 30
0.0
 40
3.500000000000796
100
AcDbArc
 50
270.0
 51
90.0
  0
LINE
  5
1ADFF
330
1F
100
AcDbEntity
  8
02製品
  6
Continuous
100
AcDbLine
 10
-10267.23944305347
 20
3470.993453152723
 30
0.0
 11
-10268.89682807615
 21
3470.993453152723
 31
0.0
  0
ARC
  5
1AE00
330
1F
100
AcDbEntity
  8
02製品
  6
Continuous
100
AcDbCircle
 10
-10269.73944305347
 20
3467.49345315272
 30
0.0
 40
3.599999999999626
100
AcDbArc
 50
76.46379726266207
 51
103.5362027374573
  0
LINE
  5
1AE01
330
1F
100
AcDbEntity
  8
02製品
  6
Continuous
100
AcDbLine
 10
-10270.58205803079
 20
3470.993453152723
 30
0.0
 11
-10272.23944305347
 21
3470.993453152723
 31
0.0
  0
ARC
  5
1AE02
330
1F
100
AcDbEntity
  8
02製品
  6
Continuous
100
AcDbCircle
 10
-10272.23944305347
 20
3467.49345315272
 30
0.0
 40
3.500000000000796
100
AcDbArc
 50
90.0
 51
270.0
  0
LINE
  5
1AE03
330
1F
100
AcDbEntity
  8
02製品
  6
Continuous
100
AcDbLine
 10
-10270.58205803079
 20
3463.993453152723
 30
0.0
 11
-10272.23944305347
 21
3463.993453152723
 31
0.0
  0
ARC
  5
1AE04
330
1F
100
AcDbEntity
  8
02製品
  6
Continuous
100
AcDbCircle
 10
-10284.23944305347
 20
3988.293453152723
 30
0.0
 40
3.000000000001819
100
AcDbArc
 50
90.0
 51
180.0
  0
LINE
  5
1AE05
330
1F
100
AcDbEntity
  8
02製品
  6
Continuous
100
AcDbLine
 10
-10242.23944305347
 20
3991.293453152723
 30
0.0
 11
-10284.23944305347
 21
3991.293453152723
 31
0.0
  0
LINE
  5
1AE06
330
1F
100
AcDbEntity
  8
02製品
  6
Continuous
100
AcDbLine
 10
-10242.23944305347
 20
3992.49345315272
 30
0.0
 11
-10242.23944305347
 21
3991.293453152723
 31
0.0
  0
LINE
  5
1AE07
330
1F
100
AcDbEntity
  8
02製品
  6
Continuous
100
AcDbLine
 10
-9211.239443053466
 20
3992.49345315272
 30
0.0
 11
-10242.23944305347
 21
3992.49345315272
 31
0.0
  0
LINE
  5
1AE08
330
1F
100
AcDbEntity
  8
02製品
  6
Continuous
100
AcDbLine
 10
-9211.239443053466
 20
3992.49345315272
 30
0.0
 11
-9211.239443053466
 21
3991.293453152723
 31
0.0
  0
LINE
  5
1AE09
330
1F
100
AcDbEntity
  8
02製品
  6
Continuous
100
AcDbLine
 10
-9211.239443053466
 20
3991.293453152723
 30
0.0
 11
-9169.239443053473
 21
3991.293453152723
 31
0.0
  0
ARC
  5
1AE0A
330
1F
100
AcDbEntity
  8
02製品
  6
Continuous
100
AcDbCircle
 10
-9169.239443053473
 20
3988.293453152723
 30
0.0
 40
2.999999999999545
100
AcDbArc
 50
0.0
 51
90.0
  0
LINE
  5
1AE0B
330
1F
100
AcDbEntity
  8
02製品
  6
Continuous
100
AcDbLine
 10
-9166.239443053466
 20
3988.293453152723
 30
0.0
 11
-9166.239443053466
 21
3446.69345315272
 31
0.0
  0
ARC
  5
1AE0C
330
1F
100
AcDbEntity
  8
02製品
  6
Continuous
100
AcDbCircle
 10
-9169.239443053473
 20
3446.69345315272
 30
0.0
 40
2.999999999999545
100
AcDbArc
 50
270.0
 51
0.0
  0
LINE
  5
1AE0D
330
1F
100
AcDbEntity
  8
02製品
  6
Continuous
100
AcDbLine
 10
-9211.239443053466
 20
3443.69345315272
 30
0.0
 11
-9169.239443053473
 21
3443.69345315272
 31
0.0
  0
LINE
  5
1AE0E
330
1F
100
AcDbEntity
  8
02製品
  6
Continuous
100
AcDbLine
 10
-9211.239443053466
 20
3443.69345315272
 30
0.0
 11
-9211.239443053466
 21
3442.49345315272
 31
0.0
  0
LINE
  5
1AE0F
330
1F
100
AcDbEntity
  8
02製品
  6
Continuous
100
AcDbLine
 10
-9211.239443053466
 20
3442.49345315272
 30
0.0
 11
-10242.23944305347
 21
3442.49345315272
 31
0.0
  0
LINE
  5
1AE10
330
1F
100
AcDbEntity
  8
02製品
  6
Continuous
100
AcDbLine
 10
-10242.23944305347
 20
3443.69345315272
 30
0.0
 11
-10242.23944305347
 21
3442.49345315272
 31
0.0
  0
LINE
  5
1AE11
330
1F
100
AcDbEntity
  8
02製品
  6
Continuous
100
AcDbLine
 10
-10242.23944305347
 20
3443.69345315272
 30
0.0
 11
-10284.23944305347
 21
3443.69345315272
 31
0.0
  0
ARC
  5
1AE12
330
1F
100
AcDbEntity
  8
02製品
  6
Continuous
100
AcDbCircle
 10
-10284.23944305347
 20
3446.69345315272
 30
0.0
 40
3.000000000001819
100
AcDbArc
 50
180.0
 51
270.0
  0
LINE
  5
1AE13
330
1F
100
AcDbEntity
  8
02製品
  6
Continuous
100
AcDbLine
 10
-10287.23944305347
 20
3988.293453152723
 30
0.0
 11
-10287.23944305347
 21
3446.69345315272
 31
0.0
  0
CIRCLE
  5
1AE14
330
1F
100
AcDbEntity
  8
02製品
  6
Continuous
100
AcDbCircle
 10
-10126.73944305347
 20
3822.49345315272
 30
0.0
 40
30.0
  0
CIRCLE
  5
1AE15
330
1F
100
AcDbEntity
  8
02製品
  6
Continuous
100
AcDbCircle
 10
-10026.73944305347
 20
3922.49345315272
 30
0.0
 40
30.0
  0
CIRCLE
  5
1AE16
330
1F
100
AcDbEntity
  8
02製品
  6
Continuous
100
AcDbCircle
 10
-10026.73944305347
 20
3722.49345315272
 30
0.0
 40
30.0
  0
CIRCLE
  5
1AE17
330
1F
100
AcDbEntity
  8
02製品
  6
Continuous
100
AcDbCircle
 10
-9926.739443053473
 20
3822.49345315272
 30
0.0
 40
30.0
  0
CIRCLE
  5
1AE18
330
1F
100
AcDbEntity
  8
02製品
  6
Continuous
100
AcDbCircle
 10
-9826.739443053473
 20
3722.49345315272
 30
0.0
 40
30.0
  0
CIRCLE
  5
1AE19
330
1F
100
AcDbEntity
  8
02製品
  6
Continuous
100
AcDbCircle
 10
-9826.739443053473
 20
3922.49345315272
 30
0.0
 40
30.0
  0
CIRCLE
  5
1AE1A
330
1F
100
AcDbEntity
  8
02製品
  6
Continuous
100
AcDbCircle
 10
-9726.739443053473
 20
3822.49345315272
 30
0.0
 40
30.00000000000057
  0
CIRCLE
  5
1AE1B
330
1F
100
AcDbEntity
  8
02製品
  6
Continuous
100
AcDbCircle
 10
-9626.739443053473
 20
3922.49345315272
 30
0.0
 40
30.00000000000057
  0
CIRCLE
  5
1AE1C
330
1F
100
AcDbEntity
  8
02製品
  6
Continuous
100
AcDbCircle
 10
-9626.739443053473
 20
3722.49345315272
 30
0.0
 40
30.00000000000057
  0
CIRCLE
  5
1AE1D
330
1F
100
AcDbEntity
  8
02製品
  6
Continuous
100
AcDbCircle
 10
-9526.739443053473
 20
3822.49345315272
 30
0.0
 40
29.99999999999943
  0
CIRCLE
  5
1AE1E
330
1F
100
AcDbEntity
  8
02製品
  6
Continuous
100
AcDbCircle
 10
-9426.739443053473
 20
3922.49345315272
 30
0.0
 40
30.0
  0
CIRCLE
  5
1AE1F
330
1F
100
AcDbEntity
  8
02製品
  6
Continuous
100
AcDbCircle
 10
-9426.739443053473
 20
3722.49345315272
 30
0.0
 40
30.0
  0
CIRCLE
  5
1AE20
330
1F
100
AcDbEntity
  8
02製品
  6
Continuous
100
AcDbCircle
 10
-9326.739443053473
 20
3822.49345315272
 30
0.0
 40
30.00000000000057
  0
ARC
  5
1AE21
330
1F
100
AcDbEntity
  8
02製品
  6
Continuous
100
AcDbCircle
 10
-9183.739443053466
 20
3467.49345315272
 30
0.0
 40
3.600000000000311
100
AcDbArc
 50
256.4637972625444
 51
283.5362027373363
  0
LINE
  5
1AE22
330
1F
100
AcDbEntity
  8
02製品
  6
Continuous
100
AcDbLine
 10
-9181.239443053466
 20
3463.993453152723
 30
0.0
 11
-9182.896828076151
 21
3463.993453152723
 31
0.0
  0
ARC
  5
1AE23
330
1F
100
AcDbEntity
  8
02製品
  6
Continuous
100
AcDbCircle
 10
-9181.239443053466
 20
3467.49345315272
 30
0.0
 40
3.500000000000227
100
AcDbArc
 50
270.0
 51
90.0
  0
LINE
  5
1AE24
330
1F
100
AcDbEntity
  8
02製品
  6
Continuous
100
AcDbLine
 10
-9181.239443053466
 20
3470.993453152723
 30
0.0
 11
-9182.896828076151
 21
3470.993453152723
 31
0.0
  0
ARC
  5
1AE25
330
1F
100
AcDbEntity
  8
02製品
  6
Continuous
100
AcDbCircle
 10
-9183.739443053466
 20
3467.49345315272
 30
0.0
 40
3.599999999999759
100
AcDbArc
 50
76.46379726266207
 51
103.5362027374573
  0
LINE
  5
1AE26
330
1F
100
AcDbEntity
  8
02製品
  6
Continuous
100
AcDbLine
 10
-9184.582058030788
 20
3470.993453152723
 30
0.0
 11
-9186.239443053466
 21
3470.993453152723
 31
0.0
  0
ARC
  5
1AE27
330
1F
100
AcDbEntity
  8
02製品
  6
Continuous
100
AcDbCircle
 10
-9186.239443053466
 20
3467.49345315272
 30
0.0
 40
3.500000000000227
100
AcDbArc
 50
90.0
 51
270.0
  0
LINE
  5
1AE28
330
1F
100
AcDbEntity
  8
02製品
  6
Continuous
100
AcDbLine
 10
-9184.582058030788
 20
3463.993453152723
 30
0.0
 11
-9186.239443053466
 21
3463.993453152723
 31
0.0
  0
ARC
  5
1AE29
330
1F
100
AcDbEntity
  8
02製品
  6
Continuous
100
AcDbCircle
 10
-10269.73944305347
 20
3617.49345315272
 30
0.0
 40
3.599999999999892
100
AcDbArc
 50
256.4637972625427
 51
283.5362027373379
  0
LINE
  5
1AE2A
330
1F
100
AcDbEntity
  8
02製品
  6
Continuous
100
AcDbLine
 10
-10267.23944305347
 20
3613.993453152723
 30
0.0
 11
-10268.89682807615
 21
3613.993453152723
 31
0.0
  0
ARC
  5
1AE2B
330
1F
100
AcDbEntity
  8
02製品
  6
Continuous
100
AcDbCircle
 10
-10267.23944305347
 20
3617.49345315272
 30
0.0
 40
3.500000000000227
100
AcDbArc
 50
270.0
 51
90.0
  0
LINE
  5
1AE2C
330
1F
100
AcDbEntity
  8
02製品
  6
Continuous
100
AcDbLine
 10
-10267.23944305347
 20
3620.993453152723
 30
0.0
 11
-10268.89682807615
 21
3620.993453152723
 31
0.0
  0
ARC
  5
1AE2D
330
1F
100
AcDbEntity
  8
02製品
  6
Continuous
100
AcDbCircle
 10
-10269.73944305347
 20
3617.49345315272
 30
0.0
 40
3.600000000000179
100
AcDbArc
 50
76.46379726266377
 51
103.5362027374556
  0
LINE
  5
1AE2E
330
1F
100
AcDbEntity
  8
02製品
  6
Continuous
100
AcDbLine
 10
-10270.58205803079
 20
3620.993453152723
 30
0.0
 11
-10272.23944305347
 21
3620.993453152723
 31
0.0
  0
ARC
  5
1AE2F
330
1F
100
AcDbEntity
  8
02製品
  6
Continuous
100
AcDbCircle
 10
-10272.23944305347
 20
3617.49345315272
 30
0.0
 40
3.500000000000227
100
AcDbArc
 50
90.0
 51
270.0
  0
LINE
  5
1AE30
330
1F
100
AcDbEntity
  8
02製品
  6
Continuous
100
AcDbLine
 10
-10270.58205803079
 20
3613.993453152723
 30
0.0
 11
-10272.23944305347
 21
3613.993453152723
 31
0.0
  0
ARC
  5
1AE31
330
1F
100
AcDbEntity
  8
02製品
  6
Continuous
100
AcDbCircle
 10
-9183.739443053466
 20
3817.49345315272
 30
0.0
 40
3.600000000000311
100
AcDbArc
 50
256.4637972625444
 51
283.5362027373363
  0
LINE
  5
1AE32
330
1F
100
AcDbEntity
  8
02製品
  6
Continuous
100
AcDbLine
 10
-9181.239443053466
 20
3813.993453152723
 30
0.0
 11
-9182.896828076151
 21
3813.993453152723
 31
0.0
  0
ARC
  5
1AE33
330
1F
100
AcDbEntity
  8
02製品
  6
Continuous
100
AcDbCircle
 10
-9181.239443053466
 20
3817.49345315272
 30
0.0
 40
3.500000000000227
100
AcDbArc
 50
270.0
 51
90.0
  0
LINE
  5
1AE34
330
1F
100
AcDbEntity
  8
02製品
  6
Continuous
100
AcDbLine
 10
-9181.239443053466
 20
3820.993453152723
 30
0.0
 11
-9182.896828076151
 21
3820.993453152723
 31
0.0
  0
ARC
  5
1AE35
330
1F
100
AcDbEntity
  8
02製品
  6
Continuous
100
AcDbCircle
 10
-9183.739443053466
 20
3817.49345315272
 30
0.0
 40
3.600000000000311
100
AcDbArc
 50
76.46379726266377
 51
103.5362027374556
  0
LINE
  5
1AE36
330
1F
100
AcDbEntity
  8
02製品
  6
Continuous
100
AcDbLine
 10
-9184.582058030788
 20
3820.993453152723
 30
0.0
 11
-9186.239443053466
 21
3820.993453152723
 31
0.0
  0
ARC
  5
1AE37
330
1F
100
AcDbEntity
  8
02製品
  6
Continuous
100
AcDbCircle
 10
-9186.239443053466
 20
3817.49345315272
 30
0.0
 40
3.500000000000227
100
AcDbArc
 50
90.0
 51
270.0
  0
LINE
  5
1AE38
330
1F
100
AcDbEntity
  8
02製品
  6
Continuous
100
AcDbLine
 10
-9184.582058030788
 20
3813.993453152723
 30
0.0
 11
-9186.239443053466
 21
3813.993453152723
 31
0.0
  0
ARC
  5
1AE39
330
1F
100
AcDbEntity
  8
02製品
  6
Continuous
100
AcDbCircle
 10
-9183.739443053466
 20
3958.993453152723
 30
0.0
 40
7.500000000000431
100
AcDbArc
 50
117.8181392846517
 51
62.18186071537941
  0
LINE
  5
1AE3A
330
1F
100
AcDbEntity
  8
02製品
  6
Continuous
100
AcDbLine
 10
-9180.239443053473
 20
3965.626702733434
 30
0.0
 11
-9180.239443053473
 21
3967.49345315272
 31
0.0
  0
ARC
  5
1AE3B
330
1F
100
AcDbEntity
  8
02製品
  6
Continuous
100
AcDbCircle
 10
-9183.739443053466
 20
3967.49345315272
 30
0.0
 40
3.500000000000796
100
AcDbArc
 50
0.0
 51
180.0
  0
LINE
  5
1AE3C
330
1F
100
AcDbEntity
  8
02製品
  6
Continuous
100
AcDbLine
 10
-9187.239443053466
 20
3967.49345315272
 30
0.0
 11
-9187.239443053466
 21
3965.626702733434
 31
0.0
  0
ARC
  5
1AE3D
330
1F
100
AcDbEntity
  8
02製品
  6
Continuous
100
AcDbCircle
 10
-10269.73944305347
 20
3958.993453152723
 30
0.0
 40
7.500000000000696
100
AcDbArc
 50
117.8181392847138
 51
62.18186071534834
  0
LINE
  5
1AE3E
330
1F
100
AcDbEntity
  8
02製品
  6
Continuous
100
AcDbLine
 10
-10266.23944305347
 20
3965.626702733434
 30
0.0
 11
-10266.23944305347
 21
3967.49345315272
 31
0.0
  0
ARC
  5
1AE3F
330
1F
100
AcDbEntity
  8
02製品
  6
Continuous
100
AcDbCircle
 10
-10269.73944305347
 20
3967.49345315272
 30
0.0
 40
3.500000000001364
100
AcDbArc
 50
0.0
 51
180.0
  0
LINE
  5
1AE40
330
1F
100
AcDbEntity
  8
02製品
  6
Continuous
100
AcDbLine
 10
-10273.23944305347
 20
3967.49345315272
 30
0.0
 11
-10273.23944305347
 21
3965.626702733434
 31
0.0
  0
ARC
  5
1AE41
330
1F
100
AcDbEntity
  8
02製品
  6
Continuous
100
AcDbCircle
 10
-10309.73944305347
 20
3617.493453152745
 30
0.0
 40
3.600000000000179
100
AcDbArc
 50
256.4637972625444
 51
283.5362027373363
  0
LINE
  5
1AE42
330
1F
100
AcDbEntity
  8
02製品
  6
Continuous
100
AcDbLine
 10
-10307.23944305347
 20
3613.993453152741
 30
0.0
 11
-10308.89682807615
 21
3613.993453152741
 31
0.0
  0
ARC
  5
1AE43
330
1F
100
AcDbEntity
  8
02製品
  6
Continuous
100
AcDbCircle
 10
-10307.23944305347
 20
3617.493453152745
 30
0.0
 40
3.500000000000227
100
AcDbArc
 50
270.0
 51
90.0
  0
LINE
  5
1AE44
330
1F
100
AcDbEntity
  8
02製品
  6
Continuous
100
AcDbLine
 10
-10307.23944305347
 20
3620.993453152741
 30
0.0
 11
-10308.89682807615
 21
3620.993453152741
 31
0.0
  0
ARC
  5
1AE45
330
1F
100
AcDbEntity
  8
02製品
  6
Continuous
100
AcDbCircle
 10
-10309.73944305347
 20
3617.493453152745
 30
0.0
 40
3.599999999999626
100
AcDbArc
 50
76.46379726266207
 51
103.5362027374573
  0
LINE
  5
1AE46
330
1F
100
AcDbEntity
  8
02製品
  6
Continuous
100
AcDbLine
 10
-10310.58205803079
 20
3620.993453152741
 30
0.0
 11
-10312.23944305347
 21
3620.993453152741
 31
0.0
  0
ARC
  5
1AE47
330
1F
100
AcDbEntity
  8
02製品
  6
Continuous
100
AcDbCircle
 10
-10312.23944305347
 20
3617.493453152745
 30
0.0
 40
3.500000000000227
100
AcDbArc
 50
90.0
 51
270.0
  0
LINE
  5
1AE48
330
1F
100
AcDbEntity
  8
02製品
  6
Continuous
100
AcDbLine
 10
-10310.58205803079
 20
3613.993453152741
 30
0.0
 11
-10312.23944305347
 21
3613.993453152741
 31
0.0
  0
ARC
  5
1AE49
330
1F
100
AcDbEntity
  8
02製品
  6
Continuous
100
AcDbCircle
 10
-11395.73944305347
 20
3817.493453152741
 30
0.0
 40
3.600000000000445
100
AcDbArc
 50
256.4637972625461
 51
283.5362027373363
  0
LINE
  5
1AE4A
330
1F
100
AcDbEntity
  8
02製品
  6
Continuous
100
AcDbLine
 10
-11393.23944305347
 20
3813.993453152741
 30
0.0
 11
-11394.89682807615
 21
3813.993453152741
 31
0.0
  0
ARC
  5
1AE4B
330
1F
100
AcDbEntity
  8
02製品
  6
Continuous
100
AcDbCircle
 10
-11393.23944305347
 20
3817.493453152741
 30
0.0
 40
3.500000000000227
100
AcDbArc
 50
270.0
 51
90.0
  0
LINE
  5
1AE4C
330
1F
100
AcDbEntity
  8
02製品
  6
Continuous
100
AcDbLine
 10
-11393.23944305347
 20
3820.993453152741
 30
0.0
 11
-11394.89682807615
 21
3820.993453152741
 31
0.0
  0
ARC
  5
1AE4D
330
1F
100
AcDbEntity
  8
02製品
  6
Continuous
100
AcDbCircle
 10
-11395.73944305347
 20
3817.493453152741
 30
0.0
 40
3.600000000000445
100
AcDbArc
 50
76.46379726266377
 51
103.5362027374539
  0
LINE
  5
1AE4E
330
1F
100
AcDbEntity
  8
02製品
  6
Continuous
100
AcDbLine
 10
-11396.58205803079
 20
3820.993453152741
 30
0.0
 11
-11398.23944305347
 21
3820.993453152741
 31
0.0
  0
ARC
  5
1AE4F
330
1F
100
AcDbEntity
  8
02製品
  6
Continuous
100
AcDbCircle
 10
-11398.23944305347
 20
3817.493453152741
 30
0.0
 40
3.500000000000227
100
AcDbArc
 50
90.0
 51
270.0
  0
LINE
  5
1AE50
330
1F
100
AcDbEntity
  8
02製品
  6
Continuous
100
AcDbLine
 10
-11396.58205803079
 20
3813.993453152741
 30
0.0
 11
-11398.23944305347
 21
3813.993453152741
 31
0.0
  0
ARC
  5
1AE51
330
1F
100
AcDbEntity
  8
02製品
  6
Continuous
100
AcDbCircle
 10
-11395.73944305347
 20
3467.493453152741
 30
0.0
 40
3.600000000000445
100
AcDbArc
 50
256.4637972625461
 51
283.5362027373363
  0
LINE
  5
1AE52
330
1F
100
AcDbEntity
  8
02製品
  6
Continuous
100
AcDbLine
 10
-11393.23944305347
 20
3463.993453152741
 30
0.0
 11
-11394.89682807615
 21
3463.993453152741
 31
0.0
  0
ARC
  5
1AE53
330
1F
100
AcDbEntity
  8
02製品
  6
Continuous
100
AcDbCircle
 10
-11393.23944305347
 20
3467.493453152741
 30
0.0
 40
3.500000000000227
100
AcDbArc
 50
270.0
 51
90.0
  0
LINE
  5
1AE54
330
1F
100
AcDbEntity
  8
02製品
  6
Continuous
100
AcDbLine
 10
-11396.58205803079
 20
3470.993453152741
 30
0.0
 11
-11398.23944305347
 21
3470.993453152741
 31
0.0
  0
ARC
  5
1AE55
330
1F
100
AcDbEntity
  8
02製品
  6
Continuous
100
AcDbCircle
 10
-11398.23944305347
 20
3467.493453152741
 30
0.0
 40
3.500000000000227
100
AcDbArc
 50
90.0
 51
270.0
  0
LINE
  5
1AE56
330
1F
100
AcDbEntity
  8
02製品
  6
Continuous
100
AcDbLine
 10
-11396.58205803079
 20
3463.993453152741
 30
0.0
 11
-11398.23944305347
 21
3463.993453152741
 31
0.0
  0
ARC
  5
1AE57
330
1F
100
AcDbEntity
  8
02製品
  6
Continuous
100
AcDbCircle
 10
-11410.23944305347
 20
3988.293453152741
 30
0.0
 40
2.999999999999545
100
AcDbArc
 50
90.0
 51
180.0
  0
LINE
  5
1AE58
330
1F
100
AcDbEntity
  8
02製品
  6
Continuous
100
AcDbLine
 10
-11368.23944305347
 20
3991.293453152741
 30
0.0
 11
-11410.23944305347
 21
3991.293453152741
 31
0.0
  0
LINE
  5
1AE59
330
1F
100
AcDbEntity
  8
02製品
  6
Continuous
100
AcDbLine
 10
-11368.23944305347
 20
3992.493453152741
 30
0.0
 11
-11368.23944305347
 21
3991.293453152741
 31
0.0
  0
LINE
  5
1AE5A
330
1F
100
AcDbEntity
  8
02製品
  6
Continuous
100
AcDbLine
 10
-10337.23944305347
 20
3992.493453152741
 30
0.0
 11
-11368.23944305347
 21
3992.493453152741
 31
0.0
  0
LINE
  5
1AE5B
330
1F
100
AcDbEntity
  8
02製品
  6
Continuous
100
AcDbLine
 10
-10337.23944305347
 20
3992.493453152741
 30
0.0
 11
-10337.23944305347
 21
3991.293453152741
 31
0.0
  0
LINE
  5
1AE5C
330
1F
100
AcDbEntity
  8
02製品
  6
Continuous
100
AcDbLine
 10
-10337.23944305347
 20
3991.293453152741
 30
0.0
 11
-10295.23944305347
 21
3991.293453152741
 31
0.0
  0
ARC
  5
1AE5D
330
1F
100
AcDbEntity
  8
02製品
  6
Continuous
100
AcDbCircle
 10
-10295.23944305347
 20
3988.293453152741
 30
0.0
 40
2.999999999999545
100
AcDbArc
 50
0.0
 51
90.0
  0
LINE
  5
1AE5E
330
1F
100
AcDbEntity
  8
02製品
  6
Continuous
100
AcDbLine
 10
-10292.23944305347
 20
3988.293453152741
 30
0.0
 11
-10292.23944305347
 21
3446.693453152742
 31
0.0
  0
ARC
  5
1AE5F
330
1F
100
AcDbEntity
  8
02製品
  6
Continuous
100
AcDbCircle
 10
-10295.23944305347
 20
3446.693453152742
 30
0.0
 40
3.000000000000682
100
AcDbArc
 50
270.0
 51
0.0
  0
LINE
  5
1AE60
330
1F
100
AcDbEntity
  8
02製品
  6
Continuous
100
AcDbLine
 10
-10337.23944305347
 20
3443.693453152742
 30
0.0
 11
-10295.23944305347
 21
3443.693453152742
 31
0.0
  0
LINE
  5
1AE61
330
1F
100
AcDbEntity
  8
02製品
  6
Continuous
100
AcDbLine
 10
-10337.23944305347
 20
3443.693453152742
 30
0.0
 11
-10337.23944305347
 21
3442.493453152741
 31
0.0
  0
LINE
  5
1AE62
330
1F
100
AcDbEntity
  8
02製品
  6
Continuous
100
AcDbLine
 10
-10337.23944305347
 20
3442.493453152741
 30
0.0
 11
-11368.23944305347
 21
3442.493453152741
 31
0.0
  0
LINE
  5
1AE63
330
1F
100
AcDbEntity
  8
02製品
  6
Continuous
100
AcDbLine
 10
-11368.23944305347
 20
3443.693453152742
 30
0.0
 11
-11368.23944305347
 21
3442.493453152741
 31
0.0
  0
LINE
  5
1AE64
330
1F
100
AcDbEntity
  8
02製品
  6
Continuous
100
AcDbLine
 10
-11368.23944305347
 20
3443.693453152742
 30
0.0
 11
-11410.23944305347
 21
3443.693453152742
 31
0.0
  0
ARC
  5
1AE65
330
1F
100
AcDbEntity
  8
02製品
  6
Continuous
100
AcDbCircle
 10
-11410.23944305347
 20
3446.693453152742
 30
0.0
 40
3.000000000000682
100
AcDbArc
 50
180.0
 51
270.0
  0
LINE
  5
1AE66
330
1F
100
AcDbEntity
  8
02製品
  6
Continuous
100
AcDbLine
 10
-11413.23944305347
 20
3988.293453152741
 30
0.0
 11
-11413.23944305347
 21
3446.693453152742
 31
0.0
  0
CIRCLE
  5
1AE67
330
1F
100
AcDbEntity
  8
02製品
  6
Continuous
100
AcDbCircle
 10
-11252.73944305347
 20
3822.493453152741
 30
0.0
 40
30.0
  0
CIRCLE
  5
1AE68
330
1F
100
AcDbEntity
  8
02製品
  6
Continuous
100
AcDbCircle
 10
-11152.73944305347
 20
3922.493453152741
 30
0.0
 40
30.0
  0
CIRCLE
  5
1AE69
330
1F
100
AcDbEntity
  8
02製品
  6
Continuous
100
AcDbCircle
 10
-11152.73944305347
 20
3722.493453152741
 30
0.0
 40
30.0
  0
CIRCLE
  5
1AE6A
330
1F
100
AcDbEntity
  8
02製品
  6
Continuous
100
AcDbCircle
 10
-11052.73944305347
 20
3822.493453152741
 30
0.0
 40
30.0
  0
CIRCLE
  5
1AE6B
330
1F
100
AcDbEntity
  8
02製品
  6
Continuous
100
AcDbCircle
 10
-10952.73944305347
 20
3722.493453152741
 30
0.0
 40
30.00000000000114
  0
CIRCLE
  5
1AE6C
330
1F
100
AcDbEntity
  8
02製品
  6
Continuous
100
AcDbCircle
 10
-10952.73944305347
 20
3922.493453152741
 30
0.0
 40
30.00000000000114
  0
CIRCLE
  5
1AE6D
330
1F
100
AcDbEntity
  8
02製品
  6
Continuous
100
AcDbCircle
 10
-10852.73944305347
 20
3822.493453152741
 30
0.0
 40
30.0
  0
CIRCLE
  5
1AE6E
330
1F
100
AcDbEntity
  8
02製品
  6
Continuous
100
AcDbCircle
 10
-10752.73944305347
 20
3922.493453152741
 30
0.0
 40
30.0
  0
CIRCLE
  5
1AE6F
330
1F
100
AcDbEntity
  8
02製品
  6
Continuous
100
AcDbCircle
 10
-10752.73944305347
 20
3722.493453152741
 30
0.0
 40
30.0
  0
CIRCLE
  5
1AE70
330
1F
100
AcDbEntity
  8
02製品
  6
Continuous
100
AcDbCircle
 10
-10652.73944305347
 20
3822.493453152741
 30
0.0
 40
30.0
  0
CIRCLE
  5
1AE71
330
1F
100
AcDbEntity
  8
02製品
  6
Continuous
100
AcDbCircle
 10
-10552.73944305347
 20
3922.493453152741
 30
0.0
 40
30.0
  0
CIRCLE
  5
1AE72
330
1F
100
AcDbEntity
  8
02製品
  6
Continuous
100
AcDbCircle
 10
-10452.73944305347
 20
3822.493453152741
 30
0.0
 40
30.0
  0
ARC
  5
1AE73
330
1F
100
AcDbEntity
  8
02製品
  6
Continuous
100
AcDbCircle
 10
-10309.73944305347
 20
3467.493453152741
 30
0.0
 40
3.600000000000179
100
AcDbArc
 50
256.4637972625444
 51
283.5362027373363
  0
LINE
  5
1AE74
330
1F
100
AcDbEntity
  8
02製品
  6
Continuous
100
AcDbLine
 10
-10307.23944305347
 20
3463.993453152741
 30
0.0
 11
-10308.89682807615
 21
3463.993453152741
 31
0.0
  0
ARC
  5
1AE75
330
1F
100
AcDbEntity
  8
02製品
  6
Continuous
100
AcDbCircle
 10
-10309.73944305347
 20
3467.493453152741
 30
0.0
 40
3.600000000000179
100
AcDbArc
 50
76.46379726266377
 51
103.5362027374556
  0
LINE
  5
1AE76
330
1F
100
AcDbEntity
  8
02製品
  6
Continuous
100
AcDbLine
 10
-10310.58205803079
 20
3470.993453152741
 30
0.0
 11
-10312.23944305347
 21
3470.993453152741
 31
0.0
  0
ARC
  5
1AE77
330
1F
100
AcDbEntity
  8
02製品
  6
Continuous
100
AcDbCircle
 10
-10312.23944305347
 20
3467.493453152741
 30
0.0
 40
3.500000000000227
100
AcDbArc
 50
90.0
 51
270.0
  0
LINE
  5
1AE78
330
1F
100
AcDbEntity
  8
02製品
  6
Continuous
100
AcDbLine
 10
-10310.58205803079
 20
3463.993453152741
 30
0.0
 11
-10312.23944305347
 21
3463.993453152741
 31
0.0
  0
ARC
  5
1AE79
330
1F
100
AcDbEntity
  8
02製品
  6
Continuous
100
AcDbCircle
 10
-11395.73944305347
 20
3617.493453152745
 30
0.0
 40
3.600000000000445
100
AcDbArc
 50
256.4637972625461
 51
283.5362027373363
  0
LINE
  5
1AE7A
330
1F
100
AcDbEntity
  8
02製品
  6
Continuous
100
AcDbLine
 10
-11393.23944305347
 20
3613.993453152741
 30
0.0
 11
-11394.89682807615
 21
3613.993453152741
 31
0.0
  0
ARC
  5
1AE7B
330
1F
100
AcDbEntity
  8
02製品
  6
Continuous
100
AcDbCircle
 10
-11393.23944305347
 20
3617.493453152745
 30
0.0
 40
3.500000000000227
100
AcDbArc
 50
270.0
 51
90.0
  0
LINE
  5
1AE7C
330
1F
100
AcDbEntity
  8
02製品
  6
Continuous
100
AcDbLine
 10
-11393.23944305347
 20
3620.993453152741
 30
0.0
 11
-11394.89682807615
 21
3620.993453152741
 31
0.0
  0
ARC
  5
1AE7D
330
1F
100
AcDbEntity
  8
02製品
  6
Continuous
100
AcDbCircle
 10
-11395.73944305347
 20
3617.493453152745
 30
0.0
 40
3.599999999999892
100
AcDbArc
 50
76.46379726266207
 51
103.5362027374573
  0
LINE
  5
1AE7E
330
1F
100
AcDbEntity
  8
02製品
  6
Continuous
100
AcDbLine
 10
-11396.58205803079
 20
3620.993453152741
 30
0.0
 11
-11398.23944305347
 21
3620.993453152741
 31
0.0
  0
ARC
  5
1AE7F
330
1F
100
AcDbEntity
  8
02製品
  6
Continuous
100
AcDbCircle
 10
-11398.23944305347
 20
3617.493453152745
 30
0.0
 40
3.500000000000227
100
AcDbArc
 50
90.0
 51
270.0
  0
LINE
  5
1AE80
330
1F
100
AcDbEntity
  8
02製品
  6
Continuous
100
AcDbLine
 10
-11396.58205803079
 20
3613.993453152741
 30
0.0
 11
-11398.23944305347
 21
3613.993453152741
 31
0.0
  0
ARC
  5
1AE81
330
1F
100
AcDbEntity
  8
02製品
  6
Continuous
100
AcDbCircle
 10
-10309.73944305347
 20
3817.493453152741
 30
0.0
 40
3.600000000000179
100
AcDbArc
 50
256.4637972625444
 51
283.5362027373363
  0
LINE
  5
1AE82
330
1F
100
AcDbEntity
  8
02製品
  6
Continuous
100
AcDbLine
 10
-10307.23944305347
 20
3813.993453152741
 30
0.0
 11
-10308.89682807615
 21
3813.993453152741
 31
0.0
  0
ARC
  5
1AE83
330
1F
100
AcDbEntity
  8
02製品
  6
Continuous
100
AcDbCircle
 10
-10307.23944305347
 20
3817.493453152741
 30
0.0
 40
3.500000000000227
100
AcDbArc
 50
270.0
 51
90.0
  0
LINE
  5
1AE84
330
1F
100
AcDbEntity
  8
02製品
  6
Continuous
100
AcDbLine
 10
-10307.23944305347
 20
3820.993453152741
 30
0.0
 11
-10308.89682807615
 21
3820.993453152741
 31
0.0
  0
ARC
  5
1AE85
330
1F
100
AcDbEntity
  8
02製品
  6
Continuous
100
AcDbCircle
 10
-10309.73944305347
 20
3817.493453152741
 30
0.0
 40
3.600000000000179
100
AcDbArc
 50
76.46379726266377
 51
103.5362027374556
  0
LINE
  5
1AE86
330
1F
100
AcDbEntity
  8
02製品
  6
Continuous
100
AcDbLine
 10
-10310.58205803079
 20
3820.993453152741
 30
0.0
 11
-10312.23944305347
 21
3820.993453152741
 31
0.0
  0
ARC
  5
1AE87
330
1F
100
AcDbEntity
  8
02製品
  6
Continuous
100
AcDbCircle
 10
-10312.23944305347
 20
3817.493453152741
 30
0.0
 40
3.500000000000227
100
AcDbArc
 50
90.0
 51
270.0
  0
LINE
  5
1AE88
330
1F
100
AcDbEntity
  8
02製品
  6
Continuous
100
AcDbLine
 10
-10310.58205803079
 20
3813.993453152741
 30
0.0
 11
-10312.23944305347
 21
3813.993453152741
 31
0.0
  0
ARC
  5
1AE89
330
1F
100
AcDbEntity
  8
02製品
  6
Continuous
100
AcDbCircle
 10
-10309.73944305347
 20
3958.993453152741
 30
0.0
 40
7.499999999999663
100
AcDbArc
 50
117.8181392846549
 51
62.1818607153451
  0
LINE
  5
1AE8A
330
1F
100
AcDbEntity
  8
02製品
  6
Continuous
100
AcDbLine
 10
-10306.23944305347
 20
3965.626702733452
 30
0.0
 11
-10306.23944305347
 21
3967.493453152741
 31
0.0
  0
ARC
  5
1AE8B
330
1F
100
AcDbEntity
  8
02製品
  6
Continuous
100
AcDbCircle
 10
-10309.73944305347
 20
3967.493453152741
 30
0.0
 40
3.500000000000227
100
AcDbArc
 50
0.0
 51
180.0
  0
LINE
  5
1AE8C
330
1F
100
AcDbEntity
  8
02製品
  6
Continuous
100
AcDbLine
 10
-10313.23944305347
 20
3967.493453152741
 30
0.0
 11
-10313.23944305347
 21
3965.626702733452
 31
0.0
  0
ARC
  5
1AE8D
330
1F
100
AcDbEntity
  8
02製品
  6
Continuous
100
AcDbCircle
 10
-11395.73944305347
 20
3958.993453152741
 30
0.0
 40
7.500000000000195
100
AcDbArc
 50
117.8181392846843
 51
62.18186071534672
  0
LINE
  5
1AE8E
330
1F
100
AcDbEntity
  8
02製品
  6
Continuous
100
AcDbLine
 10
-11392.23944305347
 20
3965.626702733452
 30
0.0
 11
-11392.23944305347
 21
3967.493453152741
 31
0.0
  0
ARC
  5
1AE8F
330
1F
100
AcDbEntity
  8
02製品
  6
Continuous
100
AcDbCircle
 10
-11395.73944305347
 20
3967.493453152741
 30
0.0
 40
3.500000000001364
100
AcDbArc
 50
0.0
 51
180.0
  0
LINE
  5
1AE90
330
1F
100
AcDbEntity
  8
02製品
  6
Continuous
100
AcDbLine
 10
-11399.23944305347
 20
3967.493453152741
 30
0.0
 11
-11399.23944305347
 21
3965.626702733452
 31
0.0
  0
LINE
  5
1AE91
330
1F
100
AcDbEntity
  8
02製品
  6
Continuous
100
AcDbLine
 10
-11393.23944305347
 20
3470.993453152741
 30
0.0
 11
-11394.89682807615
 21
3470.993453152741
 31
0.0
  0
ARC
  5
1AE92
330
1F
100
AcDbEntity
  8
02製品
  6
Continuous
100
AcDbCircle
 10
-11395.73944305347
 20
3467.493453152741
 30
0.0
 40
3.600000000000445
100
AcDbArc
 50
76.46379726266377
 51
103.5362027374539
  0
CIRCLE
  5
1AE93
330
1F
100
AcDbEntity
  8
02製品
  6
Continuous
100
AcDbCircle
 10
-10552.73944305347
 20
3722.493453152741
 30
0.0
 40
30.0
  0
ARC
  5
1AE94
330
1F
100
AcDbEntity
  8
02製品
  6
Continuous
100
AcDbCircle
 10
-10307.23944305347
 20
3467.493453152741
 30
0.0
 40
3.500000000000227
100
AcDbArc
 50
270.0
 51
90.0
  0
LINE
  5
1AE95
330
1F
100
AcDbEntity
  8
02製品
  6
Continuous
100
AcDbLine
 10
-10307.23944305347
 20
3470.993453152741
 30
0.0
 11
-10308.89682807615
 21
3470.993453152741
 31
0.0
  0
LINE
  5
1AE96
330
1F
100
AcDbEntity
  8
02製品
  6
Continuous
100
AcDbLine
 10
-7617.296176631839
 20
4194.293453152742
 30
0.0
 11
-7611.996176631836
 21
4194.293453152742
 31
0.0
  0
LINE
  5
1AE97
330
1F
100
AcDbEntity
  8
02製品
  6
Continuous
100
AcDbLine
 10
-7611.996176631836
 20
4194.293453152742
 30
0.0
 11
-7611.996176631836
 21
4197.493453152739
 31
0.0
  0
LINE
  5
1AE98
330
1F
100
AcDbEntity
  8
02製品
  6
Continuous
100
AcDbLine
 10
-6622.596176631833
 20
4197.493453152739
 30
0.0
 11
-6622.596176631833
 21
4194.293453152742
 31
0.0
  0
LINE
  5
1AE99
330
1F
100
AcDbEntity
  8
02製品
  6
Continuous
100
AcDbLine
 10
-6622.596176631833
 20
4194.293453152742
 30
0.0
 11
-6617.296176631838
 21
4194.293453152742
 31
0.0
  0
CIRCLE
  5
1AE9A
330
1F
100
AcDbEntity
  8
02製品
  6
Continuous
100
AcDbCircle
 10
-6632.596176631833
 20
4177.493453152739
 30
0.0
 40
5.0
  0
CIRCLE
  5
1AE9B
330
1F
100
AcDbEntity
  8
02製品
  6
Continuous
100
AcDbCircle
 10
-7601.996176631836
 20
4177.493453152739
 30
0.0
 40
5.0
  0
LINE
  5
1AE9C
330
1F
100
AcDbEntity
  8
02製品
  6
Continuous
100
AcDbLine
 10
-7617.296176631839
 20
4157.493453152739
 30
0.0
 11
-6617.296176631838
 21
4157.493453152739
 31
0.0
  0
LINE
  5
1AE9D
330
1F
100
AcDbEntity
  8
02製品
  6
Continuous
100
AcDbLine
 10
-7611.996176631836
 20
4197.493453152739
 30
0.0
 11
-6622.596176631833
 21
4197.493453152739
 31
0.0
  0
LINE
  5
1AE9E
330
1F
100
AcDbEntity
  8
02製品
  6
Continuous
100
AcDbLine
 10
-7611.996176631836
 20
4197.493453152742
 30
0.0
 11
-7620.296176631831
 21
4197.493453152742
 31
0.0
  0
LINE
  5
1AE9F
330
1F
100
AcDbEntity
  8
02製品
  6
Continuous
100
AcDbLine
 10
-6622.596176631833
 20
4197.493453152739
 30
0.0
 11
-6614.296176631823
 21
4197.493453152739
 31
0.0
  0
LINE
  5
1AEA0
330
1F
100
AcDbEntity
  8
02製品
  6
Continuous
100
AcDbLine
 10
-7443.276938745365
 20
3707.493453152739
 30
0.0
 11
-7391.315414518312
 21
3707.493453152739
 31
0.0
  0
LINE
  5
1AEA1
330
1F
100
AcDbEntity
  8
02製品
  6
Continuous
100
AcDbLine
 10
-7243.276938745364
 20
3707.493453152739
 30
0.0
 11
-7191.315414518312
 21
3707.493453152739
 31
0.0
  0
LINE
  5
1AEA2
330
1F
100
AcDbEntity
  8
02製品
  6
Continuous
100
AcDbLine
 10
-7043.276938745364
 20
3707.493453152739
 30
0.0
 11
-6991.315414518312
 21
3707.493453152739
 31
0.0
  0
LINE
  5
1AEA3
330
1F
100
AcDbEntity
  8
02製品
  6
Continuous
100
AcDbLine
 10
-6843.276938745364
 20
3707.493453152739
 30
0.0
 11
-6791.315414518312
 21
3707.493453152739
 31
0.0
  0
LINE
  5
1AEA4
330
1F
100
AcDbEntity
  8
02製品
  6
Continuous
100
AcDbLine
 10
-7627.296176631839
 20
3351.993553152751
 30
0.0
 11
-7627.296176631839
 21
3351.993453152739
 31
0.0
  0
LINE
  5
1AEA5
330
1F
100
AcDbEntity
  8
02製品
  6
Continuous
100
AcDbLine
 10
-6607.296176631838
 20
3351.993553152751
 30
0.0
 11
-6607.296176631838
 21
3351.993453152739
 31
0.0
  0
ARC
  5
1AEA6
330
1F
100
AcDbEntity
  8
02製品
  6
Continuous
100
AcDbCircle
 10
-6614.29617663183
 20
4194.493453152753
 30
0.0
 40
3.000000000000398
100
AcDbArc
 50
90.0
 51
180.0
  0
CIRCLE
  5
1AEA7
330
1F
100
AcDbEntity
  8
02製品
  6
Continuous
100
AcDbCircle
 10
-6597.296176631838
 20
3817.49345315275
 30
0.0
 40
2.350000000000136
  0
CIRCLE
  5
1AEA8
330
1F
100
AcDbEntity
  8
02製品
  6
Continuous
100
AcDbCircle
 10
-6597.296176631838
 20
3967.49345315275
 30
0.0
 40
2.350000000000136
  0
LINE
  5
1AEA9
330
1F
100
AcDbEntity
  8
02製品
  6
Continuous
100
AcDbLine
 10
-6577.296176631838
 20
4197.49345315275
 30
0.0
 11
-6614.29617663183
 21
4197.49345315275
 31
0.0
  0
LINE
  5
1AEAA
330
1F
100
AcDbEntity
  8
02製品
  6
Continuous
100
AcDbLine
 10
-6617.296176631838
 20
3351.993553152751
 30
0.0
 11
-6577.296176631838
 21
3351.993553152751
 31
0.0
  0
CIRCLE
  5
1AEAB
330
1F
100
AcDbEntity
  8
02製品
  6
Continuous
100
AcDbCircle
 10
-6597.296176631838
 20
3617.49345315275
 30
0.0
 40
2.350000000000136
  0
CIRCLE
  5
1AEAC
330
1F
100
AcDbEntity
  8
02製品
  6
Continuous
100
AcDbCircle
 10
-6597.296176631838
 20
3467.49345315275
 30
0.0
 40
2.350000000000136
  0
LINE
  5
1AEAD
330
1F
100
AcDbEntity
  8
02製品
  6
Continuous
100
AcDbLine
 10
-6577.296176631838
 20
4197.49345315275
 30
0.0
 11
-6577.296176631838
 21
3351.993553152751
 31
0.0
  0
LINE
  5
1AEAE
330
1F
100
AcDbEntity
  8
02製品
  6
Continuous
100
AcDbLine
 10
-6617.296176631838
 20
4194.493453152753
 30
0.0
 11
-6617.296176631838
 21
3991.293453152749
 31
0.0
  0
LINE
  5
1AEAF
330
1F
100
AcDbEntity
  8
02製品
  6
Continuous
100
AcDbLine
 10
-6617.296176631838
 20
3443.69345315275
 30
0.0
 11
-6617.296176631838
 21
3351.993553152751
 31
0.0
  0
LINE
  5
1AEB0
330
1F
100
AcDbEntity
  8
02製品
  6
Continuous
100
AcDbLine
 10
-6577.296176631838
 20
3347.49345315275
 30
0.0
 11
-6592.296176631838
 21
3347.49345315275
 31
0.0
  0
LINE
  5
1AEB1
330
1F
100
AcDbEntity
  8
02製品
  6
Continuous
100
AcDbLine
 10
-6592.296176631838
 20
3351.99345315275
 30
0.0
 11
-6592.296176631838
 21
3347.49345315275
 31
0.0
  0
LINE
  5
1AEB2
330
1F
100
AcDbEntity
  8
02製品
  6
Continuous
100
AcDbLine
 10
-6581.79617663183
 20
3351.99345315275
 30
0.0
 11
-6592.296176631838
 21
3351.99345315275
 31
0.0
  0
LINE
  5
1AEB3
330
1F
100
AcDbEntity
  8
02製品
  6
Continuous
100
AcDbLine
 10
-6577.296176631838
 20
3351.99345315275
 30
0.0
 11
-6577.296176631838
 21
3347.49345315275
 31
0.0
  0
LINE
  5
1AEB4
330
1F
100
AcDbEntity
  8
02製品
  6
Continuous
100
AcDbLine
 10
-6617.296176631838
 20
3351.99345315275
 30
0.0
 11
-6592.296176631838
 21
3351.99345315275
 31
0.0
  0
LINE
  5
1AEB5
330
1F
100
AcDbEntity
  8
02製品
  6
Continuous
100
AcDbLine
 10
-6617.296176631838
 20
3347.49345315275
 30
0.0
 11
-6617.296176631838
 21
3351.99345315275
 31
0.0
  0
LINE
  5
1AEB6
330
1F
100
AcDbEntity
  8
02製品
  6
Continuous
100
AcDbLine
 10
-6617.296176631838
 20
3347.49345315275
 30
0.0
 11
-6592.296176631838
 21
3347.49345315275
 31
0.0
  0
LINE
  5
1AEB7
330
1F
100
AcDbEntity
  8
02製品
  6
Continuous
100
AcDbLine
 10
-6577.296176631838
 20
3351.99345315275
 30
0.0
 11
-6581.79617663183
 21
3351.99345315275
 31
0.0
  0
LINE
  5
1AEB8
330
1F
100
AcDbEntity
  8
02製品
  6
Continuous
100
AcDbLine
 10
-6581.79617663183
 20
3351.993553152751
 30
0.0
 11
-6581.79617663183
 21
3351.99345315275
 31
0.0
  0
LINE
  5
1AEB9
330
1F
100
AcDbEntity
  8
02製品
  6
Continuous
100
AcDbLine
 10
-6577.296176631838
 20
3351.993553152751
 30
0.0
 11
-6577.296176631838
 21
3351.99345315275
 31
0.0
  0
LINE
  5
1AEBA
330
1F
100
AcDbEntity
  8
02製品
  6
Continuous
100
AcDbLine
 10
-7617.296176631839
 20
3351.993553152751
 30
0.0
 11
-7657.296176631839
 21
3351.993553152751
 31
0.0
  0
LINE
  5
1AEBB
330
1F
100
AcDbEntity
  8
02製品
  6
Continuous
100
AcDbLine
 10
-7657.296176631839
 20
4197.49345315275
 30
0.0
 11
-7657.296176631839
 21
3351.993553152751
 31
0.0
  0
LINE
  5
1AEBC
330
1F
100
AcDbEntity
  8
02製品
  6
Continuous
100
AcDbLine
 10
-7657.296176631839
 20
4197.49345315275
 30
0.0
 11
-7620.296176631831
 21
4197.49345315275
 31
0.0
  0
ARC
  5
1AEBD
330
1F
100
AcDbEntity
  8
02製品
  6
Continuous
100
AcDbCircle
 10
-7620.296176631831
 20
4194.493453152753
 30
0.0
 40
3.000000000000114
100
AcDbArc
 50
0.0
 51
90.0
  0
LINE
  5
1AEBE
330
1F
100
AcDbEntity
  8
02製品
  6
Continuous
100
AcDbLine
 10
-7617.296176631839
 20
4194.493453152753
 30
0.0
 11
-7617.296176631839
 21
3991.293453152749
 31
0.0
  0
LINE
  5
1AEBF
330
1F
100
AcDbEntity
  8
02製品
  6
Continuous
100
AcDbLine
 10
-7617.296176631839
 20
3443.69345315275
 30
0.0
 11
-7617.296176631839
 21
3351.993553152751
 31
0.0
  0
CIRCLE
  5
1AEC0
330
1F
100
AcDbEntity
  8
02製品
  6
Continuous
100
AcDbCircle
 10
-7637.296176631839
 20
3467.49345315275
 30
0.0
 40
2.350000000000136
  0
CIRCLE
  5
1AEC1
330
1F
100
AcDbEntity
  8
02製品
  6
Continuous
100
AcDbCircle
 10
-7637.296176631839
 20
3617.49345315275
 30
0.0
 40
2.350000000000136
  0
CIRCLE
  5
1AEC2
330
1F
100
AcDbEntity
  8
02製品
  6
Continuous
100
AcDbCircle
 10
-7637.296176631839
 20
3817.49345315275
 30
0.0
 40
2.350000000000136
  0
CIRCLE
  5
1AEC3
330
1F
100
AcDbEntity
  8
02製品
  6
Continuous
100
AcDbCircle
 10
-7637.296176631839
 20
3967.49345315275
 30
0.0
 40
2.350000000000136
  0
LINE
  5
1AEC4
330
1F
100
AcDbEntity
  8
02製品
  6
Continuous
100
AcDbLine
 10
-7617.296176631839
 20
3347.49345315275
 30
0.0
 11
-7617.296176631839
 21
3351.993453152753
 31
0.0
  0
LINE
  5
1AEC5
330
1F
100
AcDbEntity
  8
02製品
  6
Continuous
100
AcDbLine
 10
-7617.296176631839
 20
3347.49345315275
 30
0.0
 11
-7642.296176631839
 21
3347.49345315275
 31
0.0
  0
LINE
  5
1AEC6
330
1F
100
AcDbEntity
  8
02製品
  6
Continuous
100
AcDbLine
 10
-7642.296176631839
 20
3351.993453152753
 30
0.0
 11
-7642.296176631839
 21
3347.49345315275
 31
0.0
  0
LINE
  5
1AEC7
330
1F
100
AcDbEntity
  8
02製品
  6
Continuous
100
AcDbLine
 10
-7617.296176631839
 20
3351.993453152753
 30
0.0
 11
-7642.296176631839
 21
3351.993453152753
 31
0.0
  0
LINE
  5
1AEC8
330
1F
100
AcDbEntity
  8
02製品
  6
Continuous
100
AcDbLine
 10
-7657.296176631839
 20
3351.993453152753
 30
0.0
 11
-7652.796176631831
 21
3351.993453152753
 31
0.0
  0
LINE
  5
1AEC9
330
1F
100
AcDbEntity
  8
02製品
  6
Continuous
100
AcDbLine
 10
-7652.796176631831
 20
3351.993553152751
 30
0.0
 11
-7652.796176631831
 21
3351.993453152753
 31
0.0
  0
LINE
  5
1AECA
330
1F
100
AcDbEntity
  8
02製品
  6
Continuous
100
AcDbLine
 10
-7657.296176631839
 20
3351.993553152751
 30
0.0
 11
-7657.296176631839
 21
3351.993453152753
 31
0.0
  0
LINE
  5
1AECB
330
1F
100
AcDbEntity
  8
02製品
  6
Continuous
100
AcDbLine
 10
-7652.796176631831
 20
3351.993453152753
 30
0.0
 11
-7642.296176631839
 21
3351.993453152753
 31
0.0
  0
LINE
  5
1AECC
330
1F
100
AcDbEntity
  8
02製品
  6
Continuous
100
AcDbLine
 10
-7657.296176631839
 20
3347.49345315275
 30
0.0
 11
-7642.296176631839
 21
3347.49345315275
 31
0.0
  0
LINE
  5
1AECD
330
1F
100
AcDbEntity
  8
02製品
  6
Continuous
100
AcDbLine
 10
-7657.296176631839
 20
3351.993453152753
 30
0.0
 11
-7657.296176631839
 21
3347.49345315275
 31
0.0
  0
ARC
  5
1AECE
330
1F
100
AcDbEntity
  8
02製品
  6
Continuous
100
AcDbCircle
 10
-7637.296176631839
 20
3817.49345315275
 30
0.0
 40
3.600000000000598
100
AcDbArc
 50
256.4637972627848
 51
283.5362027374538
  0
LINE
  5
1AECF
330
1F
100
AcDbEntity
  8
02製品
  6
Continuous
100
AcDbLine
 10
-7634.796176631839
 20
3813.99345315275
 30
0.0
 11
-7636.453561654516
 21
3813.99345315275
 31
0.0
  0
ARC
  5
1AED0
330
1F
100
AcDbEntity
  8
02製品
  6
Continuous
100
AcDbCircle
 10
-7634.796176631839
 20
3817.49345315275
 30
0.0
 40
3.500000000000227
100
AcDbArc
 50
270.0
 51
90.0
  0
LINE
  5
1AED1
330
1F
100
AcDbEntity
  8
02製品
  6
Continuous
100
AcDbLine
 10
-7634.796176631839
 20
3820.99345315275
 30
0.0
 11
-7636.453561654516
 21
3820.99345315275
 31
0.0
  0
ARC
  5
1AED2
330
1F
100
AcDbEntity
  8
02製品
  6
Continuous
100
AcDbCircle
 10
-7637.296176631839
 20
3817.49345315275
 30
0.0
 40
3.599999999999626
100
AcDbArc
 50
76.46379726254273
 51
103.5362027372203
  0
LINE
  5
1AED3
330
1F
100
AcDbEntity
  8
02製品
  6
Continuous
100
AcDbLine
 10
-7638.138791609146
 20
3820.99345315275
 30
0.0
 11
-7639.796176631839
 21
3820.99345315275
 31
0.0
  0
ARC
  5
1AED4
330
1F
100
AcDbEntity
  8
02製品
  6
Continuous
100
AcDbCircle
 10
-7639.796176631839
 20
3817.49345315275
 30
0.0
 40
3.500000000000227
100
AcDbArc
 50
90.0
 51
270.0
  0
LINE
  5
1AED5
330
1F
100
AcDbEntity
  8
02製品
  6
Continuous
100
AcDbLine
 10
-7638.138791609146
 20
3813.99345315275
 30
0.0
 11
-7639.796176631839
 21
3813.99345315275
 31
0.0
  0
ARC
  5
1AED6
330
1F
100
AcDbEntity
  8
02製品
  6
Continuous
100
AcDbCircle
 10
-7637.296176631839
 20
3467.49345315275
 30
0.0
 40
3.600000000000179
100
AcDbArc
 50
256.4637972627831
 51
283.5362027374556
  0
LINE
  5
1AED7
330
1F
100
AcDbEntity
  8
02製品
  6
Continuous
100
AcDbLine
 10
-7634.796176631839
 20
3463.99345315275
 30
0.0
 11
-7636.453561654516
 21
3463.99345315275
 31
0.0
  0
ARC
  5
1AED8
330
1F
100
AcDbEntity
  8
02製品
  6
Continuous
100
AcDbCircle
 10
-7634.796176631839
 20
3467.49345315275
 30
0.0
 40
3.500000000000227
100
AcDbArc
 50
270.0
 51
90.0
  0
LINE
  5
1AED9
330
1F
100
AcDbEntity
  8
02製品
  6
Continuous
100
AcDbLine
 10
-7634.796176631839
 20
3470.99345315275
 30
0.0
 11
-7636.453561654516
 21
3470.99345315275
 31
0.0
  0
ARC
  5
1AEDA
330
1F
100
AcDbEntity
  8
02製品
  6
Continuous
100
AcDbCircle
 10
-7637.296176631839
 20
3467.49345315275
 30
0.0
 40
3.599999999999626
100
AcDbArc
 50
76.46379726254273
 51
103.5362027372203
  0
LINE
  5
1AEDB
330
1F
100
AcDbEntity
  8
02製品
  6
Continuous
100
AcDbLine
 10
-7638.138791609146
 20
3470.99345315275
 30
0.0
 11
-7639.796176631839
 21
3470.99345315275
 31
0.0
  0
ARC
  5
1AEDC
330
1F
100
AcDbEntity
  8
02製品
  6
Continuous
100
AcDbCircle
 10
-7639.796176631839
 20
3467.49345315275
 30
0.0
 40
3.500000000000227
100
AcDbArc
 50
90.0
 51
270.0
  0
LINE
  5
1AEDD
330
1F
100
AcDbEntity
  8
02製品
  6
Continuous
100
AcDbLine
 10
-7638.138791609146
 20
3463.99345315275
 30
0.0
 11
-7639.796176631839
 21
3463.99345315275
 31
0.0
  0
ARC
  5
1AEDE
330
1F
100
AcDbEntity
  8
02製品
  6
Continuous
100
AcDbCircle
 10
-7651.796176631831
 20
3988.293453152749
 30
0.0
 40
3.000000000000114
100
AcDbArc
 50
90.0
 51
180.0
  0
LINE
  5
1AEDF
330
1F
100
AcDbEntity
  8
02製品
  6
Continuous
100
AcDbLine
 10
-7609.796176631839
 20
3991.293453152749
 30
0.0
 11
-7651.796176631831
 21
3991.293453152749
 31
0.0
  0
LINE
  5
1AEE0
330
1F
100
AcDbEntity
  8
02製品
  6
Continuous
100
AcDbLine
 10
-7609.796176631839
 20
3992.49345315275
 30
0.0
 11
-7609.796176631839
 21
3991.293453152749
 31
0.0
  0
LINE
  5
1AEE1
330
1F
100
AcDbEntity
  8
02製品
  6
Continuous
100
AcDbLine
 10
-6624.796176631838
 20
3992.49345315275
 30
0.0
 11
-7609.796176631839
 21
3992.49345315275
 31
0.0
  0
ARC
  5
1AEE2
330
1F
100
AcDbEntity
  8
02製品
  6
Continuous
100
AcDbCircle
 10
-6582.79617663183
 20
3988.293453152749
 30
0.0
 40
3.000000000000114
100
AcDbArc
 50
0.0
 51
90.0
  0
LINE
  5
1AEE3
330
1F
100
AcDbEntity
  8
02製品
  6
Continuous
100
AcDbLine
 10
-6579.796176631838
 20
3988.293453152749
 30
0.0
 11
-6579.796176631838
 21
3446.69345315275
 31
0.0
  0
ARC
  5
1AEE4
330
1F
100
AcDbEntity
  8
02製品
  6
Continuous
100
AcDbCircle
 10
-6582.79617663183
 20
3446.69345315275
 30
0.0
 40
2.999999999999829
100
AcDbArc
 50
270.0
 51
0.0
  0
LINE
  5
1AEE5
330
1F
100
AcDbEntity
  8
02製品
  6
Continuous
100
AcDbLine
 10
-6624.79617663183
 20
3442.49345315275
 30
0.0
 11
-7609.796176631839
 21
3442.49345315275
 31
0.0
  0
LINE
  5
1AEE6
330
1F
100
AcDbEntity
  8
02製品
  6
Continuous
100
AcDbLine
 10
-7609.796176631839
 20
3443.69345315275
 30
0.0
 11
-7609.796176631839
 21
3442.49345315275
 31
0.0
  0
LINE
  5
1AEE7
330
1F
100
AcDbEntity
  8
02製品
  6
Continuous
100
AcDbLine
 10
-7609.796176631839
 20
3443.69345315275
 30
0.0
 11
-7651.796176631831
 21
3443.69345315275
 31
0.0
  0
ARC
  5
1AEE8
330
1F
100
AcDbEntity
  8
02製品
  6
Continuous
100
AcDbCircle
 10
-7651.796176631831
 20
3446.69345315275
 30
0.0
 40
3.000000000000114
100
AcDbArc
 50
180.0
 51
270.0
  0
LINE
  5
1AEE9
330
1F
100
AcDbEntity
  8
02製品
  6
Continuous
100
AcDbLine
 10
-7654.796176631839
 20
3988.293453152749
 30
0.0
 11
-7654.796176631839
 21
3446.69345315275
 31
0.0
  0
CIRCLE
  5
1AEEA
330
1F
100
AcDbEntity
  8
02製品
  6
Continuous
100
AcDbCircle
 10
-7517.296176631839
 20
3822.49345315275
 30
0.0
 40
30.0
  0
CIRCLE
  5
1AEEB
330
1F
100
AcDbEntity
  8
02製品
  6
Continuous
100
AcDbCircle
 10
-7417.296176631838
 20
3922.49345315275
 30
0.0
 40
30.0
  0
CIRCLE
  5
1AEEC
330
1F
100
AcDbEntity
  8
02製品
  6
Continuous
100
AcDbCircle
 10
-7417.296176631838
 20
3722.49345315275
 30
0.0
 40
30.0
  0
CIRCLE
  5
1AEED
330
1F
100
AcDbEntity
  8
02製品
  6
Continuous
100
AcDbCircle
 10
-7317.296176631838
 20
3822.49345315275
 30
0.0
 40
30.0
  0
CIRCLE
  5
1AEEE
330
1F
100
AcDbEntity
  8
02製品
  6
Continuous
100
AcDbCircle
 10
-7217.296176631838
 20
3722.49345315275
 30
0.0
 40
30.0
  0
CIRCLE
  5
1AEEF
330
1F
100
AcDbEntity
  8
02製品
  6
Continuous
100
AcDbCircle
 10
-7217.296176631838
 20
3922.49345315275
 30
0.0
 40
30.0
  0
CIRCLE
  5
1AEF0
330
1F
100
AcDbEntity
  8
02製品
  6
Continuous
100
AcDbCircle
 10
-7117.296176631838
 20
3822.49345315275
 30
0.0
 40
30.0
  0
CIRCLE
  5
1AEF1
330
1F
100
AcDbEntity
  8
02製品
  6
Continuous
100
AcDbCircle
 10
-7017.296176631838
 20
3922.49345315275
 30
0.0
 40
30.0
  0
CIRCLE
  5
1AEF2
330
1F
100
AcDbEntity
  8
02製品
  6
Continuous
100
AcDbCircle
 10
-7017.296176631838
 20
3722.49345315275
 30
0.0
 40
30.0
  0
CIRCLE
  5
1AEF3
330
1F
100
AcDbEntity
  8
02製品
  6
Continuous
100
AcDbCircle
 10
-6917.296176631838
 20
3822.49345315275
 30
0.0
 40
30.00000000000028
  0
CIRCLE
  5
1AEF4
330
1F
100
AcDbEntity
  8
02製品
  6
Continuous
100
AcDbCircle
 10
-6817.296176631838
 20
3922.49345315275
 30
0.0
 40
30.0
  0
CIRCLE
  5
1AEF5
330
1F
100
AcDbEntity
  8
02製品
  6
Continuous
100
AcDbCircle
 10
-6817.296176631838
 20
3722.49345315275
 30
0.0
 40
30.0
  0
ARC
  5
1AEF6
330
1F
100
AcDbEntity
  8
02製品
  6
Continuous
100
AcDbCircle
 10
-7637.296176631839
 20
3617.49345315275
 30
0.0
 40
3.600000000000311
100
AcDbArc
 50
256.4637972627831
 51
283.5362027374556
  0
LINE
  5
1AEF7
330
1F
100
AcDbEntity
  8
02製品
  6
Continuous
100
AcDbLine
 10
-7634.796176631839
 20
3613.99345315275
 30
0.0
 11
-7636.453561654516
 21
3613.99345315275
 31
0.0
  0
ARC
  5
1AEF8
330
1F
100
AcDbEntity
  8
02製品
  6
Continuous
100
AcDbCircle
 10
-7634.796176631839
 20
3617.49345315275
 30
0.0
 40
3.500000000000227
100
AcDbArc
 50
270.0
 51
90.0
  0
LINE
  5
1AEF9
330
1F
100
AcDbEntity
  8
02製品
  6
Continuous
100
AcDbLine
 10
-7634.796176631839
 20
3620.99345315275
 30
0.0
 11
-7636.453561654516
 21
3620.99345315275
 31
0.0
  0
ARC
  5
1AEFA
330
1F
100
AcDbEntity
  8
02製品
  6
Continuous
100
AcDbCircle
 10
-7637.296176631839
 20
3617.49345315275
 30
0.0
 40
3.599999999999626
100
AcDbArc
 50
76.46379726254273
 51
103.5362027372203
  0
LINE
  5
1AEFB
330
1F
100
AcDbEntity
  8
02製品
  6
Continuous
100
AcDbLine
 10
-7638.138791609146
 20
3620.99345315275
 30
0.0
 11
-7639.796176631839
 21
3620.99345315275
 31
0.0
  0
ARC
  5
1AEFC
330
1F
100
AcDbEntity
  8
02製品
  6
Continuous
100
AcDbCircle
 10
-7639.796176631839
 20
3617.49345315275
 30
0.0
 40
3.500000000000227
100
AcDbArc
 50
90.0
 51
270.0
  0
LINE
  5
1AEFD
330
1F
100
AcDbEntity
  8
02製品
  6
Continuous
100
AcDbLine
 10
-7638.138791609146
 20
3613.99345315275
 30
0.0
 11
-7639.796176631839
 21
3613.99345315275
 31
0.0
  0
ARC
  5
1AEFE
330
1F
100
AcDbEntity
  8
02製品
  6
Continuous
100
AcDbCircle
 10
-6597.296176631838
 20
3958.99345315275
 30
0.0
 40
7.500000000000165
100
AcDbArc
 50
117.8181392846067
 51
62.18186071530012
  0
LINE
  5
1AEFF
330
1F
100
AcDbEntity
  8
02製品
  6
Continuous
100
AcDbLine
 10
-6600.79617663183
 20
3967.49345315275
 30
0.0
 11
-6600.79617663183
 21
3965.626702733461
 31
0.0
  0
ARC
  5
1AF00
330
1F
100
AcDbEntity
  8
02製品
  6
Continuous
100
AcDbCircle
 10
-7637.296176631839
 20
3958.99345315275
 30
0.0
 40
7.500000000000165
100
AcDbArc
 50
117.8181392845912
 51
62.1818607152846
  0
LINE
  5
1AF01
330
1F
100
AcDbEntity
  8
02製品
  6
Continuous
100
AcDbLine
 10
-7633.796176631831
 20
3965.626702733461
 30
0.0
 11
-7633.796176631831
 21
3967.49345315275
 31
0.0
  0
ARC
  5
1AF02
330
1F
100
AcDbEntity
  8
02製品
  6
Continuous
100
AcDbCircle
 10
-7637.296176631839
 20
3967.49345315275
 30
0.0
 40
3.500000000000227
100
AcDbArc
 50
0.0
 51
180.0
  0
LINE
  5
1AF03
330
1F
100
AcDbEntity
  8
02製品
  6
Continuous
100
AcDbLine
 10
-7640.796176631831
 20
3967.49345315275
 30
0.0
 11
-7640.796176631831
 21
3965.626702733461
 31
0.0
  0
LINE
  5
1AF04
330
1F
100
AcDbEntity
  8
02製品
  6
Continuous
100
AcDbLine
 10
-6593.79617663183
 20
3965.626702733461
 30
0.0
 11
-6593.79617663183
 21
3967.49345315275
 31
0.0
  0
LINE
  5
1AF05
330
1F
100
AcDbEntity
  8
02製品
  6
Continuous
100
AcDbLine
 10
-6598.138791609145
 20
3813.99345315275
 30
0.0
 11
-6599.796176631838
 21
3813.99345315275
 31
0.0
  0
ARC
  5
1AF06
330
1F
100
AcDbEntity
  8
02製品
  6
Continuous
100
AcDbCircle
 10
-6597.296176631838
 20
3467.49345315275
 30
0.0
 40
3.600000000000112
100
AcDbArc
 50
256.4637972627814
 51
283.5362027374556
  0
LINE
  5
1AF07
330
1F
100
AcDbEntity
  8
02製品
  6
Continuous
100
AcDbLine
 10
-6594.79617663183
 20
3463.99345315275
 30
0.0
 11
-6596.453561654515
 21
3463.99345315275
 31
0.0
  0
ARC
  5
1AF08
330
1F
100
AcDbEntity
  8
02製品
  6
Continuous
100
AcDbCircle
 10
-6594.79617663183
 20
3467.49345315275
 30
0.0
 40
3.500000000000227
100
AcDbArc
 50
270.0
 51
90.0
  0
LINE
  5
1AF09
330
1F
100
AcDbEntity
  8
02製品
  6
Continuous
100
AcDbLine
 10
-6594.79617663183
 20
3470.99345315275
 30
0.0
 11
-6596.453561654515
 21
3470.99345315275
 31
0.0
  0
ARC
  5
1AF0A
330
1F
100
AcDbEntity
  8
02製品
  6
Continuous
100
AcDbCircle
 10
-6597.296176631838
 20
3467.49345315275
 30
0.0
 40
3.600000000000112
100
AcDbArc
 50
76.4637972625444
 51
103.5362027372169
  0
LINE
  5
1AF0B
330
1F
100
AcDbEntity
  8
02製品
  6
Continuous
100
AcDbLine
 10
-6598.138791609145
 20
3470.99345315275
 30
0.0
 11
-6599.79617663183
 21
3470.99345315275
 31
0.0
  0
ARC
  5
1AF0C
330
1F
100
AcDbEntity
  8
02製品
  6
Continuous
100
AcDbCircle
 10
-6599.79617663183
 20
3467.49345315275
 30
0.0
 40
3.500000000000227
100
AcDbArc
 50
90.0
 51
270.0
  0
LINE
  5
1AF0D
330
1F
100
AcDbEntity
  8
02製品
  6
Continuous
100
AcDbLine
 10
-6598.138791609145
 20
3463.99345315275
 30
0.0
 11
-6599.79617663183
 21
3463.99345315275
 31
0.0
  0
CIRCLE
  5
1AF0E
330
1F
100
AcDbEntity
  8
02製品
  6
Continuous
100
AcDbCircle
 10
-6717.296176631838
 20
3822.49345315275
 30
0.0
 40
30.0
  0
ARC
  5
1AF0F
330
1F
100
AcDbEntity
  8
02製品
  6
Continuous
100
AcDbCircle
 10
-6597.296176631838
 20
3967.49345315275
 30
0.0
 40
3.500000000000227
100
AcDbArc
 50
0.0
 51
180.0
  0
ARC
  5
1AF10
330
1F
100
AcDbEntity
  8
02製品
  6
Continuous
100
AcDbCircle
 10
-6597.296176631838
 20
3617.49345315275
 30
0.0
 40
3.600000000000245
100
AcDbArc
 50
256.4637972627831
 51
283.5362027374556
  0
LINE
  5
1AF11
330
1F
100
AcDbEntity
  8
02製品
  6
Continuous
100
AcDbLine
 10
-6594.796176631838
 20
3613.99345315275
 30
0.0
 11
-6596.453561654515
 21
3613.99345315275
 31
0.0
  0
ARC
  5
1AF12
330
1F
100
AcDbEntity
  8
02製品
  6
Continuous
100
AcDbCircle
 10
-6594.796176631838
 20
3617.49345315275
 30
0.0
 40
3.500000000000227
100
AcDbArc
 50
270.0
 51
90.0
  0
LINE
  5
1AF13
330
1F
100
AcDbEntity
  8
02製品
  6
Continuous
100
AcDbLine
 10
-6594.796176631838
 20
3620.99345315275
 30
0.0
 11
-6596.453561654515
 21
3620.99345315275
 31
0.0
  0
ARC
  5
1AF14
330
1F
100
AcDbEntity
  8
02製品
  6
Continuous
100
AcDbCircle
 10
-6597.296176631838
 20
3617.49345315275
 30
0.0
 40
3.600000000000179
100
AcDbArc
 50
76.4637972625444
 51
103.5362027372169
  0
LINE
  5
1AF15
330
1F
100
AcDbEntity
  8
02製品
  6
Continuous
100
AcDbLine
 10
-6598.138791609145
 20
3620.99345315275
 30
0.0
 11
-6599.796176631838
 21
3620.99345315275
 31
0.0
  0
ARC
  5
1AF16
330
1F
100
AcDbEntity
  8
02製品
  6
Continuous
100
AcDbCircle
 10
-6599.796176631838
 20
3617.49345315275
 30
0.0
 40
3.500000000000227
100
AcDbArc
 50
90.0
 51
270.0
  0
LINE
  5
1AF17
330
1F
100
AcDbEntity
  8
02製品
  6
Continuous
100
AcDbLine
 10
-6598.138791609145
 20
3613.99345315275
 30
0.0
 11
-6599.796176631838
 21
3613.99345315275
 31
0.0
  0
ARC
  5
1AF18
330
1F
100
AcDbEntity
  8
02製品
  6
Continuous
100
AcDbCircle
 10
-6597.296176631838
 20
3817.49345315275
 30
0.0
 40
3.600000000000664
100
AcDbArc
 50
256.4637972627848
 51
283.5362027374538
  0
LINE
  5
1AF19
330
1F
100
AcDbEntity
  8
02製品
  6
Continuous
100
AcDbLine
 10
-6594.796176631838
 20
3813.99345315275
 30
0.0
 11
-6596.453561654515
 21
3813.99345315275
 31
0.0
  0
ARC
  5
1AF1A
330
1F
100
AcDbEntity
  8
02製品
  6
Continuous
100
AcDbCircle
 10
-6594.796176631838
 20
3817.49345315275
 30
0.0
 40
3.500000000000227
100
AcDbArc
 50
270.0
 51
90.0
  0
LINE
  5
1AF1B
330
1F
100
AcDbEntity
  8
02製品
  6
Continuous
100
AcDbLine
 10
-6594.796176631838
 20
3820.99345315275
 30
0.0
 11
-6596.453561654515
 21
3820.99345315275
 31
0.0
  0
ARC
  5
1AF1C
330
1F
100
AcDbEntity
  8
02製品
  6
Continuous
100
AcDbCircle
 10
-6597.296176631838
 20
3817.49345315275
 30
0.0
 40
3.599999999999626
100
AcDbArc
 50
76.46379726254273
 51
103.5362027372203
  0
LINE
  5
1AF1D
330
1F
100
AcDbEntity
  8
02製品
  6
Continuous
100
AcDbLine
 10
-6598.138791609145
 20
3820.99345315275
 30
0.0
 11
-6599.796176631838
 21
3820.99345315275
 31
0.0
  0
ARC
  5
1AF1E
330
1F
100
AcDbEntity
  8
02製品
  6
Continuous
100
AcDbCircle
 10
-6599.796176631838
 20
3817.49345315275
 30
0.0
 40
3.500000000000227
100
AcDbArc
 50
90.0
 51
270.0
  0
LINE
  5
1AF1F
330
1F
100
AcDbEntity
  8
02製品
  6
Continuous
100
AcDbLine
 10
-6624.79617663183
 20
3443.69345315275
 30
0.0
 11
-6624.79617663183
 21
3442.49345315275
 31
0.0
  0
LINE
  5
1AF20
330
1F
100
AcDbEntity
  8
02製品
  6
Continuous
100
AcDbLine
 10
-6624.79617663183
 20
3443.69345315275
 30
0.0
 11
-6582.79617663183
 21
3443.69345315275
 31
0.0
  0
LINE
  5
1AF21
330
1F
100
AcDbEntity
  8
02製品
  6
Continuous
100
AcDbLine
 10
-6624.796176631838
 20
3992.49345315275
 30
0.0
 11
-6624.796176631838
 21
3991.293453152749
 31
0.0
  0
LINE
  5
1AF22
330
1F
100
AcDbEntity
  8
02製品
  6
Continuous
100
AcDbLine
 10
-6624.796176631838
 20
3991.293453152749
 30
0.0
 11
-6582.79617663183
 21
3991.293453152749
 31
0.0
  0
LINE
  5
1AF23
330
1F
100
AcDbEntity
  8
02製品
  6
Continuous
100
AcDbLine
 10
-7657.296176631839
 20
3443.693453152721
 30
0.0
 11
-7658.496176631836
 21
3443.693453152721
 31
0.0
  0
LINE
  5
1AF24
330
1F
100
AcDbEntity
  8
02製品
  6
Continuous
100
AcDbLine
 10
-7658.496176631836
 20
3443.693453152721
 30
0.0
 11
-7658.496176631836
 21
3446.693453152721
 31
0.0
  0
LINE
  5
1AF25
330
1F
100
AcDbEntity
  8
02製品
  6
Continuous
100
AcDbLine
 10
-7658.496176631836
 20
3446.693453152721
 30
0.0
 11
-7657.296176631839
 21
3446.693453152721
 31
0.0
  0
LINE
  5
1AF26
330
1F
100
AcDbEntity
  8
02製品
  6
Continuous
100
AcDbLine
 10
-7657.296176631839
 20
3988.293453152723
 30
0.0
 11
-7658.496176631836
 21
3988.293453152723
 31
0.0
  0
LINE
  5
1AF27
330
1F
100
AcDbEntity
  8
02製品
  6
Continuous
100
AcDbLine
 10
-7658.496176631836
 20
3988.293453152723
 30
0.0
 11
-7658.496176631836
 21
3446.693453152721
 31
0.0
  0
LINE
  5
1AF28
330
1F
100
AcDbEntity
  8
02製品
  6
Continuous
100
AcDbLine
 10
-7658.496176631836
 20
3991.293453152723
 30
0.0
 11
-7657.296176631839
 21
3991.293453152723
 31
0.0
  0
LINE
  5
1AF29
330
1F
100
AcDbEntity
  8
02製品
  6
Continuous
100
AcDbLine
 10
-7658.496176631836
 20
3988.293453152723
 30
0.0
 11
-7658.496176631836
 21
3991.293453152723
 31
0.0
  0
LINE
  5
1AF2A
330
1F
100
AcDbEntity
  8
02製品
  6
Continuous
100
AcDbLine
 10
-7658.496176631836
 20
3442.493453152721
 30
0.0
 11
-7657.296176631824
 21
3442.493453152721
 31
0.0
  0
LINE
  5
1AF2B
330
1F
100
AcDbEntity
  8
02製品
  6
Continuous
100
AcDbLine
 10
-7658.496176631836
 20
3443.693453152721
 30
0.0
 11
-7658.496176631836
 21
3442.493453152721
 31
0.0
  0
LINE
  5
1AF2C
330
1F
100
AcDbEntity
  8
02製品
  6
Continuous
100
AcDbLine
 10
-7657.296176631824
 20
3992.493453152721
 30
0.0
 11
-7658.496176631836
 21
3992.493453152721
 31
0.0
  0
LINE
  5
1AF2D
330
1F
100
AcDbEntity
  8
02製品
  6
Continuous
100
AcDbLine
 10
-7658.496176631836
 20
3992.493453152721
 30
0.0
 11
-7658.496176631836
 21
3991.293453152723
 31
0.0
  0
LINE
  5
1AF2E
330
1F
100
AcDbEntity
  8
02製品
  6
Continuous
100
AcDbLine
 10
-6577.296176631838
 20
3446.693453152885
 30
0.0
 11
-6576.096176631833
 21
3446.693453152885
 31
0.0
  0
LINE
  5
1AF2F
330
1F
100
AcDbEntity
  8
02製品
  6
Continuous
100
AcDbLine
 10
-6576.096176631833
 20
3443.693453152885
 30
0.0
 11
-6577.296176631838
 21
3443.693453152885
 31
0.0
  0
LINE
  5
1AF30
330
1F
100
AcDbEntity
  8
02製品
  6
Continuous
100
AcDbLine
 10
-6576.096176631833
 20
3446.693453152885
 30
0.0
 11
-6576.096176631833
 21
3443.693453152885
 31
0.0
  0
LINE
  5
1AF31
330
1F
100
AcDbEntity
  8
02製品
  6
Continuous
100
AcDbLine
 10
-6576.096176631833
 20
3988.293453152884
 30
0.0
 11
-6577.296176631838
 21
3988.293453152884
 31
0.0
  0
LINE
  5
1AF32
330
1F
100
AcDbEntity
  8
02製品
  6
Continuous
100
AcDbLine
 10
-6576.096176631833
 20
3988.293453152884
 30
0.0
 11
-6576.096176631833
 21
3446.693453152885
 31
0.0
  0
LINE
  5
1AF33
330
1F
100
AcDbEntity
  8
02製品
  6
Continuous
100
AcDbLine
 10
-6577.296176631838
 20
3991.293453152884
 30
0.0
 11
-6576.096176631833
 21
3991.293453152884
 31
0.0
  0
LINE
  5
1AF34
330
1F
100
AcDbEntity
  8
02製品
  6
Continuous
100
AcDbLine
 10
-6576.096176631833
 20
3991.293453152884
 30
0.0
 11
-6576.096176631833
 21
3988.293453152884
 31
0.0
  0
LINE
  5
1AF35
330
1F
100
AcDbEntity
  8
02製品
  6
Continuous
100
AcDbLine
 10
-6576.096176631833
 20
3442.493453152881
 30
0.0
 11
-6577.296176631823
 21
3442.493453152881
 31
0.0
  0
LINE
  5
1AF36
330
1F
100
AcDbEntity
  8
02製品
  6
Continuous
100
AcDbLine
 10
-6576.096176631833
 20
3443.693453152881
 30
0.0
 11
-6576.096176631833
 21
3442.493453152881
 31
0.0
  0
LINE
  5
1AF37
330
1F
100
AcDbEntity
  8
02製品
  6
Continuous
100
AcDbLine
 10
-6577.296176631823
 20
3992.493453152881
 30
0.0
 11
-6576.096176631833
 21
3992.493453152881
 31
0.0
  0
LINE
  5
1AF38
330
1F
100
AcDbEntity
  8
02製品
  6
Continuous
100
AcDbLine
 10
-6576.096176631833
 20
3992.493453152881
 30
0.0
 11
-6576.096176631833
 21
3991.29345315288
 31
0.0
  0
LINE
  5
1AF39
330
1F
100
AcDbEntity
  8
02製品
  6
Continuous
100
AcDbLine
 10
-9741.739443053473
 20
5163.098980095148
 30
0.0
 11
-9741.739443053473
 21
6152.49898009515
 31
0.0
  0
LINE
  5
1AF3A
330
1F
100
AcDbEntity
  8
02製品
  6
Continuous
100
AcDbLine
 10
-9711.739443053473
 20
5163.098980095148
 30
0.0
 11
-9711.739443053473
 21
6152.49898009515
 31
0.0
  0
LINE
  5
1AF3B
330
1F
100
AcDbEntity
  8
02製品
  6
Continuous
100
AcDbLine
 10
-10867.73944305347
 20
5163.098980095148
 30
0.0
 11
-10867.73944305347
 21
6152.49898009515
 31
0.0
  0
LINE
  5
1AF3C
330
1F
100
AcDbEntity
  8
02製品
  6
Continuous
100
AcDbLine
 10
-10837.73944305347
 20
5163.098980095148
 30
0.0
 11
-10837.73944305347
 21
6152.49898009515
 31
0.0
  0
LINE
  5
1AF3D
330
1F
100
AcDbEntity
  8
02製品
  6
Continuous
100
AcDbLine
 10
-11993.73944305347
 20
5163.098980095148
 30
0.0
 11
-11993.73944305347
 21
6152.49898009515
 31
0.0
  0
LINE
  5
1AF3E
330
1F
100
AcDbEntity
  8
02製品
  6
Continuous
100
AcDbLine
 10
-11963.73944305347
 20
5163.098980095148
 30
0.0
 11
-11963.73944305347
 21
6152.49898009515
 31
0.0
  0
LINE
  5
1AF3F
330
1F
100
AcDbEntity
  8
02製品
  6
Continuous
100
AcDbLine
 10
-11375.73944305347
 20
6152.49898009515
 30
0.0
 11
-11375.73944305347
 21
5163.098980095148
 31
0.0
  0
LINE
  5
1AF40
330
1F
100
AcDbEntity
  8
02製品
  6
Continuous
100
AcDbLine
 10
-11375.73944305347
 20
5163.098980095148
 30
0.0
 11
-11415.73944305347
 21
5163.098980095148
 31
0.0
  0
LINE
  5
1AF41
330
1F
100
AcDbEntity
  8
02製品
  6
Continuous
100
AcDbLine
 10
-11375.73944305347
 20
6152.49898009515
 30
0.0
 11
-11415.73944305347
 21
6152.49898009515
 31
0.0
  0
LINE
  5
1AF42
330
1F
100
AcDbEntity
  8
02製品
  6
Continuous
100
AcDbLine
 10
-11415.73944305347
 20
6152.49898009515
 30
0.0
 11
-11415.73944305347
 21
5163.098980095148
 31
0.0
  0
LINE
  5
1AF43
330
1F
100
AcDbEntity
  8
02製品
  6
Continuous
100
AcDbLine
 10
-12501.73944305347
 20
6152.49898009515
 30
0.0
 11
-12541.73944305347
 21
6152.49898009515
 31
0.0
  0
LINE
  5
1AF44
330
1F
100
AcDbEntity
  8
02製品
  6
Continuous
100
AcDbLine
 10
-12501.73944305347
 20
6152.49898009515
 30
0.0
 11
-12501.73944305347
 21
5163.098980095148
 31
0.0
  0
LINE
  5
1AF45
330
1F
100
AcDbEntity
  8
02製品
  6
Continuous
100
AcDbLine
 10
-12501.73944305347
 20
5163.098980095148
 30
0.0
 11
-12541.73944305347
 21
5163.098980095148
 31
0.0
  0
LINE
  5
1AF46
330
1F
100
AcDbEntity
  8
02製品
  6
Continuous
100
AcDbLine
 10
-12541.73944305347
 20
6152.49898009515
 30
0.0
 11
-12541.73944305347
 21
5163.098980095148
 31
0.0
  0
LINE
  5
1AF47
330
1F
100
AcDbEntity
  8
02製品
  6
Continuous
100
AcDbLine
 10
-11455.73944305347
 20
5163.098980095148
 30
0.0
 11
-11415.73944305347
 21
5163.098980095148
 31
0.0
  0
LINE
  5
1AF48
330
1F
100
AcDbEntity
  8
02製品
  6
Continuous
100
AcDbLine
 10
-11455.73944305347
 20
5163.098980095148
 30
0.0
 11
-11455.73944305347
 21
6152.49898009515
 31
0.0
  0
LINE
  5
1AF49
330
1F
100
AcDbEntity
  8
02製品
  6
Continuous
100
AcDbLine
 10
-11455.73944305347
 20
6152.49898009515
 30
0.0
 11
-11415.73944305347
 21
6152.49898009515
 31
0.0
  0
LINE
  5
1AF4A
330
1F
100
AcDbEntity
  8
02製品
  6
Continuous
100
AcDbLine
 10
-9203.739443053466
 20
5163.098980095148
 30
0.0
 11
-9163.739443053466
 21
5163.098980095148
 31
0.0
  0
LINE
  5
1AF4B
330
1F
100
AcDbEntity
  8
02製品
  6
Continuous
100
AcDbLine
 10
-9203.739443053466
 20
5163.098980095148
 30
0.0
 11
-9203.739443053466
 21
6152.49898009515
 31
0.0
  0
LINE
  5
1AF4C
330
1F
100
AcDbEntity
  8
02製品
  6
Continuous
100
AcDbLine
 10
-9203.739443053466
 20
6152.49898009515
 30
0.0
 11
-9163.739443053466
 21
6152.49898009515
 31
0.0
  0
LINE
  5
1AF4D
330
1F
100
AcDbEntity
  8
02製品
  6
Continuous
100
AcDbLine
 10
-9163.739443053466
 20
5163.098980095148
 30
0.0
 11
-9163.739443053466
 21
6152.49898009515
 31
0.0
  0
LINE
  5
1AF4E
330
1F
100
AcDbEntity
  8
02製品
  6
Continuous
100
AcDbLine
 10
-10249.73944305347
 20
6152.49898009515
 30
0.0
 11
-10249.73944305347
 21
5163.098980095148
 31
0.0
  0
LINE
  5
1AF4F
330
1F
100
AcDbEntity
  8
02製品
  6
Continuous
100
AcDbLine
 10
-10249.73944305347
 20
5163.098980095148
 30
0.0
 11
-10289.73944305347
 21
5163.098980095148
 31
0.0
  0
LINE
  5
1AF50
330
1F
100
AcDbEntity
  8
02製品
  6
Continuous
100
AcDbLine
 10
-10249.73944305347
 20
6152.49898009515
 30
0.0
 11
-10289.73944305347
 21
6152.49898009515
 31
0.0
  0
LINE
  5
1AF51
330
1F
100
AcDbEntity
  8
02製品
  6
Continuous
100
AcDbLine
 10
-10289.73944305347
 20
6152.49898009515
 30
0.0
 11
-10289.73944305347
 21
5163.098980095148
 31
0.0
  0
LINE
  5
1AF52
330
1F
100
AcDbEntity
  8
02製品
  6
Continuous
100
AcDbLine
 10
-10329.73944305347
 20
5163.098980095148
 30
0.0
 11
-10289.73944305347
 21
5163.098980095148
 31
0.0
  0
LINE
  5
1AF53
330
1F
100
AcDbEntity
  8
02製品
  6
Continuous
100
AcDbLine
 10
-10329.73944305347
 20
5163.098980095148
 30
0.0
 11
-10329.73944305347
 21
6152.49898009515
 31
0.0
  0
LINE
  5
1AF54
330
1F
100
AcDbEntity
  8
02製品
  6
Continuous
100
AcDbLine
 10
-10329.73944305347
 20
6152.49898009515
 30
0.0
 11
-10289.73944305347
 21
6152.49898009515
 31
0.0
  0
LINE
  5
1AF55
330
1F
100
AcDbEntity
  8
02製品
  6
Continuous
100
AcDbLine
 10
-9163.739443053466
 20
5163.098980095148
 30
0.0
 11
-10289.73944305347
 21
5163.098980095148
 31
0.0
  0
LINE
  5
1AF56
330
1F
100
AcDbEntity
  8
02製品
  6
Continuous
100
AcDbLine
 10
-9163.739443053466
 20
5163.098980095148
 30
0.0
 11
-9163.739443053466
 21
5123.098980095148
 31
0.0
  0
LINE
  5
1AF57
330
1F
100
AcDbEntity
  8
02製品
  6
Continuous
100
AcDbLine
 10
-9163.739443053466
 20
5123.098980095148
 30
0.0
 11
-10289.73944305347
 21
5123.098980095148
 31
0.0
  0
LINE
  5
1AF58
330
1F
100
AcDbEntity
  8
02製品
  6
Continuous
100
AcDbLine
 10
-10289.73944305347
 20
5163.098980095148
 30
0.0
 11
-10289.73944305347
 21
5123.098980095148
 31
0.0
  0
LINE
  5
1AF59
330
1F
100
AcDbEntity
  8
02製品
  6
Continuous
100
AcDbLine
 10
-11415.73944305347
 20
6152.49898009515
 30
0.0
 11
-10289.73944305347
 21
6152.49898009515
 31
0.0
  0
LINE
  5
1AF5A
330
1F
100
AcDbEntity
  8
02製品
  6
Continuous
100
AcDbLine
 10
-11415.73944305347
 20
6152.49898009515
 30
0.0
 11
-11415.73944305347
 21
6192.49898009515
 31
0.0
  0
LINE
  5
1AF5B
330
1F
100
AcDbEntity
  8
02製品
  6
Continuous
100
AcDbLine
 10
-11415.73944305347
 20
6192.49898009515
 30
0.0
 11
-10289.73944305347
 21
6192.49898009515
 31
0.0
  0
LINE
  5
1AF5C
330
1F
100
AcDbEntity
  8
02製品
  6
Continuous
100
AcDbLine
 10
-10289.73944305347
 20
6152.49898009515
 30
0.0
 11
-10289.73944305347
 21
6192.49898009515
 31
0.0
  0
LINE
  5
1AF5D
330
1F
100
AcDbEntity
  8
02製品
  6
Continuous
100
AcDbLine
 10
-11415.73944305347
 20
5163.098980095148
 30
0.0
 11
-12541.73944305347
 21
5163.098980095148
 31
0.0
  0
LINE
  5
1AF5E
330
1F
100
AcDbEntity
  8
02製品
  6
Continuous
100
AcDbLine
 10
-11415.73944305347
 20
5163.098980095148
 30
0.0
 11
-11415.73944305347
 21
5123.098980095148
 31
0.0
  0
LINE
  5
1AF5F
330
1F
100
AcDbEntity
  8
02製品
  6
Continuous
100
AcDbLine
 10
-11415.73944305347
 20
5123.098980095148
 30
0.0
 11
-12541.73944305347
 21
5123.098980095148
 31
0.0
  0
LINE
  5
1AF60
330
1F
100
AcDbEntity
  8
02製品
  6
Continuous
100
AcDbLine
 10
-12541.73944305347
 20
5163.098980095148
 30
0.0
 11
-12541.73944305347
 21
5123.098980095148
 31
0.0
  0
LINE
  5
1AF61
330
1F
100
AcDbEntity
  8
02製品
  6
Continuous
100
AcDbLine
 10
-10289.73944305347
 20
6152.49898009515
 30
0.0
 11
-9163.739443053466
 21
6152.49898009515
 31
0.0
  0
LINE
  5
1AF62
330
1F
100
AcDbEntity
  8
02製品
  6
Continuous
100
AcDbLine
 10
-10289.73944305347
 20
6192.49898009515
 30
0.0
 11
-9163.739443053466
 21
6192.49898009515
 31
0.0
  0
LINE
  5
1AF63
330
1F
100
AcDbEntity
  8
02製品
  6
Continuous
100
AcDbLine
 10
-9163.739443053466
 20
6152.49898009515
 30
0.0
 11
-9163.739443053466
 21
6192.49898009515
 31
0.0
  0
LINE
  5
1AF64
330
1F
100
AcDbEntity
  8
02製品
  6
Continuous
100
AcDbLine
 10
-12541.73944305347
 20
6152.49898009515
 30
0.0
 11
-11415.73944305347
 21
6152.49898009515
 31
0.0
  0
LINE
  5
1AF65
330
1F
100
AcDbEntity
  8
02製品
  6
Continuous
100
AcDbLine
 10
-12541.73944305347
 20
6152.49898009515
 30
0.0
 11
-12541.73944305347
 21
6192.49898009515
 31
0.0
  0
LINE
  5
1AF66
330
1F
100
AcDbEntity
  8
02製品
  6
Continuous
100
AcDbLine
 10
-12541.73944305347
 20
6192.49898009515
 30
0.0
 11
-11415.73944305347
 21
6192.49898009515
 31
0.0
  0
LINE
  5
1AF67
330
1F
100
AcDbEntity
  8
02製品
  6
Continuous
100
AcDbLine
 10
-10289.73944305347
 20
5163.098980095148
 30
0.0
 11
-11415.73944305347
 21
5163.098980095148
 31
0.0
  0
LINE
  5
1AF68
330
1F
100
AcDbEntity
  8
02製品
  6
Continuous
100
AcDbLine
 10
-10289.73944305347
 20
5123.098980095148
 30
0.0
 11
-11415.73944305347
 21
5123.098980095148
 31
0.0
  0
LINE
  5
1AF69
330
1F
100
AcDbEntity
  8
02製品
  6
Continuous
100
AcDbLine
 10
-11433.33944305346
 20
5123.098980095148
 30
0.0
 11
-11432.53944305347
 21
5122.298980095149
 31
0.0
  0
LINE
  5
1AF6A
330
1F
100
AcDbEntity
  8
02製品
  6
Continuous
100
AcDbLine
 10
-11432.53944305347
 20
6193.298980095149
 30
0.0
 11
-11433.33944305347
 21
6192.49898009515
 31
0.0
  0
LINE
  5
1AF6B
330
1F
100
AcDbEntity
  8
02製品
  6
Continuous
100
AcDbLine
 10
-11398.93944305347
 20
5122.298980095149
 30
0.0
 11
-11398.13944305347
 21
5123.098980095148
 31
0.0
  0
LINE
  5
1AF6C
330
1F
100
AcDbEntity
  8
02製品
  6
Continuous
100
AcDbLine
 10
-11398.13944305347
 20
6192.49898009515
 30
0.0
 11
-11398.93944305347
 21
6193.298980095149
 31
0.0
  0
LINE
  5
1AF6D
330
1F
100
AcDbEntity
  8
02製品
  6
Continuous
100
AcDbLine
 10
-10307.33944305346
 20
5123.098980095148
 30
0.0
 11
-10306.53944305347
 21
5122.298980095149
 31
0.0
  0
LINE
  5
1AF6E
330
1F
100
AcDbEntity
  8
02製品
  6
Continuous
100
AcDbLine
 10
-10272.93944305347
 20
5122.298980095149
 30
0.0
 11
-10272.13944305347
 21
5123.098980095148
 31
0.0
  0
LINE
  5
1AF6F
330
1F
100
AcDbEntity
  8
02製品
  6
Continuous
100
AcDbLine
 10
-10272.13944305347
 20
6192.49898009515
 30
0.0
 11
-10272.93944305347
 21
6193.298980095149
 31
0.0
  0
LINE
  5
1AF70
330
1F
100
AcDbEntity
  8
02製品
  6
Continuous
100
AcDbLine
 10
-10306.53944305347
 20
6193.298980095149
 30
0.0
 11
-10307.33944305347
 21
6192.49898009515
 31
0.0
  0
LINE
  5
1AF71
330
1F
100
AcDbEntity
  8
02製品
  6
Continuous
100
AcDbLine
 10
-11451.23944305347
 20
6193.298980095149
 30
0.0
 11
-11451.23944305347
 21
6197.798980095149
 31
0.0
  0
LINE
  5
1AF72
330
1F
100
AcDbEntity
  8
02製品
  6
Continuous
100
AcDbLine
 10
-11451.23944305347
 20
6197.798980095149
 30
0.0
 11
-11446.23944305347
 21
6197.798980095149
 31
0.0
  0
LINE
  5
1AF73
330
1F
100
AcDbEntity
  8
02製品
  6
Continuous
100
AcDbLine
 10
-11446.23944305347
 20
6197.798980095149
 30
0.0
 11
-11446.23944305347
 21
6193.298980095149
 31
0.0
  0
LINE
  5
1AF74
330
1F
100
AcDbEntity
  8
02製品
  6
Continuous
100
AcDbLine
 10
-11446.23944305347
 20
6193.298980095149
 30
0.0
 11
-11451.23944305347
 21
6193.298980095149
 31
0.0
  0
LINE
  5
1AF75
330
1F
100
AcDbEntity
  8
02製品
  6
Continuous
100
AcDbLine
 10
-11385.23944305347
 20
6193.298980095149
 30
0.0
 11
-11385.23944305347
 21
6197.798980095149
 31
0.0
  0
LINE
  5
1AF76
330
1F
100
AcDbEntity
  8
02製品
  6
Continuous
100
AcDbLine
 10
-11446.23944305347
 20
6193.298980095149
 30
0.0
 11
-11385.23944305347
 21
6193.298980095149
 31
0.0
  0
LINE
  5
1AF77
330
1F
100
AcDbEntity
  8
02製品
  6
Continuous
100
AcDbLine
 10
-11385.23944305347
 20
6197.798980095149
 30
0.0
 11
-11446.23944305347
 21
6197.798980095149
 31
0.0
  0
LINE
  5
1AF78
330
1F
100
AcDbEntity
  8
02製品
  6
Continuous
100
AcDbLine
 10
-11380.23944305347
 20
6197.798980095149
 30
0.0
 11
-11380.23944305347
 21
6193.298980095149
 31
0.0
  0
LINE
  5
1AF79
330
1F
100
AcDbEntity
  8
02製品
  6
Continuous
100
AcDbLine
 10
-11380.23944305347
 20
6193.298980095149
 30
0.0
 11
-11385.23944305347
 21
6193.298980095149
 31
0.0
  0
LINE
  5
1AF7A
330
1F
100
AcDbEntity
  8
02製品
  6
Continuous
100
AcDbLine
 10
-11385.23944305347
 20
6197.798980095149
 30
0.0
 11
-11380.23944305347
 21
6197.798980095149
 31
0.0
  0
LINE
  5
1AF7B
330
1F
100
AcDbEntity
  8
02製品
  6
Continuous
100
AcDbLine
 10
-11451.23944305347
 20
6193.298980095149
 30
0.0
 11
-11451.23944305347
 21
6192.49898009515
 31
0.0
  0
LINE
  5
1AF7C
330
1F
100
AcDbEntity
  8
02製品
  6
Continuous
100
AcDbLine
 10
-11455.73944305347
 20
6197.798980095149
 30
0.0
 11
-11455.73944305347
 21
6192.49898009515
 31
0.0
  0
LINE
  5
1AF7D
330
1F
100
AcDbEntity
  8
02製品
  6
Continuous
100
AcDbLine
 10
-11451.23944305347
 20
6197.798980095149
 30
0.0
 11
-11455.73944305347
 21
6197.798980095149
 31
0.0
  0
LINE
  5
1AF7E
330
1F
100
AcDbEntity
  8
02製品
  6
Continuous
100
AcDbLine
 10
-11380.23944305347
 20
6192.49898009515
 30
0.0
 11
-11380.23944305347
 21
6193.298980095149
 31
0.0
  0
LINE
  5
1AF7F
330
1F
100
AcDbEntity
  8
02製品
  6
Continuous
100
AcDbLine
 10
-11375.73944305347
 20
6192.49898009515
 30
0.0
 11
-11375.73944305347
 21
6197.798980095149
 31
0.0
  0
LINE
  5
1AF80
330
1F
100
AcDbEntity
  8
02製品
  6
Continuous
100
AcDbLine
 10
-11380.23944305347
 20
6197.798980095149
 30
0.0
 11
-11375.73944305347
 21
6197.798980095149
 31
0.0
  0
LINE
  5
1AF81
330
1F
100
AcDbEntity
  8
02製品
  6
Continuous
100
AcDbLine
 10
-10254.23944305347
 20
5122.298980095149
 30
0.0
 11
-10254.23944305347
 21
5117.798980095153
 31
0.0
  0
LINE
  5
1AF82
330
1F
100
AcDbEntity
  8
02製品
  6
Continuous
100
AcDbLine
 10
-10254.23944305347
 20
5117.798980095153
 30
0.0
 11
-10259.23944305347
 21
5117.798980095153
 31
0.0
  0
LINE
  5
1AF83
330
1F
100
AcDbEntity
  8
02製品
  6
Continuous
100
AcDbLine
 10
-10259.23944305347
 20
5117.798980095153
 30
0.0
 11
-10259.23944305347
 21
5122.298980095149
 31
0.0
  0
LINE
  5
1AF84
330
1F
100
AcDbEntity
  8
02製品
  6
Continuous
100
AcDbLine
 10
-10259.23944305347
 20
5122.298980095149
 30
0.0
 11
-10254.23944305347
 21
5122.298980095149
 31
0.0
  0
LINE
  5
1AF85
330
1F
100
AcDbEntity
  8
02製品
  6
Continuous
100
AcDbLine
 10
-10320.23944305347
 20
5122.298980095149
 30
0.0
 11
-10320.23944305347
 21
5117.798980095153
 31
0.0
  0
LINE
  5
1AF86
330
1F
100
AcDbEntity
  8
02製品
  6
Continuous
100
AcDbLine
 10
-10259.23944305347
 20
5122.298980095149
 30
0.0
 11
-10320.23944305347
 21
5122.298980095149
 31
0.0
  0
LINE
  5
1AF87
330
1F
100
AcDbEntity
  8
02製品
  6
Continuous
100
AcDbLine
 10
-10320.23944305347
 20
5117.798980095153
 30
0.0
 11
-10259.23944305347
 21
5117.798980095153
 31
0.0
  0
LINE
  5
1AF88
330
1F
100
AcDbEntity
  8
02製品
  6
Continuous
100
AcDbLine
 10
-10325.23944305347
 20
5117.798980095153
 30
0.0
 11
-10325.23944305347
 21
5122.298980095149
 31
0.0
  0
LINE
  5
1AF89
330
1F
100
AcDbEntity
  8
02製品
  6
Continuous
100
AcDbLine
 10
-10325.23944305347
 20
5122.298980095149
 30
0.0
 11
-10320.23944305347
 21
5122.298980095149
 31
0.0
  0
LINE
  5
1AF8A
330
1F
100
AcDbEntity
  8
02製品
  6
Continuous
100
AcDbLine
 10
-10320.23944305347
 20
5117.798980095153
 30
0.0
 11
-10325.23944305347
 21
5117.798980095153
 31
0.0
  0
LINE
  5
1AF8B
330
1F
100
AcDbEntity
  8
02製品
  6
Continuous
100
AcDbLine
 10
-10325.23944305347
 20
5123.098980095148
 30
0.0
 11
-10325.23944305347
 21
5122.298980095149
 31
0.0
  0
LINE
  5
1AF8C
330
1F
100
AcDbEntity
  8
02製品
  6
Continuous
100
AcDbLine
 10
-10329.73944305347
 20
5123.098980095148
 30
0.0
 11
-10329.73944305347
 21
5117.798980095153
 31
0.0
  0
LINE
  5
1AF8D
330
1F
100
AcDbEntity
  8
02製品
  6
Continuous
100
AcDbLine
 10
-10325.23944305347
 20
5117.798980095153
 30
0.0
 11
-10329.73944305347
 21
5117.798980095153
 31
0.0
  0
LINE
  5
1AF8E
330
1F
100
AcDbEntity
  8
02製品
  6
Continuous
100
AcDbLine
 10
-10254.23944305347
 20
5122.298980095149
 30
0.0
 11
-10254.23944305347
 21
5123.098980095148
 31
0.0
  0
LINE
  5
1AF8F
330
1F
100
AcDbEntity
  8
02製品
  6
Continuous
100
AcDbLine
 10
-10249.73944305347
 20
5117.798980095153
 30
0.0
 11
-10249.73944305347
 21
5123.098980095148
 31
0.0
  0
LINE
  5
1AF90
330
1F
100
AcDbEntity
  8
02製品
  6
Continuous
100
AcDbLine
 10
-10254.23944305347
 20
5117.798980095153
 30
0.0
 11
-10249.73944305347
 21
5117.798980095153
 31
0.0
  0
LINE
  5
1AF91
330
1F
100
AcDbEntity
  8
02製品
  6
Continuous
100
AcDbLine
 10
-10254.23944305347
 20
6197.798980095149
 30
0.0
 11
-10254.23944305347
 21
6193.298980095149
 31
0.0
  0
LINE
  5
1AF92
330
1F
100
AcDbEntity
  8
02製品
  6
Continuous
100
AcDbLine
 10
-10254.23944305347
 20
6193.298980095149
 30
0.0
 11
-10259.23944305347
 21
6193.298980095149
 31
0.0
  0
LINE
  5
1AF93
330
1F
100
AcDbEntity
  8
02製品
  6
Continuous
100
AcDbLine
 10
-10259.23944305347
 20
6193.298980095149
 30
0.0
 11
-10259.23944305347
 21
6197.798980095149
 31
0.0
  0
LINE
  5
1AF94
330
1F
100
AcDbEntity
  8
02製品
  6
Continuous
100
AcDbLine
 10
-10259.23944305347
 20
6197.798980095149
 30
0.0
 11
-10254.23944305347
 21
6197.798980095149
 31
0.0
  0
LINE
  5
1AF95
330
1F
100
AcDbEntity
  8
02製品
  6
Continuous
100
AcDbLine
 10
-10320.23944305347
 20
6193.298980095149
 30
0.0
 11
-10259.23944305347
 21
6193.298980095149
 31
0.0
  0
LINE
  5
1AF96
330
1F
100
AcDbEntity
  8
02製品
  6
Continuous
100
AcDbLine
 10
-10320.23944305347
 20
6197.798980095149
 30
0.0
 11
-10320.23944305347
 21
6193.298980095149
 31
0.0
  0
LINE
  5
1AF97
330
1F
100
AcDbEntity
  8
02製品
  6
Continuous
100
AcDbLine
 10
-10259.23944305347
 20
6197.798980095149
 30
0.0
 11
-10320.23944305347
 21
6197.798980095149
 31
0.0
  0
LINE
  5
1AF98
330
1F
100
AcDbEntity
  8
02製品
  6
Continuous
100
AcDbLine
 10
-10325.23944305347
 20
6193.298980095149
 30
0.0
 11
-10325.23944305347
 21
6197.798980095149
 31
0.0
  0
LINE
  5
1AF99
330
1F
100
AcDbEntity
  8
02製品
  6
Continuous
100
AcDbLine
 10
-10325.23944305347
 20
6197.798980095149
 30
0.0
 11
-10320.23944305347
 21
6197.798980095149
 31
0.0
  0
LINE
  5
1AF9A
330
1F
100
AcDbEntity
  8
02製品
  6
Continuous
100
AcDbLine
 10
-10320.23944305347
 20
6193.298980095149
 30
0.0
 11
-10325.23944305347
 21
6193.298980095149
 31
0.0
  0
LINE
  5
1AF9B
330
1F
100
AcDbEntity
  8
02製品
  6
Continuous
100
AcDbLine
 10
-10254.23944305347
 20
6192.49898009515
 30
0.0
 11
-10254.23944305347
 21
6193.298980095149
 31
0.0
  0
LINE
  5
1AF9C
330
1F
100
AcDbEntity
  8
02製品
  6
Continuous
100
AcDbLine
 10
-10249.73944305347
 20
6192.49898009515
 30
0.0
 11
-10249.73944305347
 21
6197.798980095149
 31
0.0
  0
LINE
  5
1AF9D
330
1F
100
AcDbEntity
  8
02製品
  6
Continuous
100
AcDbLine
 10
-10254.23944305347
 20
6197.798980095149
 30
0.0
 11
-10249.73944305347
 21
6197.798980095149
 31
0.0
  0
LINE
  5
1AF9E
330
1F
100
AcDbEntity
  8
02製品
  6
Continuous
100
AcDbLine
 10
-10325.23944305347
 20
6193.298980095149
 30
0.0
 11
-10325.23944305347
 21
6192.49898009515
 31
0.0
  0
LINE
  5
1AF9F
330
1F
100
AcDbEntity
  8
02製品
  6
Continuous
100
AcDbLine
 10
-10329.73944305347
 20
6197.798980095149
 30
0.0
 11
-10329.73944305347
 21
6192.49898009515
 31
0.0
  0
LINE
  5
1AFA0
330
1F
100
AcDbEntity
  8
02製品
  6
Continuous
100
AcDbLine
 10
-10325.23944305347
 20
6197.798980095149
 30
0.0
 11
-10329.73944305347
 21
6197.798980095149
 31
0.0
  0
LINE
  5
1AFA1
330
1F
100
AcDbEntity
  8
02製品
  6
Continuous
100
AcDbLine
 10
-11446.23944305347
 20
5122.298980095149
 30
0.0
 11
-11446.23944305347
 21
5117.798980095149
 31
0.0
  0
LINE
  5
1AFA2
330
1F
100
AcDbEntity
  8
02製品
  6
Continuous
100
AcDbLine
 10
-11385.23944305347
 20
5122.298980095149
 30
0.0
 11
-11446.23944305347
 21
5122.298980095149
 31
0.0
  0
LINE
  5
1AFA3
330
1F
100
AcDbEntity
  8
02製品
  6
Continuous
100
AcDbLine
 10
-11385.23944305347
 20
5117.798980095149
 30
0.0
 11
-11385.23944305347
 21
5122.298980095149
 31
0.0
  0
LINE
  5
1AFA4
330
1F
100
AcDbEntity
  8
02製品
  6
Continuous
100
AcDbLine
 10
-11446.23944305347
 20
5117.798980095149
 30
0.0
 11
-11385.23944305347
 21
5117.798980095149
 31
0.0
  0
LINE
  5
1AFA5
330
1F
100
AcDbEntity
  8
02製品
  6
Continuous
100
AcDbLine
 10
-11380.23944305347
 20
5122.298980095149
 30
0.0
 11
-11380.23944305347
 21
5117.798980095149
 31
0.0
  0
LINE
  5
1AFA6
330
1F
100
AcDbEntity
  8
02製品
  6
Continuous
100
AcDbLine
 10
-11380.23944305347
 20
5117.798980095149
 30
0.0
 11
-11385.23944305347
 21
5117.798980095149
 31
0.0
  0
LINE
  5
1AFA7
330
1F
100
AcDbEntity
  8
02製品
  6
Continuous
100
AcDbLine
 10
-11385.23944305347
 20
5122.298980095149
 30
0.0
 11
-11380.23944305347
 21
5122.298980095149
 31
0.0
  0
LINE
  5
1AFA8
330
1F
100
AcDbEntity
  8
02製品
  6
Continuous
100
AcDbLine
 10
-11451.23944305347
 20
5117.798980095149
 30
0.0
 11
-11451.23944305347
 21
5122.298980095149
 31
0.0
  0
LINE
  5
1AFA9
330
1F
100
AcDbEntity
  8
02製品
  6
Continuous
100
AcDbLine
 10
-11446.23944305347
 20
5117.798980095149
 30
0.0
 11
-11451.23944305347
 21
5117.798980095149
 31
0.0
  0
LINE
  5
1AFAA
330
1F
100
AcDbEntity
  8
02製品
  6
Continuous
100
AcDbLine
 10
-11451.23944305347
 20
5122.298980095149
 30
0.0
 11
-11446.23944305347
 21
5122.298980095149
 31
0.0
  0
LINE
  5
1AFAB
330
1F
100
AcDbEntity
  8
02製品
  6
Continuous
100
AcDbLine
 10
-11380.23944305347
 20
5122.298980095149
 30
0.0
 11
-11380.23944305347
 21
5123.098980095148
 31
0.0
  0
LINE
  5
1AFAC
330
1F
100
AcDbEntity
  8
02製品
  6
Continuous
100
AcDbLine
 10
-11375.73944305347
 20
5117.798980095149
 30
0.0
 11
-11375.73944305347
 21
5123.098980095148
 31
0.0
  0
LINE
  5
1AFAD
330
1F
100
AcDbEntity
  8
02製品
  6
Continuous
100
AcDbLine
 10
-11380.23944305347
 20
5117.798980095149
 30
0.0
 11
-11375.73944305347
 21
5117.798980095149
 31
0.0
  0
LINE
  5
1AFAE
330
1F
100
AcDbEntity
  8
02製品
  6
Continuous
100
AcDbLine
 10
-11451.23944305347
 20
5123.098980095148
 30
0.0
 11
-11451.23944305347
 21
5122.298980095149
 31
0.0
  0
LINE
  5
1AFAF
330
1F
100
AcDbEntity
  8
02製品
  6
Continuous
100
AcDbLine
 10
-11455.73944305347
 20
5123.098980095148
 30
0.0
 11
-11455.73944305347
 21
5117.798980095149
 31
0.0
  0
LINE
  5
1AFB0
330
1F
100
AcDbEntity
  8
02製品
  6
Continuous
100
AcDbLine
 10
-11451.23944305347
 20
5117.798980095149
 30
0.0
 11
-11455.73944305347
 21
5117.798980095149
 31
0.0
  0
LINE
  5
1AFB1
330
1F
100
AcDbEntity
  8
02製品
  6
Continuous
100
AcDbLine
 10
-12542.53944305347
 20
6157.798980095149
 30
0.0
 11
-12542.53944305347
 21
6150.298980095149
 31
0.0
  0
LINE
  5
1AFB2
330
1F
100
AcDbEntity
  8
02製品
  6
Continuous
100
AcDbLine
 10
-12542.53944305347
 20
5165.298980095149
 30
0.0
 11
-12542.53944305347
 21
5157.798980095149
 31
0.0
  0
LINE
  5
1AFB3
330
1F
100
AcDbEntity
  8
02製品
  6
Continuous
100
AcDbLine
 10
-12542.53944305347
 20
5130.298980095149
 30
0.0
 11
-12541.73944305347
 21
5130.298980095149
 31
0.0
  0
LINE
  5
1AFB4
330
1F
100
AcDbEntity
  8
02製品
  6
Continuous
100
AcDbLine
 10
-12542.53944305347
 20
6185.298980095153
 30
0.0
 11
-12541.73944305347
 21
6185.298980095153
 31
0.0
  0
LINE
  5
1AFB5
330
1F
100
AcDbEntity
  8
02製品
  6
Continuous
100
AcDbLine
 10
-9162.93944305347
 20
5157.798980095149
 30
0.0
 11
-9162.93944305347
 21
5165.298980095149
 31
0.0
  0
LINE
  5
1AFB6
330
1F
100
AcDbEntity
  8
02製品
  6
Continuous
100
AcDbLine
 10
-9162.93944305347
 20
6150.298980095153
 30
0.0
 11
-9162.93944305347
 21
6157.798980095149
 31
0.0
  0
LINE
  5
1AFB7
330
1F
100
AcDbEntity
  8
02製品
  6
Continuous
100
AcDbLine
 10
-9162.93944305347
 20
5130.298980095149
 30
0.0
 11
-9163.739443053466
 21
5130.298980095149
 31
0.0
  0
LINE
  5
1AFB8
330
1F
100
AcDbEntity
  8
02製品
  6
Continuous
100
AcDbLine
 10
-9162.93944305347
 20
6185.298980095153
 30
0.0
 11
-9163.739443053466
 21
6185.298980095153
 31
0.0
  0
LINE
  5
1AFB9
330
1F
100
AcDbEntity
  8
02製品
  6
Continuous
100
AcDbLine
 10
-12547.03944305347
 20
5154.798980095149
 30
0.0
 11
-12542.53944305347
 21
5154.798980095149
 31
0.0
  0
LINE
  5
1AFBA
330
1F
100
AcDbEntity
  8
02製品
  6
Continuous
100
AcDbLine
 10
-12542.53944305347
 20
5154.798980095149
 30
0.0
 11
-12542.53944305347
 21
5122.298980095149
 31
0.0
  0
LINE
  5
1AFBB
330
1F
100
AcDbEntity
  8
02製品
  6
Continuous
100
AcDbLine
 10
-12542.53944305347
 20
5122.298980095149
 30
0.0
 11
-12400.03944305347
 21
5122.298980095149
 31
0.0
  0
LINE
  5
1AFBC
330
1F
100
AcDbEntity
  8
02製品
  6
Continuous
100
AcDbLine
 10
-12400.03944305347
 20
5122.298980095149
 30
0.0
 11
-12400.03944305347
 21
5117.798980095149
 31
0.0
  0
LINE
  5
1AFBD
330
1F
100
AcDbEntity
  8
02製品
  6
Continuous
100
AcDbLine
 10
-12400.03944305347
 20
5117.798980095149
 30
0.0
 11
-12547.03944305347
 21
5117.798980095149
 31
0.0
  0
LINE
  5
1AFBE
330
1F
100
AcDbEntity
  8
02製品
  6
Continuous
100
AcDbLine
 10
-12547.03944305347
 20
5117.798980095149
 30
0.0
 11
-12547.03944305347
 21
5154.798980095149
 31
0.0
  0
LINE
  5
1AFBF
330
1F
100
AcDbEntity
  8
02製品
  6
Continuous
100
AcDbLine
 10
-12397.03944305347
 20
5117.798980095149
 30
0.0
 11
-12397.03944305347
 21
5122.298980095149
 31
0.0
  0
LINE
  5
1AFC0
330
1F
100
AcDbEntity
  8
02製品
  6
Continuous
100
AcDbLine
 10
-12400.03944305347
 20
5117.798980095149
 30
0.0
 11
-12397.03944305347
 21
5117.798980095149
 31
0.0
  0
LINE
  5
1AFC1
330
1F
100
AcDbEntity
  8
02製品
  6
Continuous
100
AcDbLine
 10
-12397.03944305347
 20
5122.298980095149
 30
0.0
 11
-12400.03944305347
 21
5122.298980095149
 31
0.0
  0
LINE
  5
1AFC2
330
1F
100
AcDbEntity
  8
02製品
  6
Continuous
100
AcDbLine
 10
-12542.53944305347
 20
5157.798980095149
 30
0.0
 11
-12547.03944305347
 21
5157.798980095149
 31
0.0
  0
LINE
  5
1AFC3
330
1F
100
AcDbEntity
  8
02製品
  6
Continuous
100
AcDbLine
 10
-12542.53944305347
 20
5154.798980095149
 30
0.0
 11
-12542.53944305347
 21
5157.798980095149
 31
0.0
  0
LINE
  5
1AFC4
330
1F
100
AcDbEntity
  8
02製品
  6
Continuous
100
AcDbLine
 10
-12547.03944305347
 20
5157.798980095149
 30
0.0
 11
-12547.03944305347
 21
5154.798980095149
 31
0.0
  0
LINE
  5
1AFC5
330
1F
100
AcDbEntity
  8
02製品
  6
Continuous
100
AcDbLine
 10
-12532.03934305347
 20
5122.298980095149
 30
0.0
 11
-12532.83934305347
 21
5123.098980095148
 31
0.0
  0
LINE
  5
1AFC6
330
1F
100
AcDbEntity
  8
02製品
  6
Continuous
100
AcDbLine
 10
-9308.43944305347
 20
6197.798980095149
 30
0.0
 11
-9308.43944305347
 21
6193.298980095149
 31
0.0
  0
LINE
  5
1AFC7
330
1F
100
AcDbEntity
  8
02製品
  6
Continuous
100
AcDbLine
 10
-9305.43944305347
 20
6197.798980095149
 30
0.0
 11
-9308.43944305347
 21
6197.798980095149
 31
0.0
  0
LINE
  5
1AFC8
330
1F
100
AcDbEntity
  8
02製品
  6
Continuous
100
AcDbLine
 10
-9305.43944305347
 20
6193.298980095149
 30
0.0
 11
-9305.43944305347
 21
6197.798980095149
 31
0.0
  0
LINE
  5
1AFC9
330
1F
100
AcDbEntity
  8
02製品
  6
Continuous
100
AcDbLine
 10
-9308.43944305347
 20
6193.298980095149
 30
0.0
 11
-9305.43944305347
 21
6193.298980095149
 31
0.0
  0
LINE
  5
1AFCA
330
1F
100
AcDbEntity
  8
02製品
  6
Continuous
100
AcDbLine
 10
-9158.43944305347
 20
6160.798980095149
 30
0.0
 11
-9162.93944305347
 21
6160.798980095149
 31
0.0
  0
LINE
  5
1AFCB
330
1F
100
AcDbEntity
  8
02製品
  6
Continuous
100
AcDbLine
 10
-9162.93944305347
 20
6160.798980095149
 30
0.0
 11
-9162.93944305347
 21
6193.298980095149
 31
0.0
  0
LINE
  5
1AFCC
330
1F
100
AcDbEntity
  8
02製品
  6
Continuous
100
AcDbLine
 10
-9162.93944305347
 20
6193.298980095149
 30
0.0
 11
-9305.43944305347
 21
6193.298980095149
 31
0.0
  0
LINE
  5
1AFCD
330
1F
100
AcDbEntity
  8
02製品
  6
Continuous
100
AcDbLine
 10
-9158.43944305347
 20
6197.798980095149
 30
0.0
 11
-9158.43944305347
 21
6160.798980095149
 31
0.0
  0
LINE
  5
1AFCE
330
1F
100
AcDbEntity
  8
02製品
  6
Continuous
100
AcDbLine
 10
-9305.43944305347
 20
6197.798980095149
 30
0.0
 11
-9158.43944305347
 21
6197.798980095149
 31
0.0
  0
LINE
  5
1AFCF
330
1F
100
AcDbEntity
  8
02製品
  6
Continuous
100
AcDbLine
 10
-9162.93944305347
 20
6157.798980095149
 30
0.0
 11
-9158.43944305347
 21
6157.798980095149
 31
0.0
  0
LINE
  5
1AFD0
330
1F
100
AcDbEntity
  8
02製品
  6
Continuous
100
AcDbLine
 10
-9162.93944305347
 20
6160.798980095149
 30
0.0
 11
-9162.93944305347
 21
6157.798980095149
 31
0.0
  0
LINE
  5
1AFD1
330
1F
100
AcDbEntity
  8
02製品
  6
Continuous
100
AcDbLine
 10
-9158.43944305347
 20
6157.798980095149
 30
0.0
 11
-9158.43944305347
 21
6160.798980095149
 31
0.0
  0
LINE
  5
1AFD2
330
1F
100
AcDbEntity
  8
02製品
  6
Continuous
100
AcDbLine
 10
-9173.439543053468
 20
6193.298980095149
 30
0.0
 11
-9172.639543053465
 21
6192.498980095146
 31
0.0
  0
LINE
  5
1AFD3
330
1F
100
AcDbEntity
  8
02製品
  6
Continuous
100
AcDbLine
 10
-9305.43944305347
 20
5117.798980095149
 30
0.0
 11
-9158.43944305347
 21
5117.798980095149
 31
0.0
  0
LINE
  5
1AFD4
330
1F
100
AcDbEntity
  8
02製品
  6
Continuous
100
AcDbLine
 10
-9305.43944305347
 20
5122.298980095149
 30
0.0
 11
-9305.43944305347
 21
5117.798980095149
 31
0.0
  0
LINE
  5
1AFD5
330
1F
100
AcDbEntity
  8
02製品
  6
Continuous
100
AcDbLine
 10
-9162.93944305347
 20
5122.298980095149
 30
0.0
 11
-9305.43944305347
 21
5122.298980095149
 31
0.0
  0
LINE
  5
1AFD6
330
1F
100
AcDbEntity
  8
02製品
  6
Continuous
100
AcDbLine
 10
-9162.93944305347
 20
5154.798980095149
 30
0.0
 11
-9162.93944305347
 21
5122.298980095149
 31
0.0
  0
LINE
  5
1AFD7
330
1F
100
AcDbEntity
  8
02製品
  6
Continuous
100
AcDbLine
 10
-9158.43944305347
 20
5154.798980095149
 30
0.0
 11
-9162.93944305347
 21
5154.798980095149
 31
0.0
  0
LINE
  5
1AFD8
330
1F
100
AcDbEntity
  8
02製品
  6
Continuous
100
AcDbLine
 10
-9158.43944305347
 20
5117.798980095149
 30
0.0
 11
-9158.43944305347
 21
5154.798980095149
 31
0.0
  0
LINE
  5
1AFD9
330
1F
100
AcDbEntity
  8
02製品
  6
Continuous
100
AcDbLine
 10
-9305.43944305347
 20
5117.798980095149
 30
0.0
 11
-9308.43944305347
 21
5117.798980095149
 31
0.0
  0
LINE
  5
1AFDA
330
1F
100
AcDbEntity
  8
02製品
  6
Continuous
100
AcDbLine
 10
-9308.43944305347
 20
5117.798980095149
 30
0.0
 11
-9308.43944305347
 21
5122.298980095149
 31
0.0
  0
LINE
  5
1AFDB
330
1F
100
AcDbEntity
  8
02製品
  6
Continuous
100
AcDbLine
 10
-9308.43944305347
 20
5122.298980095149
 30
0.0
 11
-9305.43944305347
 21
5122.298980095149
 31
0.0
  0
LINE
  5
1AFDC
330
1F
100
AcDbEntity
  8
02製品
  6
Continuous
100
AcDbLine
 10
-9162.93944305347
 20
5154.798980095149
 30
0.0
 11
-9162.93944305347
 21
5157.798980095149
 31
0.0
  0
LINE
  5
1AFDD
330
1F
100
AcDbEntity
  8
02製品
  6
Continuous
100
AcDbLine
 10
-9162.93944305347
 20
5157.798980095149
 30
0.0
 11
-9158.43944305347
 21
5157.798980095149
 31
0.0
  0
LINE
  5
1AFDE
330
1F
100
AcDbEntity
  8
02製品
  6
Continuous
100
AcDbLine
 10
-9158.43944305347
 20
5157.798980095149
 30
0.0
 11
-9158.43944305347
 21
5154.798980095149
 31
0.0
  0
LINE
  5
1AFDF
330
1F
100
AcDbEntity
  8
02製品
  6
Continuous
100
AcDbLine
 10
-9173.439543053468
 20
5122.298980095149
 30
0.0
 11
-9172.639543053472
 21
5123.098980095148
 31
0.0
  0
LINE
  5
1AFE0
330
1F
100
AcDbEntity
  8
02製品
  6
Continuous
100
AcDbLine
 10
-12400.03944305347
 20
6197.798980095149
 30
0.0
 11
-12547.03944305347
 21
6197.798980095149
 31
0.0
  0
LINE
  5
1AFE1
330
1F
100
AcDbEntity
  8
02製品
  6
Continuous
100
AcDbLine
 10
-12400.03944305347
 20
6193.298980095149
 30
0.0
 11
-12400.03944305347
 21
6197.798980095149
 31
0.0
  0
LINE
  5
1AFE2
330
1F
100
AcDbEntity
  8
02製品
  6
Continuous
100
AcDbLine
 10
-12542.53944305347
 20
6193.298980095149
 30
0.0
 11
-12400.03944305347
 21
6193.298980095149
 31
0.0
  0
LINE
  5
1AFE3
330
1F
100
AcDbEntity
  8
02製品
  6
Continuous
100
AcDbLine
 10
-12542.53944305347
 20
6160.798980095149
 30
0.0
 11
-12542.53944305347
 21
6193.298980095149
 31
0.0
  0
LINE
  5
1AFE4
330
1F
100
AcDbEntity
  8
02製品
  6
Continuous
100
AcDbLine
 10
-12547.03944305347
 20
6160.798980095149
 30
0.0
 11
-12542.53944305347
 21
6160.798980095149
 31
0.0
  0
LINE
  5
1AFE5
330
1F
100
AcDbEntity
  8
02製品
  6
Continuous
100
AcDbLine
 10
-12547.03944305347
 20
6197.798980095149
 30
0.0
 11
-12547.03944305347
 21
6160.798980095149
 31
0.0
  0
LINE
  5
1AFE6
330
1F
100
AcDbEntity
  8
02製品
  6
Continuous
100
AcDbLine
 10
-12400.03944305347
 20
6197.798980095149
 30
0.0
 11
-12397.03944305347
 21
6197.798980095149
 31
0.0
  0
LINE
  5
1AFE7
330
1F
100
AcDbEntity
  8
02製品
  6
Continuous
100
AcDbLine
 10
-12397.03944305347
 20
6197.798980095149
 30
0.0
 11
-12397.03944305347
 21
6193.298980095149
 31
0.0
  0
LINE
  5
1AFE8
330
1F
100
AcDbEntity
  8
02製品
  6
Continuous
100
AcDbLine
 10
-12397.03944305347
 20
6193.298980095149
 30
0.0
 11
-12400.03944305347
 21
6193.298980095149
 31
0.0
  0
LINE
  5
1AFE9
330
1F
100
AcDbEntity
  8
02製品
  6
Continuous
100
AcDbLine
 10
-12542.53944305347
 20
6157.798980095149
 30
0.0
 11
-12547.03944305347
 21
6157.798980095149
 31
0.0
  0
LINE
  5
1AFEA
330
1F
100
AcDbEntity
  8
02製品
  6
Continuous
100
AcDbLine
 10
-12542.53944305347
 20
6160.798980095149
 30
0.0
 11
-12542.53944305347
 21
6157.798980095149
 31
0.0
  0
LINE
  5
1AFEB
330
1F
100
AcDbEntity
  8
02製品
  6
Continuous
100
AcDbLine
 10
-12547.03944305347
 20
6157.798980095149
 30
0.0
 11
-12547.03944305347
 21
6160.798980095149
 31
0.0
  0
LINE
  5
1AFEC
330
1F
100
AcDbEntity
  8
02製品
  6
Continuous
100
AcDbLine
 10
-12532.03934305347
 20
6193.298980095149
 30
0.0
 11
-12532.83934305347
 21
6192.498980095146
 31
0.0
  0
LINE
  5
1AFED
330
1F
100
AcDbEntity
  8
02製品
  6
Continuous
100
AcDbLine
 10
-9163.739443053466
 20
6150.298980095153
 30
0.0
 11
-9157.239443053466
 21
6150.298980095153
 31
0.0
  0
LINE
  5
1AFEE
330
1F
100
AcDbEntity
  8
02製品
  6
Continuous
100
AcDbLine
 10
-9163.739443053466
 20
5165.298980095149
 30
0.0
 11
-9157.239443053466
 21
5165.298980095149
 31
0.0
  0
LINE
  5
1AFEF
330
1F
100
AcDbEntity
  8
02製品
  6
Continuous
100
AcDbLine
 10
-9157.239443053466
 20
6150.298980095153
 30
0.0
 11
-9157.239443053466
 21
5165.298980095149
 31
0.0
  0
LINE
  5
1AFF0
330
1F
100
AcDbEntity
  8
02製品
  6
Continuous
100
AcDbLine
 10
-9157.239443053466
 20
6192.298980095153
 30
0.0
 11
-9158.43944305347
 21
6192.298980095153
 31
0.0
  0
LINE
  5
1AFF1
330
1F
100
AcDbEntity
  8
02製品
  6
Continuous
100
AcDbLine
 10
-9158.43944305347
 20
6195.298980095153
 30
0.0
 11
-9157.239443053466
 21
6195.298980095153
 31
0.0
  0
LINE
  5
1AFF2
330
1F
100
AcDbEntity
  8
02製品
  6
Continuous
100
AcDbLine
 10
-9157.239443053466
 20
6195.298980095153
 30
0.0
 11
-9157.239443053466
 21
6192.298980095153
 31
0.0
  0
LINE
  5
1AFF3
330
1F
100
AcDbEntity
  8
02製品
  6
Continuous
100
AcDbLine
 10
-9158.43944305347
 20
6157.798980095149
 30
0.0
 11
-9158.43944305347
 21
6150.298980095153
 31
0.0
  0
LINE
  5
1AFF4
330
1F
100
AcDbEntity
  8
02製品
  6
Continuous
100
AcDbLine
 10
-9157.239443053466
 20
6150.298980095153
 30
0.0
 11
-9157.239443053466
 21
6192.298980095153
 31
0.0
  0
LINE
  5
1AFF5
330
1F
100
AcDbEntity
  8
02製品
  6
Continuous
100
AcDbLine
 10
-9158.43944305347
 20
5123.298980095149
 30
0.0
 11
-9157.239443053466
 21
5123.298980095149
 31
0.0
  0
LINE
  5
1AFF6
330
1F
100
AcDbEntity
  8
02製品
  6
Continuous
100
AcDbLine
 10
-9158.43944305347
 20
5165.298980095149
 30
0.0
 11
-9158.43944305347
 21
5157.798980095149
 31
0.0
  0
LINE
  5
1AFF7
330
1F
100
AcDbEntity
  8
02製品
  6
Continuous
100
AcDbLine
 10
-9157.239443053466
 20
5165.298980095149
 30
0.0
 11
-9157.239443053466
 21
5123.298980095149
 31
0.0
  0
LINE
  5
1AFF8
330
1F
100
AcDbEntity
  8
02製品
  6
Continuous
100
AcDbLine
 10
-9157.239443053466
 20
5120.298980095149
 30
0.0
 11
-9158.43944305347
 21
5120.298980095149
 31
0.0
  0
LINE
  5
1AFF9
330
1F
100
AcDbEntity
  8
02製品
  6
Continuous
100
AcDbLine
 10
-9157.239443053466
 20
5123.298980095149
 30
0.0
 11
-9157.239443053466
 21
5120.298980095149
 31
0.0
  0
LINE
  5
1AFFA
330
1F
100
AcDbEntity
  8
02製品
  6
Continuous
100
AcDbLine
 10
-12541.73944305347
 20
5165.298980095149
 30
0.0
 11
-12548.23944305347
 21
5165.298980095149
 31
0.0
  0
LINE
  5
1AFFB
330
1F
100
AcDbEntity
  8
02製品
  6
Continuous
100
AcDbLine
 10
-12541.73944305347
 20
6150.298980095149
 30
0.0
 11
-12548.23944305347
 21
6150.298980095149
 31
0.0
  0
LINE
  5
1AFFC
330
1F
100
AcDbEntity
  8
02製品
  6
Continuous
100
AcDbLine
 10
-12548.23944305347
 20
5165.298980095149
 30
0.0
 11
-12548.23944305347
 21
6150.298980095149
 31
0.0
  0
LINE
  5
1AFFD
330
1F
100
AcDbEntity
  8
02製品
  6
Continuous
100
AcDbLine
 10
-12548.23944305347
 20
6195.298980095153
 30
0.0
 11
-12547.03944305347
 21
6195.298980095153
 31
0.0
  0
LINE
  5
1AFFE
330
1F
100
AcDbEntity
  8
02製品
  6
Continuous
100
AcDbLine
 10
-12547.03944305347
 20
6192.298980095149
 30
0.0
 11
-12548.23944305347
 21
6192.298980095149
 31
0.0
  0
LINE
  5
1AFFF
330
1F
100
AcDbEntity
  8
02製品
  6
Continuous
100
AcDbLine
 10
-12548.23944305347
 20
6192.298980095149
 30
0.0
 11
-12548.23944305347
 21
6195.298980095153
 31
0.0
  0
LINE
  5
1B000
330
1F
100
AcDbEntity
  8
02製品
  6
Continuous
100
AcDbLine
 10
-12547.03944305347
 20
6150.298980095149
 30
0.0
 11
-12547.03944305347
 21
6157.798980095149
 31
0.0
  0
LINE
  5
1B001
330
1F
100
AcDbEntity
  8
02製品
  6
Continuous
100
AcDbLine
 10
-12548.23944305347
 20
6150.298980095149
 30
0.0
 11
-12548.23944305347
 21
6192.298980095149
 31
0.0
  0
LINE
  5
1B002
330
1F
100
AcDbEntity
  8
02製品
  6
Continuous
100
AcDbLine
 10
-12548.23944305347
 20
5123.298980095149
 30
0.0
 11
-12547.03944305347
 21
5123.298980095149
 31
0.0
  0
LINE
  5
1B003
330
1F
100
AcDbEntity
  8
02製品
  6
Continuous
100
AcDbLine
 10
-12547.03944305347
 20
5157.798980095149
 30
0.0
 11
-12547.03944305347
 21
5165.298980095149
 31
0.0
  0
LINE
  5
1B004
330
1F
100
AcDbEntity
  8
02製品
  6
Continuous
100
AcDbLine
 10
-12548.23944305347
 20
5165.298980095149
 30
0.0
 11
-12548.23944305347
 21
5123.298980095149
 31
0.0
  0
LINE
  5
1B005
330
1F
100
AcDbEntity
  8
02製品
  6
Continuous
100
AcDbLine
 10
-12547.03944305347
 20
5120.298980095149
 30
0.0
 11
-12548.23944305347
 21
5120.298980095149
 31
0.0
  0
LINE
  5
1B006
330
1F
100
AcDbEntity
  8
02製品
  6
Continuous
100
AcDbLine
 10
-12548.23944305347
 20
5120.298980095149
 30
0.0
 11
-12548.23944305347
 21
5123.298980095149
 31
0.0
  0
LINE
  5
1B007
330
1F
100
AcDbEntity
  8
02製品
  6
Continuous
100
AcDbLine
 10
-11463.23944305347
 20
5116.598980095152
 30
0.0
 11
-12494.23944305347
 21
5116.598980095152
 31
0.0
  0
LINE
  5
1B008
330
1F
100
AcDbEntity
  8
02製品
  6
Continuous
100
AcDbLine
 10
-12494.23944305347
 20
5123.098980095148
 30
0.0
 11
-12494.23944305347
 21
5122.298980095153
 31
0.0
  0
LINE
  5
1B009
330
1F
100
AcDbEntity
  8
02製品
  6
Continuous
100
AcDbLine
 10
-12494.23944305347
 20
5117.798980095149
 30
0.0
 11
-12494.23944305347
 21
5116.598980095152
 31
0.0
  0
LINE
  5
1B00A
330
1F
100
AcDbEntity
  8
02製品
  6
Continuous
100
AcDbLine
 10
-11463.23944305347
 20
5123.098980095148
 30
0.0
 11
-11463.23944305347
 21
5116.598980095152
 31
0.0
  0
LINE
  5
1B00B
330
1F
100
AcDbEntity
  8
02製品
  6
Continuous
100
AcDbLine
 10
-11421.23944305347
 20
5116.598980095152
 30
0.0
 11
-11421.23944305347
 21
5117.798980095149
 31
0.0
  0
LINE
  5
1B00C
330
1F
100
AcDbEntity
  8
02製品
  6
Continuous
100
AcDbLine
 10
-11418.23944305347
 20
5117.798980095149
 30
0.0
 11
-11418.23944305347
 21
5116.598980095152
 31
0.0
  0
LINE
  5
1B00D
330
1F
100
AcDbEntity
  8
02製品
  6
Continuous
100
AcDbLine
 10
-11418.23944305347
 20
5116.598980095152
 30
0.0
 11
-11421.23944305347
 21
5116.598980095152
 31
0.0
  0
LINE
  5
1B00E
330
1F
100
AcDbEntity
  8
02製品
  6
Continuous
100
AcDbLine
 10
-11455.73944305347
 20
5117.798980095149
 30
0.0
 11
-11463.23944305347
 21
5117.798980095149
 31
0.0
  0
LINE
  5
1B00F
330
1F
100
AcDbEntity
  8
02製品
  6
Continuous
100
AcDbLine
 10
-11463.23944305347
 20
5116.598980095152
 30
0.0
 11
-11421.23944305347
 21
5116.598980095152
 31
0.0
  0
LINE
  5
1B010
330
1F
100
AcDbEntity
  8
02製品
  6
Continuous
100
AcDbLine
 10
-12536.23944305347
 20
5117.798980095149
 30
0.0
 11
-12536.23944305347
 21
5116.598980095152
 31
0.0
  0
LINE
  5
1B011
330
1F
100
AcDbEntity
  8
02製品
  6
Continuous
100
AcDbLine
 10
-12494.23944305347
 20
5116.598980095152
 30
0.0
 11
-12536.23944305347
 21
5116.598980095152
 31
0.0
  0
LINE
  5
1B012
330
1F
100
AcDbEntity
  8
02製品
  6
Continuous
100
AcDbLine
 10
-12539.23944305347
 20
5116.598980095152
 30
0.0
 11
-12539.23944305347
 21
5117.798980095149
 31
0.0
  0
LINE
  5
1B013
330
1F
100
AcDbEntity
  8
02製品
  6
Continuous
100
AcDbLine
 10
-12536.23944305347
 20
5116.598980095152
 30
0.0
 11
-12539.23944305347
 21
5116.598980095152
 31
0.0
  0
LINE
  5
1B014
330
1F
100
AcDbEntity
  8
02製品
  6
Continuous
100
AcDbLine
 10
-9211.239443053466
 20
5123.098980095148
 30
0.0
 11
-9211.239443053466
 21
5122.298980095153
 31
0.0
  0
LINE
  5
1B015
330
1F
100
AcDbEntity
  8
02製品
  6
Continuous
100
AcDbLine
 10
-9211.239443053466
 20
5117.798980095149
 30
0.0
 11
-9211.239443053466
 21
5116.598980095152
 31
0.0
  0
LINE
  5
1B016
330
1F
100
AcDbEntity
  8
02製品
  6
Continuous
100
AcDbLine
 10
-9211.239443053466
 20
5116.598980095152
 30
0.0
 11
-10242.23944305347
 21
5116.598980095152
 31
0.0
  0
LINE
  5
1B017
330
1F
100
AcDbEntity
  8
02製品
  6
Continuous
100
AcDbLine
 10
-10242.23944305347
 20
5123.098980095148
 30
0.0
 11
-10242.23944305347
 21
5116.598980095152
 31
0.0
  0
LINE
  5
1B018
330
1F
100
AcDbEntity
  8
02製品
  6
Continuous
100
AcDbLine
 10
-9169.239443053473
 20
5116.598980095152
 30
0.0
 11
-9169.239443053473
 21
5117.798980095149
 31
0.0
  0
LINE
  5
1B019
330
1F
100
AcDbEntity
  8
02製品
  6
Continuous
100
AcDbLine
 10
-9166.239443053466
 20
5117.798980095149
 30
0.0
 11
-9166.239443053466
 21
5116.598980095152
 31
0.0
  0
LINE
  5
1B01A
330
1F
100
AcDbEntity
  8
02製品
  6
Continuous
100
AcDbLine
 10
-9166.239443053466
 20
5116.598980095152
 30
0.0
 11
-9169.239443053473
 21
5116.598980095152
 31
0.0
  0
LINE
  5
1B01B
330
1F
100
AcDbEntity
  8
02製品
  6
Continuous
100
AcDbLine
 10
-9211.239443053466
 20
5116.598980095152
 30
0.0
 11
-9169.239443053473
 21
5116.598980095152
 31
0.0
  0
LINE
  5
1B01C
330
1F
100
AcDbEntity
  8
02製品
  6
Continuous
100
AcDbLine
 10
-10284.23944305347
 20
5117.798980095149
 30
0.0
 11
-10284.23944305347
 21
5116.598980095152
 31
0.0
  0
LINE
  5
1B01D
330
1F
100
AcDbEntity
  8
02製品
  6
Continuous
100
AcDbLine
 10
-10242.23944305347
 20
5117.798980095149
 30
0.0
 11
-10249.73944305347
 21
5117.798980095149
 31
0.0
  0
LINE
  5
1B01E
330
1F
100
AcDbEntity
  8
02製品
  6
Continuous
100
AcDbLine
 10
-10242.23944305347
 20
5116.598980095152
 30
0.0
 11
-10284.23944305347
 21
5116.598980095152
 31
0.0
  0
LINE
  5
1B01F
330
1F
100
AcDbEntity
  8
02製品
  6
Continuous
100
AcDbLine
 10
-10287.23944305347
 20
5116.598980095152
 30
0.0
 11
-10287.23944305347
 21
5117.798980095149
 31
0.0
  0
LINE
  5
1B020
330
1F
100
AcDbEntity
  8
02製品
  6
Continuous
100
AcDbLine
 10
-10284.23944305347
 20
5116.598980095152
 30
0.0
 11
-10287.23944305347
 21
5116.598980095152
 31
0.0
  0
LINE
  5
1B021
330
1F
100
AcDbEntity
  8
02製品
  6
Continuous
100
AcDbLine
 10
-10242.23944305347
 20
6192.49898009515
 30
0.0
 11
-10242.23944305347
 21
6198.99898009515
 31
0.0
  0
LINE
  5
1B022
330
1F
100
AcDbEntity
  8
02製品
  6
Continuous
100
AcDbLine
 10
-9211.239443053466
 20
6192.49898009515
 30
0.0
 11
-9211.239443053466
 21
6193.298980095153
 31
0.0
  0
LINE
  5
1B023
330
1F
100
AcDbEntity
  8
02製品
  6
Continuous
100
AcDbLine
 10
-9211.239443053466
 20
6197.798980095149
 30
0.0
 11
-9211.239443053466
 21
6198.99898009515
 31
0.0
  0
LINE
  5
1B024
330
1F
100
AcDbEntity
  8
02製品
  6
Continuous
100
AcDbLine
 10
-10242.23944305347
 20
6198.99898009515
 30
0.0
 11
-9211.239443053466
 21
6198.99898009515
 31
0.0
  0
LINE
  5
1B025
330
1F
100
AcDbEntity
  8
02製品
  6
Continuous
100
AcDbLine
 10
-9166.239443053466
 20
6198.99898009515
 30
0.0
 11
-9166.239443053466
 21
6197.798980095149
 31
0.0
  0
LINE
  5
1B026
330
1F
100
AcDbEntity
  8
02製品
  6
Continuous
100
AcDbLine
 10
-9169.239443053466
 20
6197.798980095149
 30
0.0
 11
-9169.239443053466
 21
6198.99898009515
 31
0.0
  0
LINE
  5
1B027
330
1F
100
AcDbEntity
  8
02製品
  6
Continuous
100
AcDbLine
 10
-9169.239443053466
 20
6198.99898009515
 30
0.0
 11
-9166.239443053466
 21
6198.99898009515
 31
0.0
  0
LINE
  5
1B028
330
1F
100
AcDbEntity
  8
02製品
  6
Continuous
100
AcDbLine
 10
-9211.239443053466
 20
6198.99898009515
 30
0.0
 11
-9169.239443053466
 21
6198.99898009515
 31
0.0
  0
LINE
  5
1B029
330
1F
100
AcDbEntity
  8
02製品
  6
Continuous
100
AcDbLine
 10
-10284.23944305347
 20
6198.99898009515
 30
0.0
 11
-10284.23944305347
 21
6197.798980095149
 31
0.0
  0
LINE
  5
1B02A
330
1F
100
AcDbEntity
  8
02製品
  6
Continuous
100
AcDbLine
 10
-10249.73944305347
 20
6197.798980095149
 30
0.0
 11
-10242.23944305347
 21
6197.798980095149
 31
0.0
  0
LINE
  5
1B02B
330
1F
100
AcDbEntity
  8
02製品
  6
Continuous
100
AcDbLine
 10
-10242.23944305347
 20
6198.99898009515
 30
0.0
 11
-10284.23944305347
 21
6198.99898009515
 31
0.0
  0
LINE
  5
1B02C
330
1F
100
AcDbEntity
  8
02製品
  6
Continuous
100
AcDbLine
 10
-10287.23944305347
 20
6197.798980095149
 30
0.0
 11
-10287.23944305347
 21
6198.99898009515
 31
0.0
  0
LINE
  5
1B02D
330
1F
100
AcDbEntity
  8
02製品
  6
Continuous
100
AcDbLine
 10
-10287.23944305347
 20
6198.99898009515
 30
0.0
 11
-10284.23944305347
 21
6198.99898009515
 31
0.0
  0
LINE
  5
1B02E
330
1F
100
AcDbEntity
  8
02製品
  6
Continuous
100
AcDbLine
 10
-10337.23944305347
 20
6192.49898009515
 30
0.0
 11
-10337.23944305347
 21
6198.99898009515
 31
0.0
  0
LINE
  5
1B02F
330
1F
100
AcDbEntity
  8
02製品
  6
Continuous
100
AcDbLine
 10
-11368.23944305347
 20
6192.49898009515
 30
0.0
 11
-11368.23944305347
 21
6198.99898009515
 31
0.0
  0
LINE
  5
1B030
330
1F
100
AcDbEntity
  8
02製品
  6
Continuous
100
AcDbLine
 10
-11368.23944305347
 20
6198.99898009515
 30
0.0
 11
-10337.23944305347
 21
6198.99898009515
 31
0.0
  0
LINE
  5
1B031
330
1F
100
AcDbEntity
  8
02製品
  6
Continuous
100
AcDbLine
 10
-11410.23944305347
 20
6198.99898009515
 30
0.0
 11
-11410.23944305347
 21
6197.798980095149
 31
0.0
  0
LINE
  5
1B032
330
1F
100
AcDbEntity
  8
02製品
  6
Continuous
100
AcDbLine
 10
-11413.23944305347
 20
6197.798980095149
 30
0.0
 11
-11413.23944305347
 21
6198.99898009515
 31
0.0
  0
LINE
  5
1B033
330
1F
100
AcDbEntity
  8
02製品
  6
Continuous
100
AcDbLine
 10
-11413.23944305347
 20
6198.99898009515
 30
0.0
 11
-11410.23944305347
 21
6198.99898009515
 31
0.0
  0
LINE
  5
1B034
330
1F
100
AcDbEntity
  8
02製品
  6
Continuous
100
AcDbLine
 10
-11375.73944305347
 20
6197.798980095149
 30
0.0
 11
-11368.23944305347
 21
6197.798980095149
 31
0.0
  0
LINE
  5
1B035
330
1F
100
AcDbEntity
  8
02製品
  6
Continuous
100
AcDbLine
 10
-11368.23944305347
 20
6198.99898009515
 30
0.0
 11
-11410.23944305347
 21
6198.99898009515
 31
0.0
  0
LINE
  5
1B036
330
1F
100
AcDbEntity
  8
02製品
  6
Continuous
100
AcDbLine
 10
-10295.23944305347
 20
6197.798980095149
 30
0.0
 11
-10295.23944305347
 21
6198.99898009515
 31
0.0
  0
LINE
  5
1B037
330
1F
100
AcDbEntity
  8
02製品
  6
Continuous
100
AcDbLine
 10
-10337.23944305347
 20
6197.798980095149
 30
0.0
 11
-10329.73944305347
 21
6197.798980095149
 31
0.0
  0
LINE
  5
1B038
330
1F
100
AcDbEntity
  8
02製品
  6
Continuous
100
AcDbLine
 10
-10337.23944305347
 20
6198.99898009515
 30
0.0
 11
-10295.23944305347
 21
6198.99898009515
 31
0.0
  0
LINE
  5
1B039
330
1F
100
AcDbEntity
  8
02製品
  6
Continuous
100
AcDbLine
 10
-10292.23944305347
 20
6198.99898009515
 30
0.0
 11
-10292.23944305347
 21
6197.798980095149
 31
0.0
  0
LINE
  5
1B03A
330
1F
100
AcDbEntity
  8
02製品
  6
Continuous
100
AcDbLine
 10
-10295.23944305347
 20
6198.99898009515
 30
0.0
 11
-10292.23944305347
 21
6198.99898009515
 31
0.0
  0
LINE
  5
1B03B
330
1F
100
AcDbEntity
  8
02製品
  6
Continuous
100
AcDbLine
 10
-12494.23944305347
 20
6192.49898009515
 30
0.0
 11
-12494.23944305347
 21
6193.298980095153
 31
0.0
  0
LINE
  5
1B03C
330
1F
100
AcDbEntity
  8
02製品
  6
Continuous
100
AcDbLine
 10
-12494.23944305347
 20
6197.798980095149
 30
0.0
 11
-12494.23944305347
 21
6198.99898009515
 31
0.0
  0
LINE
  5
1B03D
330
1F
100
AcDbEntity
  8
02製品
  6
Continuous
100
AcDbLine
 10
-11463.23944305347
 20
6192.49898009515
 30
0.0
 11
-11463.23944305347
 21
6198.99898009515
 31
0.0
  0
LINE
  5
1B03E
330
1F
100
AcDbEntity
  8
02製品
  6
Continuous
100
AcDbLine
 10
-12494.23944305347
 20
6198.99898009515
 30
0.0
 11
-11463.23944305347
 21
6198.99898009515
 31
0.0
  0
LINE
  5
1B03F
330
1F
100
AcDbEntity
  8
02製品
  6
Continuous
100
AcDbLine
 10
-12536.23944305347
 20
6198.99898009515
 30
0.0
 11
-12536.23944305347
 21
6197.798980095149
 31
0.0
  0
LINE
  5
1B040
330
1F
100
AcDbEntity
  8
02製品
  6
Continuous
100
AcDbLine
 10
-12539.23944305347
 20
6197.798980095149
 30
0.0
 11
-12539.23944305347
 21
6198.99898009515
 31
0.0
  0
LINE
  5
1B041
330
1F
100
AcDbEntity
  8
02製品
  6
Continuous
100
AcDbLine
 10
-12539.23944305347
 20
6198.99898009515
 30
0.0
 11
-12536.23944305347
 21
6198.99898009515
 31
0.0
  0
LINE
  5
1B042
330
1F
100
AcDbEntity
  8
02製品
  6
Continuous
100
AcDbLine
 10
-12494.23944305347
 20
6198.99898009515
 30
0.0
 11
-12536.23944305347
 21
6198.99898009515
 31
0.0
  0
LINE
  5
1B043
330
1F
100
AcDbEntity
  8
02製品
  6
Continuous
100
AcDbLine
 10
-11421.23944305347
 20
6197.798980095149
 30
0.0
 11
-11421.23944305347
 21
6198.99898009515
 31
0.0
  0
LINE
  5
1B044
330
1F
100
AcDbEntity
  8
02製品
  6
Continuous
100
AcDbLine
 10
-11463.23944305347
 20
6197.798980095149
 30
0.0
 11
-11455.73944305347
 21
6197.798980095149
 31
0.0
  0
LINE
  5
1B045
330
1F
100
AcDbEntity
  8
02製品
  6
Continuous
100
AcDbLine
 10
-11463.23944305347
 20
6198.99898009515
 30
0.0
 11
-11421.23944305347
 21
6198.99898009515
 31
0.0
  0
LINE
  5
1B046
330
1F
100
AcDbEntity
  8
02製品
  6
Continuous
100
AcDbLine
 10
-11418.23944305347
 20
6198.99898009515
 30
0.0
 11
-11418.23944305347
 21
6197.798980095149
 31
0.0
  0
LINE
  5
1B047
330
1F
100
AcDbEntity
  8
02製品
  6
Continuous
100
AcDbLine
 10
-11421.23944305347
 20
6198.99898009515
 30
0.0
 11
-11418.23944305347
 21
6198.99898009515
 31
0.0
  0
LINE
  5
1B048
330
1F
100
AcDbEntity
  8
02製品
  6
Continuous
100
AcDbLine
 10
-10337.23944305347
 20
5116.598980095152
 30
0.0
 11
-11368.23944305347
 21
5116.598980095152
 31
0.0
  0
LINE
  5
1B049
330
1F
100
AcDbEntity
  8
02製品
  6
Continuous
100
AcDbLine
 10
-11368.23944305347
 20
5123.098980095148
 30
0.0
 11
-11368.23944305347
 21
5116.598980095152
 31
0.0
  0
LINE
  5
1B04A
330
1F
100
AcDbEntity
  8
02製品
  6
Continuous
100
AcDbLine
 10
-10337.23944305347
 20
5123.098980095148
 30
0.0
 11
-10337.23944305347
 21
5116.598980095152
 31
0.0
  0
LINE
  5
1B04B
330
1F
100
AcDbEntity
  8
02製品
  6
Continuous
100
AcDbLine
 10
-10295.23944305347
 20
5116.598980095152
 30
0.0
 11
-10295.23944305347
 21
5117.798980095153
 31
0.0
  0
LINE
  5
1B04C
330
1F
100
AcDbEntity
  8
02製品
  6
Continuous
100
AcDbLine
 10
-10292.23944305347
 20
5117.798980095153
 30
0.0
 11
-10292.23944305347
 21
5116.598980095152
 31
0.0
  0
LINE
  5
1B04D
330
1F
100
AcDbEntity
  8
02製品
  6
Continuous
100
AcDbLine
 10
-10292.23944305347
 20
5116.598980095152
 30
0.0
 11
-10295.23944305347
 21
5116.598980095152
 31
0.0
  0
LINE
  5
1B04E
330
1F
100
AcDbEntity
  8
02製品
  6
Continuous
100
AcDbLine
 10
-10329.73944305347
 20
5117.798980095153
 30
0.0
 11
-10337.23944305347
 21
5117.798980095153
 31
0.0
  0
LINE
  5
1B04F
330
1F
100
AcDbEntity
  8
02製品
  6
Continuous
100
AcDbLine
 10
-10337.23944305347
 20
5116.598980095152
 30
0.0
 11
-10295.23944305347
 21
5116.598980095152
 31
0.0
  0
LINE
  5
1B050
330
1F
100
AcDbEntity
  8
02製品
  6
Continuous
100
AcDbLine
 10
-11413.23944305347
 20
5116.598980095152
 30
0.0
 11
-11413.23944305347
 21
5117.798980095153
 31
0.0
  0
LINE
  5
1B051
330
1F
100
AcDbEntity
  8
02製品
  6
Continuous
100
AcDbLine
 10
-11410.23944305347
 20
5117.798980095153
 30
0.0
 11
-11410.23944305347
 21
5116.598980095152
 31
0.0
  0
LINE
  5
1B052
330
1F
100
AcDbEntity
  8
02製品
  6
Continuous
100
AcDbLine
 10
-11410.23944305347
 20
5116.598980095152
 30
0.0
 11
-11413.23944305347
 21
5116.598980095152
 31
0.0
  0
LINE
  5
1B053
330
1F
100
AcDbEntity
  8
02製品
  6
Continuous
100
AcDbLine
 10
-11368.23944305347
 20
5117.798980095153
 30
0.0
 11
-11375.73944305347
 21
5117.798980095153
 31
0.0
  0
LINE
  5
1B054
330
1F
100
AcDbEntity
  8
02製品
  6
Continuous
100
AcDbLine
 10
-11368.23944305347
 20
5116.598980095152
 30
0.0
 11
-11410.23944305347
 21
5116.598980095152
 31
0.0
  0
LINE
  5
1B055
330
1F
100
AcDbEntity
  8
02製品
  6
ByBlock
100
AcDbLine
 10
-6575.696176628324
 20
4168.993453152751
 30
0.0
 11
-6577.296176631839
 21
4168.993453152751
 31
0.0
  0
LINE
  5
1B056
330
1F
100
AcDbEntity
  8
02製品
  6
ByBlock
100
AcDbLine
 10
-6575.696176628324
 20
4185.993453152751
 30
0.0
 11
-6577.296176631839
 21
4185.993453152751
 31
0.0
  0
LINE
  5
1B057
330
1F
100
AcDbEntity
  8
02製品
  6
ByBlock
100
AcDbLine
 10
-6577.296176631839
 20
4185.993453152751
 30
0.0
 11
-6577.296176631839
 21
4168.993453152751
 31
0.0
  0
LINE
  5
1B058
330
1F
100
AcDbEntity
  8
02製品
  6
ByBlock
100
AcDbLine
 10
-6575.696176628324
 20
4185.993453152751
 30
0.0
 11
-6575.696176628324
 21
4168.993453152751
 31
0.0
  0
LINE
  5
1B059
330
1F
100
AcDbEntity
  8
02製品
  6
ByBlock
100
AcDbLine
 10
-6570.892206291408
 20
4169.987914212323
 30
0.0
 11
-6575.696176628324
 21
4169.987914212323
 31
0.0
  0
LINE
  5
1B05A
330
1F
100
AcDbEntity
  8
02製品
  6
ByBlock
100
AcDbLine
 10
-6570.196176628322
 20
4183.793538360349
 30
0.0
 11
-6570.196176628322
 21
4171.193442331763
 31
0.0
  0
ARC
  5
1B05B
330
1F
100
AcDbEntity
  8
02製品
  6
ByBlock
100
AcDbCircle
 10
-6582.196176628325
 20
4177.493453152752
 30
0.0
 40
12.0
100
AcDbArc
 50
341.7762176856215
 51
18.22401954976297
  0
LINE
  5
1B05C
330
1F
100
AcDbEntity
  8
02製品
  6
ByBlock
100
AcDbLine
 10
-6570.798074821681
 20
4173.740706570721
 30
0.0
 11
-6575.696176628324
 21
4173.740706570721
 31
0.0
  0
LINE
  5
1B05D
330
1F
100
AcDbEntity
  8
02製品
  6
ByBlock
100
AcDbLine
 10
-6570.798090080473
 20
4181.24626076994
 30
0.0
 11
-6575.696176628324
 21
4181.24626076994
 31
0.0
  0
LINE
  5
1B05E
330
1F
100
AcDbEntity
  8
02製品
  6
ByBlock
100
AcDbLine
 10
-6570.892206291408
 20
4184.999022610759
 30
0.0
 11
-6575.696176628324
 21
4184.999022610759
 31
0.0
  0
LINE
  5
1B05F
330
1F
100
AcDbEntity
  8
02製品
  6
ByBlock
100
AcDbLine
 10
-6570.798078391272
 20
4181.246284425061
 30
0.0
 11
-6570.196176628322
 21
4183.793538360349
 31
0.0
  0
LINE
  5
1B060
330
1F
100
AcDbEntity
  8
02製品
  6
ByBlock
100
AcDbLine
 10
-6570.196176628322
 20
4171.193442331763
 30
0.0
 11
-6570.798052661772
 21
4173.740753704064
 31
0.0
  0
LINE
  5
1B061
330
1F
100
AcDbEntity
  8
02製品
  6
ByBlock
100
AcDbLine
 10
-6570.196176628322
 20
4171.193442331763
 30
0.0
 11
-6570.892174219485
 21
4169.987939008736
 31
0.0
  0
LINE
  5
1B062
330
1F
100
AcDbEntity
  8
02製品
  6
ByBlock
100
AcDbLine
 10
-6570.892195414899
 20
4184.999078394911
 30
0.0
 11
-6570.196176628322
 21
4183.793538360349
 31
0.0
  0
LINE
  5
1B080
330
1F
100
AcDbEntity
  8
02製品
  6
ByBlock
100
AcDbLine
 10
-7658.896176635351
 20
4168.993453152751
 30
0.0
 11
-7657.296176631837
 21
4168.993453152751
 31
0.0
  0
LINE
  5
1B081
330
1F
100
AcDbEntity
  8
02製品
  6
ByBlock
100
AcDbLine
 10
-7658.896176635351
 20
4185.993453152751
 30
0.0
 11
-7657.296176631837
 21
4185.993453152751
 31
0.0
  0
LINE
  5
1B082
330
1F
100
AcDbEntity
  8
02製品
  6
ByBlock
100
AcDbLine
 10
-7657.296176631837
 20
4185.993453152751
 30
0.0
 11
-7657.296176631837
 21
4168.993453152751
 31
0.0
  0
LINE
  5
1B083
330
1F
100
AcDbEntity
  8
02製品
  6
ByBlock
100
AcDbLine
 10
-7658.896176635351
 20
4185.993453152751
 30
0.0
 11
-7658.896176635351
 21
4168.993453152751
 31
0.0
  0
LINE
  5
1B084
330
1F
100
AcDbEntity
  8
02製品
  6
ByBlock
100
AcDbLine
 10
-7663.700146972267
 20
4169.987914212323
 30
0.0
 11
-7658.896176635351
 21
4169.987914212323
 31
0.0
  0
LINE
  5
1B085
330
1F
100
AcDbEntity
  8
02製品
  6
ByBlock
100
AcDbLine
 10
-7664.396176635353
 20
4183.793538360349
 30
0.0
 11
-7664.396176635353
 21
4171.193442331763
 31
0.0
  0
ARC
  5
1B086
330
1F
100
AcDbEntity
  8
02製品
  6
ByBlock
100
AcDbCircle
 10
-7652.396176635351
 20
4177.493453152752
 30
0.0
 40
12.0
100
AcDbArc
 50
161.7759804502329
 51
198.2237823143827
  0
LINE
  5
1B087
330
1F
100
AcDbEntity
  8
02製品
  6
ByBlock
100
AcDbLine
 10
-7663.794278441994
 20
4173.740706570721
 30
0.0
 11
-7658.896176635351
 21
4173.740706570721
 31
0.0
  0
LINE
  5
1B088
330
1F
100
AcDbEntity
  8
02製品
  6
ByBlock
100
AcDbLine
 10
-7663.794263183203
 20
4181.24626076994
 30
0.0
 11
-7658.896176635351
 21
4181.24626076994
 31
0.0
  0
LINE
  5
1B089
330
1F
100
AcDbEntity
  8
02製品
  6
ByBlock
100
AcDbLine
 10
-7663.700146972267
 20
4184.999022610759
 30
0.0
 11
-7658.896176635351
 21
4184.999022610759
 31
0.0
  0
LINE
  5
1B08A
330
1F
100
AcDbEntity
  8
02製品
  6
ByBlock
100
AcDbLine
 10
-7663.794274872404
 20
4181.246284425061
 30
0.0
 11
-7664.396176635353
 21
4183.793538360349
 31
0.0
  0
LINE
  5
1B08B
330
1F
100
AcDbEntity
  8
02製品
  6
ByBlock
100
AcDbLine
 10
-7664.396176635353
 20
4171.193442331763
 30
0.0
 11
-7663.794300601903
 21
4173.740753704064
 31
0.0
  0
LINE
  5
1B08C
330
1F
100
AcDbEntity
  8
02製品
  6
ByBlock
100
AcDbLine
 10
-7664.396176635353
 20
4171.193442331763
 30
0.0
 11
-7663.70017904419
 21
4169.987939008736
 31
0.0
  0
LINE
  5
1B08D
330
1F
100
AcDbEntity
  8
02製品
  6
ByBlock
100
AcDbLine
 10
-7663.700157848776
 20
4184.999078394911
 30
0.0
 11
-7664.396176635353
 21
4183.793538360349
 31
0.0
  0
INSERT
  5
1B08E
330
1F
100
AcDbEntity
  8
02製品
100
AcDbBlockReference
  2
A$C3C7277DA
 10
-12196.93948665223
 20
6152.498969693737
 30
0.0
 50
179.9999999999174
  0
INSERT
  5
1B08F
330
1F
100
AcDbEntity
  8
02製品
100
AcDbBlockReference
  2
A$C3C7277DA
 10
-11760.5393994547
 20
5163.09899049656
 30
0.0
 50
359.9999999999174
  0
INSERT
  5
1B0B9
330
1F
100
AcDbEntity
  8
02製品
100
AcDbBlockReference
  2
A$C20123
 10
-12131.13944305347
 20
5589.798980095151
 30
0.0
 41
1.5
 42
1.5
 43
1.5
  0
INSERT
  5
1B0BD
330
1F
100
AcDbEntity
  8
02製品
100
AcDbBlockReference
  2
A$C3C7277DA
 10
-10634.5393994547
 20
5163.09899049656
 30
0.0
 50
359.9999999999174
  0
INSERT
  5
1B0BE
330
1F
100
AcDbEntity
  8
02製品
100
AcDbBlockReference
  2
A$C20123
 10
-11005.13944305347
 20
5589.798980095151
 30
0.0
 41
1.5
 42
1.5
 43
1.5
  0
INSERT
  5
1B0BF
330
1F
100
AcDbEntity
  8
02製品
100
AcDbBlockReference
  2
A$C3C7277DA
 10
-11070.93948665223
 20
6152.498969693737
 30
0.0
 50
179.9999999999174
  0
INSERT
  5
1B0C0
330
1F
100
AcDbEntity
  8
02製品
100
AcDbBlockReference
  2
A$C3C7277DA
 10
-9508.539399454705
 20
5163.09899049656
 30
0.0
 50
359.9999999999174
  0
INSERT
  5
1B0C1
330
1F
100
AcDbEntity
  8
02製品
100
AcDbBlockReference
  2
A$C20123
 10
-9879.139443053471
 20
5589.798980095151
 30
0.0
 41
1.5
 42
1.5
 43
1.5
  0
INSERT
  5
1B0C2
330
1F
100
AcDbEntity
  8
02製品
100
AcDbBlockReference
  2
A$C3C7277DA
 10
-9944.939486652238
 20
6152.498969693737
 30
0.0
 50
179.9999999999174
  0
INSERT
  5
1B112
330
1F
100
AcDbEntity
  8
02製品
100
AcDbBlockReference
  2
A$C10914
 10
-9180.239443053466
 20
5110.698980091633
 30
0.0
 50
90.0
  0
INSERT
  5
1B113
330
1F
100
AcDbEntity
  8
02製品
100
AcDbBlockReference
  2
A$C10914
 10
-10256.23944305347
 20
5110.698980091636
 30
0.0
 50
90.0
  0
INSERT
  5
1B114
330
1F
100
AcDbEntity
  8
02製品
100
AcDbBlockReference
  2
A$C10914
 10
-10323.23944305347
 20
5110.698980091636
 30
0.0
 41
-1.0
 50
270.0
  0
INSERT
  5
1B115
330
1F
100
AcDbEntity
  8
02製品
100
AcDbBlockReference
  2
A$C10914
 10
-11382.23944305347
 20
5110.698980091636
 30
0.0
 50
90.0
  0
INSERT
  5
1B116
330
1F
100
AcDbEntity
  8
02製品
100
AcDbBlockReference
  2
A$C10914
 10
-11449.23944305347
 20
5110.698980091636
 30
0.0
 41
-1.0
 50
270.0
  0
INSERT
  5
1B117
330
1F
100
AcDbEntity
  8
02製品
100
AcDbBlockReference
  2
A$C10914
 10
-12525.23944305347
 20
5110.698980091633
 30
0.0
 41
-1.0
 50
270.0
  0
INSERT
  5
1B118
330
1F
100
AcDbEntity
  8
02製品
100
AcDbBlockReference
  2
A$C10914
 10
-12525.23944305347
 20
6204.898980098666
 30
0.0
 50
270.0
  0
INSERT
  5
1B119
330
1F
100
AcDbEntity
  8
02製品
100
AcDbBlockReference
  2
A$C10914
 10
-9180.239443053466
 20
6204.898980098666
 30
0.0
 41
-1.0
 50
89.99999999999991
  0
INSERT
  5
1B11A
330
1F
100
AcDbEntity
  8
02製品
100
AcDbBlockReference
  2
A$C10914
 10
-10256.23944305347
 20
6204.898980098662
 30
0.0
 41
-1.0
 50
89.99999999999991
  0
INSERT
  5
1B11B
330
1F
100
AcDbEntity
  8
02製品
100
AcDbBlockReference
  2
A$C10914
 10
-10323.23944305347
 20
6204.898980098662
 30
0.0
 50
270.0
  0
INSERT
  5
1B11C
330
1F
100
AcDbEntity
  8
02製品
100
AcDbBlockReference
  2
A$C10914
 10
-11382.23944305347
 20
6204.898980098662
 30
0.0
 41
-1.0
 50
89.99999999999991
  0
INSERT
  5
1B11D
330
1F
100
AcDbEntity
  8
02製品
100
AcDbBlockReference
  2
A$C10914
 10
-11449.23944305347
 20
6204.898980098662
 30
0.0
 50
270.0
  0
ENDSEC
  0
SECTION
  2
OBJECTS
  0
DICTIONARY
  5
C
330
0
100
AcDbDictionary
281
     1
  3
ACAD_DETAILVIEWSTYLE
350
ADAF
  3
ACAD_GROUP
350
D
  3
ACAD_IMAGE_VARS
350
6A88
  3
ACAD_LAYOUT
350
1A
  3
ACAD_MLINESTYLE
350
17
  3
ACAD_PLOTSETTINGS
350
19
  3
ACAD_PLOTSTYLENAME
350
E
  3
ACAD_SCALELIST
350
6A4E
  3
ACAD_SECTIONVIEWSTYLE
350
ADB0
  3
AcadDim
350
813A
  3
AcDbVariableDictionary
350
79E
  3
AEC_DISP_REPS
350
8259
  3
AEC_DISPLAY_PROPS_DEFAULTS
350
825B
  3
AEC_VARS
350
8257
  3
APPDATA
350
6A87
  3
DWGPROPS
350
1D8D9
  0
DICTIONARY
  5
7A6F
330
2
100
AcDbDictionary
280
     1
281
     1
  3
ACAD_LAYERFILTERS
360
A22F
  3
ACAD_LAYERSTATES
360
7A70
  3
ACLYDICTIONARY
360
163AB
  0
DICTIONARY
  5
CBD6
330
1F
100
AcDbDictionary
280
     1
281
     1
  3
ACAD_SORTENTS
360
CBD7
  0
DICTIONARY
  5
152CF
330
152CE
100
AcDbDictionary
280
     1
281
     1
  3
ACAD_SORTENTS
360
152D0
  0
DICTIONARY
  5
1B100
330
1B0D4
100
AcDbDictionary
280
     1
281
     1
  3
ACAD_SORTENTS
360
1B101
  0
DICTIONARY
  5
ADAF
102
{ACAD_REACTORS
330
C
102
}
330
C
100
AcDbDictionary
281
     1
  0
DICTIONARY
  5
D
102
{ACAD_REACTORS
330
C
102
}
330
C
100
AcDbDictionary
281
     1
  0
RASTERVARIABLES
  5
6A88
102
{ACAD_REACTORS
330
C
102
}
330
C
100
AcDbRasterVariables
 90
        0
 70
     1
 71
     1
 72
     1
  0
DICTIONARY
  5
1A
102
{ACAD_REACTORS
330
C
102
}
330
C
100
AcDbDictionary
281
     1
  3
Layout1
350
1E
  3
Layout2
350
26
  3
Model
350
22
  0
DICTIONARY
  5
17
102
{ACAD_REACTORS
330
C
102
}
330
C
100
AcDbDictionary
281
     1
  3
Standard
350
18
  0
DICTIONARY
  5
19
102
{ACAD_REACTORS
330
C
102
}
330
C
100
AcDbDictionary
281
     1
  0
ACDBDICTIONARYWDFLT
  5
E
102
{ACAD_REACTORS
330
C
102
}
330
C
100
AcDbDictionary
281
     1
  3
Normal
350
F
100
AcDbDictionaryWithDefault
340
F
  0
DICTIONARY
  5
6A4E
102
{ACAD_REACTORS
330
C
102
}
330
C
100
AcDbDictionary
281
     1
  3
A0
350
6A4F
  3
A1
350
6A50
  3
A2
350
6A51
  3
A3
350
6A52
  3
A4
350
6A53
  3
A5
350
6A54
  3
A6
350
6A55
  3
A7
350
6A56
  3
A8
350
6A57
  3
A9
350
6A58
  3
B0
350
6A59
  3
B1
350
6A5A
  3
B2
350
6A5B
  3
B3
350
6A5C
  3
B4
350
6A5D
  3
B5
350
6A5E
  3
B6
350
6A5F
  3
B7
350
6A60
  3
B8
350
6A61
  3
B9
350
6A62
  3
C0
350
6A63
  3
C1
350
6A64
  3
C2
350
6A65
  3
C3
350
6A66
  3
C4
350
6A67
  3
C5
350
6A68
  3
C6
350
6A69
  3
C7
350
6A6A
  3
C8
350
6A6B
  3
C9
350
6A6C
  3
D0
350
6A6D
  3
D1
350
6A6E
  3
D2
350
6A6F
  0
DICTIONARY
  5
ADB0
102
{ACAD_REACTORS
330
C
102
}
330
C
100
AcDbDictionary
281
     1
  0
XRECORD
  5
813A
102
{ACAD_REACTORS
330
C
102
}
330
C
100
AcDbXrecord
280
     1
340
0
 72
     0
 71
     0
 70
     0
 69
     0
 68
     1
 67
     3
 66
     0
 65
     0
 64
     0
 63
     3
 62
     1
 61
     0
 60
     0
 40
0.0
  0
DICTIONARY
  5
79E
102
{ACAD_REACTORS
330
C
102
}
330
C
100
AcDbDictionary
281
     1
  3
DIMASSOC
350
79F
  3
SORTENTS
350
264F
  0
DICTIONARY
  5
8259
102
{ACAD_REACTORS
330
C
102
}
330
C
100
AcDbDictionary
281
     1
  0
DICTIONARY
  5
825B
102
{ACAD_REACTORS
330
C
102
}
330
C
100
AcDbDictionary
281
     1
  0
DICTIONARY
  5
8257
102
{ACAD_REACTORS
330
C
102
}
330
C
100
AcDbDictionary
281
     1
  3
AEC_VARS_DWG_SETUP
350
8258
  0
DICTIONARY
  5
6A87
102
{ACAD_REACTORS
330
C
102
}
330
C
100
AcDbDictionary
281
     1
  0
XRECORD
  5
1D8D9
102
{ACAD_REACTORS
330
C
102
}
330
C
100
AcDbXrecord
280
     1
  1
DWGPROPS COOKIE
  2

  3

  4

  6

  7

  8
2121
  9

300
=
301
=
302
=
303
=
304
=
305
=
306
=
307
=
308
=
309
=
 40
0.0
 41
2455859.030048461
 42
2458240.046792778
  1

 90
        0
  0
DICTIONARY
  5
A22F
102
{ACAD_REACTORS
330
7A6F
102
}
330
7A6F
100
AcDbDictionary
280
     1
281
     1
  0
DICTIONARY
  5
7A70
102
{ACAD_REACTORS
330
7A6F
102
}
330
7A6F
100
AcDbDictionary
281
     1
  0
DICTIONARY
  5
163AB
102
{ACAD_REACTORS
330
7A6F
102
}
330
7A6F
100
AcDbDictionary
281
     1
1001
ACAD
1000
<All
  0
SORTENTSTABLE
  5
CBD7
102
{ACAD_REACTORS
330
CBD6
102
}
330
CBD6
100
AcDbSortentsTable
330
1F
331
0
  5
98EA
  0
SORTENTSTABLE
  5
152D0
102
{ACAD_REACTORS
330
152CF
102
}
330
152CF
100
AcDbSortentsTable
330
152CE
  0
SORTENTSTABLE
  5
1B101
102
{ACAD_REACTORS
330
1B100
102
}
330
1B100
100
AcDbSortentsTable
330
1B0D4
  0
LAYOUT
  5
1E
102
{ACAD_REACTORS
330
1A
102
}
330
1A
100
AcDbPlotSettings
  1

  2

  4

  6

 40
0.0
 41
0.0
 42
0.0
 43
0.0
 44
0.0
 45
0.0
 46
0.0
 47
0.0
 48
0.0
 49
0.0
140
0.0
141
0.0
142
1.0
143
1.0
 70
   688
 72
     0
 73
     0
 74
     5
  7
monochrome.ctb
 75
    16
147
1.0
148
0.0
149
0.0
100
AcDbLayout
  1
Layout1
 70
     1
 71
     1
 10
0.0
 20
0.0
 11
420.0
 21
297.0
 12
0.0
 22
0.0
 32
0.0
 14
1.000000000000000E+20
 24
1.000000000000000E+20
 34
1.000000000000000E+20
 15
-1.000000000000000E+20
 25
-1.000000000000000E+20
 35
-1.000000000000000E+20
146
0.0
 13
0.0
 23
0.0
 33
0.0
 16
1.0
 26
0.0
 36
0.0
 17
0.0
 27
1.0
 37
0.0
 76
     0
330
1B
  0
LAYOUT
  5
26
102
{ACAD_REACTORS
330
1A
102
}
330
1A
100
AcDbPlotSettings
  1

  2

  4

  6

 40
0.0
 41
0.0
 42
0.0
 43
0.0
 44
0.0
 45
0.0
 46
0.0
 47
0.0
 48
0.0
 49
0.0
140
0.0
141
0.0
142
1.0
143
1.0
 70
   688
 72
     0
 73
     0
 74
     5
  7
monochrome.ctb
 75
    16
147
1.0
148
0.0
149
0.0
100
AcDbLayout
  1
Layout2
 70
     1
 71
     2
 10
0.0
 20
0.0
 11
12.0
 21
9.0
 12
0.0
 22
0.0
 32
0.0
 14
0.0
 24
0.0
 34
0.0
 15
0.0
 25
0.0
 35
0.0
146
0.0
 13
0.0
 23
0.0
 33
0.0
 16
1.0
 26
0.0
 36
0.0
 17
0.0
 27
1.0
 37
0.0
 76
     0
330
23
  0
LAYOUT
  5
22
102
{ACAD_REACTORS
330
1A
102
}
330
1A
100
AcDbPlotSettings
  1

  2
none_device
  4
A3
  6

 40
3.174999952316284
 41
3.174999952316284
 42
3.17498779296875
 43
3.17498779296875
 44
297.0318298339844
 45
420.1583251953125
 46
-3.16
 47
-3.1
 48
-90.0
 49
-90.0
140
329.9999999999998
141
207.0
142
1.0
143
1.0
 70
 11940
 72
     1
 73
     1
 74
     4
  7
monochrome.ctb
 75
     0
147
1.0
148
90.0
149
90.0
100
AcDbLayout
  1
Model
 70
     1
 71
     0
 10
-13510.25736412818
 20
1961.077543880496
 11
-3010.257364128185
 21
9386.077543880496
 12
0.0
 22
0.0
 32
0.0
 14
-12548.23944305347
 24
3347.493453152738
 34
0.0
 15
-6570.196176628322
 25
6204.898980098666
 35
0.0
146
0.0
 13
0.0
 23
0.0
 33
0.0
 16
1.0
 26
0.0
 36
0.0
 17
0.0
 27
1.0
 37
0.0
 76
     0
330
1F
331
A2A1
  0
MLINESTYLE
  5
18
102
{ACAD_REACTORS
330
17
102
}
330
17
100
AcDbMlineStyle
  2
STANDARD
 70
     0
  3

 62
   256
 51
90.0
 52
90.0
 71
     2
 49
0.5
 62
   256
  6
BYLAYER
 49
-0.5
 62
   256
  6
BYLAYER
  0
ACDBPLACEHOLDER
  5
F
102
{ACAD_REACTORS
330
E
102
}
330
E
  0
SCALE
  5
6A4F
102
{ACAD_REACTORS
330
6A4E
102
}
330
6A4E
100
AcDbScale
 70
     0
300
1:1
140
1.0
141
1.0
290
     1
  0
SCALE
  5
6A50
102
{ACAD_REACTORS
330
6A4E
102
}
330
6A4E
100
AcDbScale
 70
     0
300
1:2
140
1.0
141
2.0
290
     0
  0
SCALE
  5
6A51
102
{ACAD_REACTORS
330
6A4E
102
}
330
6A4E
100
AcDbScale
 70
     0
300
1:4
140
1.0
141
4.0
290
     0
  0
SCALE
  5
6A52
102
{ACAD_REACTORS
330
6A4E
102
}
330
6A4E
100
AcDbScale
 70
     0
300
1:5
140
1.0
141
5.0
290
     0
  0
SCALE
  5
6A53
102
{ACAD_REACTORS
330
6A4E
102
}
330
6A4E
100
AcDbScale
 70
     0
300
1:8
140
1.0
141
8.0
290
     0
  0
SCALE
  5
6A54
102
{ACAD_REACTORS
330
6A4E
102
}
330
6A4E
100
AcDbScale
 70
     0
300
1:10
140
1.0
141
10.0
290
     0
  0
SCALE
  5
6A55
102
{ACAD_REACTORS
330
6A4E
102
}
330
6A4E
100
AcDbScale
 70
     0
300
1:16
140
1.0
141
16.0
290
     0
  0
SCALE
  5
6A56
102
{ACAD_REACTORS
330
6A4E
102
}
330
6A4E
100
AcDbScale
 70
     0
300
1:20
140
1.0
141
20.0
290
     0
  0
SCALE
  5
6A57
102
{ACAD_REACTORS
330
6A4E
102
}
330
6A4E
100
AcDbScale
 70
     0
300
1:30
140
1.0
141
30.0
290
     0
  0
SCALE
  5
6A58
102
{ACAD_REACTORS
330
6A4E
102
}
330
6A4E
100
AcDbScale
 70
     0
300
1:40
140
1.0
141
40.0
290
     0
  0
SCALE
  5
6A59
102
{ACAD_REACTORS
330
6A4E
102
}
330
6A4E
100
AcDbScale
 70
     0
300
1:50
140
1.0
141
50.0
290
     0
  0
SCALE
  5
6A5A
102
{ACAD_REACTORS
330
6A4E
102
}
330
6A4E
100
AcDbScale
 70
     0
300
1:100
140
1.0
141
100.0
290
     0
  0
SCALE
  5
6A5B
102
{ACAD_REACTORS
330
6A4E
102
}
330
6A4E
100
AcDbScale
 70
     0
300
2:1
140
2.0
141
1.0
290
     0
  0
SCALE
  5
6A5C
102
{ACAD_REACTORS
330
6A4E
102
}
330
6A4E
100
AcDbScale
 70
     0
300
4:1
140
4.0
141
1.0
290
     0
  0
SCALE
  5
6A5D
102
{ACAD_REACTORS
330
6A4E
102
}
330
6A4E
100
AcDbScale
 70
     0
300
8:1
140
8.0
141
1.0
290
     0
  0
SCALE
  5
6A5E
102
{ACAD_REACTORS
330
6A4E
102
}
330
6A4E
100
AcDbScale
 70
     0
300
10:1
140
10.0
141
1.0
290
     0
  0
SCALE
  5
6A5F
102
{ACAD_REACTORS
330
6A4E
102
}
330
6A4E
100
AcDbScale
 70
     0
300
100:1
140
100.0
141
1.0
290
     0
  0
SCALE
  5
6A60
102
{ACAD_REACTORS
330
6A4E
102
}
330
6A4E
100
AcDbScale
 70
     0
300
1/128" = 1'-0"
140
0.0078125
141
12.0
290
     0
  0
SCALE
  5
6A61
102
{ACAD_REACTORS
330
6A4E
102
}
330
6A4E
100
AcDbScale
 70
     0
300
1/64" = 1'-0"
140
0.015625
141
12.0
290
     0
  0
SCALE
  5
6A62
102
{ACAD_REACTORS
330
6A4E
102
}
330
6A4E
100
AcDbScale
 70
     0
300
1/32" = 1'-0"
140
0.03125
141
12.0
290
     0
  0
SCALE
  5
6A63
102
{ACAD_REACTORS
330
6A4E
102
}
330
6A4E
100
AcDbScale
 70
     0
300
1/16" = 1'-0"
140
0.0625
141
12.0
290
     0
  0
SCALE
  5
6A64
102
{ACAD_REACTORS
330
6A4E
102
}
330
6A4E
100
AcDbScale
 70
     0
300
3/32" = 1'-0"
140
0.09375
141
12.0
290
     0
  0
SCALE
  5
6A65
102
{ACAD_REACTORS
330
6A4E
102
}
330
6A4E
100
AcDbScale
 70
     0
300
1/8" = 1'-0"
140
0.125
141
12.0
290
     0
  0
SCALE
  5
6A66
102
{ACAD_REACTORS
330
6A4E
102
}
330
6A4E
100
AcDbScale
 70
     0
300
3/16" = 1'-0"
140
0.1875
141
12.0
290
     0
  0
SCALE
  5
6A67
102
{ACAD_REACTORS
330
6A4E
102
}
330
6A4E
100
AcDbScale
 70
     0
300
1/4" = 1'-0"
140
0.25
141
12.0
290
     0
  0
SCALE
  5
6A68
102
{ACAD_REACTORS
330
6A4E
102
}
330
6A4E
100
AcDbScale
 70
     0
300
3/8" = 1'-0"
140
0.375
141
12.0
290
     0
  0
SCALE
  5
6A69
102
{ACAD_REACTORS
330
6A4E
102
}
330
6A4E
100
AcDbScale
 70
     0
300
1/2" = 1'-0"
140
0.5
141
12.0
290
     0
  0
SCALE
  5
6A6A
102
{ACAD_REACTORS
330
6A4E
102
}
330
6A4E
100
AcDbScale
 70
     0
300
3/4" = 1'-0"
140
0.75
141
12.0
290
     0
  0
SCALE
  5
6A6B
102
{ACAD_REACTORS
330
6A4E
102
}
330
6A4E
100
AcDbScale
 70
     0
300
1" = 1'-0"
140
1.0
141
12.0
290
     0
  0
SCALE
  5
6A6C
102
{ACAD_REACTORS
330
6A4E
102
}
330
6A4E
100
AcDbScale
 70
     0
300
1-1/2" = 1'-0"
140
1.5
141
12.0
290
     0
  0
SCALE
  5
6A6D
102
{ACAD_REACTORS
330
6A4E
102
}
330
6A4E
100
AcDbScale
 70
     0
300
3" = 1'-0"
140
3.0
141
12.0
290
     0
  0
SCALE
  5
6A6E
102
{ACAD_REACTORS
330
6A4E
102
}
330
6A4E
100
AcDbScale
 70
     0
300
6" = 1'-0"
140
6.0
141
12.0
290
     0
  0
SCALE
  5
6A6F
102
{ACAD_REACTORS
330
6A4E
102
}
330
6A4E
100
AcDbScale
 70
     0
300
1'-0" = 1'-0"
140
12.0
141
12.0
290
     0
  0
DICTIONARYVAR
  5
79F
102
{ACAD_REACTORS
330
79E
102
}
330
79E
100
DictionaryVariables
280
     0
  1
1
  0
DICTIONARYVAR
  5
264F
102
{ACAD_REACTORS
330
79E
102
}
330
79E
100
DictionaryVariables
280
     0
  1
96
  0
ACAD_PROXY_OBJECT
  5
8258
102
{ACAD_REACTORS
330
8257
102
}
330
8257
100
AcDbProxyObject
 90
      499
 91
      509
 95
  6881311
 70
     0
 93
     1864
310
51B4D146518005194651A8FC812095550000000000000B08000000000000008200000000000001807E8F2048F205000200001204000000000000581F8000000000000B0807EC3FA6DEBC0E99F8000000000001C07FE8FCC0295941A4E2D20CA600E2005C008C00E8005C008321803A80170023003A00170020898006200640
310
06001202DA008C2080248020801000140019001A801B00100021803780360037803900148010001000100010002080220019001A801B0021082008600820088008200A4008600900087A08032803180260030803C803280390029803A003200170032003B80338049C09
330
0
 94
        0
  0
ENDSEC
  0
EOF
