  0
SECTION
  2
HEADER
  9
$ACADVER
  1
AC1015
  9
$ACADMAINTVER
 70
     6
  9
$DWGCODEPAGE
  3
ANSI_932
  9
$INSBASE
 10
0.0
 20
0.0
 30
0.0
  9
$EXTMIN
 10
-12651.95363216896
 20
3685.300435736384
 30
0.0
  9
$EXTMAX
 10
-7403.67467860774
 20
6540.656767224724
 30
0.0
  9
$LIMMIN
 10
-13510.25736412818
 20
1961.077543880496
  9
$LIMMAX
 10
-5110.257364128185
 20
7901.077543880497
  9
$ORTHOMODE
 70
     0
  9
$REGENMODE
 70
     1
  9
$FILLMODE
 70
     1
  9
$QTEXTMODE
 70
     0
  9
$MIRRTEXT
 70
     1
  9
$LTSCALE
 40
6.0
  9
$ATTMODE
 70
     1
  9
$TEXTSIZE
 40
3.0
  9
$TRACEWID
 40
1.0
  9
$TEXTSTYLE
  7
Standard
  9
$CLAYER
  8
01注記寸法
  9
$CELTYPE
  6
ByLayer
  9
$CECOLOR
 62
   256
  9
$CELTSCALE
 40
1.0
  9
$DISPSILH
 70
     0
  9
$DIMSCALE
 40
20.0
  9
$DIMASZ
 40
3.0
  9
$DIMEXO
 40
1.5
  9
$DIMDLI
 40
10.0
  9
$DIMRND
 40
0.0
  9
$DIMDLE
 40
0.0
  9
$DIMEXE
 40
1.0
  9
$DIMTP
 40
0.0
  9
$DIMTM
 40
0.0
  9
$DIMTXT
 40
3.0
  9
$DIMCEN
 40
1.5
  9
$DIMTSZ
 40
0.0
  9
$DIMTOL
 70
     0
  9
$DIMLIM
 70
     0
  9
$DIMTIH
 70
     0
  9
$DIMTOH
 70
     0
  9
$DIMSE1
 70
     0
  9
$DIMSE2
 70
     0
  9
$DIMTAD
 70
     1
  9
$DIMZIN
 70
     8
  9
$DIMBLK
  1
Open
  9
$DIMASO
 70
     1
  9
$DIMSHO
 70
     1
  9
$DIMPOST
  1

  9
$DIMAPOST
  1

  9
$DIMALT
 70
     0
  9
$DIMALTD
 70
     3
  9
$DIMALTF
 40
0.03937007874016
  9
$DIMLFAC
 40
1.0
  9
$DIMTOFL
 70
     1
  9
$DIMTVP
 40
0.0
  9
$DIMTIX
 70
     0
  9
$DIMSOXD
 70
     0
  9
$DIMSAH
 70
     0
  9
$DIMBLK1
  1

  9
$DIMBLK2
  1

  9
$DIMSTYLE
  2
NEMY-20
  9
$DIMCLRD
 70
     0
  9
$DIMCLRE
 70
     0
  9
$DIMCLRT
 70
     0
  9
$DIMTFAC
 40
1.0
  9
$DIMGAP
 40
1.0
  9
$DIMJUST
 70
     0
  9
$DIMSD1
 70
     0
  9
$DIMSD2
 70
     0
  9
$DIMTOLJ
 70
     0
  9
$DIMTZIN
 70
     8
  9
$DIMALTZ
 70
     0
  9
$DIMALTTZ
 70
     0
  9
$DIMUPT
 70
     0
  9
$DIMDEC
 70
     1
  9
$DIMTDEC
 70
     1
  9
$DIMALTU
 70
     2
  9
$DIMALTTD
 70
     3
  9
$DIMTXSTY
  7
Standard
  9
$DIMAUNIT
 70
     0
  9
$DIMADEC
 70
     0
  9
$DIMALTRND
 40
0.0
  9
$DIMAZIN
 70
     0
  9
$DIMDSEP
 70
    46
  9
$DIMATFIT
 70
     3
  9
$DIMFRAC
 70
     0
  9
$DIMLDRBLK
  1
Open
  9
$DIMLUNIT
 70
     2
  9
$DIMLWD
 70
    -2
  9
$DIMLWE
 70
    -2
  9
$DIMTMOVE
 70
     0
  9
$LUNITS
 70
     2
  9
$LUPREC
 70
     4
  9
$SKETCHINC
 40
1.0
  9
$FILLETRAD
 40
0.0
  9
$AUNITS
 70
     0
  9
$AUPREC
 70
     0
  9
$MENU
  1
.
  9
$ELEVATION
 40
0.0
  9
$PELEVATION
 40
0.0
  9
$THICKNESS
 40
0.0
  9
$LIMCHECK
 70
     0
  9
$CHAMFERA
 40
10.0
  9
$CHAMFERB
 40
10.0
  9
$CHAMFERC
 40
20.0
  9
$CHAMFERD
 40
0.0
  9
$SKPOLY
 70
     0
  9
$TDCREATE
 40
2455859.405048461
  9
$TDUCREATE
 40
2455859.030048461
  9
$TDUPDATE
 40
2458240.434193287
  9
$TDUUPDATE
 40
2458240.059193287
  9
$TDINDWG
 40
2.0128494097
  9
$TDUSRTIMER
 40
2458240.059014097
  9
$USRTIMER
 70
     1
  9
$ANGBASE
 50
0.0
  9
$ANGDIR
 70
     0
  9
$PDMODE
 70
     0
  9
$PDSIZE
 40
0.0
  9
$PLINEWID
 40
0.0
  9
$SPLFRAME
 70
     0
  9
$SPLINETYPE
 70
     6
  9
$SPLINESEGS
 70
     8
  9
$HANDSEED
  5
1D86A
  9
$SURFTAB1
 70
     6
  9
$SURFTAB2
 70
     6
  9
$SURFTYPE
 70
     6
  9
$SURFU
 70
     6
  9
$SURFV
 70
     6
  9
$UCSBASE
  2

  9
$UCSNAME
  2

  9
$UCSORG
 10
0.0
 20
0.0
 30
0.0
  9
$UCSXDIR
 10
1.0
 20
0.0
 30
0.0
  9
$UCSYDIR
 10
0.0
 20
1.0
 30
0.0
  9
$UCSORTHOREF
  2

  9
$UCSORTHOVIEW
 70
     0
  9
$UCSORGTOP
 10
0.0
 20
0.0
 30
0.0
  9
$UCSORGBOTTOM
 10
0.0
 20
0.0
 30
0.0
  9
$UCSORGLEFT
 10
0.0
 20
0.0
 30
0.0
  9
$UCSORGRIGHT
 10
0.0
 20
0.0
 30
0.0
  9
$UCSORGFRONT
 10
0.0
 20
0.0
 30
0.0
  9
$UCSORGBACK
 10
0.0
 20
0.0
 30
0.0
  9
$PUCSBASE
  2

  9
$PUCSNAME
  2

  9
$PUCSORG
 10
0.0
 20
0.0
 30
0.0
  9
$PUCSXDIR
 10
1.0
 20
0.0
 30
0.0
  9
$PUCSYDIR
 10
0.0
 20
1.0
 30
0.0
  9
$PUCSORTHOREF
  2

  9
$PUCSORTHOVIEW
 70
     0
  9
$PUCSORGTOP
 10
0.0
 20
0.0
 30
0.0
  9
$PUCSORGBOTTOM
 10
0.0
 20
0.0
 30
0.0
  9
$PUCSORGLEFT
 10
0.0
 20
0.0
 30
0.0
  9
$PUCSORGRIGHT
 10
0.0
 20
0.0
 30
0.0
  9
$PUCSORGFRONT
 10
0.0
 20
0.0
 30
0.0
  9
$PUCSORGBACK
 10
0.0
 20
0.0
 30
0.0
  9
$USERI1
 70
     0
  9
$USERI2
 70
     0
  9
$USERI3
 70
     0
  9
$USERI4
 70
     0
  9
$USERI5
 70
     0
  9
$USERR1
 40
0.0
  9
$USERR2
 40
0.0
  9
$USERR3
 40
0.0
  9
$USERR4
 40
0.0
  9
$USERR5
 40
0.0
  9
$WORLDVIEW
 70
     1
  9
$SHADEDGE
 70
     3
  9
$SHADEDIF
 70
    70
  9
$TILEMODE
 70
     1
  9
$MAXACTVP
 70
    64
  9
$PINSBASE
 10
0.0
 20
0.0
 30
0.0
  9
$PLIMCHECK
 70
     0
  9
$PEXTMIN
 10
1.000000000000000E+20
 20
1.000000000000000E+20
 30
1.000000000000000E+20
  9
$PEXTMAX
 10
-1.000000000000000E+20
 20
-1.000000000000000E+20
 30
-1.000000000000000E+20
  9
$PLIMMIN
 10
0.0
 20
0.0
  9
$PLIMMAX
 10
0.0
 20
0.0
  9
$UNITMODE
 70
     0
  9
$VISRETAIN
 70
     1
  9
$PLINEGEN
 70
     0
  9
$PSLTSCALE
 70
     1
  9
$TREEDEPTH
 70
  3020
  9
$CMLSTYLE
  2
Standard
  9
$CMLJUST
 70
     0
  9
$CMLSCALE
 40
20.0
  9
$PROXYGRAPHICS
 70
     1
  9
$MEASUREMENT
 70
     1
  9
$CELWEIGHT
370
    -1
  9
$ENDCAPS
280
     0
  9
$JOINSTYLE
280
     0
  9
$LWDISPLAY
290
     0
  9
$INSUNITS
 70
     4
  9
$HYPERLINKBASE
  1

  9
$STYLESHEET
  1
monochrome.ctb
  9
$XEDIT
290
     1
  9
$CEPSNTYPE
380
     0
  9
$PSTYLEMODE
290
     1
  9
$FINGERPRINTGUID
  2
{FDEAD578-A652-11D2-9A35-0060089B3A3F}
  9
$VERSIONGUID
  2
{FF53CD4B-1AF9-4F2F-ABC0-CA7DF949A403}
  9
$EXTNAMES
290
     1
  9
$PSVPSCALE
 40
0.0
  9
$OLESTARTUP
290
     0
  0
ENDSEC
  0
SECTION
  2
CLASSES
  0
CLASS
  1
ACDBDICTIONARYWDFLT
  2
AcDbDictionaryWithDefault
  3
ObjectDBX Classes
 90
        0
280
     0
281
     0
  0
CLASS
  1
ACDBPLACEHOLDER
  2
AcDbPlaceHolder
  3
ObjectDBX Classes
 90
        0
280
     0
281
     0
  0
CLASS
  1
LAYOUT
  2
AcDbLayout
  3
ObjectDBX Classes
 90
        0
280
     0
281
     0
  0
CLASS
  1
DICTIONARYVAR
  2
AcDbDictionaryVar
  3
ObjectDBX Classes
 90
        0
280
     0
281
     0
  0
CLASS
  1
SCALE
  2
AcDbScale
  3
ObjectDBX Classes
 90
     1153
280
     0
281
     0
  0
CLASS
  1
MATERIAL
  2
AcDbMaterial
  3
ObjectDBX Classes
 90
     1153
280
     0
281
     0
  0
CLASS
  1
VISUALSTYLE
  2
AcDbVisualStyle
  3
ObjectDBX Classes
 90
     4095
280
     0
281
     0
  0
CLASS
  1
TABLESTYLE
  2
AcDbTableStyle
  3
ObjectDBX Classes
 90
     4095
280
     0
281
     0
  0
CLASS
  1
RASTERVARIABLES
  2
AcDbRasterVariables
  3
ISM
 90
        0
280
     0
281
     0
  0
CLASS
  1
AEC_VARS_DWG_SETUP
  2
AecDbVarsDwgSetup
  3
AecBase60
 90
      129
280
     0
281
     0
  0
CLASS
  1
AEC_DISP_REP_2D_SECTION
  2
AecDbDispRep2dSection
  3
AecBase60
 90
      129
280
     0
281
     0
  0
CLASS
  1
AEC_DISP_PROPS_2D_SECTION
  2
AecDbDispProps2dSection
  3
AecBase60
 90
      129
280
     0
281
     0
  0
CLASS
  1
AEC_DISP_REP_CLIP_VOLUME_MODEL
  2
AecDbDispRepClipVolModel
  3
AecBase60
 90
      129
280
     0
281
     0
  0
CLASS
  1
AEC_DISP_PROPS_CLIP_VOLUME
  2
AecDbDispPropsClipVol
  3
AecBase60
 90
      129
280
     0
281
     0
  0
CLASS
  1
AEC_DISP_REP_CLIP_VOLUME_PLAN
  2
AecDbDispRepClipVolPlan
  3
AecBase60
 90
      129
280
     0
281
     0
  0
CLASS
  1
AEC_DISP_REP_CLIP_VOLUME_RESULT
  2
AecDbDispRepClipVolResult
  3
AecBase60
 90
      129
280
     0
281
     0
  0
CLASS
  1
AEC_DISP_REP_CLIP_VOLUME_RESULT_SUBDIV
  2
AecDbDispRepClipVolResSubDiv
  3
AecBase60
 90
      129
280
     0
281
     0
  0
CLASS
  1
AEC_DISP_PROPS_CLIP_VOLUME_RESULT
  2
AecDbDispPropsClipVolResSubDiv
  3
AecBase60
 90
      129
280
     0
281
     0
  0
CLASS
  1
AEC_DISP_REP_DISPLAYTHEME
  2
AecDbDispRepDisplayTheme
  3
AecBase60
 90
      129
280
     0
281
     0
  0
CLASS
  1
AEC_DISP_PROPS_DISPLAYTHEME
  2
AecDbDispPropsDisplayTheme
  3
AecBase60
 90
      129
280
     0
281
     0
  0
CLASS
  1
AEC_DISP_REP_ENT_REF
  2
AecDbDispRepEntRef
  3
AecBase60
 90
      129
280
     0
281
     0
  0
CLASS
  1
AEC_DISP_PROPS_ENT_REF
  2
AecDbDispPropsEntRef
  3
AecBase60
 90
      129
280
     0
281
     0
  0
CLASS
  1
AEC_DISP_REP_LAYOUT_CURVE
  2
AecDbDispRepLayoutCurve
  3
AecBase60
 90
      129
280
     0
281
     0
  0
CLASS
  1
AEC_DISP_PROPS_LAYOUT_CURVE
  2
AecDbDispPropsLayoutCurve
  3
AecBase60
 90
      129
280
     0
281
     0
  0
CLASS
  1
AEC_DISP_REP_LAYOUT_GRID2D
  2
AecDbDispRepLayoutGrid2d
  3
AecBase60
 90
      129
280
     0
281
     0
  0
CLASS
  1
AEC_DISP_PROPS_LAYOUT_GRID2D
  2
AecDbDispPropsLayoutGrid2d
  3
AecBase60
 90
      129
280
     0
281
     0
  0
CLASS
  1
AEC_DISP_REP_LAYOUT_GRID3D
  2
AecDbDispRepLayoutGrid3d
  3
AecBase60
 90
      129
280
     0
281
     0
  0
CLASS
  1
AEC_DISP_PROPS_LAYOUT_GRID3D
  2
AecDbDispPropsLayoutGrid3d
  3
AecBase60
 90
      129
280
     0
281
     0
  0
CLASS
  1
AEC_DISP_REP_MASKBLOCK_REF
  2
AecDbDispRepMaskBlockRef
  3
AecBase60
 90
      129
280
     0
281
     0
  0
CLASS
  1
AEC_DISP_PROPS_MASKBLOCK
  2
AecDbDispPropsMaskBlock
  3
AecBase60
 90
      129
280
     0
281
     0
  0
CLASS
  1
AEC_DISP_REP_MASKBLOCK_REF_RCP
  2
AecDbDispRepMaskBlockRefRcp
  3
AecArchBase60
 90
      129
280
     0
281
     0
  0
CLASS
  1
AEC_DISP_REP_MASS_ELEM_MODEL
  2
AecDbDispRepMassElemModel
  3
AecBase60
 90
      129
280
     0
281
     0
  0
CLASS
  1
AEC_DISP_PROPS_MASS_ELEM_MODEL
  2
AecDbDispPropsMassElem
  3
AecBase60
 90
      129
280
     0
281
     0
  0
CLASS
  1
AEC_DISP_REP_MASS_ELEM_SCHEM
  2
AecDbDispRepMassElemSchem
  3
AecBase60
 90
      129
280
     0
281
     0
  0
CLASS
  1
AEC_DISPREPAECDBDISPREPMASSELEMPLAN50
  2
AecDbDispRepMassElemPlan50
  3
AecArchDACHBase60
 90
      129
280
     0
281
     0
  0
CLASS
  1
AEC_DISPROPSMASSELEMPLANCOMMON
  2
AecDbDispPropsMassElemPlanCommon
  3
AecArchDACHBase60
 90
      129
280
     0
281
     0
  0
CLASS
  1
AEC_DISPREPAECDBDISPREPMASSELEMPLAN100
  2
AecDbDispRepMassElemPlan100
  3
AecArchDACHBase60
 90
      129
280
     0
281
     0
  0
CLASS
  1
AEC_DISP_REP_MASS_ELEM_RCP
  2
AecDbDispRepMassElemRcp
  3
AecArchBase60
 90
      129
280
     0
281
     0
  0
CLASS
  1
AEC_DISP_REP_MASS_GROUP_MODEL
  2
AecDbDispRepMassGroupModel
  3
AecBase60
 90
      129
280
     0
281
     0
  0
CLASS
  1
AEC_DISP_PROPS_MASS_GROUP
  2
AecDbDispPropsMassGroup
  3
AecBase60
 90
      129
280
     0
281
     0
  0
CLASS
  1
AEC_DISP_REP_MASS_GROUP_PLAN
  2
AecDbDispRepMassGroupPlan
  3
AecBase60
 90
      129
280
     0
281
     0
  0
CLASS
  1
AEC_DISPREPAECDBDISPREPMASSGROUPPLAN50
  2
AecDbDispRepMassGroupPlan50
  3
AecArchDACHBase60
 90
      129
280
     0
281
     0
  0
CLASS
  1
AEC_DISPROPSMASSGROUPPLANCOMMON
  2
AecDbDispPropsMassGroupPlanCommon
  3
AecArchDACHBase60
 90
      129
280
     0
281
     0
  0
CLASS
  1
AEC_DISPREPAECDBDISPREPMASSGROUPPLAN100
  2
AecDbDispRepMassGroupPlan100
  3
AecArchDACHBase60
 90
      129
280
     0
281
     0
  0
CLASS
  1
AEC_DISP_REP_MASS_GROUP_RCP
  2
AecDbDispRepMassGroupRcp
  3
AecArchBase60
 90
      129
280
     0
281
     0
  0
CLASS
  1
AEC_DISP_REP_MVBLOCK_REF
  2
AecDbDispRepMvBlockRef
  3
AecBase60
 90
      129
280
     0
281
     0
  0
CLASS
  1
AEC_DISP_REP_MVBLOCK_REF_MODEL
  2
AecDbDispRepMvBlockRefModel
  3
AecBase60
 90
      129
280
     0
281
     0
  0
CLASS
  1
AEC_AECDBDISPREPMVBLOCKREFPLAN100
  2
AecDbDispRepMvBlockRefPlan100
  3
AecBase60
 90
      129
280
     0
281
     0
  0
CLASS
  1
AEC_AECDBDISPREPMVBLOCKREFPLAN50
  2
AecDbDispRepMvBlockRefPlan50
  3
AecBase60
 90
      129
280
     0
281
     0
  0
CLASS
  1
AEC_DISP_REP_POLYGON_MODEL
  2
AecDbDispRepPolygonModel
  3
AecBase60
 90
      129
280
     0
281
     0
  0
CLASS
  1
AEC_DISP_PROPS_POLYGON_MODEL
  2
AecDbDispPropsPolygonModel
  3
AecBase60
 90
      129
280
     0
281
     0
  0
CLASS
  1
AEC_DISP_REP_POLYGON_TRUECOLOUR
  2
AecDbDispRepPolygonTrueColour
  3
AecBase60
 90
      129
280
     0
281
     0
  0
CLASS
  1
AEC_DISP_PROPS_POLYGON_TRUECOLOUR
  2
AecDbDispPropsPolygonTrueColour
  3
AecBase60
 90
      129
280
     0
281
     0
  0
CLASS
  1
AEC_DISP_REP_SLICE
  2
AecDbDispRepSlice
  3
AecBase60
 90
      129
280
     0
281
     0
  0
CLASS
  1
AEC_DISP_PROPS_SLICE
  2
AecDbDispPropsSlice
  3
AecBase60
 90
      129
280
     0
281
     0
  0
CLASS
  1
AEC_DISP_REP_ANCHOR
  2
AecDbDispRepAnchor
  3
AecBase60
 90
      129
280
     0
281
     0
  0
CLASS
  1
AEC_DISP_REP_ANCHOR_ENT_TO_NODE
  2
AecDbDispRepAnchorEntToNode
  3
AecBase60
 90
      129
280
     0
281
     0
  0
CLASS
  1
AEC_DISP_PROPS_ENT
  2
AecDbDispPropsEnt
  3
AecBase60
 90
      129
280
     0
281
     0
  0
CLASS
  1
AEC_DISP_REP_MATERIAL
  2
AecDbDispRepMaterial
  3
AecBase60
 90
      129
280
     0
281
     0
  0
CLASS
  1
AEC_DISP_PROPS_MATERIAL
  2
AecDbDispPropsMaterial
  3
AecBase60
 90
      129
280
     0
281
     0
  0
CLASS
  1
AEC_DISP_REP_EDITINPLACEPROFILE
  2
AecDbDispRepEditInPlaceProfile
  3
AecBase60
 90
      129
280
     0
281
     0
  0
CLASS
  1
AEC_DISP_PROPS_EDITINPLACEPROFILE_MODEL
  2
AecDbDispPropsEditInPlaceProfile
  3
AecBase60
 90
      129
280
     0
281
     0
  0
CLASS
  1
SUN
  2
AcDbSun
  3
SCENEOE
 90
     1153
280
     0
281
     0
  0
CLASS
  1
SORTENTSTABLE
  2
AcDbSortentsTable
  3
ObjectDBX Classes
 90
        0
280
     0
281
     0
  0
CLASS
  1
MLEADERSTYLE
  2
AcDbMLeaderStyle
  3
ACDB_MLEADERSTYLE_CLASS
 90
     4095
280
     0
281
     0
  0
ENDSEC
  0
SECTION
  2
TABLES
  0
TABLE
  2
VPORT
  5
8
330
0
100
AcDbSymbolTable
 70
     1
  0
VPORT
  5
A2A1
330
8
100
AcDbSymbolTableRecord
100
AcDbViewportTableRecord
  2
*Active
 70
     0
 10
0.0
 20
0.0
 11
1.0
 21
1.0
 12
-56680607131.07918
 22
103286848679.8187
 13
0.0
 23
0.0
 14
10.0
 24
10.0
 15
10.0
 25
10.0
 16
0.0
 26
0.0
 36
1.0
 17
56680597103.26502
 27
-103286843566.8401
 37
0.0
 40
2912.463458118107
 41
2.0
 42
50.0
 43
0.0
 44
0.0
 50
0.0
 51
0.0
 71
    16
 72
   100
 73
     1
 74
     2
 75
     0
 76
     0
 77
     0
 78
     0
281
     0
 65
     1
110
0.0
120
0.0
130
0.0
111
1.0
121
0.0
131
0.0
112
0.0
122
1.0
132
0.0
 79
     0
146
0.0
  0
ENDTAB
  0
TABLE
  2
LTYPE
  5
5
330
0
100
AcDbSymbolTable
 70
     7
  0
LTYPE
  5
14
330
5
100
AcDbSymbolTableRecord
100
AcDbLinetypeTableRecord
  2
ByBlock
 70
     0
  3

 72
    65
 73
     0
 40
0.0
  0
LTYPE
  5
15
330
5
100
AcDbSymbolTableRecord
100
AcDbLinetypeTableRecord
  2
ByLayer
 70
     0
  3
Solid line
 72
    65
 73
     0
 40
0.0
  0
LTYPE
  5
16
330
5
100
AcDbSymbolTableRecord
100
AcDbLinetypeTableRecord
  2
Continuous
 70
     0
  3
Solid line
 72
    65
 73
     0
 40
0.0
  0
ENDTAB
  0
TABLE
  2
LAYER
  5
2
102
{ACAD_XDICTIONARY
360
7A6F
102
}
330
0
100
AcDbSymbolTable
 70
    13
  0
LAYER
  5
10
330
2
100
AcDbSymbolTableRecord
100
AcDbLayerTableRecord
  2
0
 70
     0
 62
     7
  6
Continuous
370
    -3
390
F
  0
LAYER
  5
45
330
2
100
AcDbSymbolTableRecord
100
AcDbLayerTableRecord
  2
01注記寸法
 70
     0
 62
     7
  6
Continuous
370
     9
390
F
  0
LAYER
  5
82BC
330
2
100
AcDbSymbolTableRecord
100
AcDbLayerTableRecord
  2
02製品
 70
     0
 62
     2
  6
Continuous
370
    15
390
F
  0
LAYER
  5
15088
330
2
100
AcDbSymbolTableRecord
100
AcDbLayerTableRecord
  2
1　製品
 70
     0
 62
     2
  6
Continuous
370
    15
390
F
  0
ENDTAB
  0
TABLE
  2
STYLE
  5
3
330
0
100
AcDbSymbolTable
 70
     4
  0
STYLE
  5
11
330
3
100
AcDbSymbolTableRecord
100
AcDbTextStyleTableRecord
  2
Standard
 70
     0
 40
0.0
 41
1.0
 50
0.0
 71
     0
 42
3.0
  3
MS Gothic.ttf
  4

1001
ACAD
1000
MS Gothic
1071
    32817
  0
STYLE
  5
19E
330
3
100
AcDbSymbolTableRecord
100
AcDbTextStyleTableRecord
  2
STYLE1
 70
     0
 40
0.0
 41
0.9
 50
0.0
 71
     0
 42
28.125
  3
TXT.shx
  4
extfont.shx
  0
STYLE
  5
C96B
330
3
100
AcDbSymbolTableRecord
100
AcDbTextStyleTableRecord
  2
Standard-tate
 70
     0
 40
0.0
 41
1.0
 50
0.0
 71
     0
 42
3.0
  3
@MS PGothic.ttf
  4

1001
ACAD
1000
@MS PGothic
1071
    32818
  0
ENDTAB
  0
TABLE
  2
VIEW
  5
6
330
0
100
AcDbSymbolTable
 70
     0
  0
ENDTAB
  0
TABLE
  2
UCS
  5
7
330
0
100
AcDbSymbolTable
 70
     0
  0
ENDTAB
  0
TABLE
  2
APPID
  5
9
330
0
100
AcDbSymbolTable
 70
    11
  0
APPID
  5
12
330
9
100
AcDbSymbolTableRecord
100
AcDbRegAppTableRecord
  2
ACAD
 70
     0
  0
APPID
  5
6A9E
330
9
100
AcDbSymbolTableRecord
100
AcDbRegAppTableRecord
  2
ACAD_DSTYLE_DIMRADIAL_EXTENSION
 70
     0
  0
APPID
  5
742C
330
9
100
AcDbSymbolTableRecord
100
AcDbRegAppTableRecord
  2
ACAD_PSEXT
 70
     0
  0
APPID
  5
742D
330
9
100
AcDbSymbolTableRecord
100
AcDbRegAppTableRecord
  2
ACAD_DSTYLE_DIMJAG
 70
     0
  0
APPID
  5
742E
330
9
100
AcDbSymbolTableRecord
100
AcDbRegAppTableRecord
  2
ACAD_DSTYLE_DIMTALN
 70
     0
  0
APPID
  5
8254
330
9
100
AcDbSymbolTableRecord
100
AcDbRegAppTableRecord
  2
AECBASE
 70
     0
  0
APPID
  5
8255
330
9
100
AcDbSymbolTableRecord
100
AcDbRegAppTableRecord
  2
AEC_2DSECTION_XDATA
 70
     0
  0
APPID
  5
8256
330
9
100
AcDbSymbolTableRecord
100
AcDbRegAppTableRecord
  2
AEC_MASSGROUP_XDADA
 70
     0
  0
APPID
  5
B0E5
330
9
100
AcDbSymbolTableRecord
100
AcDbRegAppTableRecord
  2
PE_DIMMEASUREMENT
 70
     0
  0
APPID
  5
147E0
330
9
100
AcDbSymbolTableRecord
100
AcDbRegAppTableRecord
  2
AcAecLayerStandard
 70
     0
  0
APPID
  5
15094
330
9
100
AcDbSymbolTableRecord
100
AcDbRegAppTableRecord
  2
PLOTTRANSPARENCY
 70
     0
  0
ENDTAB
  0
TABLE
  2
DIMSTYLE
  5
A
330
0
100
AcDbSymbolTable
 70
    27
100
AcDbDimStyleTable
  0
DIMSTYLE
105
4E6F
102
{ACAD_REACTORS
330
14590
330
1459D
330
145AA
330
145B7
330
145C4
330
145D1
330
145DE
330
145EB
330
145FA
330
15C6E
330
15C7C
330
15C8A
330
15C9A
330
15D28
330
15D3B
330
15DE4
330
15DF1
102
}
330
A
100
AcDbSymbolTableRecord
100
AcDbDimStyleTableRecord
  2
NEMY-20
 70
     0
 40
20.0
 41
3.0
 42
1.5
 43
10.0
 44
1.0
 73
     0
 74
     0
 77
     1
 78
     8
140
3.0
141
1.5
143
0.03937007874016
147
1.0
171
     3
172
     1
178
     0
271
     1
272
     1
274
     3
283
     0
284
     8
340
11
341
8F
342
8F
  0
ENDTAB
  0
TABLE
  2
BLOCK_RECORD
  5
1
330
0
100
AcDbSymbolTable
 70
    56
  0
BLOCK_RECORD
  5
1F
102
{ACAD_XDICTIONARY
360
CBD6
102
}
330
1
100
AcDbSymbolTableRecord
100
AcDbBlockTableRecord
  2
*Model_Space
340
22
  0
BLOCK_RECORD
  5
1B
330
1
100
AcDbSymbolTableRecord
100
AcDbBlockTableRecord
  2
*Paper_Space
340
1E
  0
BLOCK_RECORD
  5
23
330
1
100
AcDbSymbolTableRecord
100
AcDbBlockTableRecord
  2
*Paper_Space0
340
26
  0
BLOCK_RECORD
  5
8F
330
1
100
AcDbSymbolTableRecord
100
AcDbBlockTableRecord
  2
_Open
340
0
102
{BLKREFS
331
141AC
331
141AD
331
141B2
331
141B3
331
141B8
331
141B9
331
141BE
331
141BF
331
141C4
331
141C5
331
141CA
331
141CB
331
141D0
331
141D1
331
141D6
331
141D7
331
1401C
331
1401D
331
14029
331
1402A
331
14036
331
14037
331
1478E
331
1478F
331
14794
331
14795
331
1479A
331
1479B
331
147A0
331
147A1
331
147A6
331
147A7
331
147AC
331
147AD
331
147B2
331
147B3
331
147B8
331
147B9
331
147BE
331
147BF
331
147C7
331
147C8
331
147CD
331
147CE
331
147D6
331
147D7
331
14596
331
14597
331
145A3
331
145A4
331
145B0
331
145B1
331
145BD
331
145BE
331
145CA
331
145CB
331
145D7
331
145D8
331
145E4
331
145E5
331
145F1
331
145F2
331
14600
331
14601
331
15C74
331
15C75
331
15C90
331
15C91
331
15CA0
331
15CA1
331
15DEA
331
15DEB
331
15DF7
331
15DF8
331
1D7D3
331
1D7D4
331
1D7DF
331
1D7E0
331
1D7EB
331
1D7EC
331
1D7F7
331
1D7F8
102
}
  0
BLOCK_RECORD
  5
152CE
102
{ACAD_XDICTIONARY
360
152CF
102
}
330
1
100
AcDbSymbolTableRecord
100
AcDbBlockTableRecord
  2
A$C20123
340
0
102
{BLKREFS
331
15C14
331
15C42
331
1D79D
331
1D79E
331
1D79F
102
}
  0
BLOCK_RECORD
  5
152FD
330
1
100
AcDbSymbolTableRecord
100
AcDbBlockTableRecord
  2
A$C3C7277DA
340
0
102
{BLKREFS
331
15C43
331
15C6B
331
15C6C
331
15C6D
331
1D797
331
1D798
331
1D799
331
1D79A
331
1D79B
331
1D79C
102
}
  0
BLOCK_RECORD
  5
1B0D4
102
{ACAD_XDICTIONARY
360
1B100
102
}
330
1
100
AcDbSymbolTableRecord
100
AcDbBlockTableRecord
  2
A$C10914
340
0
102
{BLKREFS
331
1D7A0
331
1D7A1
331
1D7A2
331
1D7A3
331
1D7A4
331
1D7A5
331
1D7A6
331
1D7A7
331
1D7AA
331
1D7AB
331
1D7AC
331
1D7AD
331
1D7AE
331
1D7AF
331
1D7B0
331
1D7B1
331
1D7B2
331
1D7B3
331
1D7B4
331
1D7B5
331
1D7B6
331
1D7B7
331
1D7B8
331
1D7B9
102
}
  0
BLOCK_RECORD
  5
1CC30
102
{ACAD_XDICTIONARY
360
1CC5C
102
}
330
1
100
AcDbSymbolTableRecord
100
AcDbBlockTableRecord
  2
A$C29410
340
0
102
{BLKREFS
331
1D7A8
331
1D7A9
331
1D7C3
331
1D7C4
102
}
  0
ENDTAB
  0
ENDSEC
  0
SECTION
  2
BLOCKS
  0
BLOCK
  5
20
330
1F
100
AcDbEntity
  8
0
100
AcDbBlockBegin
  2
*Model_Space
 70
     0
 10
0.0
 20
0.0
 30
0.0
  3
*Model_Space
  1
*Model_Space
  0
ENDBLK
  5
21
330
1F
100
AcDbEntity
  8
0
100
AcDbBlockEnd
  0
BLOCK
  5
1C
330
1B
100
AcDbEntity
 67
     1
  8
0
100
AcDbBlockBegin
  2
*Paper_Space
 70
     0
 10
0.0
 20
0.0
 30
0.0
  3
*Paper_Space
  1
*Paper_Space
  0
ENDBLK
  5
1D
330
1B
100
AcDbEntity
 67
     1
  8
0
100
AcDbBlockEnd
  0
BLOCK
  5
24
330
23
100
AcDbEntity
  8
0
100
AcDbBlockBegin
  2
*Paper_Space0
 70
     0
 10
0.0
 20
0.0
 30
0.0
  3
*Paper_Space0
  1
*Paper_Space0
  0
ENDBLK
  5
25
330
23
100
AcDbEntity
  8
0
100
AcDbBlockEnd
  0
BLOCK
  5
93
330
8F
100
AcDbEntity
  8
0
100
AcDbBlockBegin
  2
_Open
 70
     0
 10
0.0
 20
0.0
 30
0.0
  3
_Open
  1
_Open
  0
LINE
  5
90
330
8F
100
AcDbEntity
  8
01注記寸法
 62
     0
370
    -2
100
AcDbLine
 10
-1.0
 20
0.1666666666666667
 30
0.0
 11
0.0
 21
0.0
 31
0.0
  0
LINE
  5
91
330
8F
100
AcDbEntity
  8
01注記寸法
 62
     0
370
    -2
100
AcDbLine
 10
-1.0
 20
-0.1666666666666667
 30
0.0
 11
0.0
 21
0.0
 31
0.0
  0
LINE
  5
92
330
8F
100
AcDbEntity
  8
01注記寸法
 62
     0
370
    -2
100
AcDbLine
 10
0.0
 20
0.0
 30
0.0
 11
-1.0
 21
0.0
 31
0.0
  0
ENDBLK
  5
94
330
8F
100
AcDbEntity
  8
0
100
AcDbBlockEnd
  0
BLOCK
  5
152D1
330
152CE
100
AcDbEntity
  8
0
100
AcDbBlockBegin
  2
A$C20123
 70
     0
 10
0.0
 20
0.0
 30
0.0
  3
A$C20123
  1
A$C20123
  0
LINE
  5
152D2
330
152CE
100
AcDbEntity
  8
1　製品
100
AcDbLine
 10
127.0000000000018
 20
0.0
 30
0.0
 11
101.6000000000004
 21
11.33333333333212
 31
0.0
  0
LINE
  5
152D3
330
152CE
100
AcDbEntity
  8
1　製品
100
AcDbLine
 10
76.19999999999891
 20
0.0
 30
0.0
 11
101.6000000000004
 21
11.33333333333212
 31
0.0
  0
LINE
  5
152D4
330
152CE
100
AcDbEntity
  8
1　製品
100
AcDbLine
 10
76.19999999999891
 20
68.0
 30
0.0
 11
50.80000000000109
 21
79.33333333333212
 31
0.0
  0
LINE
  5
152D5
330
152CE
100
AcDbEntity
  8
1　製品
100
AcDbLine
 10
76.19999999999891
 20
45.33333333333212
 30
0.0
 11
50.80000000000109
 21
56.66666666666424
 31
0.0
  0
LINE
  5
152D6
330
152CE
100
AcDbEntity
  8
1　製品
100
AcDbLine
 10
50.80000000000109
 20
34.0
 30
0.0
 11
76.19999999999891
 21
22.66666666666424
 31
0.0
  0
LINE
  5
152D7
330
152CE
100
AcDbEntity
  8
1　製品
100
AcDbLine
 10
76.19999999999891
 20
45.33333333333212
 30
0.0
 11
50.80000000000109
 21
34.0
 31
0.0
  0
LINE
  5
152D8
330
152CE
100
AcDbEntity
  8
1　製品
100
AcDbLine
 10
76.19999999999891
 20
22.66666666666424
 30
0.0
 11
50.80000000000109
 21
11.33333333333212
 31
0.0
  0
LINE
  5
152D9
330
152CE
100
AcDbEntity
  8
1　製品
100
AcDbLine
 10
50.80000000000109
 20
56.66666666666424
 30
0.0
 11
76.19999999999891
 21
68.0
 31
0.0
  0
LINE
  5
152DA
330
152CE
100
AcDbEntity
  8
1　製品
100
AcDbLine
 10
25.39999999999964
 20
45.33333333333212
 30
0.0
 11
0.0
 21
56.66666666666424
 31
0.0
  0
LINE
  5
152DB
330
152CE
100
AcDbEntity
  8
1　製品
100
AcDbLine
 10
25.39999999999964
 20
45.33333333333212
 30
0.0
 11
0.0
 21
34.0
 31
0.0
  0
LINE
  5
152DC
330
152CE
100
AcDbEntity
  8
1　製品
100
AcDbLine
 10
50.80000000000109
 20
34.0
 30
0.0
 11
25.39999999999964
 21
45.33333333333212
 31
0.0
  0
LINE
  5
152DD
330
152CE
100
AcDbEntity
  8
1　製品
100
AcDbLine
 10
25.39999999999964
 20
22.66666666666424
 30
0.0
 11
50.80000000000109
 21
34.0
 31
0.0
  0
LINE
  5
152DE
330
152CE
100
AcDbEntity
  8
1　製品
100
AcDbLine
 10
25.39999999999964
 20
68.0
 30
0.0
 11
50.80000000000109
 21
56.66666666666424
 31
0.0
  0
LINE
  5
152DF
330
152CE
100
AcDbEntity
  8
1　製品
100
AcDbLine
 10
50.80000000000109
 20
56.66666666666424
 30
0.0
 11
25.39999999999964
 21
45.33333333333212
 31
0.0
  0
LINE
  5
152E0
330
152CE
100
AcDbEntity
  8
1　製品
100
AcDbLine
 10
101.6000000000004
 20
79.33333333333212
 30
0.0
 11
127.0000000000018
 21
68.0
 31
0.0
  0
LINE
  5
152E1
330
152CE
100
AcDbEntity
  8
1　製品
100
AcDbLine
 10
101.6000000000004
 20
79.33333333333212
 30
0.0
 11
76.19999999999891
 21
68.0
 31
0.0
  0
LINE
  5
152E2
330
152CE
100
AcDbEntity
  8
1　製品
100
AcDbLine
 10
127.0000000000018
 20
68.0
 30
0.0
 11
152.4000000000015
 21
79.33333333333212
 31
0.0
  0
LINE
  5
152E3
330
152CE
100
AcDbEntity
  8
1　製品
100
AcDbLine
 10
127.0000000000018
 20
45.33333333333212
 30
0.0
 11
152.4000000000015
 21
56.66666666666424
 31
0.0
  0
LINE
  5
152E4
330
152CE
100
AcDbEntity
  8
1　製品
100
AcDbLine
 10
127.0000000000018
 20
22.66666666666424
 30
0.0
 11
152.4000000000015
 21
11.33333333333212
 31
0.0
  0
LINE
  5
152E5
330
152CE
100
AcDbEntity
  8
1　製品
100
AcDbLine
 10
152.4000000000015
 20
34.0
 30
0.0
 11
127.0000000000018
 21
22.66666666666424
 31
0.0
  0
LINE
  5
152E6
330
152CE
100
AcDbEntity
  8
1　製品
100
AcDbLine
 10
127.0000000000018
 20
45.33333333333212
 30
0.0
 11
152.4000000000015
 21
34.0
 31
0.0
  0
LINE
  5
152E7
330
152CE
100
AcDbEntity
  8
1　製品
100
AcDbLine
 10
152.4000000000015
 20
56.66666666666424
 30
0.0
 11
127.0000000000018
 21
68.0
 31
0.0
  0
LINE
  5
152E8
330
152CE
100
AcDbEntity
  8
1　製品
100
AcDbLine
 10
101.6000000000004
 20
56.66666666666424
 30
0.0
 11
127.0000000000018
 21
45.33333333333212
 31
0.0
  0
LINE
  5
152E9
330
152CE
100
AcDbEntity
  8
1　製品
100
AcDbLine
 10
127.0000000000018
 20
22.66666666666424
 30
0.0
 11
101.6000000000004
 21
34.0
 31
0.0
  0
LINE
  5
152EA
330
152CE
100
AcDbEntity
  8
1　製品
100
AcDbLine
 10
101.6000000000004
 20
34.0
 30
0.0
 11
127.0000000000018
 21
45.33333333333212
 31
0.0
  0
LINE
  5
152EB
330
152CE
100
AcDbEntity
  8
1　製品
100
AcDbLine
 10
101.6000000000004
 20
56.66666666666424
 30
0.0
 11
76.19999999999891
 21
45.33333333333212
 31
0.0
  0
LINE
  5
152EC
330
152CE
100
AcDbEntity
  8
1　製品
100
AcDbLine
 10
76.19999999999891
 20
22.66666666666424
 30
0.0
 11
101.6000000000004
 21
34.0
 31
0.0
  0
LINE
  5
152ED
330
152CE
100
AcDbEntity
  8
1　製品
100
AcDbLine
 10
101.6000000000004
 20
34.0
 30
0.0
 11
76.19999999999891
 21
45.33333333333212
 31
0.0
  0
LINE
  5
152EE
330
152CE
100
AcDbEntity
  8
1　製品
100
AcDbLine
 10
101.6000000000004
 20
11.33333333333212
 30
0.0
 11
76.19999999999891
 21
22.66666666666424
 31
0.0
  0
LINE
  5
152EF
330
152CE
100
AcDbEntity
  8
1　製品
100
AcDbLine
 10
101.6000000000004
 20
11.33333333333212
 30
0.0
 11
127.0000000000018
 21
22.66666666666424
 31
0.0
  0
LINE
  5
152F0
330
152CE
100
AcDbEntity
  8
1　製品
100
AcDbLine
 10
76.19999999999891
 20
68.0
 30
0.0
 11
101.6000000000004
 21
56.66666666666424
 31
0.0
  0
LINE
  5
152F1
330
152CE
100
AcDbEntity
  8
1　製品
100
AcDbLine
 10
127.0000000000018
 20
68.0
 30
0.0
 11
101.6000000000004
 21
56.66666666666424
 31
0.0
  0
LINE
  5
152F2
330
152CE
100
AcDbEntity
  8
1　製品
100
AcDbLine
 10
152.4000000000015
 20
56.66666666666424
 30
0.0
 11
177.8000000000029
 21
45.33333333333212
 31
0.0
  0
LINE
  5
152F3
330
152CE
100
AcDbEntity
  8
1　製品
100
AcDbLine
 10
177.8000000000029
 20
22.66666666666424
 30
0.0
 11
152.4000000000015
 21
34.0
 31
0.0
  0
LINE
  5
152F4
330
152CE
100
AcDbEntity
  8
1　製品
100
AcDbLine
 10
152.4000000000015
 20
34.0
 30
0.0
 11
177.8000000000029
 21
45.33333333333212
 31
0.0
  0
LINE
  5
152F5
330
152CE
100
AcDbEntity
  8
1　製品
100
AcDbLine
 10
177.8000000000029
 20
45.33333333333212
 30
0.0
 11
203.2000000000025
 21
56.66666666666424
 31
0.0
  0
LINE
  5
152F6
330
152CE
100
AcDbEntity
  8
1　製品
100
AcDbLine
 10
177.8000000000029
 20
45.33333333333212
 30
0.0
 11
203.2000000000025
 21
34.0
 31
0.0
  0
LINE
  5
152F7
330
152CE
100
AcDbEntity
  8
1　製品
100
AcDbLine
 10
177.8000000000029
 20
68.0
 30
0.0
 11
152.4000000000015
 21
56.66666666666424
 31
0.0
  0
LINE
  5
152F8
330
152CE
100
AcDbEntity
  8
1　製品
100
AcDbLine
 10
127.0000000000018
 20
90.66666666666424
 30
0.0
 11
101.6000000000004
 21
79.33333333333212
 31
0.0
  0
LINE
  5
152F9
330
152CE
100
AcDbEntity
  8
1　製品
100
AcDbLine
 10
76.19999999999891
 20
90.66666666666424
 30
0.0
 11
101.6000000000004
 21
79.33333333333212
 31
0.0
  0
ENDBLK
  5
152FA
330
152CE
100
AcDbEntity
  8
0
100
AcDbBlockEnd
  0
BLOCK
  5
152FE
330
152FD
100
AcDbEntity
  8
0
 48
20.0
100
AcDbBlockBegin
  2
A$C3C7277DA
 70
     0
 10
0.0
 20
0.0
 30
0.0
  3
A$C3C7277DA
  1
A$C3C7277DA
  0
LINE
  5
152FF
330
152FD
100
AcDbEntity
  8
0
100
AcDbLine
 10
266.7000199373761
 20
68.00000432218076
 30
0.0
 11
304.8000199373782
 21
51.00000432218076
 31
0.0
  0
LINE
  5
15300
330
152FD
100
AcDbEntity
  8
0
100
AcDbLine
 10
228.6000199373775
 20
51.00000432218076
 30
0.0
 11
266.7000199373761
 21
68.00000432218076
 31
0.0
  0
LINE
  5
15301
330
152FD
100
AcDbEntity
  8
0
100
AcDbLine
 10
152.4000199373768
 20
51.00000432218076
 30
0.0
 11
190.5000199373753
 21
68.00000432218076
 31
0.0
  0
LINE
  5
15302
330
152FD
100
AcDbEntity
  8
0
100
AcDbLine
 10
114.3000199373746
 20
68.00000432218076
 30
0.0
 11
152.4000199373768
 21
51.00000432218076
 31
0.0
  0
LINE
  5
15303
330
152FD
100
AcDbEntity
  8
0
100
AcDbLine
 10
190.5000199373753
 20
68.00000432218076
 30
0.0
 11
228.6000199373775
 21
51.00000432218076
 31
0.0
  0
LINE
  5
15304
330
152FD
100
AcDbEntity
  8
0
100
AcDbLine
 10
228.6000199373775
 20
51.00000432218076
 30
0.0
 11
190.5000199373753
 21
34.00000432218076
 31
0.0
  0
LINE
  5
15305
330
152FD
100
AcDbEntity
  8
0
100
AcDbLine
 10
190.5000199373753
 20
34.00000432218076
 30
0.0
 11
228.6000199373775
 21
17.00000432218076
 31
0.0
  0
LINE
  5
15306
330
152FD
100
AcDbEntity
  8
0
100
AcDbLine
 10
228.6000199373775
 20
17.00000432218076
 30
0.0
 11
190.5000199373753
 21
0.0000043221807573
 31
0.0
  0
LINE
  5
15307
330
152FD
100
AcDbEntity
  8
0
100
AcDbLine
 10
38.10001993737387
 20
34.00000432218076
 30
0.0
 11
76.20001993737606
 21
17.00000432218076
 31
0.0
  0
LINE
  5
15308
330
152FD
100
AcDbEntity
  8
0
100
AcDbLine
 10
76.20001993737606
 20
17.00000432218076
 30
0.0
 11
38.10001993737387
 21
0.0000043221807573
 31
0.0
  0
LINE
  5
15309
330
152FD
100
AcDbEntity
  8
0
100
AcDbLine
 10
38.10001993737387
 20
0.0000043221807573
 30
0.0
 11
0.0000199373753276
 21
17.00000432218076
 31
0.0
  0
LINE
  5
1530A
330
152FD
100
AcDbEntity
  8
0
100
AcDbLine
 10
114.3000199373746
 20
34.00000432218076
 30
0.0
 11
76.20001993737606
 21
51.00000432218076
 31
0.0
  0
LINE
  5
1530B
330
152FD
100
AcDbEntity
  8
0
100
AcDbLine
 10
190.5000199373753
 20
34.00000432218076
 30
0.0
 11
152.4000199373768
 21
51.00000432218076
 31
0.0
  0
LINE
  5
1530C
330
152FD
100
AcDbEntity
  8
0
100
AcDbLine
 10
152.4000199373768
 20
51.00000432218076
 30
0.0
 11
114.3000199373746
 21
34.00000432218076
 31
0.0
  0
LINE
  5
1530D
330
152FD
100
AcDbEntity
  8
0
100
AcDbLine
 10
114.3000199373746
 20
34.00000432218076
 30
0.0
 11
152.4000199373768
 21
17.00000432218076
 31
0.0
  0
LINE
  5
1530E
330
152FD
100
AcDbEntity
  8
0
100
AcDbLine
 10
76.20001993737606
 20
17.00000432218076
 30
0.0
 11
114.3000199373746
 21
34.00000432218076
 31
0.0
  0
LINE
  5
1530F
330
152FD
100
AcDbEntity
  8
0
100
AcDbLine
 10
114.3000199373746
 20
0.0000043221807573
 30
0.0
 11
76.20001993737606
 21
17.00000432218076
 31
0.0
  0
LINE
  5
15310
330
152FD
100
AcDbEntity
  8
0
100
AcDbLine
 10
152.4000199373768
 20
17.00000432218076
 30
0.0
 11
114.3000199373746
 21
0.0000043221807573
 31
0.0
  0
LINE
  5
15311
330
152FD
100
AcDbEntity
  8
0
100
AcDbLine
 10
152.4000199373768
 20
17.00000432218076
 30
0.0
 11
190.5000199373753
 21
34.00000432218076
 31
0.0
  0
LINE
  5
15312
330
152FD
100
AcDbEntity
  8
0
100
AcDbLine
 10
190.5000199373753
 20
0.0000043221807573
 30
0.0
 11
152.4000199373768
 21
17.00000432218076
 31
0.0
  0
LINE
  5
15313
330
152FD
100
AcDbEntity
  8
0
100
AcDbLine
 10
304.8000199373782
 20
51.00000432218076
 30
0.0
 11
266.7000199373761
 21
34.00000432218076
 31
0.0
  0
LINE
  5
15314
330
152FD
100
AcDbEntity
  8
0
100
AcDbLine
 10
266.7000199373761
 20
34.00000432218076
 30
0.0
 11
228.6000199373775
 21
51.00000432218076
 31
0.0
  0
LINE
  5
15315
330
152FD
100
AcDbEntity
  8
0
100
AcDbLine
 10
304.8000199373782
 20
17.00000432218076
 30
0.0
 11
266.7000199373761
 21
0.0000043221807573
 31
0.0
  0
LINE
  5
15316
330
152FD
100
AcDbEntity
  8
0
100
AcDbLine
 10
266.7000199373761
 20
0.0000043221807573
 30
0.0
 11
228.6000199373775
 21
17.00000432218076
 31
0.0
  0
LINE
  5
15317
330
152FD
100
AcDbEntity
  8
0
100
AcDbLine
 10
228.6000199373775
 20
17.00000432218076
 30
0.0
 11
266.7000199373761
 21
34.00000432218076
 31
0.0
  0
LINE
  5
15318
330
152FD
100
AcDbEntity
  8
0
100
AcDbLine
 10
266.7000199373761
 20
34.00000432218076
 30
0.0
 11
304.8000199373782
 21
17.00000432218076
 31
0.0
  0
LINE
  5
15319
330
152FD
100
AcDbEntity
  8
0
100
AcDbLine
 10
228.6000199373775
 20
85.00000432218076
 30
0.0
 11
190.5000199373753
 21
68.00000432218076
 31
0.0
  0
LINE
  5
1531A
330
152FD
100
AcDbEntity
  8
0
100
AcDbLine
 10
190.5000199373753
 20
102.0000043221808
 30
0.0
 11
228.6000199373775
 21
85.00000432218076
 31
0.0
  0
LINE
  5
1531B
330
152FD
100
AcDbEntity
  8
0
100
AcDbLine
 10
190.5000199373753
 20
68.00000432218076
 30
0.0
 11
152.4000199373768
 21
85.00000432218076
 31
0.0
  0
LINE
  5
1531C
330
152FD
100
AcDbEntity
  8
0
100
AcDbLine
 10
266.7000199373761
 20
136.0000043221808
 30
0.0
 11
304.8000199373782
 21
119.0000043221808
 31
0.0
  0
LINE
  5
1531D
330
152FD
100
AcDbEntity
  8
0
100
AcDbLine
 10
304.8000199373782
 20
119.0000043221808
 30
0.0
 11
266.7000199373761
 21
102.0000043221808
 31
0.0
  0
LINE
  5
1531E
330
152FD
100
AcDbEntity
  8
0
100
AcDbLine
 10
266.7000199373761
 20
102.0000043221808
 30
0.0
 11
228.6000199373775
 21
119.0000043221808
 31
0.0
  0
LINE
  5
1531F
330
152FD
100
AcDbEntity
  8
0
100
AcDbLine
 10
266.7000199373761
 20
102.0000043221808
 30
0.0
 11
304.8000199373782
 21
85.00000432218076
 31
0.0
  0
LINE
  5
15320
330
152FD
100
AcDbEntity
  8
0
100
AcDbLine
 10
304.8000199373782
 20
85.00000432218076
 30
0.0
 11
266.7000199373761
 21
68.00000432218076
 31
0.0
  0
LINE
  5
15321
330
152FD
100
AcDbEntity
  8
0
100
AcDbLine
 10
228.6000199373775
 20
85.00000432218076
 30
0.0
 11
266.7000199373761
 21
102.0000043221808
 31
0.0
  0
LINE
  5
15322
330
152FD
100
AcDbEntity
  8
0
100
AcDbLine
 10
266.7000199373761
 20
68.00000432218076
 30
0.0
 11
228.6000199373775
 21
85.00000432218076
 31
0.0
  0
ENDBLK
  5
15323
330
152FD
100
AcDbEntity
  8
0
 48
20.0
100
AcDbBlockEnd
  0
BLOCK
  5
1B110
330
1B0D4
100
AcDbEntity
  8
0
100
AcDbBlockBegin
  2
A$C10914
 70
     0
 10
0.0
 20
0.0
 30
0.0
  3
A$C10914
  1
A$C10914
  0
LINE
  5
1B102
330
1B0D4
100
AcDbEntity
  8
02製品
  6
ByBlock
100
AcDbLine
 10
5.500000000001819
 20
0.0
 30
0.0
 11
7.10000000351647
 21
0.0
 31
0.0
  0
LINE
  5
1B103
330
1B0D4
100
AcDbEntity
  8
02製品
  6
ByBlock
100
AcDbLine
 10
5.500000000001819
 20
17.0
 30
0.0
 11
7.10000000351647
 21
17.0
 31
0.0
  0
LINE
  5
1B104
330
1B0D4
100
AcDbEntity
  8
02製品
  6
ByBlock
100
AcDbLine
 10
7.10000000351647
 20
17.0
 30
0.0
 11
7.10000000351647
 21
0.0
 31
0.0
  0
LINE
  5
1B105
330
1B0D4
100
AcDbEntity
  8
02製品
  6
ByBlock
100
AcDbLine
 10
5.500000000001819
 20
17.0
 30
0.0
 11
5.500000000001819
 21
0.0
 31
0.0
  0
LINE
  5
1B106
330
1B0D4
100
AcDbEntity
  8
02製品
  6
ByBlock
100
AcDbLine
 10
0.6960296630859375
 20
0.9944610595703125
 30
0.0
 11
5.500000000001819
 21
0.9944610595703125
 31
0.0
  0
LINE
  5
1B107
330
1B0D4
100
AcDbEntity
  8
02製品
  6
ByBlock
100
AcDbLine
 10
0.0
 20
14.80008520759657
 30
0.0
 11
0.0
 21
2.199989179011027
 31
0.0
  0
ARC
  5
1B108
330
1B0D4
100
AcDbEntity
  8
02製品
  6
ByBlock
100
AcDbCircle
 10
12.00000000000273
 20
8.50000000000091
 30
0.0
 40
12.0
100
AcDbArc
 50
161.7759804502329
 51
198.2237823143786
  0
LINE
  5
1B109
330
1B0D4
100
AcDbEntity
  8
02製品
  6
ByBlock
100
AcDbLine
 10
0.601898193359375
 20
4.747253417969659
 30
0.0
 11
5.500000000001819
 21
4.747253417969659
 31
0.0
  0
LINE
  5
1B10A
330
1B0D4
100
AcDbEntity
  8
02製品
  6
ByBlock
100
AcDbLine
 10
0.601913452151166
 20
12.25280761718841
 30
0.0
 11
5.500000000001819
 21
12.25280761718841
 31
0.0
  0
LINE
  5
1B10B
330
1B0D4
100
AcDbEntity
  8
02製品
  6
ByBlock
100
AcDbLine
 10
0.6960296630859375
 20
16.00556945800781
 30
0.0
 11
5.500000000001819
 21
16.00556945800781
 31
0.0
  0
LINE
  5
1B10C
330
1B0D4
100
AcDbEntity
  8
02製品
  6
ByBlock
100
AcDbLine
 10
0.6019017629496375
 20
12.25283127230978
 30
0.0
 11
0.0
 21
14.80008520759657
 31
0.0
  0
LINE
  5
1B10D
330
1B0D4
100
AcDbEntity
  8
02製品
  6
ByBlock
100
AcDbLine
 10
0.0
 20
2.199989179011027
 30
0.0
 11
0.6018760334500257
 21
4.747300551312037
 31
0.0
  0
LINE
  5
1B10E
330
1B0D4
100
AcDbEntity
  8
02製品
  6
ByBlock
100
AcDbLine
 10
0.0
 20
2.199989179011027
 30
0.0
 11
0.6959975911631773
 21
0.9944858559847489
 31
0.0
  0
LINE
  5
1B10F
330
1B0D4
100
AcDbEntity
  8
02製品
  6
ByBlock
100
AcDbLine
 10
0.6960187865770422
 20
16.0056252421582
 30
0.0
 11
0.0
 21
14.80008520759657
 31
0.0
  0
ENDBLK
  5
1B111
330
1B0D4
100
AcDbEntity
  8
0
100
AcDbBlockEnd
  0
BLOCK
  5
1CC6C
330
1CC30
100
AcDbEntity
  8
0
100
AcDbBlockBegin
  2
A$C29410
 70
     0
 10
0.0
 20
0.0
 30
0.0
  3
A$C29410
  1
A$C29410
  0
LINE
  5
1CC5E
330
1CC30
100
AcDbEntity
  8
02製品
  6
ByBlock
100
AcDbLine
 10
5.500000000003638
 20
0.0
 30
0.0
 11
7.10000000351647
 21
0.0
 31
0.0
  0
LINE
  5
1CC5F
330
1CC30
100
AcDbEntity
  8
02製品
  6
ByBlock
100
AcDbLine
 10
5.500000000003638
 20
17.00000000000091
 30
0.0
 11
7.10000000351647
 21
17.00000000000091
 31
0.0
  0
LINE
  5
1CC60
330
1CC30
100
AcDbEntity
  8
02製品
  6
ByBlock
100
AcDbLine
 10
7.10000000351647
 20
17.00000000000091
 30
0.0
 11
7.10000000351647
 21
0.0
 31
0.0
  0
LINE
  5
1CC61
330
1CC30
100
AcDbEntity
  8
02製品
  6
ByBlock
100
AcDbLine
 10
5.500000000003638
 20
17.00000000000091
 30
0.0
 11
5.500000000003638
 21
0.0
 31
0.0
  0
LINE
  5
1CC62
330
1CC30
100
AcDbEntity
  8
02製品
  6
ByBlock
100
AcDbLine
 10
0.6960296630859375
 20
0.994461059571222
 30
0.0
 11
5.500000000003638
 21
0.994461059571222
 31
0.0
  0
LINE
  5
1CC63
330
1CC30
100
AcDbEntity
  8
02製品
  6
ByBlock
100
AcDbLine
 10
0.0
 20
14.80008520759748
 30
0.0
 11
0.0
 21
2.199989179011936
 31
0.0
  0
ARC
  5
1CC64
330
1CC30
100
AcDbEntity
  8
02製品
  6
ByBlock
100
AcDbCircle
 10
12.00000000000364
 20
8.50000000000091
 30
0.0
 40
12.0
100
AcDbArc
 50
161.7759804502453
 51
198.2237823143827
  0
LINE
  5
1CC65
330
1CC30
100
AcDbEntity
  8
02製品
  6
ByBlock
100
AcDbLine
 10
0.601898193359375
 20
4.747253417969659
 30
0.0
 11
5.500000000003638
 21
4.747253417969659
 31
0.0
  0
LINE
  5
1CC66
330
1CC30
100
AcDbEntity
  8
02製品
  6
ByBlock
100
AcDbLine
 10
0.6019134521520755
 20
12.25280761718841
 30
0.0
 11
5.500000000003638
 21
12.25280761718841
 31
0.0
  0
LINE
  5
1CC67
330
1CC30
100
AcDbEntity
  8
02製品
  6
ByBlock
100
AcDbLine
 10
0.6960296630859375
 20
16.00556945800872
 30
0.0
 11
5.500000000003638
 21
16.00556945800872
 31
0.0
  0
LINE
  5
1CC68
330
1CC30
100
AcDbEntity
  8
02製品
  6
ByBlock
100
AcDbLine
 10
0.6019017629478185
 20
12.25283127231069
 30
0.0
 11
0.0
 21
14.80008520759748
 31
0.0
  0
LINE
  5
1CC69
330
1CC30
100
AcDbEntity
  8
02製品
  6
ByBlock
100
AcDbLine
 10
0.0
 20
2.199989179011936
 30
0.0
 11
0.6018760334482067
 21
4.747300551312037
 31
0.0
  0
LINE
  5
1CC6A
330
1CC30
100
AcDbEntity
  8
02製品
  6
ByBlock
100
AcDbLine
 10
0.0
 20
2.199989179011936
 30
0.0
 11
0.6959975911631773
 21
0.9944858559847489
 31
0.0
  0
LINE
  5
1CC6B
330
1CC30
100
AcDbEntity
  8
02製品
  6
ByBlock
100
AcDbLine
 10
0.6960187865770422
 20
16.00562524215911
 30
0.0
 11
0.0
 21
14.80008520759748
 31
0.0
  0
ENDBLK
  5
1CC6D
330
1CC30
100
AcDbEntity
  8
0
100
AcDbBlockEnd
  0
ENDSEC
  0
SECTION
  2
ENTITIES
  0
ARC
  5
1D593
102
{ACAD_REACTORS
330
1D7CC
102
}
330
1F
100
AcDbEntity
  8
02製品
  6
Continuous
100
AcDbCircle
 10
-10409.45363216893
 20
3918.300459578271
 30
0.0
 40
3.000000000000398
100
AcDbArc
 50
180.0
 51
270.0
  0
LINE
  5
1D594
102
{ACAD_REACTORS
330
1D7CC
102
}
330
1F
100
AcDbEntity
  8
02製品
  6
Continuous
100
AcDbLine
 10
-10412.4535863926
 20
3918.300475790706
 30
0.0
 11
-10412.4535863926
 21
3949.100460722651
 31
0.0
  0
ARC
  5
1D595
102
{ACAD_REACTORS
330
1D7CC
102
}
330
1F
100
AcDbEntity
  8
02製品
  6
Continuous
100
AcDbCircle
 10
-10409.45363216893
 20
3949.100459578289
 30
0.0
 40
2.999999999999545
100
AcDbArc
 50
90.0
 51
180.0
  0
LINE
  5
1D596
102
{ACAD_REACTORS
330
1D7CC
102
}
330
1F
100
AcDbEntity
  8
02製品
  6
Continuous
100
AcDbLine
 10
-10409.45356541176
 20
3952.100481703486
 30
0.0
 11
-10372.45362453957
 21
3952.100481703486
 31
0.0
  0
LINE
  5
1D597
102
{ACAD_REACTORS
330
1D7CC
102
}
330
1F
100
AcDbEntity
  8
02製品
  6
Continuous
100
AcDbLine
 10
-9351.753646664813
 20
3955.300476267543
 30
0.0
 11
-10372.45362453957
 21
3955.300476267543
 31
0.0
  0
LINE
  5
1D598
102
{ACAD_REACTORS
330
1D7CC
102
}
330
1F
100
AcDbEntity
  8
02製品
  6
Continuous
100
AcDbLine
 10
-9351.753646664813
 20
3952.100481703486
 30
0.0
 11
-9314.75370579262
 21
3952.100481703486
 31
0.0
  0
ARC
  5
1D599
102
{ACAD_REACTORS
330
1D7CC
102
}
330
1F
100
AcDbEntity
  8
02製品
  6
Continuous
100
AcDbCircle
 10
-9314.753632168951
 20
3949.100459578289
 30
0.0
 40
3.000000000000114
100
AcDbArc
 50
0.0
 51
90.0
  0
LINE
  5
1D59A
102
{ACAD_REACTORS
330
1D7CC
102
}
330
1F
100
AcDbEntity
  8
02製品
  6
Continuous
100
AcDbLine
 10
-9311.753684811785
 20
3949.100460722651
 30
0.0
 11
-9311.753684811785
 21
3918.300475790706
 31
0.0
  0
ARC
  5
1D59B
102
{ACAD_REACTORS
330
1D7CC
102
}
330
1F
100
AcDbEntity
  8
02製品
  6
Continuous
100
AcDbCircle
 10
-9314.753632168951
 20
3918.300459578271
 30
0.0
 40
3.000000000000398
100
AcDbArc
 50
270.0
 51
0.0
  0
LINE
  5
1D59C
102
{ACAD_REACTORS
330
1D7CC
102
}
330
1F
100
AcDbEntity
  8
02製品
  6
Continuous
100
AcDbLine
 10
-10409.45356541176
 20
3915.300454809871
 30
0.0
 11
-9314.75370579262
 21
3915.300454809871
 31
0.0
  0
CIRCLE
  5
1D59D
102
{ACAD_REACTORS
330
1D7CC
102
}
330
1F
100
AcDbEntity
  8
02製品
  6
Continuous
100
AcDbCircle
 10
-10394.95363216896
 20
3935.3004595783
 30
0.0
 40
5.000000000003979
  0
CIRCLE
  5
1D59E
102
{ACAD_REACTORS
330
1D7CC
102
}
330
1F
100
AcDbEntity
  8
02製品
  6
Continuous
100
AcDbCircle
 10
-9329.253632168951
 20
3935.3004595783
 30
0.0
 40
5.000000000003411
  0
LINE
  5
1D59F
102
{ACAD_REACTORS
330
1D7CC
102
}
330
1F
100
AcDbEntity
  8
02製品
  6
Continuous
100
AcDbLine
 10
-10372.45362453957
 20
3955.300476267543
 30
0.0
 11
-10372.45362453957
 21
3952.100481703486
 31
0.0
  0
LINE
  5
1D5A0
102
{ACAD_REACTORS
330
1D7CC
102
}
330
1F
100
AcDbEntity
  8
02製品
  6
Continuous
100
AcDbLine
 10
-9351.753646664813
 20
3952.100481703486
 30
0.0
 11
-9351.753646664813
 21
3955.300476267543
 31
0.0
  0
ARC
  5
1D5A1
102
{ACAD_REACTORS
330
1D7CC
102
}
330
1F
100
AcDbEntity
  8
02製品
  6
Continuous
100
AcDbCircle
 10
-12641.15363216892
 20
3918.300459578271
 30
0.0
 40
3.000000000000114
100
AcDbArc
 50
180.0
 51
270.0
  0
LINE
  5
1D5A2
102
{ACAD_REACTORS
330
1D7CC
102
}
330
1F
100
AcDbEntity
  8
02製品
  6
Continuous
100
AcDbLine
 10
-12644.15363238056
 20
3918.300475790706
 30
0.0
 11
-12644.15363238056
 21
3949.100460722651
 31
0.0
  0
ARC
  5
1D5A3
102
{ACAD_REACTORS
330
1D7CC
102
}
330
1F
100
AcDbEntity
  8
02製品
  6
Continuous
100
AcDbCircle
 10
-12641.15363216892
 20
3949.10045957826
 30
0.0
 40
3.000000000000682
100
AcDbArc
 50
90.0
 51
180.0
  0
LINE
  5
1D5A4
102
{ACAD_REACTORS
330
1D7CC
102
}
330
1F
100
AcDbEntity
  8
02製品
  6
Continuous
100
AcDbLine
 10
-11583.45359020729
 20
3955.300476267543
 30
0.0
 11
-12604.15363141198
 21
3955.300476267543
 31
0.0
  0
ARC
  5
1D5A5
102
{ACAD_REACTORS
330
1D7CC
102
}
330
1F
100
AcDbEntity
  8
02製品
  6
Continuous
100
AcDbCircle
 10
-11546.4536321689
 20
3949.10045957826
 30
0.0
 40
3.000000000000682
100
AcDbArc
 50
0.0
 51
90.0
  0
LINE
  5
1D5A6
102
{ACAD_REACTORS
330
1D7CC
102
}
330
1F
100
AcDbEntity
  8
02製品
  6
Continuous
100
AcDbLine
 10
-11543.45362835427
 20
3949.100460722651
 30
0.0
 11
-11543.45362835427
 21
3918.300475790706
 31
0.0
  0
ARC
  5
1D5A7
102
{ACAD_REACTORS
330
1D7CC
102
}
330
1F
100
AcDbEntity
  8
02製品
  6
Continuous
100
AcDbCircle
 10
-11546.4536321689
 20
3918.300459578271
 30
0.0
 40
3.000000000000114
100
AcDbArc
 50
270.0
 51
0.0
  0
LINE
  5
1D5A8
102
{ACAD_REACTORS
330
1D7CC
102
}
330
1F
100
AcDbEntity
  8
02製品
  6
Continuous
100
AcDbLine
 10
-12641.15363188882
 20
3915.300454809871
 30
0.0
 11
-11546.4536493351
 21
3915.300454809871
 31
0.0
  0
CIRCLE
  5
1D5A9
102
{ACAD_REACTORS
330
1D7CC
102
}
330
1F
100
AcDbEntity
  8
02製品
  6
Continuous
100
AcDbCircle
 10
-12626.65363216889
 20
3935.300459578242
 30
0.0
 40
5.000000000003979
  0
CIRCLE
  5
1D5AA
102
{ACAD_REACTORS
330
1D7CC
102
}
330
1F
100
AcDbEntity
  8
02製品
  6
Continuous
100
AcDbCircle
 10
-11560.9536321689
 20
3935.300459578242
 30
0.0
 40
5.000000000003979
  0
LINE
  5
1D5AB
102
{ACAD_REACTORS
330
1D7CC
102
}
330
1F
100
AcDbEntity
  8
02製品
  6
Continuous
100
AcDbLine
 10
-11583.45359020729
 20
3952.100481703486
 30
0.0
 11
-11546.4536493351
 21
3952.100481703486
 31
0.0
  0
LINE
  5
1D5AC
102
{ACAD_REACTORS
330
1D7CC
102
}
330
1F
100
AcDbEntity
  8
02製品
  6
Continuous
100
AcDbLine
 10
-11583.45359020729
 20
3952.100481703486
 30
0.0
 11
-11583.45359020729
 21
3955.300476267543
 31
0.0
  0
LINE
  5
1D5AD
102
{ACAD_REACTORS
330
1D7CC
102
}
330
1F
100
AcDbEntity
  8
02製品
  6
Continuous
100
AcDbLine
 10
-12641.15363188882
 20
3952.100481703486
 30
0.0
 11
-12604.15363141198
 21
3952.100481703486
 31
0.0
  0
LINE
  5
1D5AE
102
{ACAD_REACTORS
330
1D7CC
102
}
330
1F
100
AcDbEntity
  8
02製品
  6
Continuous
100
AcDbLine
 10
-12604.15363141198
 20
3955.300476267543
 30
0.0
 11
-12604.15363141198
 21
3952.100481703486
 31
0.0
  0
ARC
  5
1D5AF
102
{ACAD_REACTORS
330
1D7CC
102
}
330
1F
100
AcDbEntity
  8
02製品
  6
Continuous
100
AcDbCircle
 10
-11535.4536321689
 20
3918.300459578271
 30
0.0
 40
3.000000000000398
100
AcDbArc
 50
180.0
 51
270.0
  0
LINE
  5
1D5B0
102
{ACAD_REACTORS
330
1D7CC
102
}
330
1F
100
AcDbEntity
  8
02製品
  6
Continuous
100
AcDbLine
 10
-11538.45363312264
 20
3918.300475790706
 30
0.0
 11
-11538.45363312264
 21
3949.100460722651
 31
0.0
  0
ARC
  5
1D5B1
102
{ACAD_REACTORS
330
1D7CC
102
}
330
1F
100
AcDbEntity
  8
02製品
  6
Continuous
100
AcDbCircle
 10
-11535.4536321689
 20
3949.100459578289
 30
0.0
 40
3.000000000000114
100
AcDbArc
 50
90.0
 51
180.0
  0
LINE
  5
1D5B2
102
{ACAD_REACTORS
330
1D7CC
102
}
330
1F
100
AcDbEntity
  8
02製品
  6
Continuous
100
AcDbLine
 10
-10457.45366268654
 20
3955.300476267543
 30
0.0
 11
-11498.45367126961
 21
3955.300476267543
 31
0.0
  0
LINE
  5
1D5B3
102
{ACAD_REACTORS
330
1D7CC
102
}
330
1F
100
AcDbEntity
  8
02製品
  6
Continuous
100
AcDbLine
 10
-10457.45366268654
 20
3952.100481703486
 30
0.0
 11
-10457.45366268654
 21
3955.300476267543
 31
0.0
  0
ARC
  5
1D5B4
102
{ACAD_REACTORS
330
1D7CC
102
}
330
1F
100
AcDbEntity
  8
02製品
  6
Continuous
100
AcDbCircle
 10
-10420.4536321689
 20
3949.100459578289
 30
0.0
 40
3.000000000000114
100
AcDbArc
 50
0.0
 51
90.0
  0
LINE
  5
1D5B5
102
{ACAD_REACTORS
330
1D7CC
102
}
330
1F
100
AcDbEntity
  8
02製品
  6
Continuous
100
AcDbLine
 10
-10417.45370083351
 20
3949.100460722651
 30
0.0
 11
-10417.45370083351
 21
3918.300475790706
 31
0.0
  0
ARC
  5
1D5B6
102
{ACAD_REACTORS
330
1D7CC
102
}
330
1F
100
AcDbEntity
  8
02製品
  6
Continuous
100
AcDbCircle
 10
-10420.4536321689
 20
3918.300459578271
 30
0.0
 40
3.000000000000398
100
AcDbArc
 50
270.0
 51
0.0
  0
LINE
  5
1D5B7
102
{ACAD_REACTORS
330
1D7CC
102
}
330
1F
100
AcDbEntity
  8
02製品
  6
Continuous
100
AcDbLine
 10
-11535.4536121418
 20
3915.300454809871
 30
0.0
 11
-10420.45372181435
 21
3915.300454809871
 31
0.0
  0
CIRCLE
  5
1D5B8
102
{ACAD_REACTORS
330
1D7CC
102
}
330
1F
100
AcDbEntity
  8
02製品
  6
Continuous
100
AcDbCircle
 10
-11520.9536321689
 20
3935.3004595783
 30
0.0
 40
5.000000000003411
  0
CIRCLE
  5
1D5B9
102
{ACAD_REACTORS
330
1D7CC
102
}
330
1F
100
AcDbEntity
  8
02製品
  6
Continuous
100
AcDbCircle
 10
-10434.95363216896
 20
3935.3004595783
 30
0.0
 40
5.000000000003411
  0
LINE
  5
1D5BA
102
{ACAD_REACTORS
330
1D7CC
102
}
330
1F
100
AcDbEntity
  8
02製品
  6
Continuous
100
AcDbLine
 10
-11498.45367126961
 20
3955.300476267543
 30
0.0
 11
-11498.45367126961
 21
3952.100481703486
 31
0.0
  0
LINE
  5
1D5BB
102
{ACAD_REACTORS
330
1D7CC
102
}
330
1F
100
AcDbEntity
  8
02製品
  6
Continuous
100
AcDbLine
 10
-10457.45366268654
 20
3952.100481703486
 30
0.0
 11
-10420.45372181435
 21
3952.100481703486
 31
0.0
  0
LINE
  5
1D5BC
102
{ACAD_REACTORS
330
1D7CC
102
}
330
1F
100
AcDbEntity
  8
02製品
  6
Continuous
100
AcDbLine
 10
-11535.4536121418
 20
3952.100481703486
 30
0.0
 11
-11498.45367126961
 21
3952.100481703486
 31
0.0
  0
LINE
  5
1D5BD
102
{ACAD_REACTORS
330
1D7CC
102
}
330
1F
100
AcDbEntity
  8
02製品
  6
Continuous
100
AcDbLine
 10
-11505.45364075203
 20
4495.300460472312
 30
0.0
 11
-11500.95360928078
 21
4495.300460472312
 31
0.0
  0
LINE
  5
1D5BE
102
{ACAD_REACTORS
330
1D7CC
102
}
330
1F
100
AcDbEntity
  8
02製品
  6
Continuous
100
AcDbLine
 10
-11470.95363789101
 20
3689.800467207637
 30
0.0
 11
-11500.95360928078
 21
3689.800467207637
 31
0.0
  0
LINE
  5
1D5BF
102
{ACAD_REACTORS
330
1D7CC
102
}
330
1F
100
AcDbEntity
  8
02製品
  6
Continuous
100
AcDbLine
 10
-11470.95363789101
 20
3685.300435736384
 30
0.0
 11
-11470.95363789101
 21
3689.800467207637
 31
0.0
  0
LINE
  5
1D5C0
102
{ACAD_REACTORS
330
1D7CC
102
}
330
1F
100
AcDbEntity
  8
02製品
  6
Continuous
100
AcDbLine
 10
-11610.95362358589
 20
3685.300435736384
 30
0.0
 11
-11470.95363789101
 21
3685.300435736384
 31
0.0
  0
LINE
  5
1D5C1
102
{ACAD_REACTORS
330
1D7CC
102
}
330
1F
100
AcDbEntity
  8
02製品
  6
Continuous
100
AcDbLine
 10
-11610.95362358589
 20
3689.800467207637
 30
0.0
 11
-11610.95362358589
 21
3685.300435736384
 31
0.0
  0
LINE
  5
1D5C2
102
{ACAD_REACTORS
330
1D7CC
102
}
330
1F
100
AcDbEntity
  8
02製品
  6
Continuous
100
AcDbLine
 10
-11580.95365219612
 20
3689.800467207637
 30
0.0
 11
-11610.95362358589
 21
3689.800467207637
 31
0.0
  0
LINE
  5
1D5C3
102
{ACAD_REACTORS
330
1D7CC
102
}
330
1F
100
AcDbEntity
  8
02製品
  6
Continuous
100
AcDbLine
 10
-11580.95365219612
 20
4495.300460472312
 30
0.0
 11
-11580.95365219612
 21
3952.100481703486
 31
0.0
  0
LINE
  5
1D5C4
102
{ACAD_REACTORS
330
1D7CC
102
}
330
1F
100
AcDbEntity
  8
02製品
  6
Continuous
100
AcDbLine
 10
-11580.95365219612
 20
3915.300454809871
 30
0.0
 11
-11580.95365219612
 21
3689.800467207637
 31
0.0
  0
LINE
  5
1D5C5
102
{ACAD_REACTORS
330
1D7CC
102
}
330
1F
100
AcDbEntity
  8
02製品
  6
Continuous
100
AcDbLine
 10
-11576.45362072487
 20
4495.300460472312
 30
0.0
 11
-11580.95365219612
 21
4495.300460472312
 31
0.0
  0
LINE
  5
1D5C6
102
{ACAD_REACTORS
330
1D7CC
102
}
330
1F
100
AcDbEntity
  8
02製品
  6
Continuous
100
AcDbLine
 10
-11576.45362072487
 20
4495.300460472312
 30
0.0
 11
-11576.45362072487
 21
4530.300459690001
 31
0.0
  0
ARC
  5
1D5C7
102
{ACAD_REACTORS
330
1D7CC
102
}
330
1F
100
AcDbEntity
  8
02製品
  6
Continuous
100
AcDbCircle
 10
-11571.45363216896
 20
4530.300459578184
 30
0.0
 40
5.0
100
AcDbArc
 50
90.0
 51
180.0
  0
LINE
  5
1D5C8
102
{ACAD_REACTORS
330
1D7CC
102
}
330
1F
100
AcDbEntity
  8
02製品
  6
Continuous
100
AcDbLine
 10
-11571.45362549324
 20
4535.300459578184
 30
0.0
 11
-11510.45363598366
 21
4535.300459578184
 31
0.0
  0
ARC
  5
1D5C9
102
{ACAD_REACTORS
330
1D7CC
102
}
330
1F
100
AcDbEntity
  8
02製品
  6
Continuous
100
AcDbCircle
 10
-11510.45363216893
 20
4530.300459578184
 30
0.0
 40
5.0
100
AcDbArc
 50
0.0
 51
90.0
  0
LINE
  5
1D5CA
102
{ACAD_REACTORS
330
1D7CC
102
}
330
1F
100
AcDbEntity
  8
02製品
  6
Continuous
100
AcDbLine
 10
-11505.45364075203
 20
4530.300459690001
 30
0.0
 11
-11505.45364075203
 21
4495.300460472312
 31
0.0
  0
CIRCLE
  5
1D5CB
102
{ACAD_REACTORS
330
1D7CC
102
}
330
1F
100
AcDbEntity
  8
02製品
  6
Continuous
100
AcDbCircle
 10
-11520.95363216893
 20
3805.300459578184
 30
0.0
 40
2.349999999999568
  0
CIRCLE
  5
1D5CC
102
{ACAD_REACTORS
330
1D7CC
102
}
330
1F
100
AcDbEntity
  8
02製品
  6
Continuous
100
AcDbCircle
 10
-11560.95363216893
 20
4305.300459578184
 30
0.0
 40
2.349999999999568
  0
CIRCLE
  5
1D5CD
102
{ACAD_REACTORS
330
1D7CC
102
}
330
1F
100
AcDbEntity
  8
02製品
  6
Continuous
100
AcDbCircle
 10
-11520.95363216893
 20
4305.300459578184
 30
0.0
 40
2.349999999999568
  0
CIRCLE
  5
1D5CE
102
{ACAD_REACTORS
330
1D7CC
102
}
330
1F
100
AcDbEntity
  8
02製品
  6
Continuous
100
AcDbCircle
 10
-11520.95363216893
 20
4155.300459578184
 30
0.0
 40
2.349999999999568
  0
CIRCLE
  5
1D5CF
102
{ACAD_REACTORS
330
1D7CC
102
}
330
1F
100
AcDbEntity
  8
02製品
  6
Continuous
100
AcDbCircle
 10
-11560.95363216893
 20
4155.300459578184
 30
0.0
 40
2.349999999999568
  0
CIRCLE
  5
1D5D0
102
{ACAD_REACTORS
330
1D7CC
102
}
330
1F
100
AcDbEntity
  8
02製品
  6
Continuous
100
AcDbCircle
 10
-11520.95363216893
 20
3955.300459578184
 30
0.0
 40
2.349999999999568
  0
CIRCLE
  5
1D5D1
102
{ACAD_REACTORS
330
1D7CC
102
}
330
1F
100
AcDbEntity
  8
02製品
  6
Continuous
100
AcDbCircle
 10
-11560.95363216893
 20
3955.300459578184
 30
0.0
 40
2.349999999999568
  0
CIRCLE
  5
1D5D2
102
{ACAD_REACTORS
330
1D7CC
102
}
330
1F
100
AcDbEntity
  8
02製品
  6
Continuous
100
AcDbCircle
 10
-11560.95363216893
 20
3805.300459578184
 30
0.0
 40
2.349999999999568
  0
CIRCLE
  5
1D5D3
102
{ACAD_REACTORS
330
1D7CC
102
}
330
1F
100
AcDbEntity
  8
02製品
  6
Continuous
100
AcDbCircle
 10
-11565.95363216893
 20
4515.300459578184
 30
0.0
 40
5.0
  0
CIRCLE
  5
1D5D4
102
{ACAD_REACTORS
330
1D7CC
102
}
330
1F
100
AcDbEntity
  8
02製品
  6
Continuous
100
AcDbCircle
 10
-11515.95363216893
 20
4515.300459578184
 30
0.0
 40
5.0
  0
LINE
  5
1D5D5
102
{ACAD_REACTORS
330
1D7CC
102
}
330
1F
100
AcDbEntity
  8
02製品
  6
Continuous
100
AcDbLine
 10
-11500.95360928078
 20
4495.300460472312
 30
0.0
 11
-11500.95360928078
 21
3952.100481703486
 31
0.0
  0
LINE
  5
1D5D6
102
{ACAD_REACTORS
330
1D7CC
102
}
330
1F
100
AcDbEntity
  8
02製品
  6
Continuous
100
AcDbLine
 10
-11500.95360928078
 20
3915.300454809871
 30
0.0
 11
-11500.95360928078
 21
3689.800467207637
 31
0.0
  0
LINE
  5
1D5D7
102
{ACAD_REACTORS
330
1D7CC
102
}
330
1F
100
AcDbEntity
  8
02製品
  6
Continuous
100
AcDbLine
 10
-11615.95361881752
 20
3685.300435736384
 30
0.0
 11
-11615.95361881752
 21
3689.800467207637
 31
0.0
  0
LINE
  5
1D5D8
102
{ACAD_REACTORS
330
1D7CC
102
}
330
1F
100
AcDbEntity
  8
02製品
  6
Continuous
100
AcDbLine
 10
-11610.95362358589
 20
3685.300435736384
 30
0.0
 11
-11615.95361881752
 21
3685.300435736384
 31
0.0
  0
LINE
  5
1D5D9
102
{ACAD_REACTORS
330
1D7CC
102
}
330
1F
100
AcDbEntity
  8
02製品
  6
Continuous
100
AcDbLine
 10
-11615.95361881752
 20
3689.800467207637
 30
0.0
 11
-11610.95362358589
 21
3689.800467207637
 31
0.0
  0
LINE
  5
1D5DA
102
{ACAD_REACTORS
330
1D7CC
102
}
330
1F
100
AcDbEntity
  8
02製品
  6
Continuous
100
AcDbLine
 10
-11465.95364265938
 20
3689.800467207637
 30
0.0
 11
-11465.95364265938
 21
3685.300435736384
 31
0.0
  0
LINE
  5
1D5DB
102
{ACAD_REACTORS
330
1D7CC
102
}
330
1F
100
AcDbEntity
  8
02製品
  6
Continuous
100
AcDbLine
 10
-11465.95364265938
 20
3685.300435736384
 30
0.0
 11
-11470.95363789101
 21
3685.300435736384
 31
0.0
  0
LINE
  5
1D5DC
102
{ACAD_REACTORS
330
1D7CC
102
}
330
1F
100
AcDbEntity
  8
02製品
  6
Continuous
100
AcDbLine
 10
-11470.95363789101
 20
3689.800467207637
 30
0.0
 11
-11465.95364265938
 21
3689.800467207637
 31
0.0
  0
LINE
  5
1D5DD
102
{ACAD_REACTORS
330
1D7CC
102
}
330
1F
100
AcDbEntity
  8
02製品
  6
Continuous
100
AcDbLine
 10
-10379.45359402199
 20
4495.300460472312
 30
0.0
 11
-10374.95368176003
 21
4495.300460472312
 31
0.0
  0
LINE
  5
1D5DE
102
{ACAD_REACTORS
330
1D7CC
102
}
330
1F
100
AcDbEntity
  8
02製品
  6
Continuous
100
AcDbLine
 10
-10374.95368176003
 20
4495.300460472312
 30
0.0
 11
-10374.95368176003
 21
3952.100481703486
 31
0.0
  0
LINE
  5
1D5DF
102
{ACAD_REACTORS
330
1D7CC
102
}
330
1F
100
AcDbEntity
  8
02製品
  6
Continuous
100
AcDbLine
 10
-10374.95368176003
 20
3915.300454809871
 30
0.0
 11
-10374.95368176003
 21
3689.800467207637
 31
0.0
  0
LINE
  5
1D5E0
102
{ACAD_REACTORS
330
1D7CC
102
}
330
1F
100
AcDbEntity
  8
02製品
  6
Continuous
100
AcDbLine
 10
-10344.95371037026
 20
3689.800467207637
 30
0.0
 11
-10374.95368176003
 21
3689.800467207637
 31
0.0
  0
LINE
  5
1D5E1
102
{ACAD_REACTORS
330
1D7CC
102
}
330
1F
100
AcDbEntity
  8
02製品
  6
Continuous
100
AcDbLine
 10
-10344.95371037026
 20
3685.300435736384
 30
0.0
 11
-10344.95371037026
 21
3689.800467207637
 31
0.0
  0
LINE
  5
1D5E2
102
{ACAD_REACTORS
330
1D7CC
102
}
330
1F
100
AcDbEntity
  8
02製品
  6
Continuous
100
AcDbLine
 10
-10484.95357685585
 20
3685.300435736384
 30
0.0
 11
-10344.95371037026
 21
3685.300435736384
 31
0.0
  0
LINE
  5
1D5E3
102
{ACAD_REACTORS
330
1D7CC
102
}
330
1F
100
AcDbEntity
  8
02製品
  6
Continuous
100
AcDbLine
 10
-10484.95357685585
 20
3689.800467207637
 30
0.0
 11
-10484.95357685585
 21
3685.300435736384
 31
0.0
  0
LINE
  5
1D5E4
102
{ACAD_REACTORS
330
1D7CC
102
}
330
1F
100
AcDbEntity
  8
02製品
  6
Continuous
100
AcDbLine
 10
-10454.95360546608
 20
3689.800467207637
 30
0.0
 11
-10484.95357685585
 21
3689.800467207637
 31
0.0
  0
LINE
  5
1D5E5
102
{ACAD_REACTORS
330
1D7CC
102
}
330
1F
100
AcDbEntity
  8
02製品
  6
Continuous
100
AcDbLine
 10
-10454.95360546608
 20
4495.300460472312
 30
0.0
 11
-10454.95360546608
 21
3952.100481703486
 31
0.0
  0
LINE
  5
1D5E6
102
{ACAD_REACTORS
330
1D7CC
102
}
330
1F
100
AcDbEntity
  8
02製品
  6
Continuous
100
AcDbLine
 10
-10454.95360546608
 20
3915.300454809871
 30
0.0
 11
-10454.95360546608
 21
3689.800467207637
 31
0.0
  0
LINE
  5
1D5E7
102
{ACAD_REACTORS
330
1D7CC
102
}
330
1F
100
AcDbEntity
  8
02製品
  6
Continuous
100
AcDbLine
 10
-10450.45369320412
 20
4495.300460472312
 30
0.0
 11
-10454.95360546608
 21
4495.300460472312
 31
0.0
  0
LINE
  5
1D5E8
102
{ACAD_REACTORS
330
1D7CC
102
}
330
1F
100
AcDbEntity
  8
02製品
  6
Continuous
100
AcDbLine
 10
-10450.45369320412
 20
4495.300460472312
 30
0.0
 11
-10450.45369320412
 21
4530.300459690001
 31
0.0
  0
ARC
  5
1D5E9
102
{ACAD_REACTORS
330
1D7CC
102
}
330
1F
100
AcDbEntity
  8
02製品
  6
Continuous
100
AcDbCircle
 10
-10445.45363216893
 20
4530.300459578242
 30
0.0
 40
5.0
100
AcDbArc
 50
90.0
 51
180.0
  0
LINE
  5
1D5EA
102
{ACAD_REACTORS
330
1D7CC
102
}
330
1F
100
AcDbEntity
  8
02製品
  6
Continuous
100
AcDbLine
 10
-10445.4535787632
 20
4535.300459578242
 30
0.0
 11
-10384.45370846291
 21
4535.300459578242
 31
0.0
  0
ARC
  5
1D5EB
102
{ACAD_REACTORS
330
1D7CC
102
}
330
1F
100
AcDbEntity
  8
02製品
  6
Continuous
100
AcDbCircle
 10
-10384.45363216896
 20
4530.300459578242
 30
0.0
 40
5.0
100
AcDbArc
 50
0.0
 51
90.0
  0
LINE
  5
1D5EC
102
{ACAD_REACTORS
330
1D7CC
102
}
330
1F
100
AcDbEntity
  8
02製品
  6
Continuous
100
AcDbLine
 10
-10379.45359402199
 20
4530.300459690001
 30
0.0
 11
-10379.45359402199
 21
4495.300460472312
 31
0.0
  0
CIRCLE
  5
1D5ED
102
{ACAD_REACTORS
330
1D7CC
102
}
330
1F
100
AcDbEntity
  8
02製品
  6
Continuous
100
AcDbCircle
 10
-10394.95363216896
 20
3805.300459578242
 30
0.0
 40
2.350000000000136
  0
CIRCLE
  5
1D5EE
102
{ACAD_REACTORS
330
1D7CC
102
}
330
1F
100
AcDbEntity
  8
02製品
  6
Continuous
100
AcDbCircle
 10
-10434.95363216896
 20
4305.300459578242
 30
0.0
 40
2.350000000000136
  0
CIRCLE
  5
1D5EF
102
{ACAD_REACTORS
330
1D7CC
102
}
330
1F
100
AcDbEntity
  8
02製品
  6
Continuous
100
AcDbCircle
 10
-10394.95363216896
 20
4305.300459578242
 30
0.0
 40
2.350000000000136
  0
CIRCLE
  5
1D5F0
102
{ACAD_REACTORS
330
1D7CC
102
}
330
1F
100
AcDbEntity
  8
02製品
  6
Continuous
100
AcDbCircle
 10
-10394.95363216896
 20
4155.300459578242
 30
0.0
 40
2.350000000000136
  0
CIRCLE
  5
1D5F1
102
{ACAD_REACTORS
330
1D7CC
102
}
330
1F
100
AcDbEntity
  8
02製品
  6
Continuous
100
AcDbCircle
 10
-10434.95363216896
 20
4155.300459578242
 30
0.0
 40
2.350000000000136
  0
CIRCLE
  5
1D5F2
102
{ACAD_REACTORS
330
1D7CC
102
}
330
1F
100
AcDbEntity
  8
02製品
  6
Continuous
100
AcDbCircle
 10
-10394.95363216896
 20
3955.300459578242
 30
0.0
 40
2.350000000000136
  0
CIRCLE
  5
1D5F3
102
{ACAD_REACTORS
330
1D7CC
102
}
330
1F
100
AcDbEntity
  8
02製品
  6
Continuous
100
AcDbCircle
 10
-10434.95363216896
 20
3955.300459578242
 30
0.0
 40
2.350000000000136
  0
CIRCLE
  5
1D5F4
102
{ACAD_REACTORS
330
1D7CC
102
}
330
1F
100
AcDbEntity
  8
02製品
  6
Continuous
100
AcDbCircle
 10
-10434.95363216896
 20
3805.300459578242
 30
0.0
 40
2.350000000000705
  0
CIRCLE
  5
1D5F5
102
{ACAD_REACTORS
330
1D7CC
102
}
330
1F
100
AcDbEntity
  8
02製品
  6
Continuous
100
AcDbCircle
 10
-10439.95363216896
 20
4515.300459578242
 30
0.0
 40
5.0
  0
CIRCLE
  5
1D5F6
102
{ACAD_REACTORS
330
1D7CC
102
}
330
1F
100
AcDbEntity
  8
02製品
  6
Continuous
100
AcDbCircle
 10
-10389.95363216896
 20
4515.300459578242
 30
0.0
 40
5.0
  0
LINE
  5
1D5F7
102
{ACAD_REACTORS
330
1D7CC
102
}
330
1F
100
AcDbEntity
  8
02製品
  6
Continuous
100
AcDbLine
 10
-10489.95369129677
 20
3685.300435736384
 30
0.0
 11
-10489.95369129677
 21
3689.800467207637
 31
0.0
  0
LINE
  5
1D5F8
102
{ACAD_REACTORS
330
1D7CC
102
}
330
1F
100
AcDbEntity
  8
02製品
  6
Continuous
100
AcDbLine
 10
-10484.95357685585
 20
3685.300435736384
 30
0.0
 11
-10489.95369129677
 21
3685.300435736384
 31
0.0
  0
LINE
  5
1D5F9
102
{ACAD_REACTORS
330
1D7CC
102
}
330
1F
100
AcDbEntity
  8
02製品
  6
Continuous
100
AcDbLine
 10
-10489.95369129677
 20
3689.800467207637
 30
0.0
 11
-10484.95357685585
 21
3689.800467207637
 31
0.0
  0
LINE
  5
1D5FA
102
{ACAD_REACTORS
330
1D7CC
102
}
330
1F
100
AcDbEntity
  8
02製品
  6
Continuous
100
AcDbLine
 10
-10339.95359592934
 20
3689.800467207637
 30
0.0
 11
-10339.95359592934
 21
3685.300435736384
 31
0.0
  0
LINE
  5
1D5FB
102
{ACAD_REACTORS
330
1D7CC
102
}
330
1F
100
AcDbEntity
  8
02製品
  6
Continuous
100
AcDbLine
 10
-10339.95359592934
 20
3685.300435736384
 30
0.0
 11
-10344.95371037026
 21
3685.300435736384
 31
0.0
  0
LINE
  5
1D5FC
102
{ACAD_REACTORS
330
1D7CC
102
}
330
1F
100
AcDbEntity
  8
02製品
  6
Continuous
100
AcDbLine
 10
-10344.95371037026
 20
3689.800467207637
 30
0.0
 11
-10339.95359592934
 21
3689.800467207637
 31
0.0
  0
ARC
  5
1D5FD
102
{ACAD_REACTORS
330
1D7CC
102
}
330
1F
100
AcDbEntity
  8
02製品
  6
Continuous
100
AcDbCircle
 10
-12504.95363216896
 20
4532.300459578242
 30
0.0
 40
3.000000000000114
100
AcDbArc
 50
0.0
 51
90.0
  0
LINE
  5
1D5FE
102
{ACAD_REACTORS
330
1D7CC
102
}
330
1F
100
AcDbEntity
  8
02製品
  6
Continuous
100
AcDbLine
 10
-12501.9536262085
 20
4532.300459552165
 30
0.0
 11
-12501.9536262085
 21
4495.300460472312
 31
0.0
  0
LINE
  5
1D5FF
102
{ACAD_REACTORS
330
1D7CC
102
}
330
1F
100
AcDbEntity
  8
02製品
  6
Continuous
100
AcDbLine
 10
-12501.9536262085
 20
4495.300460472312
 30
0.0
 11
-12611.95363306303
 21
4385.300453617778
 31
0.0
  0
LINE
  5
1D600
102
{ACAD_REACTORS
330
1D7CC
102
}
330
1F
100
AcDbEntity
  8
02製品
  6
Continuous
100
AcDbLine
 10
-12611.95363306303
 20
4385.300453617778
 30
0.0
 11
-12611.95363306303
 21
3952.100481703486
 31
0.0
  0
LINE
  5
1D601
102
{ACAD_REACTORS
330
1D7CC
102
}
330
1F
100
AcDbEntity
  8
02製品
  6
Continuous
100
AcDbLine
 10
-12611.95363306303
 20
3915.300454809871
 30
0.0
 11
-12611.95363306303
 21
3685.300435736384
 31
0.0
  0
LINE
  5
1D602
102
{ACAD_REACTORS
330
1D7CC
102
}
330
1F
100
AcDbEntity
  8
02製品
  6
Continuous
100
AcDbLine
 10
-12611.95363306303
 20
3685.300435736384
 30
0.0
 11
-12632.45353304644
 21
3685.300435736384
 31
0.0
  0
LINE
  5
1D603
102
{ACAD_REACTORS
330
1D7CC
102
}
330
1F
100
AcDbEntity
  8
02製品
  6
Continuous
100
AcDbLine
 10
-12632.45353304644
 20
3689.800467207637
 30
0.0
 11
-12632.45353304644
 21
3685.300435736384
 31
0.0
  0
LINE
  5
1D604
102
{ACAD_REACTORS
330
1D7CC
102
}
330
1F
100
AcDbEntity
  8
02製品
  6
Continuous
100
AcDbLine
 10
-12647.4535322455
 20
3689.800467207637
 30
0.0
 11
-12632.45353304644
 21
3689.800467207637
 31
0.0
  0
LINE
  5
1D605
102
{ACAD_REACTORS
330
1D7CC
102
}
330
1F
100
AcDbEntity
  8
02製品
  6
Continuous
100
AcDbLine
 10
-12647.4535322455
 20
3689.800586416926
 30
0.0
 11
-12647.4535322455
 21
3689.800467207637
 31
0.0
  0
LINE
  5
1D606
102
{ACAD_REACTORS
330
1D7CC
102
}
330
1F
100
AcDbEntity
  8
02製品
  6
Continuous
100
AcDbLine
 10
-12651.95363216896
 20
3689.800586416926
 30
0.0
 11
-12647.4535322455
 21
3689.800586416926
 31
0.0
  0
LINE
  5
1D607
102
{ACAD_REACTORS
330
1D7CC
102
}
330
1F
100
AcDbEntity
  8
02製品
  6
Continuous
100
AcDbLine
 10
-12651.95363216896
 20
4535.300459578242
 30
0.0
 11
-12651.95363216896
 21
3689.800586416926
 31
0.0
  0
LINE
  5
1D608
102
{ACAD_REACTORS
330
1D7CC
102
}
330
1F
100
AcDbEntity
  8
02製品
  6
Continuous
100
AcDbLine
 10
-12504.95363228817
 20
4535.300459578242
 30
0.0
 11
-12651.95363216896
 21
4535.300459578242
 31
0.0
  0
CIRCLE
  5
1D609
102
{ACAD_REACTORS
330
1D7CC
102
}
330
1F
100
AcDbEntity
  8
02製品
  6
Continuous
100
AcDbCircle
 10
-12521.65363216897
 20
4515.300459578242
 30
0.0
 40
4.999999999999716
  0
CIRCLE
  5
1D60A
102
{ACAD_REACTORS
330
1D7CC
102
}
330
1F
100
AcDbEntity
  8
02製品
  6
Continuous
100
AcDbCircle
 10
-12621.65363216897
 20
4515.300459578242
 30
0.0
 40
4.999999999999716
  0
CIRCLE
  5
1D60B
102
{ACAD_REACTORS
330
1D7CC
102
}
330
1F
100
AcDbEntity
  8
02製品
  6
Continuous
100
AcDbCircle
 10
-12626.65363216897
 20
3805.300459578242
 30
0.0
 40
2.350000000000136
  0
CIRCLE
  5
1D60C
102
{ACAD_REACTORS
330
1D7CC
102
}
330
1F
100
AcDbEntity
  8
02製品
  6
Continuous
100
AcDbCircle
 10
-12626.65363216897
 20
3955.300459578242
 30
0.0
 40
2.350000000000136
  0
CIRCLE
  5
1D60D
102
{ACAD_REACTORS
330
1D7CC
102
}
330
1F
100
AcDbEntity
  8
02製品
  6
Continuous
100
AcDbCircle
 10
-12626.65363216897
 20
4155.300459578242
 30
0.0
 40
2.350000000000136
  0
CIRCLE
  5
1D60E
102
{ACAD_REACTORS
330
1D7CC
102
}
330
1F
100
AcDbEntity
  8
02製品
  6
Continuous
100
AcDbCircle
 10
-12626.65363216897
 20
4305.300459578242
 30
0.0
 40
2.350000000000136
  0
LINE
  5
1D60F
102
{ACAD_REACTORS
330
1D7CC
102
}
330
1F
100
AcDbEntity
  8
02製品
  6
Continuous
100
AcDbLine
 10
-12647.4535322455
 20
3689.800467207637
 30
0.0
 11
-12647.4535322455
 21
3685.300435736384
 31
0.0
  0
LINE
  5
1D610
102
{ACAD_REACTORS
330
1D7CC
102
}
330
1F
100
AcDbEntity
  8
02製品
  6
Continuous
100
AcDbLine
 10
-12632.45353304644
 20
3685.300435736384
 30
0.0
 11
-12647.4535322455
 21
3685.300435736384
 31
0.0
  0
LINE
  5
1D611
102
{ACAD_REACTORS
330
1D7CC
102
}
330
1F
100
AcDbEntity
  8
02製品
  6
Continuous
100
AcDbLine
 10
-12596.95363246699
 20
3689.800467207637
 30
0.0
 11
-12596.95363246699
 21
3685.300435736384
 31
0.0
  0
LINE
  5
1D612
102
{ACAD_REACTORS
330
1D7CC
102
}
330
1F
100
AcDbEntity
  8
02製品
  6
Continuous
100
AcDbLine
 10
-12611.95363306303
 20
3689.800467207637
 30
0.0
 11
-12596.95363246699
 21
3689.800467207637
 31
0.0
  0
LINE
  5
1D613
102
{ACAD_REACTORS
330
1D7CC
102
}
330
1F
100
AcDbEntity
  8
02製品
  6
Continuous
100
AcDbLine
 10
-12611.95363306303
 20
3685.300435736384
 30
0.0
 11
-12596.95363246699
 21
3685.300435736384
 31
0.0
  0
LINE
  5
1D614
102
{ACAD_REACTORS
330
1D7CC
102
}
330
1F
100
AcDbEntity
  8
02製品
  6
Continuous
100
AcDbLine
 10
-12591.95363351007
 20
3685.300435736384
 30
0.0
 11
-12591.95363351007
 21
3689.800467207637
 31
0.0
  0
LINE
  5
1D615
102
{ACAD_REACTORS
330
1D7CC
102
}
330
1F
100
AcDbEntity
  8
02製品
  6
Continuous
100
AcDbLine
 10
-12591.95363351007
 20
3689.800467207637
 30
0.0
 11
-12596.95363246699
 21
3689.800467207637
 31
0.0
  0
LINE
  5
1D616
102
{ACAD_REACTORS
330
1D7CC
102
}
330
1F
100
AcDbEntity
  8
02製品
  6
Continuous
100
AcDbLine
 10
-12596.95363246699
 20
3685.300435736384
 30
0.0
 11
-12591.95363351007
 21
3685.300435736384
 31
0.0
  0
LINE
  5
1D617
102
{ACAD_REACTORS
330
1D7CC
102
}
330
1F
100
AcDbEntity
  8
02製品
  6
Continuous
100
AcDbLine
 10
-9303.953582577898
 20
4535.3004595783
 30
0.0
 11
-9303.953582577898
 21
3689.800586416926
 31
0.0
  0
LINE
  5
1D618
102
{ACAD_REACTORS
330
1D7CC
102
}
330
1F
100
AcDbEntity
  8
02製品
  6
Continuous
100
AcDbLine
 10
-9303.953582577898
 20
3689.800586416926
 30
0.0
 11
-9308.45373325844
 21
3689.800586416926
 31
0.0
  0
LINE
  5
1D619
102
{ACAD_REACTORS
330
1D7CC
102
}
330
1F
100
AcDbEntity
  8
02製品
  6
Continuous
100
AcDbLine
 10
-9308.45373325844
 20
3689.800586416926
 30
0.0
 11
-9308.45373325844
 21
3689.800467207637
 31
0.0
  0
LINE
  5
1D61A
102
{ACAD_REACTORS
330
1D7CC
102
}
330
1F
100
AcDbEntity
  8
02製品
  6
Continuous
100
AcDbLine
 10
-9308.45373325844
 20
3689.800467207637
 30
0.0
 11
-9323.453838162615
 21
3689.800467207637
 31
0.0
  0
LINE
  5
1D61B
102
{ACAD_REACTORS
330
1D7CC
102
}
330
1F
100
AcDbEntity
  8
02製品
  6
Continuous
100
AcDbLine
 10
-9323.453838162615
 20
3689.800467207637
 30
0.0
 11
-9323.453838162615
 21
3685.300435736384
 31
0.0
  0
LINE
  5
1D61C
102
{ACAD_REACTORS
330
1D7CC
102
}
330
1F
100
AcDbEntity
  8
02製品
  6
Continuous
100
AcDbLine
 10
-9343.953544430926
 20
3685.300435736384
 30
0.0
 11
-9323.453838162615
 21
3685.300435736384
 31
0.0
  0
LINE
  5
1D61D
102
{ACAD_REACTORS
330
1D7CC
102
}
330
1F
100
AcDbEntity
  8
02製品
  6
Continuous
100
AcDbLine
 10
-9343.953544430926
 20
4385.300453617778
 30
0.0
 11
-9343.953544430926
 21
3952.100481703486
 31
0.0
  0
LINE
  5
1D61E
102
{ACAD_REACTORS
330
1D7CC
102
}
330
1F
100
AcDbEntity
  8
02製品
  6
Continuous
100
AcDbLine
 10
-9343.953544430926
 20
3915.300454809871
 30
0.0
 11
-9343.953544430926
 21
3685.300435736384
 31
0.0
  0
LINE
  5
1D61F
102
{ACAD_REACTORS
330
1D7CC
102
}
330
1F
100
AcDbEntity
  8
02製品
  6
Continuous
100
AcDbLine
 10
-9453.95367794533
 20
4495.300460472312
 30
0.0
 11
-9343.953544430926
 21
4385.300453617778
 31
0.0
  0
LINE
  5
1D620
102
{ACAD_REACTORS
330
1D7CC
102
}
330
1F
100
AcDbEntity
  8
02製品
  6
Continuous
100
AcDbLine
 10
-9453.95367794533
 20
4532.300459552165
 30
0.0
 11
-9453.95367794533
 21
4495.300460472312
 31
0.0
  0
ARC
  5
1D621
102
{ACAD_REACTORS
330
1D7CC
102
}
330
1F
100
AcDbEntity
  8
02製品
  6
Continuous
100
AcDbCircle
 10
-9450.953632168934
 20
4532.3004595783
 30
0.0
 40
3.000000000000682
100
AcDbArc
 50
90.0
 51
180.0
  0
LINE
  5
1D622
102
{ACAD_REACTORS
330
1D7CC
102
}
330
1F
100
AcDbEntity
  8
02製品
  6
Continuous
100
AcDbLine
 10
-9450.953656964495
 20
4535.3004595783
 30
0.0
 11
-9303.953582577898
 21
4535.3004595783
 31
0.0
  0
CIRCLE
  5
1D623
102
{ACAD_REACTORS
330
1D7CC
102
}
330
1F
100
AcDbEntity
  8
02製品
  6
Continuous
100
AcDbCircle
 10
-9434.253632168951
 20
4515.3004595783
 30
0.0
 40
4.999999999999432
  0
CIRCLE
  5
1D624
102
{ACAD_REACTORS
330
1D7CC
102
}
330
1F
100
AcDbEntity
  8
02製品
  6
Continuous
100
AcDbCircle
 10
-9334.253632168951
 20
4515.3004595783
 30
0.0
 40
4.999999999999432
  0
CIRCLE
  5
1D625
102
{ACAD_REACTORS
330
1D7CC
102
}
330
1F
100
AcDbEntity
  8
02製品
  6
Continuous
100
AcDbCircle
 10
-9329.253632168951
 20
3805.3004595783
 30
0.0
 40
2.350000000000705
  0
CIRCLE
  5
1D626
102
{ACAD_REACTORS
330
1D7CC
102
}
330
1F
100
AcDbEntity
  8
02製品
  6
Continuous
100
AcDbCircle
 10
-9329.253632168951
 20
3955.3004595783
 30
0.0
 40
2.350000000000705
  0
CIRCLE
  5
1D627
102
{ACAD_REACTORS
330
1D7CC
102
}
330
1F
100
AcDbEntity
  8
02製品
  6
Continuous
100
AcDbCircle
 10
-9329.253632168951
 20
4155.3004595783
 30
0.0
 40
2.350000000000705
  0
CIRCLE
  5
1D628
102
{ACAD_REACTORS
330
1D7CC
102
}
330
1F
100
AcDbEntity
  8
02製品
  6
Continuous
100
AcDbCircle
 10
-9329.253632168951
 20
4305.3004595783
 30
0.0
 40
2.350000000000705
  0
LINE
  5
1D629
102
{ACAD_REACTORS
330
1D7CC
102
}
330
1F
100
AcDbEntity
  8
02製品
  6
Continuous
100
AcDbLine
 10
-9308.45373325844
 20
3689.800467207637
 30
0.0
 11
-9308.45373325844
 21
3685.300435736384
 31
0.0
  0
LINE
  5
1D62A
102
{ACAD_REACTORS
330
1D7CC
102
}
330
1F
100
AcDbEntity
  8
02製品
  6
Continuous
100
AcDbLine
 10
-9323.453838162615
 20
3685.300435736384
 30
0.0
 11
-9308.45373325844
 21
3685.300435736384
 31
0.0
  0
LINE
  5
1D62B
102
{ACAD_REACTORS
330
1D7CC
102
}
330
1F
100
AcDbEntity
  8
02製品
  6
Continuous
100
AcDbLine
 10
-9358.9536493351
 20
3689.800467207637
 30
0.0
 11
-9358.9536493351
 21
3685.300435736384
 31
0.0
  0
LINE
  5
1D62C
102
{ACAD_REACTORS
330
1D7CC
102
}
330
1F
100
AcDbEntity
  8
02製品
  6
Continuous
100
AcDbLine
 10
-9343.953544430926
 20
3689.800467207637
 30
0.0
 11
-9358.9536493351
 21
3689.800467207637
 31
0.0
  0
LINE
  5
1D62D
102
{ACAD_REACTORS
330
1D7CC
102
}
330
1F
100
AcDbEntity
  8
02製品
  6
Continuous
100
AcDbLine
 10
-9343.953544430926
 20
3685.300435736384
 30
0.0
 11
-9358.9536493351
 21
3685.300435736384
 31
0.0
  0
LINE
  5
1D62E
102
{ACAD_REACTORS
330
1D7CC
102
}
330
1F
100
AcDbEntity
  8
02製品
  6
Continuous
100
AcDbLine
 10
-9363.95352535744
 20
3685.300435736384
 30
0.0
 11
-9363.95352535744
 21
3689.800467207637
 31
0.0
  0
LINE
  5
1D62F
102
{ACAD_REACTORS
330
1D7CC
102
}
330
1F
100
AcDbEntity
  8
02製品
  6
Continuous
100
AcDbLine
 10
-9363.95352535744
 20
3689.800467207637
 30
0.0
 11
-9358.9536493351
 21
3689.800467207637
 31
0.0
  0
LINE
  5
1D630
102
{ACAD_REACTORS
330
1D7CC
102
}
330
1F
100
AcDbEntity
  8
02製品
  6
Continuous
100
AcDbLine
 10
-9358.9536493351
 20
3685.300435736384
 30
0.0
 11
-9363.95352535744
 21
3685.300435736384
 31
0.0
  0
LINE
  5
1D631
102
{ACAD_REACTORS
330
1D7CC
102
}
330
1F
100
AcDbEntity
  8
02製品
  6
Continuous
100
AcDbLine
 10
-12501.9536262085
 20
4495.300460472312
 30
0.0
 11
-11580.95365219612
 21
4495.300460472312
 31
0.0
  0
LINE
  5
1D632
102
{ACAD_REACTORS
330
1D7CC
102
}
330
1F
100
AcDbEntity
  8
02製品
  6
Continuous
100
AcDbLine
 10
-12504.95363228817
 20
4535.300459578242
 30
0.0
 11
-11571.45362549324
 21
4535.300459578242
 31
0.0
  0
LINE
  5
1D633
102
{ACAD_REACTORS
330
1D7CC
102
}
330
1F
100
AcDbEntity
  8
02製品
  6
Continuous
100
AcDbLine
 10
-9453.95367794533
 20
4495.300460472312
 30
0.0
 11
-10374.95368176003
 21
4495.300460472312
 31
0.0
  0
LINE
  5
1D634
102
{ACAD_REACTORS
330
1D7CC
102
}
330
1F
100
AcDbEntity
  8
02製品
  6
Continuous
100
AcDbLine
 10
-9450.953656964495
 20
4535.3004595783
 30
0.0
 11
-10384.45370846291
 21
4535.3004595783
 31
0.0
  0
LINE
  5
1D635
102
{ACAD_REACTORS
330
1D7CC
102
}
330
1F
100
AcDbEntity
  8
02製品
  6
Continuous
100
AcDbLine
 10
-10445.4535787632
 20
4535.3004595783
 30
0.0
 11
-11510.45363598366
 21
4535.3004595783
 31
0.0
  0
LINE
  5
1D636
102
{ACAD_REACTORS
330
1D7CC
102
}
330
1F
100
AcDbEntity
  8
02製品
  6
Continuous
100
AcDbLine
 10
-10454.95360546608
 20
4495.300460472312
 30
0.0
 11
-11500.95360928078
 21
4495.300460472312
 31
0.0
  0
LINE
  5
1D637
102
{ACAD_REACTORS
330
1D7CB
102
}
330
1F
100
AcDbEntity
  8
02製品
  6
Continuous
100
AcDbLine
 10
-7413.974716016146
 20
3918.300475790706
 30
0.0
 11
-7410.77472145209
 21
3918.300475790706
 31
0.0
  0
LINE
  5
1D638
102
{ACAD_REACTORS
330
1D7CB
102
}
330
1F
100
AcDbEntity
  8
02製品
  6
Continuous
100
AcDbLine
 10
-7410.77472145209
 20
3918.300475790706
 30
0.0
 11
-7410.77472145209
 21
3915.300454809871
 31
0.0
  0
LINE
  5
1D639
102
{ACAD_REACTORS
330
1D7CB
102
}
330
1F
100
AcDbEntity
  8
02製品
  6
Continuous
100
AcDbLine
 10
-7410.77472145209
 20
3915.300454809871
 30
0.0
 11
-7413.974716016146
 21
3915.300454809871
 31
0.0
  0
LINE
  5
1D63A
102
{ACAD_REACTORS
330
1D7CB
102
}
330
1F
100
AcDbEntity
  8
02製品
  6
Continuous
100
AcDbLine
 10
-7413.974716016146
 20
3952.100481703486
 30
0.0
 11
-7410.77472145209
 21
3952.100481703486
 31
0.0
  0
LINE
  5
1D63B
102
{ACAD_REACTORS
330
1D7CB
102
}
330
1F
100
AcDbEntity
  8
02製品
  6
Continuous
100
AcDbLine
 10
-7410.77472145209
 20
3949.100460722651
 30
0.0
 11
-7413.974716016146
 21
3949.100460722651
 31
0.0
  0
LINE
  5
1D63C
102
{ACAD_REACTORS
330
1D7CB
102
}
330
1F
100
AcDbEntity
  8
02製品
  6
Continuous
100
AcDbLine
 10
-7410.77472145209
 20
3952.100481703486
 30
0.0
 11
-7410.77472145209
 21
3949.100460722651
 31
0.0
  0
LINE
  5
1D63D
102
{ACAD_REACTORS
330
1D7CB
102
}
330
1F
100
AcDbEntity
  8
02製品
  6
Continuous
100
AcDbLine
 10
-7410.77472145209
 20
3918.300475790706
 30
0.0
 11
-7410.77472145209
 21
3949.100460722651
 31
0.0
  0
LINE
  5
1D63E
102
{ACAD_REACTORS
330
1D7CB
102
}
330
1F
100
AcDbEntity
  8
02製品
  6
Continuous
100
AcDbLine
 10
-7436.324729272219
 20
3955.300476267543
 30
0.0
 11
-7431.624724217745
 21
3955.300476267543
 31
0.0
  0
LINE
  5
1D63F
102
{ACAD_REACTORS
330
1D7CB
102
}
330
1F
100
AcDbEntity
  8
02製品
  6
Continuous
100
AcDbLine
 10
-7413.974716016146
 20
3955.300476267543
 30
0.0
 11
-7410.77472145209
 21
3955.300476267543
 31
0.0
  0
LINE
  5
1D640
102
{ACAD_REACTORS
330
1D7CB
102
}
330
1F
100
AcDbEntity
  8
02製品
  6
Continuous
100
AcDbLine
 10
-7410.77472145209
 20
3955.300476267543
 30
0.0
 11
-7410.77472145209
 21
3952.100481703486
 31
0.0
  0
LINE
  5
1D641
102
{ACAD_REACTORS
330
1D7CB
102
}
330
1F
100
AcDbEntity
  8
02製品
  6
Continuous
100
AcDbLine
 10
-8409.974707909914
 20
3949.100460722651
 30
0.0
 11
-8413.174707829075
 21
3949.100460722651
 31
0.0
  0
LINE
  5
1D642
102
{ACAD_REACTORS
330
1D7CB
102
}
330
1F
100
AcDbEntity
  8
02製品
  6
Continuous
100
AcDbLine
 10
-8413.174707829075
 20
3918.300475790706
 30
0.0
 11
-8409.974707909914
 21
3918.300475790706
 31
0.0
  0
LINE
  5
1D643
102
{ACAD_REACTORS
330
1D7CB
102
}
330
1F
100
AcDbEntity
  8
02製品
  6
Continuous
100
AcDbLine
 10
-8413.174707829075
 20
3949.100460722651
 30
0.0
 11
-8413.174707829075
 21
3918.300475790706
 31
0.0
  0
LINE
  5
1D644
102
{ACAD_REACTORS
330
1D7CB
102
}
330
1F
100
AcDbEntity
  8
02製品
  6
Continuous
100
AcDbLine
 10
-8413.174707829075
 20
3952.100481703486
 30
0.0
 11
-8409.974707909914
 21
3952.100481703486
 31
0.0
  0
LINE
  5
1D645
102
{ACAD_REACTORS
330
1D7CB
102
}
330
1F
100
AcDbEntity
  8
02製品
  6
Continuous
100
AcDbLine
 10
-8413.174707829075
 20
3949.100460722651
 30
0.0
 11
-8413.174707829075
 21
3952.100481703486
 31
0.0
  0
LINE
  5
1D646
102
{ACAD_REACTORS
330
1D7CB
102
}
330
1F
100
AcDbEntity
  8
02製品
  6
Continuous
100
AcDbLine
 10
-8409.974707909914
 20
3915.300454809871
 30
0.0
 11
-8413.174707829075
 21
3915.300454809871
 31
0.0
  0
LINE
  5
1D647
102
{ACAD_REACTORS
330
1D7CB
102
}
330
1F
100
AcDbEntity
  8
02製品
  6
Continuous
100
AcDbLine
 10
-8413.174707829075
 20
3915.300454809871
 30
0.0
 11
-8413.174707829075
 21
3918.300475790706
 31
0.0
  0
LINE
  5
1D648
102
{ACAD_REACTORS
330
1D7CB
102
}
330
1F
100
AcDbEntity
  8
02製品
  6
Continuous
100
AcDbLine
 10
-8387.624707692357
 20
3955.300476267543
 30
0.0
 11
-8392.324707158896
 21
3955.300476267543
 31
0.0
  0
LINE
  5
1D649
102
{ACAD_REACTORS
330
1D7CB
102
}
330
1F
100
AcDbEntity
  8
02製品
  6
Continuous
100
AcDbLine
 10
-8409.974707909856
 20
3955.300476267543
 30
0.0
 11
-8413.174707829075
 21
3955.300476267543
 31
0.0
  0
LINE
  5
1D64A
102
{ACAD_REACTORS
330
1D7CB
102
}
330
1F
100
AcDbEntity
  8
02製品
  6
Continuous
100
AcDbLine
 10
-8413.174707829075
 20
3952.100481703486
 30
0.0
 11
-8413.174707829075
 21
3955.300476267543
 31
0.0
  0
LINE
  5
1D64B
102
{ACAD_REACTORS
330
1D7CB
102
}
330
1F
100
AcDbEntity
  8
02製品
  6
Continuous
100
AcDbLine
 10
-8359.974707164856
 20
4035.300459578242
 30
0.0
 11
-7463.974727937075
 21
4035.300459578242
 31
0.0
  0
ELLIPSE
  5
1D64C
102
{ACAD_REACTORS
330
1D7CB
102
}
330
1F
100
AcDbEntity
  8
02製品
  6
Continuous
100
AcDbEllipse
 10
-8311.974707909885
 20
4025.300459578242
 30
0.0
 11
4.999999999998863
 21
0.0
 31
0.0
210
0.0
220
0.0
230
1.0
 40
0.2857142857142857
 41
0.0
 42
3.141592653589793
  0
LINE
  5
1D64D
102
{ACAD_REACTORS
330
1D7CB
102
}
330
1F
100
AcDbEntity
  8
02製品
  6
Continuous
100
AcDbLine
 10
-8369.974708803984
 20
4025.300469114985
 30
0.0
 11
-8316.974705704542
 21
4025.300469114985
 31
0.0
  0
LINE
  5
1D64E
102
{ACAD_REACTORS
330
1D7CB
102
}
330
1F
100
AcDbEntity
  8
02製品
  6
Continuous
100
AcDbLine
 10
-7506.974710770937
 20
4025.300469114985
 30
0.0
 11
-7453.974737473818
 21
4025.300469114985
 31
0.0
  0
ELLIPSE
  5
1D64F
102
{ACAD_REACTORS
330
1D7CB
102
}
330
1F
100
AcDbEntity
  8
02製品
  6
Continuous
100
AcDbEllipse
 10
-7511.974707909885
 20
4025.300459578242
 30
0.0
 11
5.0
 21
0.0
 31
0.0
210
0.0
220
0.0
230
1.0
 40
0.2857142857142208
 41
0.0
 42
3.141592653589793
  0
LINE
  5
1D650
102
{ACAD_REACTORS
330
1D7CB
102
}
330
1F
100
AcDbEntity
  8
02製品
  6
Continuous
100
AcDbLine
 10
-7706.974698850008
 20
4025.300469114985
 30
0.0
 11
-7516.974701234194
 21
4025.300469114985
 31
0.0
  0
ELLIPSE
  5
1D651
102
{ACAD_REACTORS
330
1D7CB
102
}
330
1F
100
AcDbEntity
  8
02製品
  6
Continuous
100
AcDbEllipse
 10
-7711.974707909885
 20
4025.300459578242
 30
0.0
 11
5.000000000001137
 21
0.0
 31
0.0
210
0.0
220
0.0
230
1.0
 40
0.2857142857141558
 41
0.0
 42
3.141592653589793
  0
LINE
  5
1D652
102
{ACAD_REACTORS
330
1D7CB
102
}
330
1F
100
AcDbEntity
  8
02製品
  6
Continuous
100
AcDbLine
 10
-7906.974686929079
 20
4025.300469114985
 30
0.0
 11
-7716.974689313265
 21
4025.300469114985
 31
0.0
  0
ELLIPSE
  5
1D653
102
{ACAD_REACTORS
330
1D7CB
102
}
330
1F
100
AcDbEntity
  8
02製品
  6
Continuous
100
AcDbEllipse
 10
-7911.974707909885
 20
4025.300459578242
 30
0.0
 11
5.0
 21
0.0
 31
0.0
210
0.0
220
0.0
230
1.0
 40
0.2857142857142208
 41
0.0
 42
3.141592653589793
  0
LINE
  5
1D654
102
{ACAD_REACTORS
330
1D7CB
102
}
330
1F
100
AcDbEntity
  8
02製品
  6
Continuous
100
AcDbLine
 10
-8106.974704810473
 20
4025.300469114985
 30
0.0
 11
-7916.974707194659
 21
4025.300469114985
 31
0.0
  0
ELLIPSE
  5
1D655
102
{ACAD_REACTORS
330
1D7CB
102
}
330
1F
100
AcDbEntity
  8
02製品
  6
Continuous
100
AcDbEllipse
 10
-8111.974707909885
 20
4025.300459578242
 30
0.0
 11
5.0
 21
0.0
 31
0.0
210
0.0
220
0.0
230
1.0
 40
0.2857142857142208
 41
0.0
 42
3.141592653589793
  0
LINE
  5
1D656
102
{ACAD_REACTORS
330
1D7CB
102
}
330
1F
100
AcDbEntity
  8
02製品
  6
Continuous
100
AcDbLine
 10
-8306.974707790705
 20
4025.300469114985
 30
0.0
 11
-8116.97469527373
 21
4025.300469114985
 31
0.0
  0
LINE
  5
1D657
102
{ACAD_REACTORS
330
1D7CB
102
}
330
1F
100
AcDbEntity
  8
02製品
  6
Continuous
100
AcDbLine
 10
-7443.974687405916
 20
3689.800586416926
 30
0.0
 11
-7443.974687405916
 21
3689.800467207637
 31
0.0
  0
LINE
  5
1D658
102
{ACAD_REACTORS
330
1D7CB
102
}
330
1F
100
AcDbEntity
  8
02製品
  6
Continuous
100
AcDbLine
 10
-8379.974708580467
 20
3689.800586416926
 30
0.0
 11
-8379.974708580467
 21
3689.800467207637
 31
0.0
  0
LINE
  5
1D659
102
{ACAD_REACTORS
330
1D7CB
102
}
330
1F
100
AcDbEntity
  8
02製品
  6
Continuous
100
AcDbLine
 10
-7478.97471363196
 20
4050.300445273127
 30
0.0
 11
-7453.974737473818
 21
4025.300469114985
 31
0.0
  0
LINE
  5
1D65A
102
{ACAD_REACTORS
330
1D7CB
102
}
330
1F
100
AcDbEntity
  8
02製品
  6
Continuous
100
AcDbLine
 10
-8344.9747102941
 20
4050.300445273127
 30
0.0
 11
-7478.97471363196
 21
4050.300445273127
 31
0.0
  0
LINE
  5
1D65B
102
{ACAD_REACTORS
330
1D7CB
102
}
330
1F
100
AcDbEntity
  8
02製品
  6
Continuous
100
AcDbLine
 10
-8369.974708803984
 20
4025.300469114985
 30
0.0
 11
-8344.9747102941
 21
4050.300445273127
 31
0.0
  0
LINE
  5
1D65C
102
{ACAD_REACTORS
330
1D7CB
102
}
330
1F
100
AcDbEntity
  8
02製品
  6
Continuous
100
AcDbLine
 10
-8369.974708803984
 20
4090.3004667308
 30
0.0
 11
-7453.974737473818
 21
4090.3004667308
 31
0.0
  0
ARC
  5
1D65D
102
{ACAD_REACTORS
330
1D7CB
102
}
330
1F
100
AcDbEntity
  8
02製品
  6
Continuous
100
AcDbCircle
 10
-7450.974707909885
 20
4532.3004595783
 30
0.0
 40
3.000000000000114
100
AcDbArc
 50
90.0
 51
180.0
  0
CIRCLE
  5
1D65E
102
{ACAD_REACTORS
330
1D7CB
102
}
330
1F
100
AcDbEntity
  8
02製品
  6
Continuous
100
AcDbCircle
 10
-7433.974707909914
 20
3955.3004595783
 30
0.0
 40
2.350000000000136
  0
CIRCLE
  5
1D65F
102
{ACAD_REACTORS
330
1D7CB
102
}
330
1F
100
AcDbEntity
  8
02製品
  6
Continuous
100
AcDbCircle
 10
-7433.974707909914
 20
4155.3004595783
 30
0.0
 40
2.350000000000136
  0
LINE
  5
1D660
102
{ACAD_REACTORS
330
1D7CB
102
}
330
1F
100
AcDbEntity
  8
02製品
  6
Continuous
100
AcDbLine
 10
-7453.974737473818
 20
4532.300459552165
 30
0.0
 11
-7453.974737473818
 21
3689.800586416926
 31
0.0
  0
CIRCLE
  5
1D661
102
{ACAD_REACTORS
330
1D7CB
102
}
330
1F
100
AcDbEntity
  8
02製品
  6
Continuous
100
AcDbCircle
 10
-7433.974707909914
 20
4305.3004595783
 30
0.0
 40
2.350000000000136
  0
LINE
  5
1D662
102
{ACAD_REACTORS
330
1D7CB
102
}
330
1F
100
AcDbEntity
  8
02製品
  6
Continuous
100
AcDbLine
 10
-7413.974716016146
 20
4535.3004595783
 30
0.0
 11
-7450.974716492983
 21
4535.3004595783
 31
0.0
  0
LINE
  5
1D663
102
{ACAD_REACTORS
330
1D7CB
102
}
330
1F
100
AcDbEntity
  8
02製品
  6
Continuous
100
AcDbLine
 10
-7413.974716016146
 20
4535.3004595783
 30
0.0
 11
-7413.974716016146
 21
3689.800586416926
 31
0.0
  0
CIRCLE
  5
1D664
102
{ACAD_REACTORS
330
1D7CB
102
}
330
1F
100
AcDbEntity
  8
02製品
  6
Continuous
100
AcDbCircle
 10
-7433.974707909914
 20
3805.3004595783
 30
0.0
 40
2.350000000000136
  0
LINE
  5
1D665
102
{ACAD_REACTORS
330
1D7CB
102
}
330
1F
100
AcDbEntity
  8
02製品
  6
Continuous
100
AcDbLine
 10
-7453.974737473818
 20
3689.800586416926
 30
0.0
 11
-7413.974716016146
 21
3689.800586416926
 31
0.0
  0
LINE
  5
1D666
102
{ACAD_REACTORS
330
1D7CB
102
}
330
1F
100
AcDbEntity
  8
02製品
  6
Continuous
100
AcDbLine
 10
-7428.974701711031
 20
3689.800467207637
 30
0.0
 11
-7428.974701711031
 21
3685.300435736384
 31
0.0
  0
LINE
  5
1D667
102
{ACAD_REACTORS
330
1D7CB
102
}
330
1F
100
AcDbEntity
  8
02製品
  6
Continuous
100
AcDbLine
 10
-7418.474687882754
 20
3689.800467207637
 30
0.0
 11
-7428.974701711031
 21
3689.800467207637
 31
0.0
  0
LINE
  5
1D668
102
{ACAD_REACTORS
330
1D7CB
102
}
330
1F
100
AcDbEntity
  8
02製品
  6
Continuous
100
AcDbLine
 10
-7413.974716016146
 20
3685.300435736384
 30
0.0
 11
-7428.974701711031
 21
3685.300435736384
 31
0.0
  0
LINE
  5
1D669
102
{ACAD_REACTORS
330
1D7CB
102
}
330
1F
100
AcDbEntity
  8
02製品
  6
Continuous
100
AcDbLine
 10
-7413.974716016146
 20
3689.800467207637
 30
0.0
 11
-7413.974716016146
 21
3685.300435736384
 31
0.0
  0
LINE
  5
1D66A
102
{ACAD_REACTORS
330
1D7CB
102
}
330
1F
100
AcDbEntity
  8
02製品
  6
Continuous
100
AcDbLine
 10
-7413.974716016146
 20
3689.800467207637
 30
0.0
 11
-7418.474687882754
 21
3689.800467207637
 31
0.0
  0
LINE
  5
1D66B
102
{ACAD_REACTORS
330
1D7CB
102
}
330
1F
100
AcDbEntity
  8
02製品
  6
Continuous
100
AcDbLine
 10
-7418.474687882754
 20
3689.800586416926
 30
0.0
 11
-7418.474687882754
 21
3689.800467207637
 31
0.0
  0
LINE
  5
1D66C
102
{ACAD_REACTORS
330
1D7CB
102
}
330
1F
100
AcDbEntity
  8
02製品
  6
Continuous
100
AcDbLine
 10
-7413.974716016146
 20
3689.800586416926
 30
0.0
 11
-7413.974716016146
 21
3689.800467207637
 31
0.0
  0
LINE
  5
1D66D
102
{ACAD_REACTORS
330
1D7CB
102
}
330
1F
100
AcDbEntity
  8
02製品
  6
Continuous
100
AcDbLine
 10
-7453.974737473818
 20
3689.800467207637
 30
0.0
 11
-7428.974701711031
 21
3689.800467207637
 31
0.0
  0
LINE
  5
1D66E
102
{ACAD_REACTORS
330
1D7CB
102
}
330
1F
100
AcDbEntity
  8
02製品
  6
Continuous
100
AcDbLine
 10
-7453.974737473818
 20
3685.300435736384
 30
0.0
 11
-7453.974737473818
 21
3689.800467207637
 31
0.0
  0
LINE
  5
1D66F
102
{ACAD_REACTORS
330
1D7CB
102
}
330
1F
100
AcDbEntity
  8
02製品
  6
Continuous
100
AcDbLine
 10
-7453.974737473818
 20
3685.300435736384
 30
0.0
 11
-7428.974701711031
 21
3685.300435736384
 31
0.0
  0
LINE
  5
1D670
102
{ACAD_REACTORS
330
1D7CB
102
}
330
1F
100
AcDbEntity
  8
02製品
  6
Continuous
100
AcDbLine
 10
-8409.974707909914
 20
4535.3004595783
 30
0.0
 11
-8409.974707909914
 21
3689.800586416926
 31
0.0
  0
ARC
  5
1D671
102
{ACAD_REACTORS
330
1D7CB
102
}
330
1F
100
AcDbEntity
  8
02製品
  6
Continuous
100
AcDbCircle
 10
-8372.974707909914
 20
4532.3004595783
 30
0.0
 40
3.000000000000114
100
AcDbArc
 50
0.0
 51
90.0
  0
CIRCLE
  5
1D672
102
{ACAD_REACTORS
330
1D7CB
102
}
330
1F
100
AcDbEntity
  8
02製品
  6
Continuous
100
AcDbCircle
 10
-8389.974707909914
 20
3805.3004595783
 30
0.0
 40
2.350000000000136
  0
CIRCLE
  5
1D673
102
{ACAD_REACTORS
330
1D7CB
102
}
330
1F
100
AcDbEntity
  8
02製品
  6
Continuous
100
AcDbCircle
 10
-8389.974707909914
 20
3955.3004595783
 30
0.0
 40
2.350000000000136
  0
CIRCLE
  5
1D674
102
{ACAD_REACTORS
330
1D7CB
102
}
330
1F
100
AcDbEntity
  8
02製品
  6
Continuous
100
AcDbCircle
 10
-8389.974707909914
 20
4305.3004595783
 30
0.0
 40
2.350000000000136
  0
LINE
  5
1D675
102
{ACAD_REACTORS
330
1D7CB
102
}
330
1F
100
AcDbEntity
  8
02製品
  6
Continuous
100
AcDbLine
 10
-8369.974708803984
 20
4532.300459552165
 30
0.0
 11
-8369.974708803984
 21
3689.800586416926
 31
0.0
  0
CIRCLE
  5
1D676
102
{ACAD_REACTORS
330
1D7CB
102
}
330
1F
100
AcDbEntity
  8
02製品
  6
Continuous
100
AcDbCircle
 10
-8389.974707909914
 20
4155.3004595783
 30
0.0
 40
2.350000000000136
  0
LINE
  5
1D677
102
{ACAD_REACTORS
330
1D7CB
102
}
330
1F
100
AcDbEntity
  8
02製品
  6
Continuous
100
AcDbLine
 10
-8409.974707909914
 20
4535.3004595783
 30
0.0
 11
-8372.974707433077
 21
4535.3004595783
 31
0.0
  0
LINE
  5
1D678
102
{ACAD_REACTORS
330
1D7CB
102
}
330
1F
100
AcDbEntity
  8
02製品
  6
Continuous
100
AcDbLine
 10
-8369.974708803984
 20
3689.800586416926
 30
0.0
 11
-8409.974707909914
 21
3689.800586416926
 31
0.0
  0
LINE
  5
1D679
102
{ACAD_REACTORS
330
1D7CB
102
}
330
1F
100
AcDbEntity
  8
02製品
  6
Continuous
100
AcDbLine
 10
-8369.974708803984
 20
3685.300435736384
 30
0.0
 11
-8369.974708803984
 21
3689.800467207637
 31
0.0
  0
LINE
  5
1D67A
102
{ACAD_REACTORS
330
1D7CB
102
}
330
1F
100
AcDbEntity
  8
02製品
  6
Continuous
100
AcDbLine
 10
-8369.974708803984
 20
3685.300435736384
 30
0.0
 11
-8394.97470824519
 21
3685.300435736384
 31
0.0
  0
LINE
  5
1D67B
102
{ACAD_REACTORS
330
1D7CB
102
}
330
1F
100
AcDbEntity
  8
02製品
  6
Continuous
100
AcDbLine
 10
-8394.97470824519
 20
3689.800467207637
 30
0.0
 11
-8394.97470824519
 21
3685.300435736384
 31
0.0
  0
LINE
  5
1D67C
102
{ACAD_REACTORS
330
1D7CB
102
}
330
1F
100
AcDbEntity
  8
02製品
  6
Continuous
100
AcDbLine
 10
-8369.974708803984
 20
3689.800467207637
 30
0.0
 11
-8394.97470824519
 21
3689.800467207637
 31
0.0
  0
LINE
  5
1D67D
102
{ACAD_REACTORS
330
1D7CB
102
}
330
1F
100
AcDbEntity
  8
02製品
  6
Continuous
100
AcDbLine
 10
-8405.47470810363
 20
3689.800467207637
 30
0.0
 11
-8394.97470824519
 21
3689.800467207637
 31
0.0
  0
LINE
  5
1D67E
102
{ACAD_REACTORS
330
1D7CB
102
}
330
1F
100
AcDbEntity
  8
02製品
  6
Continuous
100
AcDbLine
 10
-8409.974707909914
 20
3685.300435736384
 30
0.0
 11
-8394.97470824519
 21
3685.300435736384
 31
0.0
  0
LINE
  5
1D67F
102
{ACAD_REACTORS
330
1D7CB
102
}
330
1F
100
AcDbEntity
  8
02製品
  6
Continuous
100
AcDbLine
 10
-8409.974707909914
 20
3689.800467207637
 30
0.0
 11
-8409.974707909914
 21
3685.300435736384
 31
0.0
  0
LINE
  5
1D680
102
{ACAD_REACTORS
330
1D7CB
102
}
330
1F
100
AcDbEntity
  8
02製品
  6
Continuous
100
AcDbLine
 10
-8409.974707909914
 20
3689.800467207637
 30
0.0
 11
-8405.47470810363
 21
3689.800467207637
 31
0.0
  0
LINE
  5
1D681
102
{ACAD_REACTORS
330
1D7CB
102
}
330
1F
100
AcDbEntity
  8
02製品
  6
Continuous
100
AcDbLine
 10
-8405.47470810363
 20
3689.800586416926
 30
0.0
 11
-8405.47470810363
 21
3689.800467207637
 31
0.0
  0
LINE
  5
1D682
102
{ACAD_REACTORS
330
1D7CB
102
}
330
1F
100
AcDbEntity
  8
02製品
  6
Continuous
100
AcDbLine
 10
-8409.974707909914
 20
3689.800586416926
 30
0.0
 11
-8409.974707909914
 21
3689.800467207637
 31
0.0
  0
LINE
  5
1D683
102
{ACAD_REACTORS
330
1D7CB
102
}
330
1F
100
AcDbEntity
  8
02製品
  6
Continuous
100
AcDbLine
 10
-8369.974708803984
 20
4495.300460472312
 30
0.0
 11
-7453.974737473818
 21
4495.300460472312
 31
0.0
  0
LINE
  5
1D684
102
{ACAD_REACTORS
330
1D7CB
102
}
330
1F
100
AcDbEntity
  8
02製品
  6
Continuous
100
AcDbLine
 10
-8369.974708803984
 20
4532.100459659081
 30
0.0
 11
-8364.67470849404
 21
4532.100459659081
 31
0.0
  0
LINE
  5
1D685
102
{ACAD_REACTORS
330
1D7CB
102
}
330
1F
100
AcDbEntity
  8
02製品
  6
Continuous
100
AcDbLine
 10
-8364.67470849404
 20
4532.100459659081
 30
0.0
 11
-8364.67470849404
 21
4535.3004595783
 31
0.0
  0
LINE
  5
1D686
102
{ACAD_REACTORS
330
1D7CB
102
}
330
1F
100
AcDbEntity
  8
02製品
  6
Continuous
100
AcDbLine
 10
-8364.67470849404
 20
4535.3004595783
 30
0.0
 11
-7459.274722882601
 21
4535.3004595783
 31
0.0
  0
LINE
  5
1D687
102
{ACAD_REACTORS
330
1D7CB
102
}
330
1F
100
AcDbEntity
  8
02製品
  6
Continuous
100
AcDbLine
 10
-7459.274722882601
 20
4535.3004595783
 30
0.0
 11
-7459.274722882601
 21
4532.100459659081
 31
0.0
  0
LINE
  5
1D688
102
{ACAD_REACTORS
330
1D7CB
102
}
330
1F
100
AcDbEntity
  8
02製品
  6
Continuous
100
AcDbLine
 10
-7459.274722882601
 20
4532.100459659081
 30
0.0
 11
-7453.974737473818
 21
4532.100459659081
 31
0.0
  0
LINE
  5
1D689
102
{ACAD_REACTORS
330
1D7CB
102
}
330
1F
100
AcDbEntity
  8
02製品
  6
Continuous
100
AcDbLine
 10
-7459.274722882601
 20
4535.3004595783
 30
0.0
 11
-7450.974716492983
 21
4535.3004595783
 31
0.0
  0
LINE
  5
1D68A
102
{ACAD_REACTORS
330
1D7CB
102
}
330
1F
100
AcDbEntity
  8
02製品
  6
Continuous
100
AcDbLine
 10
-8364.67470849404
 20
4535.3004595783
 30
0.0
 11
-8372.974707433077
 21
4535.3004595783
 31
0.0
  0
LINE
  5
1D68B
102
{ACAD_REACTORS
330
1D7CA
102
}
330
1F
100
AcDbEntity
  8
02製品
  6
Continuous
100
AcDbLine
 10
-9351.753646664813
 20
6525.056668039078
 30
0.0
 11
-9351.753646664813
 21
6525.856681581254
 31
0.0
  0
LINE
  5
1D68C
102
{ACAD_REACTORS
330
1D7CA
102
}
330
1F
100
AcDbEntity
  8
02製品
  6
Continuous
100
AcDbLine
 10
-9351.753646664813
 20
6530.356653447861
 30
0.0
 11
-9351.753646664813
 21
6533.556648011918
 31
0.0
  0
LINE
  5
1D68D
102
{ACAD_REACTORS
330
1D7CA
102
}
330
1F
100
AcDbEntity
  8
02製品
  6
Continuous
100
AcDbLine
 10
-10372.45362453957
 20
6525.056668039078
 30
0.0
 11
-10372.45362453957
 21
6533.556648011918
 31
0.0
  0
LINE
  5
1D68E
102
{ACAD_REACTORS
330
1D7CA
102
}
330
1F
100
AcDbEntity
  8
02製品
  6
Continuous
100
AcDbLine
 10
-10372.45362453957
 20
6533.556648011918
 30
0.0
 11
-9351.753646664813
 21
6533.556648011918
 31
0.0
  0
LINE
  5
1D68F
102
{ACAD_REACTORS
330
1D7CA
102
}
330
1F
100
AcDbEntity
  8
02製品
  6
Continuous
100
AcDbLine
 10
-10372.45362453957
 20
6530.356653447861
 30
0.0
 11
-10374.95368176003
 21
6530.356653447861
 31
0.0
  0
LINE
  5
1D690
102
{ACAD_REACTORS
330
1D7CA
102
}
330
1F
100
AcDbEntity
  8
02製品
  6
Continuous
100
AcDbLine
 10
-10409.45356541176
 20
6533.556648011918
 30
0.0
 11
-10409.45356541176
 21
6530.356653447861
 31
0.0
  0
LINE
  5
1D691
102
{ACAD_REACTORS
330
1D7CA
102
}
330
1F
100
AcDbEntity
  8
02製品
  6
Continuous
100
AcDbLine
 10
-10372.45362453957
 20
6533.556648011918
 30
0.0
 11
-10409.45356541176
 21
6533.556648011918
 31
0.0
  0
LINE
  5
1D692
102
{ACAD_REACTORS
330
1D7CA
102
}
330
1F
100
AcDbEntity
  8
02製品
  6
Continuous
100
AcDbLine
 10
-9314.75370579262
 20
6530.356653447861
 30
0.0
 11
-9314.75370579262
 21
6533.556648011918
 31
0.0
  0
LINE
  5
1D693
102
{ACAD_REACTORS
330
1D7CA
102
}
330
1F
100
AcDbEntity
  8
02製品
  6
Continuous
100
AcDbLine
 10
-9314.75370579262
 20
6533.556648011918
 30
0.0
 11
-9351.753646664813
 21
6533.556648011918
 31
0.0
  0
LINE
  5
1D694
102
{ACAD_REACTORS
330
1D7CA
102
}
330
1F
100
AcDbEntity
  8
02製品
  6
Continuous
100
AcDbLine
 10
-10412.4535863926
 20
6530.356653447861
 30
0.0
 11
-10412.4535863926
 21
6533.556648011918
 31
0.0
  0
LINE
  5
1D695
102
{ACAD_REACTORS
330
1D7CA
102
}
330
1F
100
AcDbEntity
  8
02製品
  6
Continuous
100
AcDbLine
 10
-10412.4535863926
 20
6533.556648011918
 30
0.0
 11
-10409.45356541176
 21
6533.556648011918
 31
0.0
  0
LINE
  5
1D696
102
{ACAD_REACTORS
330
1D7CA
102
}
330
1F
100
AcDbEntity
  8
02製品
  6
Continuous
100
AcDbLine
 10
-9311.753684811785
 20
6533.556648011918
 30
0.0
 11
-9311.753684811785
 21
6530.356653447861
 31
0.0
  0
LINE
  5
1D697
102
{ACAD_REACTORS
330
1D7CA
102
}
330
1F
100
AcDbEntity
  8
02製品
  6
Continuous
100
AcDbLine
 10
-9314.75370579262
 20
6533.556648011918
 30
0.0
 11
-9311.753684811785
 21
6533.556648011918
 31
0.0
  0
LINE
  5
1D698
102
{ACAD_REACTORS
330
1D7CA
102
}
330
1F
100
AcDbEntity
  8
02製品
  6
Continuous
100
AcDbLine
 10
-9351.753646664813
 20
5531.156661634932
 30
0.0
 11
-10372.45362453957
 21
5531.156661634932
 31
0.0
  0
LINE
  5
1D699
102
{ACAD_REACTORS
330
1D7CA
102
}
330
1F
100
AcDbEntity
  8
02製品
  6
Continuous
100
AcDbLine
 10
-9351.753646664813
 20
5539.656661398376
 30
0.0
 11
-9351.753646664813
 21
5538.856661360378
 31
0.0
  0
LINE
  5
1D69A
102
{ACAD_REACTORS
330
1D7CA
102
}
330
1F
100
AcDbEntity
  8
02製品
  6
Continuous
100
AcDbLine
 10
-9351.753646664813
 20
5534.356661554035
 30
0.0
 11
-9351.753646664813
 21
5531.156661634932
 31
0.0
  0
LINE
  5
1D69B
102
{ACAD_REACTORS
330
1D7CA
102
}
330
1F
100
AcDbEntity
  8
02製品
  6
Continuous
100
AcDbLine
 10
-10372.45362453957
 20
5539.656661398376
 30
0.0
 11
-10372.45362453957
 21
5531.156661634932
 31
0.0
  0
LINE
  5
1D69C
102
{ACAD_REACTORS
330
1D7CA
102
}
330
1F
100
AcDbEntity
  8
02製品
  6
Continuous
100
AcDbLine
 10
-9314.75370579262
 20
5531.156661634932
 30
0.0
 11
-9314.75370579262
 21
5534.356661554093
 31
0.0
  0
LINE
  5
1D69D
102
{ACAD_REACTORS
330
1D7CA
102
}
330
1F
100
AcDbEntity
  8
02製品
  6
Continuous
100
AcDbLine
 10
-9351.753646664813
 20
5531.156661634932
 30
0.0
 11
-9314.75370579262
 21
5531.156661634932
 31
0.0
  0
LINE
  5
1D69E
102
{ACAD_REACTORS
330
1D7CA
102
}
330
1F
100
AcDbEntity
  8
02製品
  6
Continuous
100
AcDbLine
 10
-10409.45356541176
 20
5534.356661554093
 30
0.0
 11
-10409.45356541176
 21
5531.156661634932
 31
0.0
  0
LINE
  5
1D69F
102
{ACAD_REACTORS
330
1D7CA
102
}
330
1F
100
AcDbEntity
  8
02製品
  6
Continuous
100
AcDbLine
 10
-10374.95368176003
 20
5534.356661554093
 30
0.0
 11
-10372.45362453957
 21
5534.356661554093
 31
0.0
  0
LINE
  5
1D6A0
102
{ACAD_REACTORS
330
1D7CA
102
}
330
1F
100
AcDbEntity
  8
02製品
  6
Continuous
100
AcDbLine
 10
-10409.45356541176
 20
5531.156661634932
 30
0.0
 11
-10372.45362453957
 21
5531.156661634932
 31
0.0
  0
LINE
  5
1D6A1
102
{ACAD_REACTORS
330
1D7CA
102
}
330
1F
100
AcDbEntity
  8
02製品
  6
Continuous
100
AcDbLine
 10
-9311.753684811785
 20
5534.356661554093
 30
0.0
 11
-9311.753684811785
 21
5531.156661634932
 31
0.0
  0
LINE
  5
1D6A2
102
{ACAD_REACTORS
330
1D7CA
102
}
330
1F
100
AcDbEntity
  8
02製品
  6
Continuous
100
AcDbLine
 10
-9311.753684811785
 20
5531.156661634932
 30
0.0
 11
-9314.75370579262
 21
5531.156661634932
 31
0.0
  0
LINE
  5
1D6A3
102
{ACAD_REACTORS
330
1D7CA
102
}
330
1F
100
AcDbEntity
  8
02製品
  6
Continuous
100
AcDbLine
 10
-10412.4535863926
 20
5531.156661634932
 30
0.0
 11
-10412.4535863926
 21
5534.356661554093
 31
0.0
  0
LINE
  5
1D6A4
102
{ACAD_REACTORS
330
1D7CA
102
}
330
1F
100
AcDbEntity
  8
02製品
  6
Continuous
100
AcDbLine
 10
-10409.45356541176
 20
5531.156661634932
 30
0.0
 11
-10412.4535863926
 21
5531.156661634932
 31
0.0
  0
LINE
  5
1D6A5
102
{ACAD_REACTORS
330
1D7CA
102
}
330
1F
100
AcDbEntity
  8
02製品
  6
Continuous
100
AcDbLine
 10
-11583.45359020729
 20
6525.056668039078
 30
0.0
 11
-11583.45359020729
 21
6533.556648011918
 31
0.0
  0
LINE
  5
1D6A6
102
{ACAD_REACTORS
330
1D7CA
102
}
330
1F
100
AcDbEntity
  8
02製品
  6
Continuous
100
AcDbLine
 10
-12604.15363141198
 20
6533.556648011918
 30
0.0
 11
-11583.45359020729
 21
6533.556648011918
 31
0.0
  0
LINE
  5
1D6A7
102
{ACAD_REACTORS
330
1D7CA
102
}
330
1F
100
AcDbEntity
  8
02製品
  6
Continuous
100
AcDbLine
 10
-12604.15363141198
 20
6525.056668039078
 30
0.0
 11
-12604.15363141198
 21
6525.856681581254
 31
0.0
  0
LINE
  5
1D6A8
102
{ACAD_REACTORS
330
1D7CA
102
}
330
1F
100
AcDbEntity
  8
02製品
  6
Continuous
100
AcDbLine
 10
-12604.15363141198
 20
6530.356653447861
 30
0.0
 11
-12604.15363141198
 21
6533.556648011918
 31
0.0
  0
LINE
  5
1D6A9
102
{ACAD_REACTORS
330
1D7CA
102
}
330
1F
100
AcDbEntity
  8
02製品
  6
Continuous
100
AcDbLine
 10
-12641.15363188882
 20
6533.556648011918
 30
0.0
 11
-12641.15363188882
 21
6530.356653447861
 31
0.0
  0
LINE
  5
1D6AA
102
{ACAD_REACTORS
330
1D7CA
102
}
330
1F
100
AcDbEntity
  8
02製品
  6
Continuous
100
AcDbLine
 10
-12604.15363141198
 20
6533.556648011918
 30
0.0
 11
-12641.15363188882
 21
6533.556648011918
 31
0.0
  0
LINE
  5
1D6AB
102
{ACAD_REACTORS
330
1D7CA
102
}
330
1F
100
AcDbEntity
  8
02製品
  6
Continuous
100
AcDbLine
 10
-11546.4536493351
 20
6530.356653447861
 30
0.0
 11
-11546.4536493351
 21
6533.556648011918
 31
0.0
  0
LINE
  5
1D6AC
102
{ACAD_REACTORS
330
1D7CA
102
}
330
1F
100
AcDbEntity
  8
02製品
  6
Continuous
100
AcDbLine
 10
-11580.95365219612
 20
6530.356653447861
 30
0.0
 11
-11583.45359020729
 21
6530.356653447861
 31
0.0
  0
LINE
  5
1D6AD
102
{ACAD_REACTORS
330
1D7CA
102
}
330
1F
100
AcDbEntity
  8
02製品
  6
Continuous
100
AcDbLine
 10
-11546.4536493351
 20
6533.556648011918
 30
0.0
 11
-11583.45359020729
 21
6533.556648011918
 31
0.0
  0
LINE
  5
1D6AE
102
{ACAD_REACTORS
330
1D7CA
102
}
330
1F
100
AcDbEntity
  8
02製品
  6
Continuous
100
AcDbLine
 10
-12644.15363238056
 20
6530.356653447861
 30
0.0
 11
-12644.15363238056
 21
6533.556648011918
 31
0.0
  0
LINE
  5
1D6AF
102
{ACAD_REACTORS
330
1D7CA
102
}
330
1F
100
AcDbEntity
  8
02製品
  6
Continuous
100
AcDbLine
 10
-12644.15363238056
 20
6533.556648011918
 30
0.0
 11
-12641.15363188882
 21
6533.556648011918
 31
0.0
  0
LINE
  5
1D6B0
102
{ACAD_REACTORS
330
1D7CA
102
}
330
1F
100
AcDbEntity
  8
02製品
  6
Continuous
100
AcDbLine
 10
-11543.45362835427
 20
6533.556648011918
 30
0.0
 11
-11543.45362835427
 21
6530.356653447861
 31
0.0
  0
LINE
  5
1D6B1
102
{ACAD_REACTORS
330
1D7CA
102
}
330
1F
100
AcDbEntity
  8
02製品
  6
Continuous
100
AcDbLine
 10
-11546.4536493351
 20
6533.556648011918
 30
0.0
 11
-11543.45362835427
 21
6533.556648011918
 31
0.0
  0
LINE
  5
1D6B2
102
{ACAD_REACTORS
330
1D7CA
102
}
330
1F
100
AcDbEntity
  8
02製品
  6
Continuous
100
AcDbLine
 10
-11583.45359020729
 20
5531.156661634932
 30
0.0
 11
-12604.15363141198
 21
5531.156661634932
 31
0.0
  0
LINE
  5
1D6B3
102
{ACAD_REACTORS
330
1D7CA
102
}
330
1F
100
AcDbEntity
  8
02製品
  6
Continuous
100
AcDbLine
 10
-11583.45359020729
 20
5539.656661398376
 30
0.0
 11
-11583.45359020729
 21
5531.156661634932
 31
0.0
  0
LINE
  5
1D6B4
102
{ACAD_REACTORS
330
1D7CA
102
}
330
1F
100
AcDbEntity
  8
02製品
  6
Continuous
100
AcDbLine
 10
-12604.15363141198
 20
5539.656661398376
 30
0.0
 11
-12604.15363141198
 21
5538.856661360378
 31
0.0
  0
LINE
  5
1D6B5
102
{ACAD_REACTORS
330
1D7CA
102
}
330
1F
100
AcDbEntity
  8
02製品
  6
Continuous
100
AcDbLine
 10
-12604.15363141198
 20
5534.356661554093
 30
0.0
 11
-12604.15363141198
 21
5531.156661634932
 31
0.0
  0
LINE
  5
1D6B6
102
{ACAD_REACTORS
330
1D7CA
102
}
330
1F
100
AcDbEntity
  8
02製品
  6
Continuous
100
AcDbLine
 10
-11583.45359020729
 20
5534.356661554093
 30
0.0
 11
-11580.95365219612
 21
5534.356661554093
 31
0.0
  0
LINE
  5
1D6B7
102
{ACAD_REACTORS
330
1D7CA
102
}
330
1F
100
AcDbEntity
  8
02製品
  6
Continuous
100
AcDbLine
 10
-11546.4536493351
 20
5531.156661634932
 30
0.0
 11
-11546.4536493351
 21
5534.356661554093
 31
0.0
  0
LINE
  5
1D6B8
102
{ACAD_REACTORS
330
1D7CA
102
}
330
1F
100
AcDbEntity
  8
02製品
  6
Continuous
100
AcDbLine
 10
-11583.45359020729
 20
5531.156661634932
 30
0.0
 11
-11546.4536493351
 21
5531.156661634932
 31
0.0
  0
LINE
  5
1D6B9
102
{ACAD_REACTORS
330
1D7CA
102
}
330
1F
100
AcDbEntity
  8
02製品
  6
Continuous
100
AcDbLine
 10
-12641.15363188882
 20
5534.356661554093
 30
0.0
 11
-12641.15363188882
 21
5531.156661634932
 31
0.0
  0
LINE
  5
1D6BA
102
{ACAD_REACTORS
330
1D7CA
102
}
330
1F
100
AcDbEntity
  8
02製品
  6
Continuous
100
AcDbLine
 10
-12641.15363188882
 20
5531.156661634932
 30
0.0
 11
-12604.15363141198
 21
5531.156661634932
 31
0.0
  0
LINE
  5
1D6BB
102
{ACAD_REACTORS
330
1D7CA
102
}
330
1F
100
AcDbEntity
  8
02製品
  6
Continuous
100
AcDbLine
 10
-11543.45362835427
 20
5534.356661554093
 30
0.0
 11
-11543.45362835427
 21
5531.156661634932
 31
0.0
  0
LINE
  5
1D6BC
102
{ACAD_REACTORS
330
1D7CA
102
}
330
1F
100
AcDbEntity
  8
02製品
  6
Continuous
100
AcDbLine
 10
-11543.45362835427
 20
5531.156661634932
 30
0.0
 11
-11546.4536493351
 21
5531.156661634932
 31
0.0
  0
LINE
  5
1D6BD
102
{ACAD_REACTORS
330
1D7CA
102
}
330
1F
100
AcDbEntity
  8
02製品
  6
Continuous
100
AcDbLine
 10
-12644.15363238056
 20
5531.156661634932
 30
0.0
 11
-12644.15363238056
 21
5534.356661554093
 31
0.0
  0
LINE
  5
1D6BE
102
{ACAD_REACTORS
330
1D7CA
102
}
330
1F
100
AcDbEntity
  8
02製品
  6
Continuous
100
AcDbLine
 10
-12641.15363188882
 20
5531.156661634932
 30
0.0
 11
-12644.15363238056
 21
5531.156661634932
 31
0.0
  0
LINE
  5
1D6BF
102
{ACAD_REACTORS
330
1D7CA
102
}
330
1F
100
AcDbEntity
  8
02製品
  6
Continuous
100
AcDbLine
 10
-10457.45366268654
 20
6525.056668039078
 30
0.0
 11
-10457.45366268654
 21
6533.556648011918
 31
0.0
  0
LINE
  5
1D6C0
102
{ACAD_REACTORS
330
1D7CA
102
}
330
1F
100
AcDbEntity
  8
02製品
  6
Continuous
100
AcDbLine
 10
-11498.45367126961
 20
6525.056668039078
 30
0.0
 11
-11498.45367126961
 21
6533.556648011918
 31
0.0
  0
LINE
  5
1D6C1
102
{ACAD_REACTORS
330
1D7CA
102
}
330
1F
100
AcDbEntity
  8
02製品
  6
Continuous
100
AcDbLine
 10
-11498.45367126961
 20
6533.556648011918
 30
0.0
 11
-10457.45366268654
 21
6533.556648011918
 31
0.0
  0
LINE
  5
1D6C2
102
{ACAD_REACTORS
330
1D7CA
102
}
330
1F
100
AcDbEntity
  8
02製品
  6
Continuous
100
AcDbLine
 10
-11498.45367126961
 20
6530.356653447861
 30
0.0
 11
-11500.95360928078
 21
6530.356653447861
 31
0.0
  0
LINE
  5
1D6C3
102
{ACAD_REACTORS
330
1D7CA
102
}
330
1F
100
AcDbEntity
  8
02製品
  6
Continuous
100
AcDbLine
 10
-11535.4536121418
 20
6533.556648011918
 30
0.0
 11
-11535.4536121418
 21
6530.356653447861
 31
0.0
  0
LINE
  5
1D6C4
102
{ACAD_REACTORS
330
1D7CA
102
}
330
1F
100
AcDbEntity
  8
02製品
  6
Continuous
100
AcDbLine
 10
-11498.45367126961
 20
6533.556648011918
 30
0.0
 11
-11535.4536121418
 21
6533.556648011918
 31
0.0
  0
LINE
  5
1D6C5
102
{ACAD_REACTORS
330
1D7CA
102
}
330
1F
100
AcDbEntity
  8
02製品
  6
Continuous
100
AcDbLine
 10
-10420.45372181435
 20
6530.356653447861
 30
0.0
 11
-10420.45372181435
 21
6533.556648011918
 31
0.0
  0
LINE
  5
1D6C6
102
{ACAD_REACTORS
330
1D7CA
102
}
330
1F
100
AcDbEntity
  8
02製品
  6
Continuous
100
AcDbLine
 10
-10454.95360546608
 20
6530.356653447861
 30
0.0
 11
-10457.45366268654
 21
6530.356653447861
 31
0.0
  0
LINE
  5
1D6C7
102
{ACAD_REACTORS
330
1D7CA
102
}
330
1F
100
AcDbEntity
  8
02製品
  6
Continuous
100
AcDbLine
 10
-10420.45372181435
 20
6533.556648011918
 30
0.0
 11
-10457.45366268654
 21
6533.556648011918
 31
0.0
  0
LINE
  5
1D6C8
102
{ACAD_REACTORS
330
1D7CA
102
}
330
1F
100
AcDbEntity
  8
02製品
  6
Continuous
100
AcDbLine
 10
-11538.45363312264
 20
6530.356653447861
 30
0.0
 11
-11538.45363312264
 21
6533.556648011918
 31
0.0
  0
LINE
  5
1D6C9
102
{ACAD_REACTORS
330
1D7CA
102
}
330
1F
100
AcDbEntity
  8
02製品
  6
Continuous
100
AcDbLine
 10
-11538.45363312264
 20
6533.556648011918
 30
0.0
 11
-11535.4536121418
 21
6533.556648011918
 31
0.0
  0
LINE
  5
1D6CA
102
{ACAD_REACTORS
330
1D7CA
102
}
330
1F
100
AcDbEntity
  8
02製品
  6
Continuous
100
AcDbLine
 10
-10417.45370083351
 20
6533.556648011918
 30
0.0
 11
-10417.45370083351
 21
6530.356653447861
 31
0.0
  0
LINE
  5
1D6CB
102
{ACAD_REACTORS
330
1D7CA
102
}
330
1F
100
AcDbEntity
  8
02製品
  6
Continuous
100
AcDbLine
 10
-10420.45372181435
 20
6533.556648011918
 30
0.0
 11
-10417.45370083351
 21
6533.556648011918
 31
0.0
  0
LINE
  5
1D6CC
102
{ACAD_REACTORS
330
1D7CA
102
}
330
1F
100
AcDbEntity
  8
02製品
  6
Continuous
100
AcDbLine
 10
-10457.45366268654
 20
5531.156661634932
 30
0.0
 11
-11498.45367126961
 21
5531.156661634932
 31
0.0
  0
LINE
  5
1D6CD
102
{ACAD_REACTORS
330
1D7CA
102
}
330
1F
100
AcDbEntity
  8
02製品
  6
Continuous
100
AcDbLine
 10
-11498.45367126961
 20
5539.656661398376
 30
0.0
 11
-11498.45367126961
 21
5531.156661634932
 31
0.0
  0
LINE
  5
1D6CE
102
{ACAD_REACTORS
330
1D7CA
102
}
330
1F
100
AcDbEntity
  8
02製品
  6
Continuous
100
AcDbLine
 10
-10457.45366268654
 20
5539.656661398376
 30
0.0
 11
-10457.45366268654
 21
5531.156661634932
 31
0.0
  0
LINE
  5
1D6CF
102
{ACAD_REACTORS
330
1D7CA
102
}
330
1F
100
AcDbEntity
  8
02製品
  6
Continuous
100
AcDbLine
 10
-10457.45366268654
 20
5534.356661554093
 30
0.0
 11
-10454.95360546608
 21
5534.356661554093
 31
0.0
  0
LINE
  5
1D6D0
102
{ACAD_REACTORS
330
1D7CA
102
}
330
1F
100
AcDbEntity
  8
02製品
  6
Continuous
100
AcDbLine
 10
-10420.45372181435
 20
5531.156661634932
 30
0.0
 11
-10420.45372181435
 21
5534.356661554093
 31
0.0
  0
LINE
  5
1D6D1
102
{ACAD_REACTORS
330
1D7CA
102
}
330
1F
100
AcDbEntity
  8
02製品
  6
Continuous
100
AcDbLine
 10
-10457.45366268654
 20
5531.156661634932
 30
0.0
 11
-10420.45372181435
 21
5531.156661634932
 31
0.0
  0
LINE
  5
1D6D2
102
{ACAD_REACTORS
330
1D7CA
102
}
330
1F
100
AcDbEntity
  8
02製品
  6
Continuous
100
AcDbLine
 10
-11535.4536121418
 20
5534.356661554093
 30
0.0
 11
-11535.4536121418
 21
5531.156661634932
 31
0.0
  0
LINE
  5
1D6D3
102
{ACAD_REACTORS
330
1D7CA
102
}
330
1F
100
AcDbEntity
  8
02製品
  6
Continuous
100
AcDbLine
 10
-11500.95360928078
 20
5534.356661554093
 30
0.0
 11
-11498.45367126961
 21
5534.356661554093
 31
0.0
  0
LINE
  5
1D6D4
102
{ACAD_REACTORS
330
1D7CA
102
}
330
1F
100
AcDbEntity
  8
02製品
  6
Continuous
100
AcDbLine
 10
-11535.4536121418
 20
5531.156661634932
 30
0.0
 11
-11498.45367126961
 21
5531.156661634932
 31
0.0
  0
LINE
  5
1D6D5
102
{ACAD_REACTORS
330
1D7CA
102
}
330
1F
100
AcDbEntity
  8
02製品
  6
Continuous
100
AcDbLine
 10
-10417.45370083351
 20
5534.356661554093
 30
0.0
 11
-10417.45370083351
 21
5531.156661634932
 31
0.0
  0
LINE
  5
1D6D6
102
{ACAD_REACTORS
330
1D7CA
102
}
330
1F
100
AcDbEntity
  8
02製品
  6
Continuous
100
AcDbLine
 10
-10417.45370083351
 20
5531.156661634932
 30
0.0
 11
-10420.45372181435
 21
5531.156661634932
 31
0.0
  0
LINE
  5
1D6D7
102
{ACAD_REACTORS
330
1D7CA
102
}
330
1F
100
AcDbEntity
  8
02製品
  6
Continuous
100
AcDbLine
 10
-11538.45363312264
 20
5531.156661634932
 30
0.0
 11
-11538.45363312264
 21
5534.356661554093
 31
0.0
  0
LINE
  5
1D6D8
102
{ACAD_REACTORS
330
1D7CA
102
}
330
1F
100
AcDbEntity
  8
02製品
  6
Continuous
100
AcDbLine
 10
-11535.4536121418
 20
5531.156661634932
 30
0.0
 11
-11538.45363312264
 21
5531.156661634932
 31
0.0
  0
LINE
  5
1D6D9
102
{ACAD_REACTORS
330
1D7CA
102
}
330
1F
100
AcDbEntity
  8
02製品
  6
Continuous
100
AcDbLine
 10
-11540.9536903431
 20
6525.056668039078
 30
0.0
 11
-11540.9536903431
 21
6525.856681581254
 31
0.0
  0
LINE
  5
1D6DA
102
{ACAD_REACTORS
330
1D7CA
102
}
330
1F
100
AcDbEntity
  8
02製品
  6
Continuous
100
AcDbLine
 10
-11524.42174606819
 20
6525.856681581254
 30
0.0
 11
-11523.65260773201
 21
6525.056668039078
 31
0.0
  0
LINE
  5
1D6DB
102
{ACAD_REACTORS
330
1D7CA
102
}
330
1F
100
AcDbEntity
  8
02製品
  6
Continuous
100
AcDbLine
 10
-11523.65260773201
 20
5539.656661398376
 30
0.0
 11
-11524.42174606819
 21
5538.856661360378
 31
0.0
  0
LINE
  5
1D6DC
102
{ACAD_REACTORS
330
1D7CA
102
}
330
1F
100
AcDbEntity
  8
02製品
  6
Continuous
100
AcDbLine
 10
-11540.9536903431
 20
5538.856661360378
 30
0.0
 11
-11540.9536903431
 21
5539.656661398376
 31
0.0
  0
LINE
  5
1D6DD
102
{ACAD_REACTORS
330
1D7CA
102
}
330
1F
100
AcDbEntity
  8
02製品
  6
Continuous
100
AcDbLine
 10
-11558.25465374489
 20
5539.656661398376
 30
0.0
 11
-11557.48551540871
 21
5538.856661360378
 31
0.0
  0
LINE
  5
1D6DE
102
{ACAD_REACTORS
330
1D7CA
102
}
330
1F
100
AcDbEntity
  8
02製品
  6
Continuous
100
AcDbLine
 10
-11557.48551540871
 20
6525.856681581254
 30
0.0
 11
-11558.25465374489
 21
6525.056668039078
 31
0.0
  0
LINE
  5
1D6DF
102
{ACAD_REACTORS
330
1D7CA
102
}
330
1F
100
AcDbEntity
  8
02製品
  6
Continuous
100
AcDbLine
 10
-11558.33082848091
 20
6525.856681581254
 30
0.0
 11
-11559.0999668171
 21
6525.056668039078
 31
0.0
  0
LINE
  5
1D6E0
102
{ACAD_REACTORS
330
1D7CA
102
}
330
1F
100
AcDbEntity
  8
02製品
  6
Continuous
100
AcDbLine
 10
-11522.80729465981
 20
6525.056668039078
 30
0.0
 11
-11523.57643299599
 21
6525.856681581254
 31
0.0
  0
LINE
  5
1D6E1
102
{ACAD_REACTORS
330
1D7CA
102
}
330
1F
100
AcDbEntity
  8
02製品
  6
Continuous
100
AcDbLine
 10
-11559.0999668171
 20
5539.656661398376
 30
0.0
 11
-11558.33082848091
 21
5538.856661360378
 31
0.0
  0
LINE
  5
1D6E2
102
{ACAD_REACTORS
330
1D7CA
102
}
330
1F
100
AcDbEntity
  8
02製品
  6
Continuous
100
AcDbLine
 10
-11523.57643299599
 20
5538.856661360378
 30
0.0
 11
-11522.80729465981
 21
5539.656661398376
 31
0.0
  0
LINE
  5
1D6E3
102
{ACAD_REACTORS
330
1D7CA
102
}
330
1F
100
AcDbEntity
  8
02製品
  6
Continuous
100
AcDbLine
 10
-10414.95364361305
 20
6525.056668039078
 30
0.0
 11
-10414.95364361305
 21
6525.856681581254
 31
0.0
  0
LINE
  5
1D6E4
102
{ACAD_REACTORS
330
1D7CA
102
}
330
1F
100
AcDbEntity
  8
02製品
  6
Continuous
100
AcDbLine
 10
-10398.42169933815
 20
6525.856681581254
 30
0.0
 11
-10397.65256100197
 21
6525.056668039078
 31
0.0
  0
LINE
  5
1D6E5
102
{ACAD_REACTORS
330
1D7CA
102
}
330
1F
100
AcDbEntity
  8
02製品
  6
Continuous
100
AcDbLine
 10
-10397.65256100197
 20
5539.656661398376
 30
0.0
 11
-10398.42169933815
 21
5538.856661360378
 31
0.0
  0
LINE
  5
1D6E6
102
{ACAD_REACTORS
330
1D7CA
102
}
330
1F
100
AcDbEntity
  8
02製品
  6
Continuous
100
AcDbLine
 10
-10414.95364361305
 20
5538.856661360378
 30
0.0
 11
-10414.95364361305
 21
5539.656661398376
 31
0.0
  0
LINE
  5
1D6E7
102
{ACAD_REACTORS
330
1D7CA
102
}
330
1F
100
AcDbEntity
  8
02製品
  6
Continuous
100
AcDbLine
 10
-10432.25472622414
 20
5539.656661398376
 30
0.0
 11
-10431.48558788796
 21
5538.856661360378
 31
0.0
  0
LINE
  5
1D6E8
102
{ACAD_REACTORS
330
1D7CA
102
}
330
1F
100
AcDbEntity
  8
02製品
  6
Continuous
100
AcDbLine
 10
-10431.48558788796
 20
6525.856681581254
 30
0.0
 11
-10432.25472622414
 21
6525.056668039078
 31
0.0
  0
LINE
  5
1D6E9
102
{ACAD_REACTORS
330
1D7CA
102
}
330
1F
100
AcDbEntity
  8
02製品
  6
Continuous
100
AcDbLine
 10
-10432.33078175087
 20
6525.856681581254
 30
0.0
 11
-10433.09992008705
 21
6525.056668039078
 31
0.0
  0
LINE
  5
1D6EA
102
{ACAD_REACTORS
330
1D7CA
102
}
330
1F
100
AcDbEntity
  8
02製品
  6
Continuous
100
AcDbLine
 10
-10396.80736713906
 20
6525.056668039078
 30
0.0
 11
-10397.57650547524
 21
6525.856681581254
 31
0.0
  0
LINE
  5
1D6EB
102
{ACAD_REACTORS
330
1D7CA
102
}
330
1F
100
AcDbEntity
  8
02製品
  6
Continuous
100
AcDbLine
 10
-10433.09992008705
 20
5539.656661398376
 30
0.0
 11
-10432.33078175087
 21
5538.856661360378
 31
0.0
  0
LINE
  5
1D6EC
102
{ACAD_REACTORS
330
1D7CA
102
}
330
1F
100
AcDbEntity
  8
02製品
  6
Continuous
100
AcDbLine
 10
-10397.57650547524
 20
5538.856661360378
 30
0.0
 11
-10396.80736713906
 21
5539.656661398376
 31
0.0
  0
LINE
  5
1D6ED
102
{ACAD_REACTORS
330
1D7CA
102
}
330
1F
100
AcDbEntity
  8
02製品
  6
Continuous
100
AcDbLine
 10
-11576.45362072487
 20
5534.356661554093
 30
0.0
 11
-11576.45362072487
 21
5538.856661360378
 31
0.0
  0
LINE
  5
1D6EE
102
{ACAD_REACTORS
330
1D7CA
102
}
330
1F
100
AcDbEntity
  8
02製品
  6
Continuous
100
AcDbLine
 10
-11576.45362072487
 20
5538.856661360378
 30
0.0
 11
-11571.45362549324
 21
5538.856661360378
 31
0.0
  0
LINE
  5
1D6EF
102
{ACAD_REACTORS
330
1D7CA
102
}
330
1F
100
AcDbEntity
  8
02製品
  6
Continuous
100
AcDbLine
 10
-11571.45362549324
 20
5538.856661360378
 30
0.0
 11
-11571.45362549324
 21
5534.356661554093
 31
0.0
  0
LINE
  5
1D6F0
102
{ACAD_REACTORS
330
1D7CA
102
}
330
1F
100
AcDbEntity
  8
02製品
  6
Continuous
100
AcDbLine
 10
-11571.45362549324
 20
5534.356661554093
 30
0.0
 11
-11576.45362072487
 21
5534.356661554093
 31
0.0
  0
LINE
  5
1D6F1
102
{ACAD_REACTORS
330
1D7CA
102
}
330
1F
100
AcDbEntity
  8
02製品
  6
Continuous
100
AcDbLine
 10
-11505.45364075203
 20
5538.856661360378
 30
0.0
 11
-11505.45364075203
 21
5534.356661554093
 31
0.0
  0
LINE
  5
1D6F2
102
{ACAD_REACTORS
330
1D7CA
102
}
330
1F
100
AcDbEntity
  8
02製品
  6
Continuous
100
AcDbLine
 10
-11505.45364075203
 20
5534.356661554093
 30
0.0
 11
-11510.45363598366
 21
5534.356661554093
 31
0.0
  0
LINE
  5
1D6F3
102
{ACAD_REACTORS
330
1D7CA
102
}
330
1F
100
AcDbEntity
  8
02製品
  6
Continuous
100
AcDbLine
 10
-11510.45363598366
 20
5534.356661554093
 30
0.0
 11
-11510.45363598366
 21
5538.856661360378
 31
0.0
  0
LINE
  5
1D6F4
102
{ACAD_REACTORS
330
1D7CA
102
}
330
1F
100
AcDbEntity
  8
02製品
  6
Continuous
100
AcDbLine
 10
-11510.45363598366
 20
5538.856661360378
 30
0.0
 11
-11505.45364075203
 21
5538.856661360378
 31
0.0
  0
LINE
  5
1D6F5
102
{ACAD_REACTORS
330
1D7CA
102
}
330
1F
100
AcDbEntity
  8
02製品
  6
Continuous
100
AcDbLine
 10
-11510.45363598366
 20
5538.856661360378
 30
0.0
 11
-11571.45362549324
 21
5538.856661360378
 31
0.0
  0
LINE
  5
1D6F6
102
{ACAD_REACTORS
330
1D7CA
102
}
330
1F
100
AcDbEntity
  8
02製品
  6
Continuous
100
AcDbLine
 10
-11571.45362549324
 20
5534.356661554093
 30
0.0
 11
-11510.45363598366
 21
5534.356661554093
 31
0.0
  0
LINE
  5
1D6F7
102
{ACAD_REACTORS
330
1D7CA
102
}
330
1F
100
AcDbEntity
  8
02製品
  6
Continuous
100
AcDbLine
 10
-11576.45362072487
 20
5539.656661398376
 30
0.0
 11
-11576.45362072487
 21
5538.856661360378
 31
0.0
  0
LINE
  5
1D6F8
102
{ACAD_REACTORS
330
1D7CA
102
}
330
1F
100
AcDbEntity
  8
02製品
  6
Continuous
100
AcDbLine
 10
-11580.95365219612
 20
5539.656661398376
 30
0.0
 11
-11580.95365219612
 21
5534.356661554093
 31
0.0
  0
LINE
  5
1D6F9
102
{ACAD_REACTORS
330
1D7CA
102
}
330
1F
100
AcDbEntity
  8
02製品
  6
Continuous
100
AcDbLine
 10
-11576.45362072487
 20
5534.356661554093
 30
0.0
 11
-11580.95365219612
 21
5534.356661554093
 31
0.0
  0
LINE
  5
1D6FA
102
{ACAD_REACTORS
330
1D7CA
102
}
330
1F
100
AcDbEntity
  8
02製品
  6
Continuous
100
AcDbLine
 10
-11505.45364075203
 20
5538.856661360378
 30
0.0
 11
-11505.45364075203
 21
5539.656661398376
 31
0.0
  0
LINE
  5
1D6FB
102
{ACAD_REACTORS
330
1D7CA
102
}
330
1F
100
AcDbEntity
  8
02製品
  6
Continuous
100
AcDbLine
 10
-11500.95360928078
 20
5534.356661554093
 30
0.0
 11
-11500.95360928078
 21
5539.656661398376
 31
0.0
  0
LINE
  5
1D6FC
102
{ACAD_REACTORS
330
1D7CA
102
}
330
1F
100
AcDbEntity
  8
02製品
  6
Continuous
100
AcDbLine
 10
-11505.45364075203
 20
5534.356661554093
 30
0.0
 11
-11500.95360928078
 21
5534.356661554093
 31
0.0
  0
LINE
  5
1D6FD
102
{ACAD_REACTORS
330
1D7CA
102
}
330
1F
100
AcDbEntity
  8
02製品
  6
Continuous
100
AcDbLine
 10
-11576.45362072487
 20
6525.856681581254
 30
0.0
 11
-11576.45362072487
 21
6530.356653447861
 31
0.0
  0
LINE
  5
1D6FE
102
{ACAD_REACTORS
330
1D7CA
102
}
330
1F
100
AcDbEntity
  8
02製品
  6
Continuous
100
AcDbLine
 10
-11571.45362549324
 20
6530.356653447861
 30
0.0
 11
-11571.45362549324
 21
6525.856681581254
 31
0.0
  0
LINE
  5
1D6FF
102
{ACAD_REACTORS
330
1D7CA
102
}
330
1F
100
AcDbEntity
  8
02製品
  6
Continuous
100
AcDbLine
 10
-11571.45362549324
 20
6525.856681581254
 30
0.0
 11
-11576.45362072487
 21
6525.856681581254
 31
0.0
  0
LINE
  5
1D700
102
{ACAD_REACTORS
330
1D7CA
102
}
330
1F
100
AcDbEntity
  8
02製品
  6
Continuous
100
AcDbLine
 10
-11576.45362072487
 20
6530.356653447861
 30
0.0
 11
-11571.45362549324
 21
6530.356653447861
 31
0.0
  0
LINE
  5
1D701
102
{ACAD_REACTORS
330
1D7CA
102
}
330
1F
100
AcDbEntity
  8
02製品
  6
Continuous
100
AcDbLine
 10
-11505.45364075203
 20
6530.356653447861
 30
0.0
 11
-11505.45364075203
 21
6525.856681581254
 31
0.0
  0
LINE
  5
1D702
102
{ACAD_REACTORS
330
1D7CA
102
}
330
1F
100
AcDbEntity
  8
02製品
  6
Continuous
100
AcDbLine
 10
-11505.45364075203
 20
6525.856681581254
 30
0.0
 11
-11510.45363598366
 21
6525.856681581254
 31
0.0
  0
LINE
  5
1D703
102
{ACAD_REACTORS
330
1D7CA
102
}
330
1F
100
AcDbEntity
  8
02製品
  6
Continuous
100
AcDbLine
 10
-11510.45363598366
 20
6525.856681581254
 30
0.0
 11
-11510.45363598366
 21
6530.356653447861
 31
0.0
  0
LINE
  5
1D704
102
{ACAD_REACTORS
330
1D7CA
102
}
330
1F
100
AcDbEntity
  8
02製品
  6
Continuous
100
AcDbLine
 10
-11510.45363598366
 20
6530.356653447861
 30
0.0
 11
-11505.45364075203
 21
6530.356653447861
 31
0.0
  0
LINE
  5
1D705
102
{ACAD_REACTORS
330
1D7CA
102
}
330
1F
100
AcDbEntity
  8
02製品
  6
Continuous
100
AcDbLine
 10
-11571.45362549324
 20
6525.856681581254
 30
0.0
 11
-11510.45363598366
 21
6525.856681581254
 31
0.0
  0
LINE
  5
1D706
102
{ACAD_REACTORS
330
1D7CA
102
}
330
1F
100
AcDbEntity
  8
02製品
  6
Continuous
100
AcDbLine
 10
-11510.45363598366
 20
6530.356653447861
 30
0.0
 11
-11571.45362549324
 21
6530.356653447861
 31
0.0
  0
LINE
  5
1D707
102
{ACAD_REACTORS
330
1D7CA
102
}
330
1F
100
AcDbEntity
  8
02製品
  6
Continuous
100
AcDbLine
 10
-11576.45362072487
 20
6525.856681581254
 30
0.0
 11
-11576.45362072487
 21
6525.056668039078
 31
0.0
  0
LINE
  5
1D708
102
{ACAD_REACTORS
330
1D7CA
102
}
330
1F
100
AcDbEntity
  8
02製品
  6
Continuous
100
AcDbLine
 10
-11580.95365219612
 20
6530.356653447861
 30
0.0
 11
-11580.95365219612
 21
6525.056668039078
 31
0.0
  0
LINE
  5
1D709
102
{ACAD_REACTORS
330
1D7CA
102
}
330
1F
100
AcDbEntity
  8
02製品
  6
Continuous
100
AcDbLine
 10
-11576.45362072487
 20
6530.356653447861
 30
0.0
 11
-11580.95365219612
 21
6530.356653447861
 31
0.0
  0
LINE
  5
1D70A
102
{ACAD_REACTORS
330
1D7CA
102
}
330
1F
100
AcDbEntity
  8
02製品
  6
Continuous
100
AcDbLine
 10
-11505.45364075203
 20
6525.056668039078
 30
0.0
 11
-11505.45364075203
 21
6525.856681581254
 31
0.0
  0
LINE
  5
1D70B
102
{ACAD_REACTORS
330
1D7CA
102
}
330
1F
100
AcDbEntity
  8
02製品
  6
Continuous
100
AcDbLine
 10
-11500.95360928078
 20
6525.056668039078
 30
0.0
 11
-11500.95360928078
 21
6530.356653447861
 31
0.0
  0
LINE
  5
1D70C
102
{ACAD_REACTORS
330
1D7CA
102
}
330
1F
100
AcDbEntity
  8
02製品
  6
Continuous
100
AcDbLine
 10
-11505.45364075203
 20
6530.356653447861
 30
0.0
 11
-11500.95360928078
 21
6530.356653447861
 31
0.0
  0
LINE
  5
1D70D
102
{ACAD_REACTORS
330
1D7CA
102
}
330
1F
100
AcDbEntity
  8
02製品
  6
Continuous
100
AcDbLine
 10
-10450.45369320412
 20
6525.856681581254
 30
0.0
 11
-10450.45369320412
 21
6530.356653447861
 31
0.0
  0
LINE
  5
1D70E
102
{ACAD_REACTORS
330
1D7CA
102
}
330
1F
100
AcDbEntity
  8
02製品
  6
Continuous
100
AcDbLine
 10
-10450.45369320412
 20
6530.356653447861
 30
0.0
 11
-10445.4535787632
 21
6530.356653447861
 31
0.0
  0
LINE
  5
1D70F
102
{ACAD_REACTORS
330
1D7CA
102
}
330
1F
100
AcDbEntity
  8
02製品
  6
Continuous
100
AcDbLine
 10
-10445.4535787632
 20
6530.356653447861
 30
0.0
 11
-10445.4535787632
 21
6525.856681581254
 31
0.0
  0
LINE
  5
1D710
102
{ACAD_REACTORS
330
1D7CA
102
}
330
1F
100
AcDbEntity
  8
02製品
  6
Continuous
100
AcDbLine
 10
-10445.4535787632
 20
6525.856681581254
 30
0.0
 11
-10450.45369320412
 21
6525.856681581254
 31
0.0
  0
LINE
  5
1D711
102
{ACAD_REACTORS
330
1D7CA
102
}
330
1F
100
AcDbEntity
  8
02製品
  6
Continuous
100
AcDbLine
 10
-10384.45370846291
 20
6525.856681581254
 30
0.0
 11
-10384.45370846291
 21
6530.356653447861
 31
0.0
  0
LINE
  5
1D712
102
{ACAD_REACTORS
330
1D7CA
102
}
330
1F
100
AcDbEntity
  8
02製品
  6
Continuous
100
AcDbLine
 10
-10445.4535787632
 20
6525.856681581254
 30
0.0
 11
-10384.45370846291
 21
6525.856681581254
 31
0.0
  0
LINE
  5
1D713
102
{ACAD_REACTORS
330
1D7CA
102
}
330
1F
100
AcDbEntity
  8
02製品
  6
Continuous
100
AcDbLine
 10
-10384.45370846291
 20
6530.356653447861
 30
0.0
 11
-10445.4535787632
 21
6530.356653447861
 31
0.0
  0
LINE
  5
1D714
102
{ACAD_REACTORS
330
1D7CA
102
}
330
1F
100
AcDbEntity
  8
02製品
  6
Continuous
100
AcDbLine
 10
-10379.45359402199
 20
6530.356653447861
 30
0.0
 11
-10379.45359402199
 21
6525.856681581254
 31
0.0
  0
LINE
  5
1D715
102
{ACAD_REACTORS
330
1D7CA
102
}
330
1F
100
AcDbEntity
  8
02製品
  6
Continuous
100
AcDbLine
 10
-10379.45359402199
 20
6525.856681581254
 30
0.0
 11
-10384.45370846291
 21
6525.856681581254
 31
0.0
  0
LINE
  5
1D716
102
{ACAD_REACTORS
330
1D7CA
102
}
330
1F
100
AcDbEntity
  8
02製品
  6
Continuous
100
AcDbLine
 10
-10384.45370846291
 20
6530.356653447861
 30
0.0
 11
-10379.45359402199
 21
6530.356653447861
 31
0.0
  0
LINE
  5
1D717
102
{ACAD_REACTORS
330
1D7CA
102
}
330
1F
100
AcDbEntity
  8
02製品
  6
Continuous
100
AcDbLine
 10
-10379.45359402199
 20
6525.056668039078
 30
0.0
 11
-10379.45359402199
 21
6525.856681581254
 31
0.0
  0
LINE
  5
1D718
102
{ACAD_REACTORS
330
1D7CA
102
}
330
1F
100
AcDbEntity
  8
02製品
  6
Continuous
100
AcDbLine
 10
-10374.95368176003
 20
6525.056668039078
 30
0.0
 11
-10374.95368176003
 21
6530.356653447861
 31
0.0
  0
LINE
  5
1D719
102
{ACAD_REACTORS
330
1D7CA
102
}
330
1F
100
AcDbEntity
  8
02製品
  6
Continuous
100
AcDbLine
 10
-10379.45359402199
 20
6530.356653447861
 30
0.0
 11
-10374.95368176003
 21
6530.356653447861
 31
0.0
  0
LINE
  5
1D71A
102
{ACAD_REACTORS
330
1D7CA
102
}
330
1F
100
AcDbEntity
  8
02製品
  6
Continuous
100
AcDbLine
 10
-10450.45369320412
 20
6525.856681581254
 30
0.0
 11
-10450.45369320412
 21
6525.056668039078
 31
0.0
  0
LINE
  5
1D71B
102
{ACAD_REACTORS
330
1D7CA
102
}
330
1F
100
AcDbEntity
  8
02製品
  6
Continuous
100
AcDbLine
 10
-10454.95360546608
 20
6530.356653447861
 30
0.0
 11
-10454.95360546608
 21
6525.056668039078
 31
0.0
  0
LINE
  5
1D71C
102
{ACAD_REACTORS
330
1D7CA
102
}
330
1F
100
AcDbEntity
  8
02製品
  6
Continuous
100
AcDbLine
 10
-10450.45369320412
 20
6530.356653447861
 30
0.0
 11
-10454.95360546608
 21
6530.356653447861
 31
0.0
  0
LINE
  5
1D71D
102
{ACAD_REACTORS
330
1D7CA
102
}
330
1F
100
AcDbEntity
  8
02製品
  6
Continuous
100
AcDbLine
 10
-10379.45359402199
 20
5538.856661360378
 30
0.0
 11
-10379.45359402199
 21
5534.356661554093
 31
0.0
  0
LINE
  5
1D71E
102
{ACAD_REACTORS
330
1D7CA
102
}
330
1F
100
AcDbEntity
  8
02製品
  6
Continuous
100
AcDbLine
 10
-10379.45359402199
 20
5534.356661554093
 30
0.0
 11
-10384.45370846291
 21
5534.356661554093
 31
0.0
  0
LINE
  5
1D71F
102
{ACAD_REACTORS
330
1D7CA
102
}
330
1F
100
AcDbEntity
  8
02製品
  6
Continuous
100
AcDbLine
 10
-10384.45370846291
 20
5534.356661554093
 30
0.0
 11
-10384.45370846291
 21
5538.856661360378
 31
0.0
  0
LINE
  5
1D720
102
{ACAD_REACTORS
330
1D7CA
102
}
330
1F
100
AcDbEntity
  8
02製品
  6
Continuous
100
AcDbLine
 10
-10384.45370846291
 20
5538.856661360378
 30
0.0
 11
-10379.45359402199
 21
5538.856661360378
 31
0.0
  0
LINE
  5
1D721
102
{ACAD_REACTORS
330
1D7CA
102
}
330
1F
100
AcDbEntity
  8
02製品
  6
Continuous
100
AcDbLine
 10
-10450.45369320412
 20
5534.356661554093
 30
0.0
 11
-10450.45369320412
 21
5538.856661360378
 31
0.0
  0
LINE
  5
1D722
102
{ACAD_REACTORS
330
1D7CA
102
}
330
1F
100
AcDbEntity
  8
02製品
  6
Continuous
100
AcDbLine
 10
-10445.4535787632
 20
5538.856661360378
 30
0.0
 11
-10445.4535787632
 21
5534.356661554093
 31
0.0
  0
LINE
  5
1D723
102
{ACAD_REACTORS
330
1D7CA
102
}
330
1F
100
AcDbEntity
  8
02製品
  6
Continuous
100
AcDbLine
 10
-10445.4535787632
 20
5534.356661554093
 30
0.0
 11
-10450.45369320412
 21
5534.356661554093
 31
0.0
  0
LINE
  5
1D724
102
{ACAD_REACTORS
330
1D7CA
102
}
330
1F
100
AcDbEntity
  8
02製品
  6
Continuous
100
AcDbLine
 10
-10450.45369320412
 20
5538.856661360378
 30
0.0
 11
-10445.4535787632
 21
5538.856661360378
 31
0.0
  0
LINE
  5
1D725
102
{ACAD_REACTORS
330
1D7CA
102
}
330
1F
100
AcDbEntity
  8
02製品
  6
Continuous
100
AcDbLine
 10
-10445.4535787632
 20
5534.356661554093
 30
0.0
 11
-10384.45370846291
 21
5534.356661554093
 31
0.0
  0
LINE
  5
1D726
102
{ACAD_REACTORS
330
1D7CA
102
}
330
1F
100
AcDbEntity
  8
02製品
  6
Continuous
100
AcDbLine
 10
-10384.45370846291
 20
5538.856661360378
 30
0.0
 11
-10445.4535787632
 21
5538.856661360378
 31
0.0
  0
LINE
  5
1D727
102
{ACAD_REACTORS
330
1D7CA
102
}
330
1F
100
AcDbEntity
  8
02製品
  6
Continuous
100
AcDbLine
 10
-10450.45369320412
 20
5539.656661398376
 30
0.0
 11
-10450.45369320412
 21
5538.856661360378
 31
0.0
  0
LINE
  5
1D728
102
{ACAD_REACTORS
330
1D7CA
102
}
330
1F
100
AcDbEntity
  8
02製品
  6
Continuous
100
AcDbLine
 10
-10454.95360546608
 20
5539.656661398376
 30
0.0
 11
-10454.95360546608
 21
5534.356661554093
 31
0.0
  0
LINE
  5
1D729
102
{ACAD_REACTORS
330
1D7CA
102
}
330
1F
100
AcDbEntity
  8
02製品
  6
Continuous
100
AcDbLine
 10
-10450.45369320412
 20
5534.356661554093
 30
0.0
 11
-10454.95360546608
 21
5534.356661554093
 31
0.0
  0
LINE
  5
1D72A
102
{ACAD_REACTORS
330
1D7CA
102
}
330
1F
100
AcDbEntity
  8
02製品
  6
Continuous
100
AcDbLine
 10
-10379.45359402199
 20
5538.856661360378
 30
0.0
 11
-10379.45359402199
 21
5539.656661398376
 31
0.0
  0
LINE
  5
1D72B
102
{ACAD_REACTORS
330
1D7CA
102
}
330
1F
100
AcDbEntity
  8
02製品
  6
Continuous
100
AcDbLine
 10
-10374.95368176003
 20
5534.356661554093
 30
0.0
 11
-10374.95368176003
 21
5539.656661398376
 31
0.0
  0
LINE
  5
1D72C
102
{ACAD_REACTORS
330
1D7CA
102
}
330
1F
100
AcDbEntity
  8
02製品
  6
Continuous
100
AcDbLine
 10
-10379.45359402199
 20
5534.356661554093
 30
0.0
 11
-10374.95368176003
 21
5534.356661554093
 31
0.0
  0
LINE
  5
1D72D
102
{ACAD_REACTORS
330
1D7CA
102
}
330
1F
100
AcDbEntity
  8
02製品
  6
Continuous
100
AcDbLine
 10
-9308.45373325844
 20
5574.356660660023
 30
0.0
 11
-9308.45373325844
 21
6490.356631990189
 31
0.0
  0
LINE
  5
1D72E
102
{ACAD_REACTORS
330
1D7CA
102
}
330
1F
100
AcDbEntity
  8
02製品
  6
Continuous
100
AcDbLine
 10
-9308.45373325844
 20
5546.856661740358
 30
0.0
 11
-9309.253627591326
 21
5546.856661740358
 31
0.0
  0
LINE
  5
1D72F
102
{ACAD_REACTORS
330
1D7CA
102
}
330
1F
100
AcDbEntity
  8
02製品
  6
Continuous
100
AcDbLine
 10
-9308.45373325844
 20
6517.85666536879
 30
0.0
 11
-9309.253627591326
 21
6517.85666536879
 31
0.0
  0
LINE
  5
1D730
102
{ACAD_REACTORS
330
1D7CA
102
}
330
1F
100
AcDbEntity
  8
02製品
  6
Continuous
100
AcDbLine
 10
-12647.45363236268
 20
5546.856661740358
 30
0.0
 11
-12646.65363232468
 21
5546.856661740358
 31
0.0
  0
LINE
  5
1D731
102
{ACAD_REACTORS
330
1D7CA
102
}
330
1F
100
AcDbEntity
  8
02製品
  6
Continuous
100
AcDbLine
 10
-12647.45363236268
 20
6490.356631990189
 30
0.0
 11
-12647.45363236268
 21
5574.356660660023
 31
0.0
  0
LINE
  5
1D732
102
{ACAD_REACTORS
330
1D7CA
102
}
330
1F
100
AcDbEntity
  8
02製品
  6
Continuous
100
AcDbLine
 10
-12647.45363236268
 20
6517.85666536879
 30
0.0
 11
-12646.65363232468
 21
6517.85666536879
 31
0.0
  0
LINE
  5
1D733
102
{ACAD_REACTORS
330
1D7CA
102
}
330
1F
100
AcDbEntity
  8
02製品
  6
Continuous
100
AcDbLine
 10
-9303.953582577898
 20
6493.356652971024
 30
0.0
 11
-9308.45373325844
 21
6493.356652971024
 31
0.0
  0
LINE
  5
1D734
102
{ACAD_REACTORS
330
1D7CA
102
}
330
1F
100
AcDbEntity
  8
02製品
  6
Continuous
100
AcDbLine
 10
-9308.45373325844
 20
6493.356652971024
 30
0.0
 11
-9308.45373325844
 21
6525.856681581254
 31
0.0
  0
LINE
  5
1D735
102
{ACAD_REACTORS
330
1D7CA
102
}
330
1F
100
AcDbEntity
  8
02製品
  6
Continuous
100
AcDbLine
 10
-9308.45373325844
 20
6525.856681581254
 30
0.0
 11
-9450.953656964495
 21
6525.856681581254
 31
0.0
  0
LINE
  5
1D736
102
{ACAD_REACTORS
330
1D7CA
102
}
330
1F
100
AcDbEntity
  8
02製品
  6
Continuous
100
AcDbLine
 10
-9450.953656964495
 20
6525.856681581254
 30
0.0
 11
-9450.953656964495
 21
6530.356653447861
 31
0.0
  0
LINE
  5
1D737
102
{ACAD_REACTORS
330
1D7CA
102
}
330
1F
100
AcDbEntity
  8
02製品
  6
Continuous
100
AcDbLine
 10
-9303.953582577898
 20
6530.356653447861
 30
0.0
 11
-9303.953582577898
 21
6493.356652971024
 31
0.0
  0
LINE
  5
1D738
102
{ACAD_REACTORS
330
1D7CA
102
}
330
1F
100
AcDbEntity
  8
02製品
  6
Continuous
100
AcDbLine
 10
-9450.953656964495
 20
6530.356653447861
 30
0.0
 11
-9303.953582577898
 21
6530.356653447861
 31
0.0
  0
LINE
  5
1D739
102
{ACAD_REACTORS
330
1D7CA
102
}
330
1F
100
AcDbEntity
  8
02製品
  6
Continuous
100
AcDbLine
 10
-9453.95367794533
 20
6530.356653447861
 30
0.0
 11
-9453.95367794533
 21
6525.856681581254
 31
0.0
  0
LINE
  5
1D73A
102
{ACAD_REACTORS
330
1D7CA
102
}
330
1F
100
AcDbEntity
  8
02製品
  6
Continuous
100
AcDbLine
 10
-9453.95367794533
 20
6525.856681581254
 30
0.0
 11
-9450.953656964495
 21
6525.856681581254
 31
0.0
  0
LINE
  5
1D73B
102
{ACAD_REACTORS
330
1D7CA
102
}
330
1F
100
AcDbEntity
  8
02製品
  6
Continuous
100
AcDbLine
 10
-9450.953656964495
 20
6530.356653447861
 30
0.0
 11
-9453.95367794533
 21
6530.356653447861
 31
0.0
  0
LINE
  5
1D73C
102
{ACAD_REACTORS
330
1D7CA
102
}
330
1F
100
AcDbEntity
  8
02製品
  6
Continuous
100
AcDbLine
 10
-9308.45373325844
 20
6490.356631990189
 30
0.0
 11
-9303.953582577898
 21
6490.356631990189
 31
0.0
  0
LINE
  5
1D73D
102
{ACAD_REACTORS
330
1D7CA
102
}
330
1F
100
AcDbEntity
  8
02製品
  6
Continuous
100
AcDbLine
 10
-9308.45373325844
 20
6493.356652971024
 30
0.0
 11
-9308.45373325844
 21
6490.356631990189
 31
0.0
  0
LINE
  5
1D73E
102
{ACAD_REACTORS
330
1D7CA
102
}
330
1F
100
AcDbEntity
  8
02製品
  6
Continuous
100
AcDbLine
 10
-9303.953582577898
 20
6490.356631990189
 30
0.0
 11
-9303.953582577898
 21
6493.356652971024
 31
0.0
  0
LINE
  5
1D73F
102
{ACAD_REACTORS
330
1D7CA
102
}
330
1F
100
AcDbEntity
  8
02製品
  6
Continuous
100
AcDbLine
 10
-9318.953687482073
 20
6525.856681581254
 30
0.0
 11
-9318.153793149188
 21
6525.056668039078
 31
0.0
  0
LINE
  5
1D740
102
{ACAD_REACTORS
330
1D7CA
102
}
330
1F
100
AcDbEntity
  8
02製品
  6
Continuous
100
AcDbLine
 10
-12647.45363236268
 20
5574.356660660023
 30
0.0
 11
-12651.95363216896
 21
5574.356660660023
 31
0.0
  0
LINE
  5
1D741
102
{ACAD_REACTORS
330
1D7CA
102
}
330
1F
100
AcDbEntity
  8
02製品
  6
Continuous
100
AcDbLine
 10
-12651.95363216896
 20
5571.35666203093
 30
0.0
 11
-12647.45363236268
 21
5571.35666203093
 31
0.0
  0
LINE
  5
1D742
102
{ACAD_REACTORS
330
1D7CA
102
}
330
1F
100
AcDbEntity
  8
02製品
  6
Continuous
100
AcDbLine
 10
-12647.45363236268
 20
5571.35666203093
 30
0.0
 11
-12647.45363236268
 21
5574.356660660023
 31
0.0
  0
LINE
  5
1D743
102
{ACAD_REACTORS
330
1D7CA
102
}
330
1F
100
AcDbEntity
  8
02製品
  6
Continuous
100
AcDbLine
 10
-12651.95363216896
 20
5574.356660660023
 30
0.0
 11
-12651.95363216896
 21
5571.35666203093
 31
0.0
  0
LINE
  5
1D744
102
{ACAD_REACTORS
330
1D7CA
102
}
330
1F
100
AcDbEntity
  8
02製品
  6
Continuous
100
AcDbLine
 10
-12647.45363236268
 20
5538.856661360378
 30
0.0
 11
-12504.95363228817
 21
5538.856661360378
 31
0.0
  0
LINE
  5
1D745
102
{ACAD_REACTORS
330
1D7CA
102
}
330
1F
100
AcDbEntity
  8
02製品
  6
Continuous
100
AcDbLine
 10
-12504.95363228817
 20
5538.856661360378
 30
0.0
 11
-12504.95363228817
 21
5534.356661554093
 31
0.0
  0
LINE
  5
1D746
102
{ACAD_REACTORS
330
1D7CA
102
}
330
1F
100
AcDbEntity
  8
02製品
  6
Continuous
100
AcDbLine
 10
-12504.95363228817
 20
5534.356661554093
 30
0.0
 11
-12651.95363216896
 21
5534.356661554093
 31
0.0
  0
LINE
  5
1D747
102
{ACAD_REACTORS
330
1D7CA
102
}
330
1F
100
AcDbEntity
  8
02製品
  6
Continuous
100
AcDbLine
 10
-12647.45363236268
 20
5571.35666203093
 30
0.0
 11
-12647.45363236268
 21
5538.856661360378
 31
0.0
  0
LINE
  5
1D748
102
{ACAD_REACTORS
330
1D7CA
102
}
330
1F
100
AcDbEntity
  8
02製品
  6
Continuous
100
AcDbLine
 10
-12651.95363216896
 20
5534.356661554093
 30
0.0
 11
-12651.95363216896
 21
5571.35666203093
 31
0.0
  0
LINE
  5
1D749
102
{ACAD_REACTORS
330
1D7CA
102
}
330
1F
100
AcDbEntity
  8
02製品
  6
Continuous
100
AcDbLine
 10
-12501.9536262085
 20
5534.356661554093
 30
0.0
 11
-12501.9536262085
 21
5538.856661360378
 31
0.0
  0
LINE
  5
1D74A
102
{ACAD_REACTORS
330
1D7CA
102
}
330
1F
100
AcDbEntity
  8
02製品
  6
Continuous
100
AcDbLine
 10
-12504.95363228817
 20
5534.356661554093
 30
0.0
 11
-12501.9536262085
 21
5534.356661554093
 31
0.0
  0
LINE
  5
1D74B
102
{ACAD_REACTORS
330
1D7CA
102
}
330
1F
100
AcDbEntity
  8
02製品
  6
Continuous
100
AcDbLine
 10
-12501.9536262085
 20
5538.856661360378
 30
0.0
 11
-12504.95363228817
 21
5538.856661360378
 31
0.0
  0
LINE
  5
1D74C
102
{ACAD_REACTORS
330
1D7CA
102
}
330
1F
100
AcDbEntity
  8
02製品
  6
Continuous
100
AcDbLine
 10
-12636.9535319214
 20
5538.856661360378
 30
0.0
 11
-12637.75353242506
 21
5539.656661398376
 31
0.0
  0
LINE
  5
1D74D
102
{ACAD_REACTORS
330
1D7CA
102
}
330
1F
100
AcDbEntity
  8
02製品
  6
Continuous
100
AcDbLine
 10
-9303.953582577898
 20
5571.35666203093
 30
0.0
 11
-9308.45373325844
 21
5571.35666203093
 31
0.0
  0
LINE
  5
1D74E
102
{ACAD_REACTORS
330
1D7CA
102
}
330
1F
100
AcDbEntity
  8
02製品
  6
Continuous
100
AcDbLine
 10
-9308.45373325844
 20
5574.356660660023
 30
0.0
 11
-9303.953582577898
 21
5574.356660660023
 31
0.0
  0
LINE
  5
1D74F
102
{ACAD_REACTORS
330
1D7CA
102
}
330
1F
100
AcDbEntity
  8
02製品
  6
Continuous
100
AcDbLine
 10
-9303.953582577898
 20
5574.356660660023
 30
0.0
 11
-9303.953582577898
 21
5571.35666203093
 31
0.0
  0
LINE
  5
1D750
102
{ACAD_REACTORS
330
1D7CA
102
}
330
1F
100
AcDbEntity
  8
02製品
  6
Continuous
100
AcDbLine
 10
-9308.45373325844
 20
5571.35666203093
 30
0.0
 11
-9308.45373325844
 21
5574.356660660023
 31
0.0
  0
LINE
  5
1D751
102
{ACAD_REACTORS
330
1D7CA
102
}
330
1F
100
AcDbEntity
  8
02製品
  6
Continuous
100
AcDbLine
 10
-9450.953656964495
 20
5534.356661554093
 30
0.0
 11
-9303.953582577898
 21
5534.356661554093
 31
0.0
  0
LINE
  5
1D752
102
{ACAD_REACTORS
330
1D7CA
102
}
330
1F
100
AcDbEntity
  8
02製品
  6
Continuous
100
AcDbLine
 10
-9450.953656964495
 20
5538.856661360378
 30
0.0
 11
-9450.953656964495
 21
5534.356661554093
 31
0.0
  0
LINE
  5
1D753
102
{ACAD_REACTORS
330
1D7CA
102
}
330
1F
100
AcDbEntity
  8
02製品
  6
Continuous
100
AcDbLine
 10
-9308.45373325844
 20
5538.856661360378
 30
0.0
 11
-9450.953656964495
 21
5538.856661360378
 31
0.0
  0
LINE
  5
1D754
102
{ACAD_REACTORS
330
1D7CA
102
}
330
1F
100
AcDbEntity
  8
02製品
  6
Continuous
100
AcDbLine
 10
-9303.953582577898
 20
5534.356661554093
 30
0.0
 11
-9303.953582577898
 21
5571.35666203093
 31
0.0
  0
LINE
  5
1D755
102
{ACAD_REACTORS
330
1D7CA
102
}
330
1F
100
AcDbEntity
  8
02製品
  6
Continuous
100
AcDbLine
 10
-9308.45373325844
 20
5571.35666203093
 30
0.0
 11
-9308.45373325844
 21
5538.856661360378
 31
0.0
  0
LINE
  5
1D756
102
{ACAD_REACTORS
330
1D7CA
102
}
330
1F
100
AcDbEntity
  8
02製品
  6
Continuous
100
AcDbLine
 10
-9450.953656964495
 20
5534.356661554093
 30
0.0
 11
-9453.95367794533
 21
5534.356661554093
 31
0.0
  0
LINE
  5
1D757
102
{ACAD_REACTORS
330
1D7CA
102
}
330
1F
100
AcDbEntity
  8
02製品
  6
Continuous
100
AcDbLine
 10
-9453.95367794533
 20
5534.356661554093
 30
0.0
 11
-9453.95367794533
 21
5538.856661360378
 31
0.0
  0
LINE
  5
1D758
102
{ACAD_REACTORS
330
1D7CA
102
}
330
1F
100
AcDbEntity
  8
02製品
  6
Continuous
100
AcDbLine
 10
-9453.95367794533
 20
5538.856661360378
 30
0.0
 11
-9450.953656964495
 21
5538.856661360378
 31
0.0
  0
LINE
  5
1D759
102
{ACAD_REACTORS
330
1D7CA
102
}
330
1F
100
AcDbEntity
  8
02製品
  6
Continuous
100
AcDbLine
 10
-9318.953687482073
 20
5538.856661360378
 30
0.0
 11
-9318.153793149188
 21
5539.656661398376
 31
0.0
  0
LINE
  5
1D75A
102
{ACAD_REACTORS
330
1D7CA
102
}
330
1F
100
AcDbEntity
  8
02製品
  6
Continuous
100
AcDbLine
 10
-12504.95363228817
 20
6525.856681581254
 30
0.0
 11
-12504.95363228817
 21
6530.356653447861
 31
0.0
  0
LINE
  5
1D75B
102
{ACAD_REACTORS
330
1D7CA
102
}
330
1F
100
AcDbEntity
  8
02製品
  6
Continuous
100
AcDbLine
 10
-12504.95363228817
 20
6530.356653447861
 30
0.0
 11
-12501.9536262085
 21
6530.356653447861
 31
0.0
  0
LINE
  5
1D75C
102
{ACAD_REACTORS
330
1D7CA
102
}
330
1F
100
AcDbEntity
  8
02製品
  6
Continuous
100
AcDbLine
 10
-12501.9536262085
 20
6530.356653447861
 30
0.0
 11
-12501.9536262085
 21
6525.856681581254
 31
0.0
  0
LINE
  5
1D75D
102
{ACAD_REACTORS
330
1D7CA
102
}
330
1F
100
AcDbEntity
  8
02製品
  6
Continuous
100
AcDbLine
 10
-12501.9536262085
 20
6525.856681581254
 30
0.0
 11
-12504.95363228817
 21
6525.856681581254
 31
0.0
  0
LINE
  5
1D75E
102
{ACAD_REACTORS
330
1D7CA
102
}
330
1F
100
AcDbEntity
  8
02製品
  6
Continuous
100
AcDbLine
 10
-12504.95363228817
 20
6530.356653447861
 30
0.0
 11
-12651.95363216896
 21
6530.356653447861
 31
0.0
  0
LINE
  5
1D75F
102
{ACAD_REACTORS
330
1D7CA
102
}
330
1F
100
AcDbEntity
  8
02製品
  6
Continuous
100
AcDbLine
 10
-12647.45363236268
 20
6525.856681581254
 30
0.0
 11
-12504.95363228817
 21
6525.856681581254
 31
0.0
  0
LINE
  5
1D760
102
{ACAD_REACTORS
330
1D7CA
102
}
330
1F
100
AcDbEntity
  8
02製品
  6
Continuous
100
AcDbLine
 10
-12647.45363236268
 20
6493.356652971024
 30
0.0
 11
-12647.45363236268
 21
6525.856681581254
 31
0.0
  0
LINE
  5
1D761
102
{ACAD_REACTORS
330
1D7CA
102
}
330
1F
100
AcDbEntity
  8
02製品
  6
Continuous
100
AcDbLine
 10
-12651.95363216896
 20
6493.356652971024
 30
0.0
 11
-12647.45363236268
 21
6493.356652971024
 31
0.0
  0
LINE
  5
1D762
102
{ACAD_REACTORS
330
1D7CA
102
}
330
1F
100
AcDbEntity
  8
02製品
  6
Continuous
100
AcDbLine
 10
-12651.95363216896
 20
6530.356653447861
 30
0.0
 11
-12651.95363216896
 21
6493.356652971024
 31
0.0
  0
LINE
  5
1D763
102
{ACAD_REACTORS
330
1D7CA
102
}
330
1F
100
AcDbEntity
  8
02製品
  6
Continuous
100
AcDbLine
 10
-12647.45363236268
 20
6490.356631990189
 30
0.0
 11
-12651.95363216896
 21
6490.356631990189
 31
0.0
  0
LINE
  5
1D764
102
{ACAD_REACTORS
330
1D7CA
102
}
330
1F
100
AcDbEntity
  8
02製品
  6
Continuous
100
AcDbLine
 10
-12647.45363236268
 20
6493.356652971024
 30
0.0
 11
-12647.45363236268
 21
6490.356631990189
 31
0.0
  0
LINE
  5
1D765
102
{ACAD_REACTORS
330
1D7CA
102
}
330
1F
100
AcDbEntity
  8
02製品
  6
Continuous
100
AcDbLine
 10
-12651.95363216896
 20
6490.356631990189
 30
0.0
 11
-12651.95363216896
 21
6493.356652971024
 31
0.0
  0
LINE
  5
1D766
102
{ACAD_REACTORS
330
1D7CA
102
}
330
1F
100
AcDbEntity
  8
02製品
  6
Continuous
100
AcDbLine
 10
-12636.9535319214
 20
6525.856681581254
 30
0.0
 11
-12637.75353242506
 21
6525.056668039078
 31
0.0
  0
LINE
  5
1D767
102
{ACAD_REACTORS
330
1D7CA
102
}
330
1F
100
AcDbEntity
  8
02製品
  6
Continuous
100
AcDbLine
 10
-9349.253589444354
 20
5579.656660969968
 30
0.0
 11
-9309.253627591326
 21
5579.656660969968
 31
0.0
  0
LINE
  5
1D768
102
{ACAD_REACTORS
330
1D7CA
102
}
330
1F
100
AcDbEntity
  8
02製品
  6
Continuous
100
AcDbLine
 10
-9349.253589444354
 20
5579.656660969968
 30
0.0
 11
-9349.253589444354
 21
6485.056646581406
 31
0.0
  0
LINE
  5
1D769
102
{ACAD_REACTORS
330
1D7CA
102
}
330
1F
100
AcDbEntity
  8
02製品
  6
Continuous
100
AcDbLine
 10
-9349.253589444354
 20
6485.056646581406
 30
0.0
 11
-9309.253627591326
 21
6485.056646581406
 31
0.0
  0
LINE
  5
1D76A
102
{ACAD_REACTORS
330
1D7CA
102
}
330
1F
100
AcDbEntity
  8
02製品
  6
Continuous
100
AcDbLine
 10
-9309.253627591326
 20
5579.656660969968
 30
0.0
 11
-9309.253627591326
 21
6485.056646581406
 31
0.0
  0
LINE
  5
1D76B
102
{ACAD_REACTORS
330
1D7CA
102
}
330
1F
100
AcDbEntity
  8
02製品
  6
Continuous
100
AcDbLine
 10
-12606.65363275309
 20
6485.056646581406
 30
0.0
 11
-12646.65363232468
 21
6485.056646581406
 31
0.0
  0
LINE
  5
1D76C
102
{ACAD_REACTORS
330
1D7CA
102
}
330
1F
100
AcDbEntity
  8
02製品
  6
Continuous
100
AcDbLine
 10
-12606.65363275309
 20
6485.056646581406
 30
0.0
 11
-12606.65363275309
 21
5579.656660969968
 31
0.0
  0
LINE
  5
1D76D
102
{ACAD_REACTORS
330
1D7CA
102
}
330
1F
100
AcDbEntity
  8
02製品
  6
Continuous
100
AcDbLine
 10
-12606.65363275309
 20
5579.656660969968
 30
0.0
 11
-12646.65363232468
 21
5579.656660969968
 31
0.0
  0
LINE
  5
1D76E
102
{ACAD_REACTORS
330
1D7CA
102
}
330
1F
100
AcDbEntity
  8
02製品
  6
Continuous
100
AcDbLine
 10
-12646.65363232468
 20
6485.056646581406
 30
0.0
 11
-12646.65363232468
 21
5579.656660969968
 31
0.0
  0
LINE
  5
1D76F
102
{ACAD_REACTORS
330
1D7CA
102
}
330
1F
100
AcDbEntity
  8
02製品
  6
Continuous
100
AcDbLine
 10
-9309.253627591326
 20
6525.056668039078
 30
0.0
 11
-10414.95364361305
 21
6525.056668039078
 31
0.0
  0
LINE
  5
1D770
102
{ACAD_REACTORS
330
1D7CA
102
}
330
1F
100
AcDbEntity
  8
02製品
  6
Continuous
100
AcDbLine
 10
-9309.253627591326
 20
6485.056646581406
 30
0.0
 11
-9309.253627591326
 21
6525.056668039078
 31
0.0
  0
LINE
  5
1D771
102
{ACAD_REACTORS
330
1D7CA
102
}
330
1F
100
AcDbEntity
  8
02製品
  6
Continuous
100
AcDbLine
 10
-9309.253627591326
 20
6485.056646581406
 30
0.0
 11
-10414.95364361305
 21
6485.056646581406
 31
0.0
  0
LINE
  5
1D772
102
{ACAD_REACTORS
330
1D7CA
102
}
330
1F
100
AcDbEntity
  8
02製品
  6
Continuous
100
AcDbLine
 10
-10414.95364361305
 20
6485.056646581406
 30
0.0
 11
-10414.95364361305
 21
6525.056668039078
 31
0.0
  0
LINE
  5
1D773
102
{ACAD_REACTORS
330
1D7CA
102
}
330
1F
100
AcDbEntity
  8
02製品
  6
Continuous
100
AcDbLine
 10
-12646.65363232468
 20
5539.656661398376
 30
0.0
 11
-11540.9536903431
 21
5539.656661398376
 31
0.0
  0
LINE
  5
1D774
102
{ACAD_REACTORS
330
1D7CA
102
}
330
1F
100
AcDbEntity
  8
02製品
  6
Continuous
100
AcDbLine
 10
-11540.9536903431
 20
5579.656660969968
 30
0.0
 11
-11540.9536903431
 21
5539.656661398376
 31
0.0
  0
LINE
  5
1D775
102
{ACAD_REACTORS
330
1D7CA
102
}
330
1F
100
AcDbEntity
  8
02製品
  6
Continuous
100
AcDbLine
 10
-12646.65363232468
 20
5579.656660969968
 30
0.0
 11
-12646.65363232468
 21
5539.656661398376
 31
0.0
  0
LINE
  5
1D776
102
{ACAD_REACTORS
330
1D7CA
102
}
330
1F
100
AcDbEntity
  8
02製品
  6
Continuous
100
AcDbLine
 10
-12646.65363232468
 20
5579.656660969968
 30
0.0
 11
-11540.9536903431
 21
5579.656660969968
 31
0.0
  0
LINE
  5
1D777
102
{ACAD_REACTORS
330
1D7CA
102
}
330
1F
100
AcDbEntity
  8
02製品
  6
Continuous
100
AcDbLine
 10
-12646.65363232468
 20
6485.056646581406
 30
0.0
 11
-11540.9536903431
 21
6485.056646581406
 31
0.0
  0
LINE
  5
1D778
102
{ACAD_REACTORS
330
1D7CA
102
}
330
1F
100
AcDbEntity
  8
02製品
  6
Continuous
100
AcDbLine
 10
-11540.9536903431
 20
6485.056646581406
 30
0.0
 11
-11540.9536903431
 21
6525.056668039078
 31
0.0
  0
LINE
  5
1D779
102
{ACAD_REACTORS
330
1D7CA
102
}
330
1F
100
AcDbEntity
  8
02製品
  6
Continuous
100
AcDbLine
 10
-12646.65363232468
 20
6485.056646581406
 30
0.0
 11
-12646.65363232468
 21
6525.056668039078
 31
0.0
  0
LINE
  5
1D77A
102
{ACAD_REACTORS
330
1D7CA
102
}
330
1F
100
AcDbEntity
  8
02製品
  6
Continuous
100
AcDbLine
 10
-12646.65363232468
 20
6525.056668039078
 30
0.0
 11
-11540.9536903431
 21
6525.056668039078
 31
0.0
  0
LINE
  5
1D77B
102
{ACAD_REACTORS
330
1D7CA
102
}
330
1F
100
AcDbEntity
  8
02製品
  6
Continuous
100
AcDbLine
 10
-9309.253627591326
 20
5579.656660969968
 30
0.0
 11
-10414.95364361305
 21
5579.656660969968
 31
0.0
  0
LINE
  5
1D77C
102
{ACAD_REACTORS
330
1D7CA
102
}
330
1F
100
AcDbEntity
  8
02製品
  6
Continuous
100
AcDbLine
 10
-9309.253627591326
 20
5579.656660969968
 30
0.0
 11
-9309.253627591326
 21
5539.656661398376
 31
0.0
  0
LINE
  5
1D77D
102
{ACAD_REACTORS
330
1D7CA
102
}
330
1F
100
AcDbEntity
  8
02製品
  6
Continuous
100
AcDbLine
 10
-9309.253627591326
 20
5539.656661398376
 30
0.0
 11
-10414.95364361305
 21
5539.656661398376
 31
0.0
  0
LINE
  5
1D77E
102
{ACAD_REACTORS
330
1D7CA
102
}
330
1F
100
AcDbEntity
  8
02製品
  6
Continuous
100
AcDbLine
 10
-10414.95364361305
 20
5579.656660969968
 30
0.0
 11
-10414.95364361305
 21
5539.656661398376
 31
0.0
  0
LINE
  5
1D77F
102
{ACAD_REACTORS
330
1D7CA
102
}
330
1F
100
AcDbEntity
  8
02製品
  6
Continuous
100
AcDbLine
 10
-10992.95359306832
 20
5579.656660969968
 30
0.0
 11
-10992.95359306832
 21
6485.056646581406
 31
0.0
  0
LINE
  5
1D780
102
{ACAD_REACTORS
330
1D7CA
102
}
330
1F
100
AcDbEntity
  8
02製品
  6
Continuous
100
AcDbLine
 10
-10962.95362167855
 20
5579.656660969968
 30
0.0
 11
-10962.95362167855
 21
6485.056646581406
 31
0.0
  0
LINE
  5
1D781
102
{ACAD_REACTORS
330
1D7CA
102
}
330
1F
100
AcDbEntity
  8
02製品
  6
Continuous
100
AcDbLine
 10
-9877.103740506365
 20
5579.656660969968
 30
0.0
 11
-9877.103740506365
 21
6485.056646581406
 31
0.0
  0
LINE
  5
1D782
102
{ACAD_REACTORS
330
1D7CA
102
}
330
1F
100
AcDbEntity
  8
02製品
  6
Continuous
100
AcDbLine
 10
-9847.103530698016
 20
5579.656660969968
 30
0.0
 11
-9847.103530698016
 21
6485.056646581406
 31
0.0
  0
LINE
  5
1D783
102
{ACAD_REACTORS
330
1D7CA
102
}
330
1F
100
AcDbEntity
  8
02製品
  6
Continuous
100
AcDbLine
 10
-12078.80365305443
 20
6485.056646581406
 30
0.0
 11
-12078.80365305443
 21
5579.656660969968
 31
0.0
  0
LINE
  5
1D784
102
{ACAD_REACTORS
330
1D7CA
102
}
330
1F
100
AcDbEntity
  8
02製品
  6
Continuous
100
AcDbLine
 10
-12108.8036244442
 20
6485.056646581406
 30
0.0
 11
-12108.8036244442
 21
5579.656660969968
 31
0.0
  0
LINE
  5
1D785
102
{ACAD_REACTORS
330
1D7CA
102
}
330
1F
100
AcDbEntity
  8
02製品
  6
Continuous
100
AcDbLine
 10
-10374.95368176003
 20
6485.056646581406
 30
0.0
 11
-10414.95364361305
 21
6485.056646581406
 31
0.0
  0
LINE
  5
1D786
102
{ACAD_REACTORS
330
1D7CA
102
}
330
1F
100
AcDbEntity
  8
02製品
  6
Continuous
100
AcDbLine
 10
-10374.95368176003
 20
6485.056646581406
 30
0.0
 11
-10374.95368176003
 21
5579.656660969968
 31
0.0
  0
LINE
  5
1D787
102
{ACAD_REACTORS
330
1D7CA
102
}
330
1F
100
AcDbEntity
  8
02製品
  6
Continuous
100
AcDbLine
 10
-10374.95368176003
 20
5579.656660969968
 30
0.0
 11
-10414.95364361305
 21
5579.656660969968
 31
0.0
  0
LINE
  5
1D788
102
{ACAD_REACTORS
330
1D7CA
102
}
330
1F
100
AcDbEntity
  8
02製品
  6
Continuous
100
AcDbLine
 10
-10414.95364361305
 20
6485.056646581406
 30
0.0
 11
-10414.95364361305
 21
5579.656660969968
 31
0.0
  0
LINE
  5
1D789
102
{ACAD_REACTORS
330
1D7CA
102
}
330
1F
100
AcDbEntity
  8
02製品
  6
Continuous
100
AcDbLine
 10
-11580.95365219612
 20
5579.656660969968
 30
0.0
 11
-11540.9536903431
 21
5579.656660969968
 31
0.0
  0
LINE
  5
1D78A
102
{ACAD_REACTORS
330
1D7CA
102
}
330
1F
100
AcDbEntity
  8
02製品
  6
Continuous
100
AcDbLine
 10
-11580.95365219612
 20
5579.656660969968
 30
0.0
 11
-11580.95365219612
 21
6485.056646581406
 31
0.0
  0
LINE
  5
1D78B
102
{ACAD_REACTORS
330
1D7CA
102
}
330
1F
100
AcDbEntity
  8
02製品
  6
Continuous
100
AcDbLine
 10
-11580.95365219612
 20
6485.056646581406
 30
0.0
 11
-11540.9536903431
 21
6485.056646581406
 31
0.0
  0
LINE
  5
1D78C
102
{ACAD_REACTORS
330
1D7CA
102
}
330
1F
100
AcDbEntity
  8
02製品
  6
Continuous
100
AcDbLine
 10
-11540.9536903431
 20
5579.656660969968
 30
0.0
 11
-11540.9536903431
 21
6485.056646581406
 31
0.0
  0
LINE
  5
1D78D
102
{ACAD_REACTORS
330
1D7CA
102
}
330
1F
100
AcDbEntity
  8
02製品
  6
Continuous
100
AcDbLine
 10
-11500.95360928078
 20
6485.056646581406
 30
0.0
 11
-11540.9536903431
 21
6485.056646581406
 31
0.0
  0
LINE
  5
1D78E
102
{ACAD_REACTORS
330
1D7CA
102
}
330
1F
100
AcDbEntity
  8
02製品
  6
Continuous
100
AcDbLine
 10
-11500.95360928078
 20
6485.056646581406
 30
0.0
 11
-11500.95360928078
 21
5579.656660969968
 31
0.0
  0
LINE
  5
1D78F
102
{ACAD_REACTORS
330
1D7CA
102
}
330
1F
100
AcDbEntity
  8
02製品
  6
Continuous
100
AcDbLine
 10
-11500.95360928078
 20
5579.656660969968
 30
0.0
 11
-11540.9536903431
 21
5579.656660969968
 31
0.0
  0
LINE
  5
1D790
102
{ACAD_REACTORS
330
1D7CA
102
}
330
1F
100
AcDbEntity
  8
02製品
  6
Continuous
100
AcDbLine
 10
-10454.95360546608
 20
5579.656660969968
 30
0.0
 11
-10414.95364361305
 21
5579.656660969968
 31
0.0
  0
LINE
  5
1D791
102
{ACAD_REACTORS
330
1D7CA
102
}
330
1F
100
AcDbEntity
  8
02製品
  6
Continuous
100
AcDbLine
 10
-10454.95360546608
 20
5579.656660969968
 30
0.0
 11
-10454.95360546608
 21
6485.056646581406
 31
0.0
  0
LINE
  5
1D792
102
{ACAD_REACTORS
330
1D7CA
102
}
330
1F
100
AcDbEntity
  8
02製品
  6
Continuous
100
AcDbLine
 10
-10454.95360546608
 20
6485.056646581406
 30
0.0
 11
-10414.95364361305
 21
6485.056646581406
 31
0.0
  0
LINE
  5
1D793
102
{ACAD_REACTORS
330
1D7CA
102
}
330
1F
100
AcDbEntity
  8
02製品
  6
Continuous
100
AcDbLine
 10
-10414.95364361305
 20
5539.656661398376
 30
0.0
 11
-11540.9536903431
 21
5539.656661398376
 31
0.0
  0
LINE
  5
1D794
102
{ACAD_REACTORS
330
1D7CA
102
}
330
1F
100
AcDbEntity
  8
02製品
  6
Continuous
100
AcDbLine
 10
-10414.95364361305
 20
5579.656660969968
 30
0.0
 11
-11540.9536903431
 21
5579.656660969968
 31
0.0
  0
LINE
  5
1D795
102
{ACAD_REACTORS
330
1D7CA
102
}
330
1F
100
AcDbEntity
  8
02製品
  6
Continuous
100
AcDbLine
 10
-11540.9536903431
 20
6485.056646581406
 30
0.0
 11
-10414.95364361305
 21
6485.056646581406
 31
0.0
  0
LINE
  5
1D796
102
{ACAD_REACTORS
330
1D7CA
102
}
330
1F
100
AcDbEntity
  8
02製品
  6
Continuous
100
AcDbLine
 10
-11540.9536903431
 20
6525.056668039078
 30
0.0
 11
-10414.95364361305
 21
6525.056668039078
 31
0.0
  0
INSERT
  5
1D797
330
1F
100
AcDbEntity
  8
02製品
100
AcDbBlockReference
  2
A$C3C7277DA
 10
-12301.85361632998
 20
6485.056644250466
 30
0.0
 50
179.9999999999174
  0
INSERT
  5
1D798
330
1F
100
AcDbEntity
  8
02製品
100
AcDbBlockReference
  2
A$C3C7277DA
 10
-11196.15359285767
 20
6485.056644250466
 30
0.0
 50
179.9999999999174
  0
INSERT
  5
1D799
330
1F
100
AcDbEntity
  8
02製品
100
AcDbBlockReference
  2
A$C3C7277DA
 10
-10070.15366533692
 20
6485.056644250466
 30
0.0
 50
179.9999999999174
  0
INSERT
  5
1D79A
330
1F
100
AcDbEntity
  8
02製品
100
AcDbBlockReference
  2
A$C3C7277DA
 10
-11885.75360859736
 20
5579.656671371378
 30
0.0
 50
359.9999999999174
  0
INSERT
  5
1D79B
330
1F
100
AcDbEntity
  8
02製品
100
AcDbBlockReference
  2
A$C3C7277DA
 10
-10759.75356186732
 20
5579.656671371378
 30
0.0
 50
359.9999999999174
  0
INSERT
  5
1D79C
330
1F
100
AcDbEntity
  8
02製品
100
AcDbBlockReference
  2
A$C3C7277DA
 10
-9654.053545845592
 20
5579.656671371378
 30
0.0
 50
359.9999999999174
  0
INSERT
  5
1D79D
330
1F
100
AcDbEntity
  8
02製品
100
AcDbBlockReference
  2
A$C20123
 10
-12243.57185484412
 20
5958.211270928427
 30
0.0
 41
1.5
 42
1.5
 43
1.5
  0
INSERT
  5
1D79E
330
1F
100
AcDbEntity
  8
02製品
100
AcDbBlockReference
  2
A$C20123
 10
-11127.72182346824
 20
5958.211270928427
 30
0.0
 41
1.5
 42
1.5
 43
1.5
  0
INSERT
  5
1D79F
330
1F
100
AcDbEntity
  8
02製品
100
AcDbBlockReference
  2
A$C20123
 10
-10011.87197090629
 20
5958.211270928427
 30
0.0
 41
1.5
 42
1.5
 43
1.5
  0
INSERT
  5
1D7A0
330
1F
100
AcDbEntity
  8
02製品
100
AcDbBlockReference
  2
A$C10914
 10
-9325.753589444357
 20
6537.456586980277
 30
0.0
 41
-1.0
 50
89.99999999999982
  0
INSERT
  5
1D7A1
330
1F
100
AcDbEntity
  8
02製品
100
AcDbBlockReference
  2
A$C10914
 10
-9320.753648572218
 20
6540.656648015434
 30
0.0
 41
-1.0
 50
89.99999999999979
  0
INSERT
  5
1D7A2
330
1F
100
AcDbEntity
  8
02製品
100
AcDbBlockReference
  2
A$C10914
 10
-12630.15357319688
 20
6537.571231307529
 30
0.0
 50
270.0
  0
INSERT
  5
1D7A3
330
1F
100
AcDbEntity
  8
02製品
100
AcDbBlockReference
  2
A$C10914
 10
-12618.15366618012
 20
6540.656707620079
 30
0.0
 41
-1.0
 50
89.99999999999977
  0
INSERT
  5
1D7A4
330
1F
100
AcDbEntity
  8
02製品
100
AcDbBlockReference
  2
A$C10914
 10
-12629.52057737315
 20
5527.256661550577
 30
0.0
 41
-1.0
 50
270.0
  0
INSERT
  5
1D7A5
330
1F
100
AcDbEntity
  8
02製品
100
AcDbBlockReference
  2
A$C10914
 10
-12617.52067035639
 20
5524.056608585894
 30
0.0
 50
90.0000000000002
  0
INSERT
  5
1D7A6
330
1F
100
AcDbEntity
  8
02製品
100
AcDbBlockReference
  2
A$C10914
 10
-9325.753589444357
 20
5527.25665243032
 30
0.0
 50
90.0
  0
INSERT
  5
1D7A7
330
1F
100
AcDbEntity
  8
02製品
100
AcDbBlockReference
  2
A$C10914
 10
-9320.753648572218
 20
5524.056599465634
 30
0.0
 50
90.00000000000018
  0
INSERT
  5
1D7A8
330
1F
100
AcDbEntity
  8
02製品
100
AcDbBlockReference
  2
A$C29410
 10
-8417.07470791343
 20
4506.800459578302
 30
0.0
  0
INSERT
  5
1D7A9
330
1F
100
AcDbEntity
  8
02製品
100
AcDbBlockReference
  2
A$C29410
 10
-7406.874679225388
 20
4506.800459578297
 30
0.0
 41
-1.0
 50
359.9999999999995
  0
INSERT
  5
1D7AA
330
1F
100
AcDbEntity
  8
02製品
100
AcDbBlockReference
  2
A$C10914
 10
-11574.45367794533
 20
6537.456706189563
 30
0.0
 50
270.0
  0
INSERT
  5
1D7AB
330
1F
100
AcDbEntity
  8
02製品
100
AcDbBlockReference
  2
A$C10914
 10
-11552.45377092863
 20
6540.656767224724
 30
0.0
 41
-1.0
 50
89.99999999999977
  0
INSERT
  5
1D7AC
330
1F
100
AcDbEntity
  8
02製品
100
AcDbBlockReference
  2
A$C10914
 10
-11507.45367794533
 20
6537.456706189563
 30
0.0
 41
-1.0
 50
89.99999999999982
  0
INSERT
  5
1D7AD
330
1F
100
AcDbEntity
  8
02製品
100
AcDbBlockReference
  2
A$C10914
 10
-11512.45372419853
 20
6540.656767224724
 30
0.0
 41
-1.0
 50
89.99999999999977
  0
INSERT
  5
1D7AE
330
1F
100
AcDbEntity
  8
02製品
100
AcDbBlockReference
  2
A$C10914
 10
-10448.45363121529
 20
6537.456706189563
 30
0.0
 50
270.0
  0
INSERT
  5
1D7AF
330
1F
100
AcDbEntity
  8
02製品
100
AcDbBlockReference
  2
A$C10914
 10
-10426.45372419859
 20
6540.656767224724
 30
0.0
 41
-1.0
 50
89.99999999999977
  0
INSERT
  5
1D7B0
330
1F
100
AcDbEntity
  8
02製品
100
AcDbBlockReference
  2
A$C10914
 10
-10381.45363121529
 20
6537.456706189563
 30
0.0
 41
-1.0
 50
89.99999999999982
  0
INSERT
  5
1D7B1
330
1F
100
AcDbEntity
  8
02製品
100
AcDbBlockReference
  2
A$C10914
 10
-10386.45367746849
 20
6540.656767224724
 30
0.0
 41
-1.0
 50
89.99999999999977
  0
INSERT
  5
1D7B2
330
1F
100
AcDbEntity
  8
02製品
100
AcDbBlockReference
  2
A$C10914
 10
-11507.45367794533
 20
5527.256652430324
 30
0.0
 50
90.0
  0
INSERT
  5
1D7B3
330
1F
100
AcDbEntity
  8
02製品
100
AcDbBlockReference
  2
A$C10914
 10
-11574.45367794533
 20
5527.256652430324
 30
0.0
 41
-1.0
 50
270.0
  0
INSERT
  5
1D7B4
330
1F
100
AcDbEntity
  8
02製品
100
AcDbBlockReference
  2
A$C10914
 10
-11512.45372419853
 20
5524.056599465634
 30
0.0
 50
90.0000000000002
  0
INSERT
  5
1D7B5
330
1F
100
AcDbEntity
  8
02製品
100
AcDbBlockReference
  2
A$C10914
 10
-11552.45377092863
 20
5524.056599465634
 30
0.0
 50
90.0000000000002
  0
INSERT
  5
1D7B6
330
1F
100
AcDbEntity
  8
02製品
100
AcDbBlockReference
  2
A$C10914
 10
-10381.45363121529
 20
5527.256652430324
 30
0.0
 50
90.0
  0
INSERT
  5
1D7B7
330
1F
100
AcDbEntity
  8
02製品
100
AcDbBlockReference
  2
A$C10914
 10
-10448.45363121529
 20
5527.256652430324
 30
0.0
 41
-1.0
 50
270.0
  0
INSERT
  5
1D7B8
330
1F
100
AcDbEntity
  8
02製品
100
AcDbBlockReference
  2
A$C10914
 10
-10386.45367746849
 20
5524.056599465634
 30
0.0
 50
90.0000000000002
  0
INSERT
  5
1D7B9
330
1F
100
AcDbEntity
  8
02製品
100
AcDbBlockReference
  2
A$C10914
 10
-10426.45372419859
 20
5524.056599465634
 30
0.0
 50
90.0000000000002
  0
INSERT
  5
1D7C3
330
1F
100
AcDbEntity
  8
02製品
100
AcDbBlockReference
  2
A$C29410
 10
-8420.274707832592
 20
3926.800459578228
 30
0.0
  0
INSERT
  5
1D7C4
330
1F
100
AcDbEntity
  8
02製品
100
AcDbBlockReference
  2
A$C29410
 10
-7403.67467860774
 20
3926.800459578222
 30
0.0
 41
-1.0
 50
359.9999999999995
  0
ENDSEC
  0
SECTION
  2
OBJECTS
  0
DICTIONARY
  5
C
330
0
100
AcDbDictionary
281
     1
  3
ACAD_DETAILVIEWSTYLE
350
ADAF
  3
ACAD_GROUP
350
D
  3
ACAD_IMAGE_VARS
350
6A88
  3
ACAD_LAYOUT
350
1A
  3
ACAD_MLINESTYLE
350
17
  3
ACAD_PLOTSETTINGS
350
19
  3
ACAD_PLOTSTYLENAME
350
E
  3
ACAD_SCALELIST
350
6A4E
  3
ACAD_SECTIONVIEWSTYLE
350
ADB0
  3
AcadDim
350
813A
  3
AcDbVariableDictionary
350
79E
  3
AEC_DISP_REPS
350
8259
  3
AEC_DISPLAY_PROPS_DEFAULTS
350
825B
  3
AEC_VARS
350
8257
  3
APPDATA
350
6A87
  3
DWGPROPS
350
1D869
  0
DICTIONARY
  5
7A6F
330
2
100
AcDbDictionary
280
     1
281
     1
  3
ACAD_LAYERFILTERS
360
A22F
  3
ACAD_LAYERSTATES
360
7A70
  3
ACLYDICTIONARY
360
163AB
  0
DICTIONARY
  5
CBD6
330
1F
100
AcDbDictionary
280
     1
281
     1
  3
ACAD_SORTENTS
360
CBD7
  0
DICTIONARY
  5
152CF
330
152CE
100
AcDbDictionary
280
     1
281
     1
  3
ACAD_SORTENTS
360
152D0
  0
DICTIONARY
  5
1B100
330
1B0D4
100
AcDbDictionary
280
     1
281
     1
  3
ACAD_SORTENTS
360
1B101
  0
DICTIONARY
  5
1CC5C
330
1CC30
100
AcDbDictionary
280
     1
281
     1
  3
ACAD_SORTENTS
360
1CC5D
  0
DICTIONARY
  5
ADAF
102
{ACAD_REACTORS
330
C
102
}
330
C
100
AcDbDictionary
281
     1
  0
DICTIONARY
  5
D
102
{ACAD_REACTORS
330
C
102
}
330
C
100
AcDbDictionary
281
     1
  3
*A1
350
1D7CA
  3
*A2
350
1D7CB
  3
*A3
350
1D7CC
  0
RASTERVARIABLES
  5
6A88
102
{ACAD_REACTORS
330
C
102
}
330
C
100
AcDbRasterVariables
 90
        0
 70
     1
 71
     1
 72
     1
  0
DICTIONARY
  5
1A
102
{ACAD_REACTORS
330
C
102
}
330
C
100
AcDbDictionary
281
     1
  3
Layout1
350
1E
  3
Layout2
350
26
  3
Model
350
22
  0
DICTIONARY
  5
17
102
{ACAD_REACTORS
330
C
102
}
330
C
100
AcDbDictionary
281
     1
  3
Standard
350
18
  0
DICTIONARY
  5
19
102
{ACAD_REACTORS
330
C
102
}
330
C
100
AcDbDictionary
281
     1
  0
ACDBDICTIONARYWDFLT
  5
E
102
{ACAD_REACTORS
330
C
102
}
330
C
100
AcDbDictionary
281
     1
  3
Normal
350
F
100
AcDbDictionaryWithDefault
340
F
  0
DICTIONARY
  5
6A4E
102
{ACAD_REACTORS
330
C
102
}
330
C
100
AcDbDictionary
281
     1
  3
A0
350
6A4F
  3
A1
350
6A50
  3
A2
350
6A51
  3
A3
350
6A52
  3
A4
350
6A53
  3
A5
350
6A54
  3
A6
350
6A55
  3
A7
350
6A56
  3
A8
350
6A57
  3
A9
350
6A58
  3
B0
350
6A59
  3
B1
350
6A5A
  3
B2
350
6A5B
  3
B3
350
6A5C
  3
B4
350
6A5D
  3
B5
350
6A5E
  3
B6
350
6A5F
  3
B7
350
6A60
  3
B8
350
6A61
  3
B9
350
6A62
  3
C0
350
6A63
  3
C1
350
6A64
  3
C2
350
6A65
  3
C3
350
6A66
  3
C4
350
6A67
  3
C5
350
6A68
  3
C6
350
6A69
  3
C7
350
6A6A
  3
C8
350
6A6B
  3
C9
350
6A6C
  3
D0
350
6A6D
  3
D1
350
6A6E
  3
D2
350
6A6F
  0
DICTIONARY
  5
ADB0
102
{ACAD_REACTORS
330
C
102
}
330
C
100
AcDbDictionary
281
     1
  0
XRECORD
  5
813A
102
{ACAD_REACTORS
330
C
102
}
330
C
100
AcDbXrecord
280
     1
340
0
 72
     0
 71
     0
 70
     0
 69
     0
 68
     1
 67
     3
 66
     0
 65
     0
 64
     0
 63
     3
 62
     1
 61
     0
 60
     0
 40
0.0
  0
DICTIONARY
  5
79E
102
{ACAD_REACTORS
330
C
102
}
330
C
100
AcDbDictionary
281
     1
  3
DIMASSOC
350
79F
  3
SORTENTS
350
264F
  0
DICTIONARY
  5
8259
102
{ACAD_REACTORS
330
C
102
}
330
C
100
AcDbDictionary
281
     1
  0
DICTIONARY
  5
825B
102
{ACAD_REACTORS
330
C
102
}
330
C
100
AcDbDictionary
281
     1
  0
DICTIONARY
  5
8257
102
{ACAD_REACTORS
330
C
102
}
330
C
100
AcDbDictionary
281
     1
  0
DICTIONARY
  5
6A87
102
{ACAD_REACTORS
330
C
102
}
330
C
100
AcDbDictionary
281
     1
  0
XRECORD
  5
1D869
102
{ACAD_REACTORS
330
C
102
}
330
C
100
AcDbXrecord
280
     1
  1
DWGPROPS COOKIE
  2

  3

  4

  6

  7

  8
2121
  9

300
=
301
=
302
=
303
=
304
=
305
=
306
=
307
=
308
=
309
=
 40
0.0
 41
2455859.030048461
 42
2458240.059193287
  1

 90
        0
  0
DICTIONARY
  5
A22F
102
{ACAD_REACTORS
330
7A6F
102
}
330
7A6F
100
AcDbDictionary
280
     1
281
     1
  0
DICTIONARY
  5
7A70
102
{ACAD_REACTORS
330
7A6F
102
}
330
7A6F
100
AcDbDictionary
281
     1
  0
DICTIONARY
  5
163AB
102
{ACAD_REACTORS
330
7A6F
102
}
330
7A6F
100
AcDbDictionary
281
     1
1001
ACAD
1000
<All
  0
SORTENTSTABLE
  5
CBD7
102
{ACAD_REACTORS
330
CBD6
102
}
330
CBD6
100
AcDbSortentsTable
330
1F
331
0
  5
98EA
  0
SORTENTSTABLE
  5
152D0
102
{ACAD_REACTORS
330
152CF
102
}
330
152CF
100
AcDbSortentsTable
330
152CE
  0
SORTENTSTABLE
  5
1B101
102
{ACAD_REACTORS
330
1B100
102
}
330
1B100
100
AcDbSortentsTable
330
1B0D4
  0
SORTENTSTABLE
  5
1CC5D
102
{ACAD_REACTORS
330
1CC5C
102
}
330
1CC5C
100
AcDbSortentsTable
330
1CC30
  0
GROUP
  5
1D7CA
102
{ACAD_REACTORS
330
D
102
}
330
D
100
AcDbGroup
300

 70
     1
 71
     1
340
1D68B
340
1D68C
340
1D68D
340
1D68E
340
1D68F
340
1D690
340
1D691
340
1D692
340
1D693
340
1D694
340
1D695
340
1D696
340
1D697
340
1D698
340
1D699
340
1D69A
340
1D69B
340
1D69C
340
1D69D
340
1D69E
340
1D69F
340
1D6A0
340
1D6A1
340
1D6A2
340
1D6A3
340
1D6A4
340
1D6A5
340
1D6A6
340
1D6A7
340
1D6A8
340
1D6A9
340
1D6AA
340
1D6AB
340
1D6AC
340
1D6AD
340
1D6AE
340
1D6AF
340
1D6B0
340
1D6B1
340
1D6B2
340
1D6B3
340
1D6B4
340
1D6B5
340
1D6B6
340
1D6B7
340
1D6B8
340
1D6B9
340
1D6BA
340
1D6BB
340
1D6BC
340
1D6BD
340
1D6BE
340
1D6BF
340
1D6C0
340
1D6C1
340
1D6C2
340
1D6C3
340
1D6C4
340
1D6C5
340
1D6C6
340
1D6C7
340
1D6C8
340
1D6C9
340
1D6CA
340
1D6CB
340
1D6CC
340
1D6CD
340
1D6CE
340
1D6CF
340
1D6D0
340
1D6D1
340
1D6D2
340
1D6D3
340
1D6D4
340
1D6D5
340
1D6D6
340
1D6D7
340
1D6D8
340
1D6D9
340
1D6DA
340
1D6DB
340
1D6DC
340
1D6DD
340
1D6DE
340
1D6DF
340
1D6E0
340
1D6E1
340
1D6E2
340
1D6E3
340
1D6E4
340
1D6E5
340
1D6E6
340
1D6E7
340
1D6E8
340
1D6E9
340
1D6EA
340
1D6EB
340
1D6EC
340
1D6ED
340
1D6EE
340
1D6EF
340
1D6F0
340
1D6F1
340
1D6F2
340
1D6F3
340
1D6F4
340
1D6F5
340
1D6F6
340
1D6F7
340
1D6F8
340
1D6F9
340
1D6FA
340
1D6FB
340
1D6FC
340
1D6FD
340
1D6FE
340
1D6FF
340
1D700
340
1D701
340
1D702
340
1D703
340
1D704
340
1D705
340
1D706
340
1D707
340
1D708
340
1D709
340
1D70A
340
1D70B
340
1D70C
340
1D70D
340
1D70E
340
1D70F
340
1D710
340
1D711
340
1D712
340
1D713
340
1D714
340
1D715
340
1D716
340
1D717
340
1D718
340
1D719
340
1D71A
340
1D71B
340
1D71C
340
1D71D
340
1D71E
340
1D71F
340
1D720
340
1D721
340
1D722
340
1D723
340
1D724
340
1D725
340
1D726
340
1D727
340
1D728
340
1D729
340
1D72A
340
1D72B
340
1D72C
340
1D72D
340
1D72E
340
1D72F
340
1D730
340
1D731
340
1D732
340
1D733
340
1D734
340
1D735
340
1D736
340
1D737
340
1D738
340
1D739
340
1D73A
340
1D73B
340
1D73C
340
1D73D
340
1D73E
340
1D73F
340
1D740
340
1D741
340
1D742
340
1D743
340
1D744
340
1D745
340
1D746
340
1D747
340
1D748
340
1D749
340
1D74A
340
1D74B
340
1D74C
340
1D74D
340
1D74E
340
1D74F
340
1D750
340
1D751
340
1D752
340
1D753
340
1D754
340
1D755
340
1D756
340
1D757
340
1D758
340
1D759
340
1D75A
340
1D75B
340
1D75C
340
1D75D
340
1D75E
340
1D75F
340
1D760
340
1D761
340
1D762
340
1D763
340
1D764
340
1D765
340
1D766
340
1D767
340
1D768
340
1D769
340
1D76A
340
1D76B
340
1D76C
340
1D76D
340
1D76E
340
1D76F
340
1D770
340
1D771
340
1D772
340
1D773
340
1D774
340
1D775
340
1D776
340
1D777
340
1D778
340
1D779
340
1D77A
340
1D77B
340
1D77C
340
1D77D
340
1D77E
340
1D77F
340
1D780
340
1D781
340
1D782
340
1D783
340
1D784
340
1D785
340
1D786
340
1D787
340
1D788
340
1D789
340
1D78A
340
1D78B
340
1D78C
340
1D78D
340
1D78E
340
1D78F
340
1D790
340
1D791
340
1D792
340
1D793
340
1D794
340
1D795
340
1D796
  0
GROUP
  5
1D7CB
102
{ACAD_REACTORS
330
D
102
}
330
D
100
AcDbGroup
300

 70
     1
 71
     1
340
1D637
340
1D638
340
1D639
340
1D63A
340
1D63B
340
1D63C
340
1D63D
340
1D63E
340
1D63F
340
1D640
340
1D641
340
1D642
340
1D643
340
1D644
340
1D645
340
1D646
340
1D647
340
1D648
340
1D649
340
1D64A
340
1D64B
340
1D64C
340
1D64D
340
1D64E
340
1D64F
340
1D650
340
1D651
340
1D652
340
1D653
340
1D654
340
1D655
340
1D656
340
1D657
340
1D658
340
1D659
340
1D65A
340
1D65B
340
1D65C
340
1D65D
340
1D65E
340
1D65F
340
1D660
340
1D661
340
1D662
340
1D663
340
1D664
340
1D665
340
1D666
340
1D667
340
1D668
340
1D669
340
1D66A
340
1D66B
340
1D66C
340
1D66D
340
1D66E
340
1D66F
340
1D670
340
1D671
340
1D672
340
1D673
340
1D674
340
1D675
340
1D676
340
1D677
340
1D678
340
1D679
340
1D67A
340
1D67B
340
1D67C
340
1D67D
340
1D67E
340
1D67F
340
1D680
340
1D681
340
1D682
340
1D683
340
1D684
340
1D685
340
1D686
340
1D687
340
1D688
340
1D689
340
1D68A
  0
GROUP
  5
1D7CC
102
{ACAD_REACTORS
330
D
102
}
330
D
100
AcDbGroup
300

 70
     1
 71
     1
340
1D593
340
1D594
340
1D595
340
1D596
340
1D597
340
1D598
340
1D599
340
1D59A
340
1D59B
340
1D59C
340
1D59D
340
1D59E
340
1D59F
340
1D5A0
340
1D5A1
340
1D5A2
340
1D5A3
340
1D5A4
340
1D5A5
340
1D5A6
340
1D5A7
340
1D5A8
340
1D5A9
340
1D5AA
340
1D5AB
340
1D5AC
340
1D5AD
340
1D5AE
340
1D5AF
340
1D5B0
340
1D5B1
340
1D5B2
340
1D5B3
340
1D5B4
340
1D5B5
340
1D5B6
340
1D5B7
340
1D5B8
340
1D5B9
340
1D5BA
340
1D5BB
340
1D5BC
340
1D5BD
340
1D5BE
340
1D5BF
340
1D5C0
340
1D5C1
340
1D5C2
340
1D5C3
340
1D5C4
340
1D5C5
340
1D5C6
340
1D5C7
340
1D5C8
340
1D5C9
340
1D5CA
340
1D5CB
340
1D5CC
340
1D5CD
340
1D5CE
340
1D5CF
340
1D5D0
340
1D5D1
340
1D5D2
340
1D5D3
340
1D5D4
340
1D5D5
340
1D5D6
340
1D5D7
340
1D5D8
340
1D5D9
340
1D5DA
340
1D5DB
340
1D5DC
340
1D5DD
340
1D5DE
340
1D5DF
340
1D5E0
340
1D5E1
340
1D5E2
340
1D5E3
340
1D5E4
340
1D5E5
340
1D5E6
340
1D5E7
340
1D5E8
340
1D5E9
340
1D5EA
340
1D5EB
340
1D5EC
340
1D5ED
340
1D5EE
340
1D5EF
340
1D5F0
340
1D5F1
340
1D5F2
340
1D5F3
340
1D5F4
340
1D5F5
340
1D5F6
340
1D5F7
340
1D5F8
340
1D5F9
340
1D5FA
340
1D5FB
340
1D5FC
340
1D5FD
340
1D5FE
340
1D5FF
340
1D600
340
1D601
340
1D602
340
1D603
340
1D604
340
1D605
340
1D606
340
1D607
340
1D608
340
1D609
340
1D60A
340
1D60B
340
1D60C
340
1D60D
340
1D60E
340
1D60F
340
1D610
340
1D611
340
1D612
340
1D613
340
1D614
340
1D615
340
1D616
340
1D617
340
1D618
340
1D619
340
1D61A
340
1D61B
340
1D61C
340
1D61D
340
1D61E
340
1D61F
340
1D620
340
1D621
340
1D622
340
1D623
340
1D624
340
1D625
340
1D626
340
1D627
340
1D628
340
1D629
340
1D62A
340
1D62B
340
1D62C
340
1D62D
340
1D62E
340
1D62F
340
1D630
340
1D631
340
1D632
340
1D633
340
1D634
340
1D635
340
1D636
  0
LAYOUT
  5
1E
102
{ACAD_REACTORS
330
1A
102
}
330
1A
100
AcDbPlotSettings
  1

  2

  4

  6

 40
0.0
 41
0.0
 42
0.0
 43
0.0
 44
0.0
 45
0.0
 46
0.0
 47
0.0
 48
0.0
 49
0.0
140
0.0
141
0.0
142
1.0
143
1.0
 70
   688
 72
     0
 73
     0
 74
     5
  7
monochrome.ctb
 75
    16
147
1.0
148
0.0
149
0.0
100
AcDbLayout
  1
Layout1
 70
     1
 71
     1
 10
0.0
 20
0.0
 11
420.0
 21
297.0
 12
0.0
 22
0.0
 32
0.0
 14
1.000000000000000E+20
 24
1.000000000000000E+20
 34
1.000000000000000E+20
 15
-1.000000000000000E+20
 25
-1.000000000000000E+20
 35
-1.000000000000000E+20
146
0.0
 13
0.0
 23
0.0
 33
0.0
 16
1.0
 26
0.0
 36
0.0
 17
0.0
 27
1.0
 37
0.0
 76
     0
330
1B
  0
LAYOUT
  5
26
102
{ACAD_REACTORS
330
1A
102
}
330
1A
100
AcDbPlotSettings
  1

  2

  4

  6

 40
0.0
 41
0.0
 42
0.0
 43
0.0
 44
0.0
 45
0.0
 46
0.0
 47
0.0
 48
0.0
 49
0.0
140
0.0
141
0.0
142
1.0
143
1.0
 70
   688
 72
     0
 73
     0
 74
     5
  7
monochrome.ctb
 75
    16
147
1.0
148
0.0
149
0.0
100
AcDbLayout
  1
Layout2
 70
     1
 71
     2
 10
0.0
 20
0.0
 11
12.0
 21
9.0
 12
0.0
 22
0.0
 32
0.0
 14
0.0
 24
0.0
 34
0.0
 15
0.0
 25
0.0
 35
0.0
146
0.0
 13
0.0
 23
0.0
 33
0.0
 16
1.0
 26
0.0
 36
0.0
 17
0.0
 27
1.0
 37
0.0
 76
     0
330
23
  0
LAYOUT
  5
22
102
{ACAD_REACTORS
330
1A
102
}
330
1A
100
AcDbPlotSettings
  1

  2
none_device
  4
A3
  6

 40
3.174999952316284
 41
3.174999952316284
 42
3.17498779296875
 43
3.17498779296875
 44
297.0318298339844
 45
420.1583251953125
 46
-3.16
 47
-3.1
 48
-90.0
 49
-90.0
140
329.9999999999998
141
207.0
142
1.0
143
1.0
 70
 11940
 72
     1
 73
     1
 74
     4
  7
monochrome.ctb
 75
     0
147
1.0
148
90.0
149
90.0
100
AcDbLayout
  1
Model
 70
     1
 71
     0
 10
-13510.25736412818
 20
1961.077543880496
 11
-5110.257364128185
 21
7901.077543880497
 12
0.0
 22
0.0
 32
0.0
 14
-12651.95363216896
 24
3685.300435736384
 34
0.0
 15
-7403.67467860774
 25
6540.656767224724
 35
0.0
146
0.0
 13
0.0
 23
0.0
 33
0.0
 16
1.0
 26
0.0
 36
0.0
 17
0.0
 27
1.0
 37
0.0
 76
     0
330
1F
331
A2A1
  0
MLINESTYLE
  5
18
102
{ACAD_REACTORS
330
17
102
}
330
17
100
AcDbMlineStyle
  2
STANDARD
 70
     0
  3

 62
   256
 51
90.0
 52
90.0
 71
     2
 49
0.5
 62
   256
  6
BYLAYER
 49
-0.5
 62
   256
  6
BYLAYER
  0
ACDBPLACEHOLDER
  5
F
102
{ACAD_REACTORS
330
E
102
}
330
E
  0
SCALE
  5
6A4F
102
{ACAD_REACTORS
330
6A4E
102
}
330
6A4E
100
AcDbScale
 70
     0
300
1:1
140
1.0
141
1.0
290
     1
  0
SCALE
  5
6A50
102
{ACAD_REACTORS
330
6A4E
102
}
330
6A4E
100
AcDbScale
 70
     0
300
1:2
140
1.0
141
2.0
290
     0
  0
SCALE
  5
6A51
102
{ACAD_REACTORS
330
6A4E
102
}
330
6A4E
100
AcDbScale
 70
     0
300
1:4
140
1.0
141
4.0
290
     0
  0
SCALE
  5
6A52
102
{ACAD_REACTORS
330
6A4E
102
}
330
6A4E
100
AcDbScale
 70
     0
300
1:5
140
1.0
141
5.0
290
     0
  0
SCALE
  5
6A53
102
{ACAD_REACTORS
330
6A4E
102
}
330
6A4E
100
AcDbScale
 70
     0
300
1:8
140
1.0
141
8.0
290
     0
  0
SCALE
  5
6A54
102
{ACAD_REACTORS
330
6A4E
102
}
330
6A4E
100
AcDbScale
 70
     0
300
1:10
140
1.0
141
10.0
290
     0
  0
SCALE
  5
6A55
102
{ACAD_REACTORS
330
6A4E
102
}
330
6A4E
100
AcDbScale
 70
     0
300
1:16
140
1.0
141
16.0
290
     0
  0
SCALE
  5
6A56
102
{ACAD_REACTORS
330
6A4E
102
}
330
6A4E
100
AcDbScale
 70
     0
300
1:20
140
1.0
141
20.0
290
     0
  0
SCALE
  5
6A57
102
{ACAD_REACTORS
330
6A4E
102
}
330
6A4E
100
AcDbScale
 70
     0
300
1:30
140
1.0
141
30.0
290
     0
  0
SCALE
  5
6A58
102
{ACAD_REACTORS
330
6A4E
102
}
330
6A4E
100
AcDbScale
 70
     0
300
1:40
140
1.0
141
40.0
290
     0
  0
SCALE
  5
6A59
102
{ACAD_REACTORS
330
6A4E
102
}
330
6A4E
100
AcDbScale
 70
     0
300
1:50
140
1.0
141
50.0
290
     0
  0
SCALE
  5
6A5A
102
{ACAD_REACTORS
330
6A4E
102
}
330
6A4E
100
AcDbScale
 70
     0
300
1:100
140
1.0
141
100.0
290
     0
  0
SCALE
  5
6A5B
102
{ACAD_REACTORS
330
6A4E
102
}
330
6A4E
100
AcDbScale
 70
     0
300
2:1
140
2.0
141
1.0
290
     0
  0
SCALE
  5
6A5C
102
{ACAD_REACTORS
330
6A4E
102
}
330
6A4E
100
AcDbScale
 70
     0
300
4:1
140
4.0
141
1.0
290
     0
  0
SCALE
  5
6A5D
102
{ACAD_REACTORS
330
6A4E
102
}
330
6A4E
100
AcDbScale
 70
     0
300
8:1
140
8.0
141
1.0
290
     0
  0
SCALE
  5
6A5E
102
{ACAD_REACTORS
330
6A4E
102
}
330
6A4E
100
AcDbScale
 70
     0
300
10:1
140
10.0
141
1.0
290
     0
  0
SCALE
  5
6A5F
102
{ACAD_REACTORS
330
6A4E
102
}
330
6A4E
100
AcDbScale
 70
     0
300
100:1
140
100.0
141
1.0
290
     0
  0
SCALE
  5
6A60
102
{ACAD_REACTORS
330
6A4E
102
}
330
6A4E
100
AcDbScale
 70
     0
300
1/128" = 1'-0"
140
0.0078125
141
12.0
290
     0
  0
SCALE
  5
6A61
102
{ACAD_REACTORS
330
6A4E
102
}
330
6A4E
100
AcDbScale
 70
     0
300
1/64" = 1'-0"
140
0.015625
141
12.0
290
     0
  0
SCALE
  5
6A62
102
{ACAD_REACTORS
330
6A4E
102
}
330
6A4E
100
AcDbScale
 70
     0
300
1/32" = 1'-0"
140
0.03125
141
12.0
290
     0
  0
SCALE
  5
6A63
102
{ACAD_REACTORS
330
6A4E
102
}
330
6A4E
100
AcDbScale
 70
     0
300
1/16" = 1'-0"
140
0.0625
141
12.0
290
     0
  0
SCALE
  5
6A64
102
{ACAD_REACTORS
330
6A4E
102
}
330
6A4E
100
AcDbScale
 70
     0
300
3/32" = 1'-0"
140
0.09375
141
12.0
290
     0
  0
SCALE
  5
6A65
102
{ACAD_REACTORS
330
6A4E
102
}
330
6A4E
100
AcDbScale
 70
     0
300
1/8" = 1'-0"
140
0.125
141
12.0
290
     0
  0
SCALE
  5
6A66
102
{ACAD_REACTORS
330
6A4E
102
}
330
6A4E
100
AcDbScale
 70
     0
300
3/16" = 1'-0"
140
0.1875
141
12.0
290
     0
  0
SCALE
  5
6A67
102
{ACAD_REACTORS
330
6A4E
102
}
330
6A4E
100
AcDbScale
 70
     0
300
1/4" = 1'-0"
140
0.25
141
12.0
290
     0
  0
SCALE
  5
6A68
102
{ACAD_REACTORS
330
6A4E
102
}
330
6A4E
100
AcDbScale
 70
     0
300
3/8" = 1'-0"
140
0.375
141
12.0
290
     0
  0
SCALE
  5
6A69
102
{ACAD_REACTORS
330
6A4E
102
}
330
6A4E
100
AcDbScale
 70
     0
300
1/2" = 1'-0"
140
0.5
141
12.0
290
     0
  0
SCALE
  5
6A6A
102
{ACAD_REACTORS
330
6A4E
102
}
330
6A4E
100
AcDbScale
 70
     0
300
3/4" = 1'-0"
140
0.75
141
12.0
290
     0
  0
SCALE
  5
6A6B
102
{ACAD_REACTORS
330
6A4E
102
}
330
6A4E
100
AcDbScale
 70
     0
300
1" = 1'-0"
140
1.0
141
12.0
290
     0
  0
SCALE
  5
6A6C
102
{ACAD_REACTORS
330
6A4E
102
}
330
6A4E
100
AcDbScale
 70
     0
300
1-1/2" = 1'-0"
140
1.5
141
12.0
290
     0
  0
SCALE
  5
6A6D
102
{ACAD_REACTORS
330
6A4E
102
}
330
6A4E
100
AcDbScale
 70
     0
300
3" = 1'-0"
140
3.0
141
12.0
290
     0
  0
SCALE
  5
6A6E
102
{ACAD_REACTORS
330
6A4E
102
}
330
6A4E
100
AcDbScale
 70
     0
300
6" = 1'-0"
140
6.0
141
12.0
290
     0
  0
SCALE
  5
6A6F
102
{ACAD_REACTORS
330
6A4E
102
}
330
6A4E
100
AcDbScale
 70
     0
300
1'-0" = 1'-0"
140
12.0
141
12.0
290
     0
  0
DICTIONARYVAR
  5
79F
102
{ACAD_REACTORS
330
79E
102
}
330
79E
100
DictionaryVariables
280
     0
  1
1
  0
DICTIONARYVAR
  5
264F
102
{ACAD_REACTORS
330
79E
102
}
330
79E
100
DictionaryVariables
280
     0
  1
96
  0
ENDSEC
  0
EOF
