  0
SECTION
  2
HEADER
  9
$ACADVER
  1
AC1015
  9
$ACADMAINTVER
 70
     6
  9
$DWGCODEPAGE
  3
ANSI_932
  9
$INSBASE
 10
0.0
 20
0.0
 30
0.0
  9
$EXTMIN
 10
-12682.34133709581
 20
3433.11644084986
 30
0.0
  9
$EXTMAX
 10
-7432.816069123877
 20
6401.149096093076
 30
0.0
  9
$LIMMIN
 10
-13510.25736412818
 20
1961.077543880496
  9
$LIMMAX
 10
-5110.257364128185
 20
7901.077543880497
  9
$ORTHOMODE
 70
     0
  9
$REGENMODE
 70
     1
  9
$FILLMODE
 70
     1
  9
$QTEXTMODE
 70
     0
  9
$MIRRTEXT
 70
     1
  9
$LTSCALE
 40
6.0
  9
$ATTMODE
 70
     1
  9
$TEXTSIZE
 40
3.0
  9
$TRACEWID
 40
1.0
  9
$TEXTSTYLE
  7
Standard
  9
$CLAYER
  8
01注記寸法
  9
$CELTYPE
  6
ByLayer
  9
$CECOLOR
 62
   256
  9
$CELTSCALE
 40
1.0
  9
$DISPSILH
 70
     0
  9
$DIMSCALE
 40
20.0
  9
$DIMASZ
 40
3.0
  9
$DIMEXO
 40
1.5
  9
$DIMDLI
 40
10.0
  9
$DIMRND
 40
0.0
  9
$DIMDLE
 40
0.0
  9
$DIMEXE
 40
1.0
  9
$DIMTP
 40
0.0
  9
$DIMTM
 40
0.0
  9
$DIMTXT
 40
3.0
  9
$DIMCEN
 40
1.5
  9
$DIMTSZ
 40
0.0
  9
$DIMTOL
 70
     0
  9
$DIMLIM
 70
     0
  9
$DIMTIH
 70
     0
  9
$DIMTOH
 70
     0
  9
$DIMSE1
 70
     0
  9
$DIMSE2
 70
     0
  9
$DIMTAD
 70
     1
  9
$DIMZIN
 70
     8
  9
$DIMBLK
  1
Open
  9
$DIMASO
 70
     1
  9
$DIMSHO
 70
     1
  9
$DIMPOST
  1

  9
$DIMAPOST
  1

  9
$DIMALT
 70
     0
  9
$DIMALTD
 70
     3
  9
$DIMALTF
 40
0.03937007874016
  9
$DIMLFAC
 40
1.0
  9
$DIMTOFL
 70
     1
  9
$DIMTVP
 40
0.0
  9
$DIMTIX
 70
     0
  9
$DIMSOXD
 70
     0
  9
$DIMSAH
 70
     0
  9
$DIMBLK1
  1

  9
$DIMBLK2
  1

  9
$DIMSTYLE
  2
NEMY-20
  9
$DIMCLRD
 70
     0
  9
$DIMCLRE
 70
     0
  9
$DIMCLRT
 70
     0
  9
$DIMTFAC
 40
1.0
  9
$DIMGAP
 40
1.0
  9
$DIMJUST
 70
     0
  9
$DIMSD1
 70
     0
  9
$DIMSD2
 70
     0
  9
$DIMTOLJ
 70
     0
  9
$DIMTZIN
 70
     8
  9
$DIMALTZ
 70
     0
  9
$DIMALTTZ
 70
     0
  9
$DIMUPT
 70
     0
  9
$DIMDEC
 70
     1
  9
$DIMTDEC
 70
     1
  9
$DIMALTU
 70
     2
  9
$DIMALTTD
 70
     3
  9
$DIMTXSTY
  7
Standard
  9
$DIMAUNIT
 70
     0
  9
$DIMADEC
 70
     0
  9
$DIMALTRND
 40
0.0
  9
$DIMAZIN
 70
     0
  9
$DIMDSEP
 70
    46
  9
$DIMATFIT
 70
     3
  9
$DIMFRAC
 70
     0
  9
$DIMLDRBLK
  1
Open
  9
$DIMLUNIT
 70
     2
  9
$DIMLWD
 70
    -2
  9
$DIMLWE
 70
    -2
  9
$DIMTMOVE
 70
     0
  9
$LUNITS
 70
     2
  9
$LUPREC
 70
     4
  9
$SKETCHINC
 40
1.0
  9
$FILLETRAD
 40
0.0
  9
$AUNITS
 70
     0
  9
$AUPREC
 70
     0
  9
$MENU
  1
.
  9
$ELEVATION
 40
0.0
  9
$PELEVATION
 40
0.0
  9
$THICKNESS
 40
0.0
  9
$LIMCHECK
 70
     0
  9
$CHAMFERA
 40
10.0
  9
$CHAMFERB
 40
10.0
  9
$CHAMFERC
 40
20.0
  9
$CHAMFERD
 40
0.0
  9
$SKPOLY
 70
     0
  9
$TDCREATE
 40
2455859.405048461
  9
$TDUCREATE
 40
2455859.030048461
  9
$TDUPDATE
 40
2458240.428063692
  9
$TDUUPDATE
 40
2458240.053063692
  9
$TDINDWG
 40
2.0158168171
  9
$TDUSRTIMER
 40
2458240.046837246
  9
$USRTIMER
 70
     1
  9
$ANGBASE
 50
0.0
  9
$ANGDIR
 70
     0
  9
$PDMODE
 70
     0
  9
$PDSIZE
 40
0.0
  9
$PLINEWID
 40
0.0
  9
$SPLFRAME
 70
     0
  9
$SPLINETYPE
 70
     6
  9
$SPLINESEGS
 70
     8
  9
$HANDSEED
  5
1CE59
  9
$SURFTAB1
 70
     6
  9
$SURFTAB2
 70
     6
  9
$SURFTYPE
 70
     6
  9
$SURFU
 70
     6
  9
$SURFV
 70
     6
  9
$UCSBASE
  2

  9
$UCSNAME
  2

  9
$UCSORG
 10
0.0
 20
0.0
 30
0.0
  9
$UCSXDIR
 10
1.0
 20
0.0
 30
0.0
  9
$UCSYDIR
 10
0.0
 20
1.0
 30
0.0
  9
$UCSORTHOREF
  2

  9
$UCSORTHOVIEW
 70
     0
  9
$UCSORGTOP
 10
0.0
 20
0.0
 30
0.0
  9
$UCSORGBOTTOM
 10
0.0
 20
0.0
 30
0.0
  9
$UCSORGLEFT
 10
0.0
 20
0.0
 30
0.0
  9
$UCSORGRIGHT
 10
0.0
 20
0.0
 30
0.0
  9
$UCSORGFRONT
 10
0.0
 20
0.0
 30
0.0
  9
$UCSORGBACK
 10
0.0
 20
0.0
 30
0.0
  9
$PUCSBASE
  2

  9
$PUCSNAME
  2

  9
$PUCSORG
 10
0.0
 20
0.0
 30
0.0
  9
$PUCSXDIR
 10
1.0
 20
0.0
 30
0.0
  9
$PUCSYDIR
 10
0.0
 20
1.0
 30
0.0
  9
$PUCSORTHOREF
  2

  9
$PUCSORTHOVIEW
 70
     0
  9
$PUCSORGTOP
 10
0.0
 20
0.0
 30
0.0
  9
$PUCSORGBOTTOM
 10
0.0
 20
0.0
 30
0.0
  9
$PUCSORGLEFT
 10
0.0
 20
0.0
 30
0.0
  9
$PUCSORGRIGHT
 10
0.0
 20
0.0
 30
0.0
  9
$PUCSORGFRONT
 10
0.0
 20
0.0
 30
0.0
  9
$PUCSORGBACK
 10
0.0
 20
0.0
 30
0.0
  9
$USERI1
 70
     0
  9
$USERI2
 70
     0
  9
$USERI3
 70
     0
  9
$USERI4
 70
     0
  9
$USERI5
 70
     0
  9
$USERR1
 40
0.0
  9
$USERR2
 40
0.0
  9
$USERR3
 40
0.0
  9
$USERR4
 40
0.0
  9
$USERR5
 40
0.0
  9
$WORLDVIEW
 70
     1
  9
$SHADEDGE
 70
     3
  9
$SHADEDIF
 70
    70
  9
$TILEMODE
 70
     1
  9
$MAXACTVP
 70
    64
  9
$PINSBASE
 10
0.0
 20
0.0
 30
0.0
  9
$PLIMCHECK
 70
     0
  9
$PEXTMIN
 10
1.000000000000000E+20
 20
1.000000000000000E+20
 30
1.000000000000000E+20
  9
$PEXTMAX
 10
-1.000000000000000E+20
 20
-1.000000000000000E+20
 30
-1.000000000000000E+20
  9
$PLIMMIN
 10
0.0
 20
0.0
  9
$PLIMMAX
 10
0.0
 20
0.0
  9
$UNITMODE
 70
     0
  9
$VISRETAIN
 70
     1
  9
$PLINEGEN
 70
     0
  9
$PSLTSCALE
 70
     1
  9
$TREEDEPTH
 70
  3020
  9
$CMLSTYLE
  2
Standard
  9
$CMLJUST
 70
     0
  9
$CMLSCALE
 40
20.0
  9
$PROXYGRAPHICS
 70
     1
  9
$MEASUREMENT
 70
     1
  9
$CELWEIGHT
370
    -1
  9
$ENDCAPS
280
     0
  9
$JOINSTYLE
280
     0
  9
$LWDISPLAY
290
     0
  9
$INSUNITS
 70
     4
  9
$HYPERLINKBASE
  1

  9
$STYLESHEET
  1
monochrome.ctb
  9
$XEDIT
290
     1
  9
$CEPSNTYPE
380
     0
  9
$PSTYLEMODE
290
     1
  9
$FINGERPRINTGUID
  2
{FDEAD578-A652-11D2-9A35-0060089B3A3F}
  9
$VERSIONGUID
  2
{FF53CD4B-1AF9-4F2F-ABC0-CA7DF949A403}
  9
$EXTNAMES
290
     1
  9
$PSVPSCALE
 40
0.0
  9
$OLESTARTUP
290
     0
  0
ENDSEC
  0
SECTION
  2
CLASSES
  0
CLASS
  1
ACDBDICTIONARYWDFLT
  2
AcDbDictionaryWithDefault
  3
ObjectDBX Classes
 90
        0
280
     0
281
     0
  0
CLASS
  1
ACDBPLACEHOLDER
  2
AcDbPlaceHolder
  3
ObjectDBX Classes
 90
        0
280
     0
281
     0
  0
CLASS
  1
LAYOUT
  2
AcDbLayout
  3
ObjectDBX Classes
 90
        0
280
     0
281
     0
  0
CLASS
  1
DICTIONARYVAR
  2
AcDbDictionaryVar
  3
ObjectDBX Classes
 90
        0
280
     0
281
     0
  0
CLASS
  1
SCALE
  2
AcDbScale
  3
ObjectDBX Classes
 90
     1153
280
     0
281
     0
  0
CLASS
  1
MATERIAL
  2
AcDbMaterial
  3
ObjectDBX Classes
 90
     1153
280
     0
281
     0
  0
CLASS
  1
VISUALSTYLE
  2
AcDbVisualStyle
  3
ObjectDBX Classes
 90
     4095
280
     0
281
     0
  0
CLASS
  1
TABLESTYLE
  2
AcDbTableStyle
  3
ObjectDBX Classes
 90
     4095
280
     0
281
     0
  0
CLASS
  1
RASTERVARIABLES
  2
AcDbRasterVariables
  3
ISM
 90
        0
280
     0
281
     0
  0
CLASS
  1
AEC_VARS_DWG_SETUP
  2
AecDbVarsDwgSetup
  3
AecBase60
 90
      129
280
     0
281
     0
  0
CLASS
  1
AEC_DISP_REP_2D_SECTION
  2
AecDbDispRep2dSection
  3
AecBase60
 90
      129
280
     0
281
     0
  0
CLASS
  1
AEC_DISP_PROPS_2D_SECTION
  2
AecDbDispProps2dSection
  3
AecBase60
 90
      129
280
     0
281
     0
  0
CLASS
  1
AEC_DISP_REP_CLIP_VOLUME_MODEL
  2
AecDbDispRepClipVolModel
  3
AecBase60
 90
      129
280
     0
281
     0
  0
CLASS
  1
AEC_DISP_PROPS_CLIP_VOLUME
  2
AecDbDispPropsClipVol
  3
AecBase60
 90
      129
280
     0
281
     0
  0
CLASS
  1
AEC_DISP_REP_CLIP_VOLUME_PLAN
  2
AecDbDispRepClipVolPlan
  3
AecBase60
 90
      129
280
     0
281
     0
  0
CLASS
  1
AEC_DISP_REP_CLIP_VOLUME_RESULT
  2
AecDbDispRepClipVolResult
  3
AecBase60
 90
      129
280
     0
281
     0
  0
CLASS
  1
AEC_DISP_REP_CLIP_VOLUME_RESULT_SUBDIV
  2
AecDbDispRepClipVolResSubDiv
  3
AecBase60
 90
      129
280
     0
281
     0
  0
CLASS
  1
AEC_DISP_PROPS_CLIP_VOLUME_RESULT
  2
AecDbDispPropsClipVolResSubDiv
  3
AecBase60
 90
      129
280
     0
281
     0
  0
CLASS
  1
AEC_DISP_REP_DISPLAYTHEME
  2
AecDbDispRepDisplayTheme
  3
AecBase60
 90
      129
280
     0
281
     0
  0
CLASS
  1
AEC_DISP_PROPS_DISPLAYTHEME
  2
AecDbDispPropsDisplayTheme
  3
AecBase60
 90
      129
280
     0
281
     0
  0
CLASS
  1
AEC_DISP_REP_ENT_REF
  2
AecDbDispRepEntRef
  3
AecBase60
 90
      129
280
     0
281
     0
  0
CLASS
  1
AEC_DISP_PROPS_ENT_REF
  2
AecDbDispPropsEntRef
  3
AecBase60
 90
      129
280
     0
281
     0
  0
CLASS
  1
AEC_DISP_REP_LAYOUT_CURVE
  2
AecDbDispRepLayoutCurve
  3
AecBase60
 90
      129
280
     0
281
     0
  0
CLASS
  1
AEC_DISP_PROPS_LAYOUT_CURVE
  2
AecDbDispPropsLayoutCurve
  3
AecBase60
 90
      129
280
     0
281
     0
  0
CLASS
  1
AEC_DISP_REP_LAYOUT_GRID2D
  2
AecDbDispRepLayoutGrid2d
  3
AecBase60
 90
      129
280
     0
281
     0
  0
CLASS
  1
AEC_DISP_PROPS_LAYOUT_GRID2D
  2
AecDbDispPropsLayoutGrid2d
  3
AecBase60
 90
      129
280
     0
281
     0
  0
CLASS
  1
AEC_DISP_REP_LAYOUT_GRID3D
  2
AecDbDispRepLayoutGrid3d
  3
AecBase60
 90
      129
280
     0
281
     0
  0
CLASS
  1
AEC_DISP_PROPS_LAYOUT_GRID3D
  2
AecDbDispPropsLayoutGrid3d
  3
AecBase60
 90
      129
280
     0
281
     0
  0
CLASS
  1
AEC_DISP_REP_MASKBLOCK_REF
  2
AecDbDispRepMaskBlockRef
  3
AecBase60
 90
      129
280
     0
281
     0
  0
CLASS
  1
AEC_DISP_PROPS_MASKBLOCK
  2
AecDbDispPropsMaskBlock
  3
AecBase60
 90
      129
280
     0
281
     0
  0
CLASS
  1
AEC_DISP_REP_MASKBLOCK_REF_RCP
  2
AecDbDispRepMaskBlockRefRcp
  3
AecArchBase60
 90
      129
280
     0
281
     0
  0
CLASS
  1
AEC_DISP_REP_MASS_ELEM_MODEL
  2
AecDbDispRepMassElemModel
  3
AecBase60
 90
      129
280
     0
281
     0
  0
CLASS
  1
AEC_DISP_PROPS_MASS_ELEM_MODEL
  2
AecDbDispPropsMassElem
  3
AecBase60
 90
      129
280
     0
281
     0
  0
CLASS
  1
AEC_DISP_REP_MASS_ELEM_SCHEM
  2
AecDbDispRepMassElemSchem
  3
AecBase60
 90
      129
280
     0
281
     0
  0
CLASS
  1
AEC_DISPREPAECDBDISPREPMASSELEMPLAN50
  2
AecDbDispRepMassElemPlan50
  3
AecArchDACHBase60
 90
      129
280
     0
281
     0
  0
CLASS
  1
AEC_DISPROPSMASSELEMPLANCOMMON
  2
AecDbDispPropsMassElemPlanCommon
  3
AecArchDACHBase60
 90
      129
280
     0
281
     0
  0
CLASS
  1
AEC_DISPREPAECDBDISPREPMASSELEMPLAN100
  2
AecDbDispRepMassElemPlan100
  3
AecArchDACHBase60
 90
      129
280
     0
281
     0
  0
CLASS
  1
AEC_DISP_REP_MASS_ELEM_RCP
  2
AecDbDispRepMassElemRcp
  3
AecArchBase60
 90
      129
280
     0
281
     0
  0
CLASS
  1
AEC_DISP_REP_MASS_GROUP_MODEL
  2
AecDbDispRepMassGroupModel
  3
AecBase60
 90
      129
280
     0
281
     0
  0
CLASS
  1
AEC_DISP_PROPS_MASS_GROUP
  2
AecDbDispPropsMassGroup
  3
AecBase60
 90
      129
280
     0
281
     0
  0
CLASS
  1
AEC_DISP_REP_MASS_GROUP_PLAN
  2
AecDbDispRepMassGroupPlan
  3
AecBase60
 90
      129
280
     0
281
     0
  0
CLASS
  1
AEC_DISPREPAECDBDISPREPMASSGROUPPLAN50
  2
AecDbDispRepMassGroupPlan50
  3
AecArchDACHBase60
 90
      129
280
     0
281
     0
  0
CLASS
  1
AEC_DISPROPSMASSGROUPPLANCOMMON
  2
AecDbDispPropsMassGroupPlanCommon
  3
AecArchDACHBase60
 90
      129
280
     0
281
     0
  0
CLASS
  1
AEC_DISPREPAECDBDISPREPMASSGROUPPLAN100
  2
AecDbDispRepMassGroupPlan100
  3
AecArchDACHBase60
 90
      129
280
     0
281
     0
  0
CLASS
  1
AEC_DISP_REP_MASS_GROUP_RCP
  2
AecDbDispRepMassGroupRcp
  3
AecArchBase60
 90
      129
280
     0
281
     0
  0
CLASS
  1
AEC_DISP_REP_MVBLOCK_REF
  2
AecDbDispRepMvBlockRef
  3
AecBase60
 90
      129
280
     0
281
     0
  0
CLASS
  1
AEC_DISP_REP_MVBLOCK_REF_MODEL
  2
AecDbDispRepMvBlockRefModel
  3
AecBase60
 90
      129
280
     0
281
     0
  0
CLASS
  1
AEC_AECDBDISPREPMVBLOCKREFPLAN100
  2
AecDbDispRepMvBlockRefPlan100
  3
AecBase60
 90
      129
280
     0
281
     0
  0
CLASS
  1
AEC_AECDBDISPREPMVBLOCKREFPLAN50
  2
AecDbDispRepMvBlockRefPlan50
  3
AecBase60
 90
      129
280
     0
281
     0
  0
CLASS
  1
AEC_DISP_REP_POLYGON_MODEL
  2
AecDbDispRepPolygonModel
  3
AecBase60
 90
      129
280
     0
281
     0
  0
CLASS
  1
AEC_DISP_PROPS_POLYGON_MODEL
  2
AecDbDispPropsPolygonModel
  3
AecBase60
 90
      129
280
     0
281
     0
  0
CLASS
  1
AEC_DISP_REP_POLYGON_TRUECOLOUR
  2
AecDbDispRepPolygonTrueColour
  3
AecBase60
 90
      129
280
     0
281
     0
  0
CLASS
  1
AEC_DISP_PROPS_POLYGON_TRUECOLOUR
  2
AecDbDispPropsPolygonTrueColour
  3
AecBase60
 90
      129
280
     0
281
     0
  0
CLASS
  1
AEC_DISP_REP_SLICE
  2
AecDbDispRepSlice
  3
AecBase60
 90
      129
280
     0
281
     0
  0
CLASS
  1
AEC_DISP_PROPS_SLICE
  2
AecDbDispPropsSlice
  3
AecBase60
 90
      129
280
     0
281
     0
  0
CLASS
  1
AEC_DISP_REP_ANCHOR
  2
AecDbDispRepAnchor
  3
AecBase60
 90
      129
280
     0
281
     0
  0
CLASS
  1
AEC_DISP_REP_ANCHOR_ENT_TO_NODE
  2
AecDbDispRepAnchorEntToNode
  3
AecBase60
 90
      129
280
     0
281
     0
  0
CLASS
  1
AEC_DISP_PROPS_ENT
  2
AecDbDispPropsEnt
  3
AecBase60
 90
      129
280
     0
281
     0
  0
CLASS
  1
AEC_DISP_REP_MATERIAL
  2
AecDbDispRepMaterial
  3
AecBase60
 90
      129
280
     0
281
     0
  0
CLASS
  1
AEC_DISP_PROPS_MATERIAL
  2
AecDbDispPropsMaterial
  3
AecBase60
 90
      129
280
     0
281
     0
  0
CLASS
  1
AEC_DISP_REP_EDITINPLACEPROFILE
  2
AecDbDispRepEditInPlaceProfile
  3
AecBase60
 90
      129
280
     0
281
     0
  0
CLASS
  1
AEC_DISP_PROPS_EDITINPLACEPROFILE_MODEL
  2
AecDbDispPropsEditInPlaceProfile
  3
AecBase60
 90
      129
280
     0
281
     0
  0
CLASS
  1
SUN
  2
AcDbSun
  3
SCENEOE
 90
     1153
280
     0
281
     0
  0
CLASS
  1
SORTENTSTABLE
  2
AcDbSortentsTable
  3
ObjectDBX Classes
 90
        0
280
     0
281
     0
  0
CLASS
  1
MLEADERSTYLE
  2
AcDbMLeaderStyle
  3
ACDB_MLEADERSTYLE_CLASS
 90
     4095
280
     0
281
     0
  0
ENDSEC
  0
SECTION
  2
TABLES
  0
TABLE
  2
VPORT
  5
8
330
0
100
AcDbSymbolTable
 70
     1
  0
VPORT
  5
A2A1
330
8
100
AcDbSymbolTableRecord
100
AcDbViewportTableRecord
  2
*Active
 70
     0
 10
0.0
 20
0.0
 11
1.0
 21
1.0
 12
-56680607160.84373
 22
103286848483.9729
 13
0.0
 23
0.0
 14
10.0
 24
10.0
 15
10.0
 25
10.0
 16
0.0
 26
0.0
 36
1.0
 17
56680597103.26502
 27
-103286843566.8401
 37
0.0
 40
3027.393308348082
 41
2.0
 42
50.0
 43
0.0
 44
0.0
 50
0.0
 51
0.0
 71
    16
 72
   100
 73
     1
 74
     2
 75
     0
 76
     0
 77
     0
 78
     0
281
     0
 65
     1
110
0.0
120
0.0
130
0.0
111
1.0
121
0.0
131
0.0
112
0.0
122
1.0
132
0.0
 79
     0
146
0.0
  0
ENDTAB
  0
TABLE
  2
LTYPE
  5
5
330
0
100
AcDbSymbolTable
 70
     2
  0
LTYPE
  5
14
330
5
100
AcDbSymbolTableRecord
100
AcDbLinetypeTableRecord
  2
ByBlock
 70
     0
  3

 72
    65
 73
     0
 40
0.0
  0
LTYPE
  5
15
330
5
100
AcDbSymbolTableRecord
100
AcDbLinetypeTableRecord
  2
ByLayer
 70
     0
  3
Solid line
 72
    65
 73
     0
 40
0.0
  0
LTYPE
  5
16
330
5
100
AcDbSymbolTableRecord
100
AcDbLinetypeTableRecord
  2
Continuous
 70
     0
  3
Solid line
 72
    65
 73
     0
 40
0.0
  0
ENDTAB
  0
TABLE
  2
LAYER
  5
2
102
{ACAD_XDICTIONARY
360
7A6F
102
}
330
0
100
AcDbSymbolTable
 70
     5
  0
LAYER
  5
10
330
2
100
AcDbSymbolTableRecord
100
AcDbLayerTableRecord
  2
0
 70
     0
 62
     7
  6
Continuous
370
    -3
390
F
  0
LAYER
  5
45
330
2
100
AcDbSymbolTableRecord
100
AcDbLayerTableRecord
  2
01注記寸法
 70
     0
 62
     7
  6
Continuous
370
     9
390
F
  0
LAYER
  5
82BC
330
2
100
AcDbSymbolTableRecord
100
AcDbLayerTableRecord
  2
02製品
 70
     0
 62
     2
  6
Continuous
370
    15
390
F
  0
LAYER
  5
15088
330
2
100
AcDbSymbolTableRecord
100
AcDbLayerTableRecord
  2
1　製品
 70
     0
 62
     2
  6
Continuous
370
    15
390
F
  0
ENDTAB
  0
TABLE
  2
STYLE
  5
3
330
0
100
AcDbSymbolTable
 70
     3
  0
STYLE
  5
11
330
3
100
AcDbSymbolTableRecord
100
AcDbTextStyleTableRecord
  2
Standard
 70
     0
 40
0.0
 41
1.0
 50
0.0
 71
     0
 42
3.0
  3
MS Gothic.ttf
  4

1001
ACAD
1000
MS Gothic
1071
    32817
  0
STYLE
  5
19E
330
3
100
AcDbSymbolTableRecord
100
AcDbTextStyleTableRecord
  2
STYLE1
 70
     0
 40
0.0
 41
0.9
 50
0.0
 71
     0
 42
28.125
  3
TXT.shx
  4
extfont.shx
  0
STYLE
  5
C96B
330
3
100
AcDbSymbolTableRecord
100
AcDbTextStyleTableRecord
  2
Standard-tate
 70
     0
 40
0.0
 41
1.0
 50
0.0
 71
     0
 42
3.0
  3
@MS PGothic.ttf
  4

1001
ACAD
1000
@MS PGothic
1071
    32818
  0
ENDTAB
  0
TABLE
  2
VIEW
  5
6
330
0
100
AcDbSymbolTable
 70
     0
  0
ENDTAB
  0
TABLE
  2
UCS
  5
7
330
0
100
AcDbSymbolTable
 70
     0
  0
ENDTAB
  0
TABLE
  2
APPID
  5
9
330
0
100
AcDbSymbolTable
 70
    11
  0
APPID
  5
12
330
9
100
AcDbSymbolTableRecord
100
AcDbRegAppTableRecord
  2
ACAD
 70
     0
  0
APPID
  5
6A9E
330
9
100
AcDbSymbolTableRecord
100
AcDbRegAppTableRecord
  2
ACAD_DSTYLE_DIMRADIAL_EXTENSION
 70
     0
  0
APPID
  5
742C
330
9
100
AcDbSymbolTableRecord
100
AcDbRegAppTableRecord
  2
ACAD_PSEXT
 70
     0
  0
APPID
  5
742D
330
9
100
AcDbSymbolTableRecord
100
AcDbRegAppTableRecord
  2
ACAD_DSTYLE_DIMJAG
 70
     0
  0
APPID
  5
742E
330
9
100
AcDbSymbolTableRecord
100
AcDbRegAppTableRecord
  2
ACAD_DSTYLE_DIMTALN
 70
     0
  0
APPID
  5
8254
330
9
100
AcDbSymbolTableRecord
100
AcDbRegAppTableRecord
  2
AECBASE
 70
     0
  0
APPID
  5
8255
330
9
100
AcDbSymbolTableRecord
100
AcDbRegAppTableRecord
  2
AEC_2DSECTION_XDATA
 70
     0
  0
APPID
  5
8256
330
9
100
AcDbSymbolTableRecord
100
AcDbRegAppTableRecord
  2
AEC_MASSGROUP_XDADA
 70
     0
  0
APPID
  5
B0E5
330
9
100
AcDbSymbolTableRecord
100
AcDbRegAppTableRecord
  2
PE_DIMMEASUREMENT
 70
     0
  0
APPID
  5
147E0
330
9
100
AcDbSymbolTableRecord
100
AcDbRegAppTableRecord
  2
AcAecLayerStandard
 70
     0
  0
APPID
  5
15094
330
9
100
AcDbSymbolTableRecord
100
AcDbRegAppTableRecord
  2
PLOTTRANSPARENCY
 70
     0
  0
ENDTAB
  0
TABLE
  2
DIMSTYLE
  5
A
330
0
100
AcDbSymbolTable
 70
     1
100
AcDbDimStyleTable
  0
DIMSTYLE
105
4E6F
102
{ACAD_REACTORS
102
}
330
A
100
AcDbSymbolTableRecord
100
AcDbDimStyleTableRecord
  2
NEMY-20
 70
     0
 40
20.0
 41
3.0
 42
1.5
 43
10.0
 44
1.0
 73
     0
 74
     0
 77
     1
 78
     8
140
3.0
141
1.5
143
0.03937007874016
147
1.0
171
     3
172
     1
178
     0
271
     1
272
     1
274
     3
283
     0
284
     8
340
11
341
8F
342
8F
  0
ENDTAB
  0
TABLE
  2
BLOCK_RECORD
  5
1
330
0
100
AcDbSymbolTable
 70
    10
  0
BLOCK_RECORD
  5
1F
102
{ACAD_XDICTIONARY
360
CBD6
102
}
330
1
100
AcDbSymbolTableRecord
100
AcDbBlockTableRecord
  2
*Model_Space
340
22
  0
BLOCK_RECORD
  5
1B
330
1
100
AcDbSymbolTableRecord
100
AcDbBlockTableRecord
  2
*Paper_Space
340
1E
  0
BLOCK_RECORD
  5
23
330
1
100
AcDbSymbolTableRecord
100
AcDbBlockTableRecord
  2
*Paper_Space0
340
26
  0
BLOCK_RECORD
  5
8F
330
1
100
AcDbSymbolTableRecord
100
AcDbBlockTableRecord
  2
_Open
340
0
102
{BLKREFS
331
1CC79
331
1CC7A
331
1CCA1
331
1CCA2
331
1CCAE
331
1CCAF
331
1CCC8
331
1CCC9
102
}
  0
BLOCK_RECORD
  5
152CE
102
{ACAD_XDICTIONARY
360
152CF
102
}
330
1
100
AcDbSymbolTableRecord
100
AcDbBlockTableRecord
  2
A$C20123
340
0
102
{BLKREFS
331
1CAD8
331
1CADB
331
1CADD
102
}
  0
BLOCK_RECORD
  5
152FD
330
1
100
AcDbSymbolTableRecord
100
AcDbBlockTableRecord
  2
A$C3C7277DA
340
0
102
{BLKREFS
331
1CAD7
331
1CAD9
331
1CADA
331
1CADC
331
1CADE
331
1CADF
102
}
  0
BLOCK_RECORD
  5
1B0D4
102
{ACAD_XDICTIONARY
360
1B100
102
}
330
1
100
AcDbSymbolTableRecord
100
AcDbBlockTableRecord
  2
A$C10914
340
0
102
{BLKREFS
331
1CAE6
331
1CAE7
331
1CAE8
331
1CAE9
331
1CAEA
331
1CAEB
331
1CAEC
331
1CAED
331
1CAEE
331
1CAEF
331
1CAF0
331
1CAF1
331
1CAF3
331
1CAF6
331
1CAF7
331
1CAF8
331
1CAF9
331
1CAFA
331
1CAFB
331
1CAFC
331
1CAFD
331
1CAFE
331
1CAFF
331
1CB00
102
}
  0
BLOCK_RECORD
  5
1CC30
102
{ACAD_XDICTIONARY
360
1CC5C
102
}
330
1
100
AcDbSymbolTableRecord
100
AcDbBlockTableRecord
  2
A$C29410
340
0
102
{BLKREFS
331
1CC6E
331
1CC6F
331
1CC70
331
1CC71
102
}
  0
ENDTAB
  0
ENDSEC
  0
SECTION
  2
BLOCKS
  0
BLOCK
  5
20
330
1F
100
AcDbEntity
  8
0
100
AcDbBlockBegin
  2
*Model_Space
 70
     0
 10
0.0
 20
0.0
 30
0.0
  3
*Model_Space
  1

  0
ENDBLK
  5
21
330
1F
100
AcDbEntity
  8
0
100
AcDbBlockEnd
  0
BLOCK
  5
1C
330
1B
100
AcDbEntity
 67
     1
  8
0
100
AcDbBlockBegin
  2
*Paper_Space
 70
     0
 10
0.0
 20
0.0
 30
0.0
  3
*Paper_Space
  1

  0
ENDBLK
  5
1D
330
1B
100
AcDbEntity
 67
     1
  8
0
100
AcDbBlockEnd
  0
BLOCK
  5
24
330
23
100
AcDbEntity
  8
0
100
AcDbBlockBegin
  2
*Paper_Space0
 70
     0
 10
0.0
 20
0.0
 30
0.0
  3
*Paper_Space0
  1

  0
ENDBLK
  5
25
330
23
100
AcDbEntity
  8
0
100
AcDbBlockEnd
  0
BLOCK
  5
93
330
8F
100
AcDbEntity
  8
0
100
AcDbBlockBegin
  2
_Open
 70
     0
 10
0.0
 20
0.0
 30
0.0
  3
_Open
  1

  0
LINE
  5
90
330
8F
100
AcDbEntity
  8
01注記寸法
 62
     0
370
    -2
100
AcDbLine
 10
-1.0
 20
0.1666666666666667
 30
0.0
 11
0.0
 21
0.0
 31
0.0
  0
LINE
  5
91
330
8F
100
AcDbEntity
  8
01注記寸法
 62
     0
370
    -2
100
AcDbLine
 10
-1.0
 20
-0.1666666666666667
 30
0.0
 11
0.0
 21
0.0
 31
0.0
  0
LINE
  5
92
330
8F
100
AcDbEntity
  8
01注記寸法
 62
     0
370
    -2
100
AcDbLine
 10
0.0
 20
0.0
 30
0.0
 11
-1.0
 21
0.0
 31
0.0
  0
ENDBLK
  5
94
330
8F
100
AcDbEntity
  8
0
100
AcDbBlockEnd
  0
BLOCK
  5
152D1
330
152CE
100
AcDbEntity
  8
0
100
AcDbBlockBegin
  2
A$C20123
 70
     0
 10
0.0
 20
0.0
 30
0.0
  3
A$C20123
  1

  0
LINE
  5
152D2
330
152CE
100
AcDbEntity
  8
1　製品
100
AcDbLine
 10
127.0000000000018
 20
0.0
 30
0.0
 11
101.6000000000004
 21
11.33333333333212
 31
0.0
  0
LINE
  5
152D3
330
152CE
100
AcDbEntity
  8
1　製品
100
AcDbLine
 10
76.19999999999891
 20
0.0
 30
0.0
 11
101.6000000000004
 21
11.33333333333212
 31
0.0
  0
LINE
  5
152D4
330
152CE
100
AcDbEntity
  8
1　製品
100
AcDbLine
 10
76.19999999999891
 20
68.0
 30
0.0
 11
50.80000000000109
 21
79.33333333333212
 31
0.0
  0
LINE
  5
152D5
330
152CE
100
AcDbEntity
  8
1　製品
100
AcDbLine
 10
76.19999999999891
 20
45.33333333333212
 30
0.0
 11
50.80000000000109
 21
56.66666666666424
 31
0.0
  0
LINE
  5
152D6
330
152CE
100
AcDbEntity
  8
1　製品
100
AcDbLine
 10
50.80000000000109
 20
34.0
 30
0.0
 11
76.19999999999891
 21
22.66666666666424
 31
0.0
  0
LINE
  5
152D7
330
152CE
100
AcDbEntity
  8
1　製品
100
AcDbLine
 10
76.19999999999891
 20
45.33333333333212
 30
0.0
 11
50.80000000000109
 21
34.0
 31
0.0
  0
LINE
  5
152D8
330
152CE
100
AcDbEntity
  8
1　製品
100
AcDbLine
 10
76.19999999999891
 20
22.66666666666424
 30
0.0
 11
50.80000000000109
 21
11.33333333333212
 31
0.0
  0
LINE
  5
152D9
330
152CE
100
AcDbEntity
  8
1　製品
100
AcDbLine
 10
50.80000000000109
 20
56.66666666666424
 30
0.0
 11
76.19999999999891
 21
68.0
 31
0.0
  0
LINE
  5
152DA
330
152CE
100
AcDbEntity
  8
1　製品
100
AcDbLine
 10
25.39999999999964
 20
45.33333333333212
 30
0.0
 11
0.0
 21
56.66666666666424
 31
0.0
  0
LINE
  5
152DB
330
152CE
100
AcDbEntity
  8
1　製品
100
AcDbLine
 10
25.39999999999964
 20
45.33333333333212
 30
0.0
 11
0.0
 21
34.0
 31
0.0
  0
LINE
  5
152DC
330
152CE
100
AcDbEntity
  8
1　製品
100
AcDbLine
 10
50.80000000000109
 20
34.0
 30
0.0
 11
25.39999999999964
 21
45.33333333333212
 31
0.0
  0
LINE
  5
152DD
330
152CE
100
AcDbEntity
  8
1　製品
100
AcDbLine
 10
25.39999999999964
 20
22.66666666666424
 30
0.0
 11
50.80000000000109
 21
34.0
 31
0.0
  0
LINE
  5
152DE
330
152CE
100
AcDbEntity
  8
1　製品
100
AcDbLine
 10
25.39999999999964
 20
68.0
 30
0.0
 11
50.80000000000109
 21
56.66666666666424
 31
0.0
  0
LINE
  5
152DF
330
152CE
100
AcDbEntity
  8
1　製品
100
AcDbLine
 10
50.80000000000109
 20
56.66666666666424
 30
0.0
 11
25.39999999999964
 21
45.33333333333212
 31
0.0
  0
LINE
  5
152E0
330
152CE
100
AcDbEntity
  8
1　製品
100
AcDbLine
 10
101.6000000000004
 20
79.33333333333212
 30
0.0
 11
127.0000000000018
 21
68.0
 31
0.0
  0
LINE
  5
152E1
330
152CE
100
AcDbEntity
  8
1　製品
100
AcDbLine
 10
101.6000000000004
 20
79.33333333333212
 30
0.0
 11
76.19999999999891
 21
68.0
 31
0.0
  0
LINE
  5
152E2
330
152CE
100
AcDbEntity
  8
1　製品
100
AcDbLine
 10
127.0000000000018
 20
68.0
 30
0.0
 11
152.4000000000015
 21
79.33333333333212
 31
0.0
  0
LINE
  5
152E3
330
152CE
100
AcDbEntity
  8
1　製品
100
AcDbLine
 10
127.0000000000018
 20
45.33333333333212
 30
0.0
 11
152.4000000000015
 21
56.66666666666424
 31
0.0
  0
LINE
  5
152E4
330
152CE
100
AcDbEntity
  8
1　製品
100
AcDbLine
 10
127.0000000000018
 20
22.66666666666424
 30
0.0
 11
152.4000000000015
 21
11.33333333333212
 31
0.0
  0
LINE
  5
152E5
330
152CE
100
AcDbEntity
  8
1　製品
100
AcDbLine
 10
152.4000000000015
 20
34.0
 30
0.0
 11
127.0000000000018
 21
22.66666666666424
 31
0.0
  0
LINE
  5
152E6
330
152CE
100
AcDbEntity
  8
1　製品
100
AcDbLine
 10
127.0000000000018
 20
45.33333333333212
 30
0.0
 11
152.4000000000015
 21
34.0
 31
0.0
  0
LINE
  5
152E7
330
152CE
100
AcDbEntity
  8
1　製品
100
AcDbLine
 10
152.4000000000015
 20
56.66666666666424
 30
0.0
 11
127.0000000000018
 21
68.0
 31
0.0
  0
LINE
  5
152E8
330
152CE
100
AcDbEntity
  8
1　製品
100
AcDbLine
 10
101.6000000000004
 20
56.66666666666424
 30
0.0
 11
127.0000000000018
 21
45.33333333333212
 31
0.0
  0
LINE
  5
152E9
330
152CE
100
AcDbEntity
  8
1　製品
100
AcDbLine
 10
127.0000000000018
 20
22.66666666666424
 30
0.0
 11
101.6000000000004
 21
34.0
 31
0.0
  0
LINE
  5
152EA
330
152CE
100
AcDbEntity
  8
1　製品
100
AcDbLine
 10
101.6000000000004
 20
34.0
 30
0.0
 11
127.0000000000018
 21
45.33333333333212
 31
0.0
  0
LINE
  5
152EB
330
152CE
100
AcDbEntity
  8
1　製品
100
AcDbLine
 10
101.6000000000004
 20
56.66666666666424
 30
0.0
 11
76.19999999999891
 21
45.33333333333212
 31
0.0
  0
LINE
  5
152EC
330
152CE
100
AcDbEntity
  8
1　製品
100
AcDbLine
 10
76.19999999999891
 20
22.66666666666424
 30
0.0
 11
101.6000000000004
 21
34.0
 31
0.0
  0
LINE
  5
152ED
330
152CE
100
AcDbEntity
  8
1　製品
100
AcDbLine
 10
101.6000000000004
 20
34.0
 30
0.0
 11
76.19999999999891
 21
45.33333333333212
 31
0.0
  0
LINE
  5
152EE
330
152CE
100
AcDbEntity
  8
1　製品
100
AcDbLine
 10
101.6000000000004
 20
11.33333333333212
 30
0.0
 11
76.19999999999891
 21
22.66666666666424
 31
0.0
  0
LINE
  5
152EF
330
152CE
100
AcDbEntity
  8
1　製品
100
AcDbLine
 10
101.6000000000004
 20
11.33333333333212
 30
0.0
 11
127.0000000000018
 21
22.66666666666424
 31
0.0
  0
LINE
  5
152F0
330
152CE
100
AcDbEntity
  8
1　製品
100
AcDbLine
 10
76.19999999999891
 20
68.0
 30
0.0
 11
101.6000000000004
 21
56.66666666666424
 31
0.0
  0
LINE
  5
152F1
330
152CE
100
AcDbEntity
  8
1　製品
100
AcDbLine
 10
127.0000000000018
 20
68.0
 30
0.0
 11
101.6000000000004
 21
56.66666666666424
 31
0.0
  0
LINE
  5
152F2
330
152CE
100
AcDbEntity
  8
1　製品
100
AcDbLine
 10
152.4000000000015
 20
56.66666666666424
 30
0.0
 11
177.8000000000029
 21
45.33333333333212
 31
0.0
  0
LINE
  5
152F3
330
152CE
100
AcDbEntity
  8
1　製品
100
AcDbLine
 10
177.8000000000029
 20
22.66666666666424
 30
0.0
 11
152.4000000000015
 21
34.0
 31
0.0
  0
LINE
  5
152F4
330
152CE
100
AcDbEntity
  8
1　製品
100
AcDbLine
 10
152.4000000000015
 20
34.0
 30
0.0
 11
177.8000000000029
 21
45.33333333333212
 31
0.0
  0
LINE
  5
152F5
330
152CE
100
AcDbEntity
  8
1　製品
100
AcDbLine
 10
177.8000000000029
 20
45.33333333333212
 30
0.0
 11
203.2000000000025
 21
56.66666666666424
 31
0.0
  0
LINE
  5
152F6
330
152CE
100
AcDbEntity
  8
1　製品
100
AcDbLine
 10
177.8000000000029
 20
45.33333333333212
 30
0.0
 11
203.2000000000025
 21
34.0
 31
0.0
  0
LINE
  5
152F7
330
152CE
100
AcDbEntity
  8
1　製品
100
AcDbLine
 10
177.8000000000029
 20
68.0
 30
0.0
 11
152.4000000000015
 21
56.66666666666424
 31
0.0
  0
LINE
  5
152F8
330
152CE
100
AcDbEntity
  8
1　製品
100
AcDbLine
 10
127.0000000000018
 20
90.66666666666424
 30
0.0
 11
101.6000000000004
 21
79.33333333333212
 31
0.0
  0
LINE
  5
152F9
330
152CE
100
AcDbEntity
  8
1　製品
100
AcDbLine
 10
76.19999999999891
 20
90.66666666666424
 30
0.0
 11
101.6000000000004
 21
79.33333333333212
 31
0.0
  0
ENDBLK
  5
152FA
330
152CE
100
AcDbEntity
  8
0
100
AcDbBlockEnd
  0
BLOCK
  5
152FE
330
152FD
100
AcDbEntity
  8
0
 48
20.0
100
AcDbBlockBegin
  2
A$C3C7277DA
 70
     0
 10
0.0
 20
0.0
 30
0.0
  3
A$C3C7277DA
  1

  0
LINE
  5
152FF
330
152FD
100
AcDbEntity
  8
0
100
AcDbLine
 10
266.7000199373761
 20
68.00000432218076
 30
0.0
 11
304.8000199373782
 21
51.00000432218076
 31
0.0
  0
LINE
  5
15300
330
152FD
100
AcDbEntity
  8
0
100
AcDbLine
 10
228.6000199373775
 20
51.00000432218076
 30
0.0
 11
266.7000199373761
 21
68.00000432218076
 31
0.0
  0
LINE
  5
15301
330
152FD
100
AcDbEntity
  8
0
100
AcDbLine
 10
152.4000199373768
 20
51.00000432218076
 30
0.0
 11
190.5000199373753
 21
68.00000432218076
 31
0.0
  0
LINE
  5
15302
330
152FD
100
AcDbEntity
  8
0
100
AcDbLine
 10
114.3000199373746
 20
68.00000432218076
 30
0.0
 11
152.4000199373768
 21
51.00000432218076
 31
0.0
  0
LINE
  5
15303
330
152FD
100
AcDbEntity
  8
0
100
AcDbLine
 10
190.5000199373753
 20
68.00000432218076
 30
0.0
 11
228.6000199373775
 21
51.00000432218076
 31
0.0
  0
LINE
  5
15304
330
152FD
100
AcDbEntity
  8
0
100
AcDbLine
 10
228.6000199373775
 20
51.00000432218076
 30
0.0
 11
190.5000199373753
 21
34.00000432218076
 31
0.0
  0
LINE
  5
15305
330
152FD
100
AcDbEntity
  8
0
100
AcDbLine
 10
190.5000199373753
 20
34.00000432218076
 30
0.0
 11
228.6000199373775
 21
17.00000432218076
 31
0.0
  0
LINE
  5
15306
330
152FD
100
AcDbEntity
  8
0
100
AcDbLine
 10
228.6000199373775
 20
17.00000432218076
 30
0.0
 11
190.5000199373753
 21
0.0000043221807573
 31
0.0
  0
LINE
  5
15307
330
152FD
100
AcDbEntity
  8
0
100
AcDbLine
 10
38.10001993737387
 20
34.00000432218076
 30
0.0
 11
76.20001993737606
 21
17.00000432218076
 31
0.0
  0
LINE
  5
15308
330
152FD
100
AcDbEntity
  8
0
100
AcDbLine
 10
76.20001993737606
 20
17.00000432218076
 30
0.0
 11
38.10001993737387
 21
0.0000043221807573
 31
0.0
  0
LINE
  5
15309
330
152FD
100
AcDbEntity
  8
0
100
AcDbLine
 10
38.10001993737387
 20
0.0000043221807573
 30
0.0
 11
0.0000199373753276
 21
17.00000432218076
 31
0.0
  0
LINE
  5
1530A
330
152FD
100
AcDbEntity
  8
0
100
AcDbLine
 10
114.3000199373746
 20
34.00000432218076
 30
0.0
 11
76.20001993737606
 21
51.00000432218076
 31
0.0
  0
LINE
  5
1530B
330
152FD
100
AcDbEntity
  8
0
100
AcDbLine
 10
190.5000199373753
 20
34.00000432218076
 30
0.0
 11
152.4000199373768
 21
51.00000432218076
 31
0.0
  0
LINE
  5
1530C
330
152FD
100
AcDbEntity
  8
0
100
AcDbLine
 10
152.4000199373768
 20
51.00000432218076
 30
0.0
 11
114.3000199373746
 21
34.00000432218076
 31
0.0
  0
LINE
  5
1530D
330
152FD
100
AcDbEntity
  8
0
100
AcDbLine
 10
114.3000199373746
 20
34.00000432218076
 30
0.0
 11
152.4000199373768
 21
17.00000432218076
 31
0.0
  0
LINE
  5
1530E
330
152FD
100
AcDbEntity
  8
0
100
AcDbLine
 10
76.20001993737606
 20
17.00000432218076
 30
0.0
 11
114.3000199373746
 21
34.00000432218076
 31
0.0
  0
LINE
  5
1530F
330
152FD
100
AcDbEntity
  8
0
100
AcDbLine
 10
114.3000199373746
 20
0.0000043221807573
 30
0.0
 11
76.20001993737606
 21
17.00000432218076
 31
0.0
  0
LINE
  5
15310
330
152FD
100
AcDbEntity
  8
0
100
AcDbLine
 10
152.4000199373768
 20
17.00000432218076
 30
0.0
 11
114.3000199373746
 21
0.0000043221807573
 31
0.0
  0
LINE
  5
15311
330
152FD
100
AcDbEntity
  8
0
100
AcDbLine
 10
152.4000199373768
 20
17.00000432218076
 30
0.0
 11
190.5000199373753
 21
34.00000432218076
 31
0.0
  0
LINE
  5
15312
330
152FD
100
AcDbEntity
  8
0
100
AcDbLine
 10
190.5000199373753
 20
0.0000043221807573
 30
0.0
 11
152.4000199373768
 21
17.00000432218076
 31
0.0
  0
LINE
  5
15313
330
152FD
100
AcDbEntity
  8
0
100
AcDbLine
 10
304.8000199373782
 20
51.00000432218076
 30
0.0
 11
266.7000199373761
 21
34.00000432218076
 31
0.0
  0
LINE
  5
15314
330
152FD
100
AcDbEntity
  8
0
100
AcDbLine
 10
266.7000199373761
 20
34.00000432218076
 30
0.0
 11
228.6000199373775
 21
51.00000432218076
 31
0.0
  0
LINE
  5
15315
330
152FD
100
AcDbEntity
  8
0
100
AcDbLine
 10
304.8000199373782
 20
17.00000432218076
 30
0.0
 11
266.7000199373761
 21
0.0000043221807573
 31
0.0
  0
LINE
  5
15316
330
152FD
100
AcDbEntity
  8
0
100
AcDbLine
 10
266.7000199373761
 20
0.0000043221807573
 30
0.0
 11
228.6000199373775
 21
17.00000432218076
 31
0.0
  0
LINE
  5
15317
330
152FD
100
AcDbEntity
  8
0
100
AcDbLine
 10
228.6000199373775
 20
17.00000432218076
 30
0.0
 11
266.7000199373761
 21
34.00000432218076
 31
0.0
  0
LINE
  5
15318
330
152FD
100
AcDbEntity
  8
0
100
AcDbLine
 10
266.7000199373761
 20
34.00000432218076
 30
0.0
 11
304.8000199373782
 21
17.00000432218076
 31
0.0
  0
LINE
  5
15319
330
152FD
100
AcDbEntity
  8
0
100
AcDbLine
 10
228.6000199373775
 20
85.00000432218076
 30
0.0
 11
190.5000199373753
 21
68.00000432218076
 31
0.0
  0
LINE
  5
1531A
330
152FD
100
AcDbEntity
  8
0
100
AcDbLine
 10
190.5000199373753
 20
102.0000043221808
 30
0.0
 11
228.6000199373775
 21
85.00000432218076
 31
0.0
  0
LINE
  5
1531B
330
152FD
100
AcDbEntity
  8
0
100
AcDbLine
 10
190.5000199373753
 20
68.00000432218076
 30
0.0
 11
152.4000199373768
 21
85.00000432218076
 31
0.0
  0
LINE
  5
1531C
330
152FD
100
AcDbEntity
  8
0
100
AcDbLine
 10
266.7000199373761
 20
136.0000043221808
 30
0.0
 11
304.8000199373782
 21
119.0000043221808
 31
0.0
  0
LINE
  5
1531D
330
152FD
100
AcDbEntity
  8
0
100
AcDbLine
 10
304.8000199373782
 20
119.0000043221808
 30
0.0
 11
266.7000199373761
 21
102.0000043221808
 31
0.0
  0
LINE
  5
1531E
330
152FD
100
AcDbEntity
  8
0
100
AcDbLine
 10
266.7000199373761
 20
102.0000043221808
 30
0.0
 11
228.6000199373775
 21
119.0000043221808
 31
0.0
  0
LINE
  5
1531F
330
152FD
100
AcDbEntity
  8
0
100
AcDbLine
 10
266.7000199373761
 20
102.0000043221808
 30
0.0
 11
304.8000199373782
 21
85.00000432218076
 31
0.0
  0
LINE
  5
15320
330
152FD
100
AcDbEntity
  8
0
100
AcDbLine
 10
304.8000199373782
 20
85.00000432218076
 30
0.0
 11
266.7000199373761
 21
68.00000432218076
 31
0.0
  0
LINE
  5
15321
330
152FD
100
AcDbEntity
  8
0
100
AcDbLine
 10
228.6000199373775
 20
85.00000432218076
 30
0.0
 11
266.7000199373761
 21
102.0000043221808
 31
0.0
  0
LINE
  5
15322
330
152FD
100
AcDbEntity
  8
0
100
AcDbLine
 10
266.7000199373761
 20
68.00000432218076
 30
0.0
 11
228.6000199373775
 21
85.00000432218076
 31
0.0
  0
ENDBLK
  5
15323
330
152FD
100
AcDbEntity
  8
0
 48
20.0
100
AcDbBlockEnd
  0
BLOCK
  5
1B110
330
1B0D4
100
AcDbEntity
  8
0
100
AcDbBlockBegin
  2
A$C10914
 70
     0
 10
0.0
 20
0.0
 30
0.0
  3
A$C10914
  1

  0
LINE
  5
1B102
330
1B0D4
100
AcDbEntity
  8
02製品
  6
ByBlock
100
AcDbLine
 10
5.500000000001819
 20
0.0
 30
0.0
 11
7.10000000351647
 21
0.0
 31
0.0
  0
LINE
  5
1B103
330
1B0D4
100
AcDbEntity
  8
02製品
  6
ByBlock
100
AcDbLine
 10
5.500000000001819
 20
17.0
 30
0.0
 11
7.10000000351647
 21
17.0
 31
0.0
  0
LINE
  5
1B104
330
1B0D4
100
AcDbEntity
  8
02製品
  6
ByBlock
100
AcDbLine
 10
7.10000000351647
 20
17.0
 30
0.0
 11
7.10000000351647
 21
0.0
 31
0.0
  0
LINE
  5
1B105
330
1B0D4
100
AcDbEntity
  8
02製品
  6
ByBlock
100
AcDbLine
 10
5.500000000001819
 20
17.0
 30
0.0
 11
5.500000000001819
 21
0.0
 31
0.0
  0
LINE
  5
1B106
330
1B0D4
100
AcDbEntity
  8
02製品
  6
ByBlock
100
AcDbLine
 10
0.6960296630859375
 20
0.9944610595703125
 30
0.0
 11
5.500000000001819
 21
0.9944610595703125
 31
0.0
  0
LINE
  5
1B107
330
1B0D4
100
AcDbEntity
  8
02製品
  6
ByBlock
100
AcDbLine
 10
0.0
 20
14.80008520759657
 30
0.0
 11
0.0
 21
2.199989179011027
 31
0.0
  0
ARC
  5
1B108
330
1B0D4
100
AcDbEntity
  8
02製品
  6
ByBlock
100
AcDbCircle
 10
12.00000000000273
 20
8.50000000000091
 30
0.0
 40
12.0
100
AcDbArc
 50
161.7759804502329
 51
198.2237823143786
  0
LINE
  5
1B109
330
1B0D4
100
AcDbEntity
  8
02製品
  6
ByBlock
100
AcDbLine
 10
0.601898193359375
 20
4.747253417969659
 30
0.0
 11
5.500000000001819
 21
4.747253417969659
 31
0.0
  0
LINE
  5
1B10A
330
1B0D4
100
AcDbEntity
  8
02製品
  6
ByBlock
100
AcDbLine
 10
0.601913452151166
 20
12.25280761718841
 30
0.0
 11
5.500000000001819
 21
12.25280761718841
 31
0.0
  0
LINE
  5
1B10B
330
1B0D4
100
AcDbEntity
  8
02製品
  6
ByBlock
100
AcDbLine
 10
0.6960296630859375
 20
16.00556945800781
 30
0.0
 11
5.500000000001819
 21
16.00556945800781
 31
0.0
  0
LINE
  5
1B10C
330
1B0D4
100
AcDbEntity
  8
02製品
  6
ByBlock
100
AcDbLine
 10
0.6019017629496375
 20
12.25283127230978
 30
0.0
 11
0.0
 21
14.80008520759657
 31
0.0
  0
LINE
  5
1B10D
330
1B0D4
100
AcDbEntity
  8
02製品
  6
ByBlock
100
AcDbLine
 10
0.0
 20
2.199989179011027
 30
0.0
 11
0.6018760334500257
 21
4.747300551312037
 31
0.0
  0
LINE
  5
1B10E
330
1B0D4
100
AcDbEntity
  8
02製品
  6
ByBlock
100
AcDbLine
 10
0.0
 20
2.199989179011027
 30
0.0
 11
0.6959975911631773
 21
0.9944858559847489
 31
0.0
  0
LINE
  5
1B10F
330
1B0D4
100
AcDbEntity
  8
02製品
  6
ByBlock
100
AcDbLine
 10
0.6960187865770422
 20
16.0056252421582
 30
0.0
 11
0.0
 21
14.80008520759657
 31
0.0
  0
ENDBLK
  5
1B111
330
1B0D4
100
AcDbEntity
  8
0
100
AcDbBlockEnd
  0
BLOCK
  5
1CC6C
330
1CC30
100
AcDbEntity
  8
0
100
AcDbBlockBegin
  2
A$C29410
 70
     0
 10
0.0
 20
0.0
 30
0.0
  3
A$C29410
  1

  0
LINE
  5
1CC5E
330
1CC30
100
AcDbEntity
  8
02製品
  6
ByBlock
100
AcDbLine
 10
5.500000000003638
 20
0.0
 30
0.0
 11
7.10000000351647
 21
0.0
 31
0.0
  0
LINE
  5
1CC5F
330
1CC30
100
AcDbEntity
  8
02製品
  6
ByBlock
100
AcDbLine
 10
5.500000000003638
 20
17.00000000000091
 30
0.0
 11
7.10000000351647
 21
17.00000000000091
 31
0.0
  0
LINE
  5
1CC60
330
1CC30
100
AcDbEntity
  8
02製品
  6
ByBlock
100
AcDbLine
 10
7.10000000351647
 20
17.00000000000091
 30
0.0
 11
7.10000000351647
 21
0.0
 31
0.0
  0
LINE
  5
1CC61
330
1CC30
100
AcDbEntity
  8
02製品
  6
ByBlock
100
AcDbLine
 10
5.500000000003638
 20
17.00000000000091
 30
0.0
 11
5.500000000003638
 21
0.0
 31
0.0
  0
LINE
  5
1CC62
330
1CC30
100
AcDbEntity
  8
02製品
  6
ByBlock
100
AcDbLine
 10
0.6960296630859375
 20
0.994461059571222
 30
0.0
 11
5.500000000003638
 21
0.994461059571222
 31
0.0
  0
LINE
  5
1CC63
330
1CC30
100
AcDbEntity
  8
02製品
  6
ByBlock
100
AcDbLine
 10
0.0
 20
14.80008520759748
 30
0.0
 11
0.0
 21
2.199989179011936
 31
0.0
  0
ARC
  5
1CC64
330
1CC30
100
AcDbEntity
  8
02製品
  6
ByBlock
100
AcDbCircle
 10
12.00000000000364
 20
8.50000000000091
 30
0.0
 40
12.0
100
AcDbArc
 50
161.7759804502453
 51
198.2237823143827
  0
LINE
  5
1CC65
330
1CC30
100
AcDbEntity
  8
02製品
  6
ByBlock
100
AcDbLine
 10
0.601898193359375
 20
4.747253417969659
 30
0.0
 11
5.500000000003638
 21
4.747253417969659
 31
0.0
  0
LINE
  5
1CC66
330
1CC30
100
AcDbEntity
  8
02製品
  6
ByBlock
100
AcDbLine
 10
0.6019134521520755
 20
12.25280761718841
 30
0.0
 11
5.500000000003638
 21
12.25280761718841
 31
0.0
  0
LINE
  5
1CC67
330
1CC30
100
AcDbEntity
  8
02製品
  6
ByBlock
100
AcDbLine
 10
0.6960296630859375
 20
16.00556945800872
 30
0.0
 11
5.500000000003638
 21
16.00556945800872
 31
0.0
  0
LINE
  5
1CC68
330
1CC30
100
AcDbEntity
  8
02製品
  6
ByBlock
100
AcDbLine
 10
0.6019017629478185
 20
12.25283127231069
 30
0.0
 11
0.0
 21
14.80008520759748
 31
0.0
  0
LINE
  5
1CC69
330
1CC30
100
AcDbEntity
  8
02製品
  6
ByBlock
100
AcDbLine
 10
0.0
 20
2.199989179011936
 30
0.0
 11
0.6018760334482067
 21
4.747300551312037
 31
0.0
  0
LINE
  5
1CC6A
330
1CC30
100
AcDbEntity
  8
02製品
  6
ByBlock
100
AcDbLine
 10
0.0
 20
2.199989179011936
 30
0.0
 11
0.6959975911631773
 21
0.9944858559847489
 31
0.0
  0
LINE
  5
1CC6B
330
1CC30
100
AcDbEntity
  8
02製品
  6
ByBlock
100
AcDbLine
 10
0.6960187865770422
 20
16.00562524215911
 30
0.0
 11
0.0
 21
14.80008520759748
 31
0.0
  0
ENDBLK
  5
1CC6D
330
1CC30
100
AcDbEntity
  8
0
100
AcDbBlockEnd
  0
ENDSEC
  0
SECTION
  2
ENTITIES
  0
ARC
  5
1C7A4
330
1F
100
AcDbEntity
  8
02製品
  6
Continuous
100
AcDbCircle
 10
-11545.54133725153
 20
3666.116464691718
 30
0.0
 40
3.000000000000114
100
AcDbArc
 50
180.0
 51
270.0
  0
LINE
  5
1C7A5
330
1F
100
AcDbEntity
  8
02製品
  6
Continuous
100
AcDbLine
 10
-11548.54135251032
 20
3666.116480904181
 30
0.0
 11
-11548.54135251032
 21
3696.916465836127
 31
0.0
  0
ARC
  5
1C7A6
330
1F
100
AcDbEntity
  8
02製品
  6
Continuous
100
AcDbCircle
 10
-11545.54133725153
 20
3696.916464691721
 30
0.0
 40
3.000000000000114
100
AcDbArc
 50
90.0
 51
180.0
  0
LINE
  5
1C7A7
330
1F
100
AcDbEntity
  8
02製品
  6
Continuous
100
AcDbLine
 10
-10467.54126286493
 20
3703.116481381018
 30
0.0
 11
-11508.54139065729
 21
3703.116481381018
 31
0.0
  0
ARC
  5
1C7A8
330
1F
100
AcDbEntity
  8
02製品
  6
Continuous
100
AcDbCircle
 10
-10430.54133725153
 20
3696.916464691721
 30
0.0
 40
3.000000000000114
100
AcDbArc
 50
0.0
 51
90.0
  0
LINE
  5
1C7A9
330
1F
100
AcDbEntity
  8
02製品
  6
Continuous
100
AcDbLine
 10
-10427.54130101191
 20
3696.916465836127
 30
0.0
 11
-10427.54130101191
 21
3666.116480904181
 31
0.0
  0
ARC
  5
1C7AA
330
1F
100
AcDbEntity
  8
02製品
  6
Continuous
100
AcDbCircle
 10
-10430.54133725153
 20
3666.116464691718
 30
0.0
 40
3.000000000000114
100
AcDbArc
 50
270.0
 51
0.0
  0
LINE
  5
1C7AB
330
1F
100
AcDbEntity
  8
02製品
  6
Continuous
100
AcDbLine
 10
-11545.54133152948
 20
3663.116459923346
 30
0.0
 11
-10430.54132199274
 21
3663.116459923346
 31
0.0
  0
CIRCLE
  5
1C7AC
330
1F
100
AcDbEntity
  8
02製品
  6
Continuous
100
AcDbCircle
 10
-11531.04133725153
 20
3683.116464691718
 30
0.0
 40
5.000000000003979
  0
CIRCLE
  5
1C7AD
330
1F
100
AcDbEntity
  8
02製品
  6
Continuous
100
AcDbCircle
 10
-10445.04133725153
 20
3683.116464691718
 30
0.0
 40
5.000000000003979
  0
LINE
  5
1C7AE
330
1F
100
AcDbEntity
  8
02製品
  6
Continuous
100
AcDbLine
 10
-10467.54126286493
 20
3699.916486816962
 30
0.0
 11
-10430.54132199274
 21
3699.916486816962
 31
0.0
  0
LINE
  5
1C7AF
330
1F
100
AcDbEntity
  8
02製品
  6
Continuous
100
AcDbLine
 10
-10467.54126286493
 20
3699.916486816962
 30
0.0
 11
-10467.54126286493
 21
3703.116481381018
 31
0.0
  0
LINE
  5
1C7B0
330
1F
100
AcDbEntity
  8
02製品
  6
Continuous
100
AcDbLine
 10
-11508.54139065729
 20
3703.116481381018
 30
0.0
 11
-11508.54139065729
 21
3699.916486816962
 31
0.0
  0
LINE
  5
1C7B1
330
1F
100
AcDbEntity
  8
02製品
  6
Continuous
100
AcDbLine
 10
-11545.54133152948
 20
3699.916486816962
 30
0.0
 11
-11508.54139065729
 21
3699.916486816962
 31
0.0
  0
ARC
  5
1C7B2
330
1F
100
AcDbEntity
  8
02製品
  6
Continuous
100
AcDbCircle
 10
-10419.54133725153
 20
3666.11646469171
 30
0.0
 40
3.000000000000114
100
AcDbArc
 50
180.0
 51
270.0
  0
LINE
  5
1C7B3
330
1F
100
AcDbEntity
  8
02製品
  6
Continuous
100
AcDbLine
 10
-10422.54142498957
 20
3666.116480904181
 30
0.0
 11
-10422.54142498957
 21
3696.916465836127
 31
0.0
  0
ARC
  5
1C7B4
330
1F
100
AcDbEntity
  8
02製品
  6
Continuous
100
AcDbCircle
 10
-10419.54133725153
 20
3696.916464691706
 30
0.0
 40
3.000000000000682
100
AcDbArc
 50
90.0
 51
180.0
  0
LINE
  5
1C7B5
330
1F
100
AcDbEntity
  8
02製品
  6
Continuous
100
AcDbLine
 10
-9341.541335344182
 20
3703.116481381018
 30
0.0
 11
-10382.54122471796
 21
3703.116481381018
 31
0.0
  0
LINE
  5
1C7B6
330
1F
100
AcDbEntity
  8
02製品
  6
Continuous
100
AcDbLine
 10
-9341.541335344182
 20
3699.916486816962
 30
0.0
 11
-9304.54139447199
 21
3699.916486816962
 31
0.0
  0
ARC
  5
1C7B7
330
1F
100
AcDbEntity
  8
02製品
  6
Continuous
100
AcDbCircle
 10
-9304.54133725153
 20
3696.916464691706
 30
0.0
 40
3.000000000000682
100
AcDbArc
 50
0.0
 51
90.0
  0
LINE
  5
1C7B8
330
1F
100
AcDbEntity
  8
02製品
  6
Continuous
100
AcDbLine
 10
-9301.541373491154
 20
3696.916465836127
 30
0.0
 11
-9301.541373491154
 21
3666.116480904181
 31
0.0
  0
ARC
  5
1C7B9
330
1F
100
AcDbEntity
  8
02製品
  6
Continuous
100
AcDbCircle
 10
-9304.54133725153
 20
3666.11646469171
 30
0.0
 40
3.000000000000114
100
AcDbArc
 50
270.0
 51
0.0
  0
LINE
  5
1C7BA
330
1F
100
AcDbEntity
  8
02製品
  6
Continuous
100
AcDbLine
 10
-10419.54140400873
 20
3663.116459923346
 30
0.0
 11
-9304.54139447199
 21
3663.116459923346
 31
0.0
  0
CIRCLE
  5
1C7BB
330
1F
100
AcDbEntity
  8
02製品
  6
Continuous
100
AcDbCircle
 10
-10405.04133725153
 20
3683.116464691703
 30
0.0
 40
5.000000000003979
  0
CIRCLE
  5
1C7BC
330
1F
100
AcDbEntity
  8
02製品
  6
Continuous
100
AcDbCircle
 10
-9319.041337251589
 20
3683.116464691703
 30
0.0
 40
5.000000000003979
  0
LINE
  5
1C7BD
330
1F
100
AcDbEntity
  8
02製品
  6
Continuous
100
AcDbLine
 10
-10419.54140400873
 20
3699.916486816962
 30
0.0
 11
-10382.54122471796
 21
3699.916486816962
 31
0.0
  0
LINE
  5
1C7BE
330
1F
100
AcDbEntity
  8
02製品
  6
Continuous
100
AcDbLine
 10
-9341.541335344182
 20
3699.916486816962
 30
0.0
 11
-9341.541335344182
 21
3703.116481381018
 31
0.0
  0
LINE
  5
1C7BF
330
1F
100
AcDbEntity
  8
02製品
  6
Continuous
100
AcDbLine
 10
-10382.54122471796
 20
3703.116481381018
 30
0.0
 11
-10382.54122471796
 21
3699.916486816962
 31
0.0
  0
ARC
  5
1C7C0
330
1F
100
AcDbEntity
  8
02製品
  6
Continuous
100
AcDbCircle
 10
-12671.54133725153
 20
3666.116464691718
 30
0.0
 40
3.000000000000114
100
AcDbArc
 50
180.0
 51
270.0
  0
LINE
  5
1C7C1
330
1F
100
AcDbEntity
  8
02製品
  6
Continuous
100
AcDbLine
 10
-12674.54133730741
 20
3666.116480904181
 30
0.0
 11
-12674.54133730741
 21
3696.916465836127
 31
0.0
  0
ARC
  5
1C7C2
330
1F
100
AcDbEntity
  8
02製品
  6
Continuous
100
AcDbCircle
 10
-12671.54133725153
 20
3696.916464691721
 30
0.0
 40
3.000000000000114
100
AcDbArc
 50
90.0
 51
180.0
  0
LINE
  5
1C7C3
330
1F
100
AcDbEntity
  8
02製品
  6
Continuous
100
AcDbLine
 10
-12634.5413368045
 20
3703.116481381018
 30
0.0
 11
-12634.5413368045
 21
3699.916486816962
 31
0.0
  0
LINE
  5
1C7C4
330
1F
100
AcDbEntity
  8
02製品
  6
Continuous
100
AcDbLine
 10
-11593.54130959498
 20
3703.116481381018
 30
0.0
 11
-12634.5413368045
 21
3703.116481381018
 31
0.0
  0
LINE
  5
1C7C5
330
1F
100
AcDbEntity
  8
02製品
  6
Continuous
100
AcDbLine
 10
-11593.54130959498
 20
3699.916486816962
 30
0.0
 11
-11556.54136872278
 21
3699.916486816962
 31
0.0
  0
ARC
  5
1C7C6
330
1F
100
AcDbEntity
  8
02製品
  6
Continuous
100
AcDbCircle
 10
-11556.54133725153
 20
3696.916464691721
 30
0.0
 40
3.000000000000114
100
AcDbArc
 50
0.0
 51
90.0
  0
LINE
  5
1C7C7
330
1F
100
AcDbEntity
  8
02製品
  6
Continuous
100
AcDbLine
 10
-11553.54134774195
 20
3696.916465836127
 30
0.0
 11
-11553.54134774195
 21
3666.116480904181
 31
0.0
  0
ARC
  5
1C7C8
330
1F
100
AcDbEntity
  8
02製品
  6
Continuous
100
AcDbCircle
 10
-11556.54133725153
 20
3666.116464691718
 30
0.0
 40
3.000000000000114
100
AcDbArc
 50
270.0
 51
0.0
  0
LINE
  5
1C7C9
330
1F
100
AcDbEntity
  8
02製品
  6
Continuous
100
AcDbLine
 10
-12671.54133728133
 20
3663.116459923346
 30
0.0
 11
-11556.54136872278
 21
3663.116459923346
 31
0.0
  0
CIRCLE
  5
1C7CA
330
1F
100
AcDbEntity
  8
02製品
  6
Continuous
100
AcDbCircle
 10
-12657.04133725147
 20
3683.116464691718
 30
0.0
 40
5.000000000003837
  0
CIRCLE
  5
1C7CB
330
1F
100
AcDbEntity
  8
02製品
  6
Continuous
100
AcDbCircle
 10
-11571.04133725159
 20
3683.116464691718
 30
0.0
 40
5.000000000003695
  0
LINE
  5
1C7CC
330
1F
100
AcDbEntity
  8
02製品
  6
Continuous
100
AcDbLine
 10
-12671.54133728133
 20
3699.916486816962
 30
0.0
 11
-12634.5413368045
 21
3699.916486816962
 31
0.0
  0
LINE
  5
1C7CD
330
1F
100
AcDbEntity
  8
02製品
  6
Continuous
100
AcDbLine
 10
-11593.54130959498
 20
3699.916486816962
 30
0.0
 11
-11593.54130959498
 21
3703.116481381018
 31
0.0
  0
LINE
  5
1C7CE
330
1F
100
AcDbEntity
  8
02製品
  6
Continuous
100
AcDbLine
 10
-10389.54143261896
 20
4243.116465585787
 30
0.0
 11
-10385.04128193842
 21
4243.116465585787
 31
0.0
  0
LINE
  5
1C7CF
330
1F
100
AcDbEntity
  8
02製品
  6
Continuous
100
AcDbLine
 10
-10355.04131054865
 20
3433.11644084986
 30
0.0
 11
-10355.04131054865
 21
3437.616472321112
 31
0.0
  0
LINE
  5
1C7D0
330
1F
100
AcDbEntity
  8
02製品
  6
Continuous
100
AcDbLine
 10
-10495.04141545282
 20
3433.11644084986
 30
0.0
 11
-10355.04131054865
 21
3433.11644084986
 31
0.0
  0
LINE
  5
1C7D1
330
1F
100
AcDbEntity
  8
02製品
  6
Continuous
100
AcDbLine
 10
-10495.04141545282
 20
3437.616472321112
 30
0.0
 11
-10495.04141545282
 21
3433.11644084986
 31
0.0
  0
LINE
  5
1C7D2
330
1F
100
AcDbEntity
  8
02製品
  6
Continuous
100
AcDbLine
 10
-10460.54129338251
 20
4243.116465585787
 30
0.0
 11
-10465.04144406305
 21
4243.116465585787
 31
0.0
  0
LINE
  5
1C7D3
330
1F
100
AcDbEntity
  8
02製品
  6
Continuous
100
AcDbLine
 10
-10460.54129338251
 20
4243.116465585787
 30
0.0
 11
-10460.54129338251
 21
4278.116464803476
 31
0.0
  0
ARC
  5
1C7D4
330
1F
100
AcDbEntity
  8
02製品
  6
Continuous
100
AcDbCircle
 10
-10455.54133725153
 20
4278.116464691718
 30
0.0
 40
5.0
100
AcDbArc
 50
90.0
 51
180.0
  0
LINE
  5
1C7D5
330
1F
100
AcDbEntity
  8
02製品
  6
Continuous
100
AcDbLine
 10
-10455.54141736017
 20
4283.116464691718
 30
0.0
 11
-10394.5413086413
 21
4283.116464691718
 31
0.0
  0
ARC
  5
1C7D6
330
1F
100
AcDbEntity
  8
02製品
  6
Continuous
100
AcDbCircle
 10
-10394.54133725153
 20
4278.116464691718
 30
0.0
 40
5.0
100
AcDbArc
 50
0.0
 51
90.0
  0
LINE
  5
1C7D7
330
1F
100
AcDbEntity
  8
02製品
  6
Continuous
100
AcDbLine
 10
-10389.54143261896
 20
4278.116464803476
 30
0.0
 11
-10389.54143261896
 21
4243.116465585787
 31
0.0
  0
CIRCLE
  5
1C7D8
330
1F
100
AcDbEntity
  8
02製品
  6
Continuous
100
AcDbCircle
 10
-10405.04133725153
 20
3553.116464691718
 30
0.0
 40
2.350000000000136
  0
CIRCLE
  5
1C7D9
330
1F
100
AcDbEntity
  8
02製品
  6
Continuous
100
AcDbCircle
 10
-10445.04133725153
 20
4053.116464691718
 30
0.0
 40
2.349999999999568
  0
CIRCLE
  5
1C7DA
330
1F
100
AcDbEntity
  8
02製品
  6
Continuous
100
AcDbCircle
 10
-10405.04133725153
 20
4053.116464691718
 30
0.0
 40
2.350000000000136
  0
CIRCLE
  5
1C7DB
330
1F
100
AcDbEntity
  8
02製品
  6
Continuous
100
AcDbCircle
 10
-10405.04133725153
 20
3903.116464691718
 30
0.0
 40
2.350000000000136
  0
CIRCLE
  5
1C7DC
330
1F
100
AcDbEntity
  8
02製品
  6
Continuous
100
AcDbCircle
 10
-10445.04133725153
 20
3903.116464691718
 30
0.0
 40
2.349999999999568
  0
CIRCLE
  5
1C7DD
330
1F
100
AcDbEntity
  8
02製品
  6
Continuous
100
AcDbCircle
 10
-10405.04133725153
 20
3703.116464691718
 30
0.0
 40
2.350000000000136
  0
CIRCLE
  5
1C7DE
330
1F
100
AcDbEntity
  8
02製品
  6
Continuous
100
AcDbCircle
 10
-10445.04133725153
 20
3703.116464691718
 30
0.0
 40
2.349999999999568
  0
CIRCLE
  5
1C7DF
330
1F
100
AcDbEntity
  8
02製品
  6
Continuous
100
AcDbCircle
 10
-10445.04133725153
 20
3553.116464691718
 30
0.0
 40
2.350000000000136
  0
CIRCLE
  5
1C7E0
330
1F
100
AcDbEntity
  8
02製品
  6
Continuous
100
AcDbCircle
 10
-10450.04133725153
 20
4263.116464691718
 30
0.0
 40
4.999999999999432
  0
CIRCLE
  5
1C7E1
330
1F
100
AcDbEntity
  8
02製品
  6
Continuous
100
AcDbCircle
 10
-10400.04133725153
 20
4263.116464691718
 30
0.0
 40
5.0
  0
LINE
  5
1C7E2
330
1F
100
AcDbEntity
  8
02製品
  6
Continuous
100
AcDbLine
 10
-10355.04131054865
 20
3437.616472321112
 30
0.0
 11
-10385.04128193842
 21
3437.616472321112
 31
0.0
  0
LINE
  5
1C7E3
330
1F
100
AcDbEntity
  8
02製品
  6
Continuous
100
AcDbLine
 10
-10465.04144406305
 20
3437.616472321112
 30
0.0
 11
-10495.04141545282
 21
3437.616472321112
 31
0.0
  0
LINE
  5
1C7E4
330
1F
100
AcDbEntity
  8
02製品
  6
Continuous
100
AcDbLine
 10
-10465.04144406305
 20
4243.116465585787
 30
0.0
 11
-10465.04144406305
 21
3699.916486816962
 31
0.0
  0
LINE
  5
1C7E5
330
1F
100
AcDbEntity
  8
02製品
  6
Continuous
100
AcDbLine
 10
-10465.04144406305
 20
3663.116459923346
 30
0.0
 11
-10465.04144406305
 21
3437.616472321112
 31
0.0
  0
LINE
  5
1C7E6
330
1F
100
AcDbEntity
  8
02製品
  6
Continuous
100
AcDbLine
 10
-10385.04128193842
 20
4243.116465585787
 30
0.0
 11
-10385.04128193842
 21
3699.916486816962
 31
0.0
  0
LINE
  5
1C7E7
330
1F
100
AcDbEntity
  8
02製品
  6
Continuous
100
AcDbLine
 10
-10385.04128193842
 20
3663.116459923346
 30
0.0
 11
-10385.04128193842
 21
3437.616472321112
 31
0.0
  0
LINE
  5
1C7E8
330
1F
100
AcDbEntity
  8
02製品
  6
Continuous
100
AcDbLine
 10
-10500.04129147516
 20
3433.11644084986
 30
0.0
 11
-10500.04129147516
 21
3437.616472321112
 31
0.0
  0
LINE
  5
1C7E9
330
1F
100
AcDbEntity
  8
02製品
  6
Continuous
100
AcDbLine
 10
-10495.04141545282
 20
3433.11644084986
 30
0.0
 11
-10500.04129147516
 21
3433.11644084986
 31
0.0
  0
LINE
  5
1C7EA
330
1F
100
AcDbEntity
  8
02製品
  6
Continuous
100
AcDbLine
 10
-10500.04129147516
 20
3437.616472321112
 30
0.0
 11
-10495.04141545282
 21
3437.616472321112
 31
0.0
  0
LINE
  5
1C7EB
330
1F
100
AcDbEntity
  8
02製品
  6
Continuous
100
AcDbLine
 10
-10350.04143452631
 20
3437.616472321112
 30
0.0
 11
-10350.04143452631
 21
3433.11644084986
 31
0.0
  0
LINE
  5
1C7EC
330
1F
100
AcDbEntity
  8
02製品
  6
Continuous
100
AcDbLine
 10
-10350.04143452631
 20
3433.11644084986
 30
0.0
 11
-10355.04131054865
 21
3433.11644084986
 31
0.0
  0
LINE
  5
1C7ED
330
1F
100
AcDbEntity
  8
02製品
  6
Continuous
100
AcDbLine
 10
-10355.04131054865
 20
3437.616472321112
 30
0.0
 11
-10350.04143452631
 21
3437.616472321112
 31
0.0
  0
LINE
  5
1C7EE
330
1F
100
AcDbEntity
  8
02製品
  6
Continuous
100
AcDbLine
 10
-11515.54136013971
 20
4243.116465585787
 30
0.0
 11
-11511.04132866846
 21
4243.116465585787
 31
0.0
  0
LINE
  5
1C7EF
330
1F
100
AcDbEntity
  8
02製品
  6
Continuous
100
AcDbLine
 10
-11481.04135727869
 20
3433.11644084986
 30
0.0
 11
-11481.04135727869
 21
3437.616472321112
 31
0.0
  0
LINE
  5
1C7F0
330
1F
100
AcDbEntity
  8
02製品
  6
Continuous
100
AcDbLine
 10
-11621.04134297358
 20
3433.11644084986
 30
0.0
 11
-11481.04135727869
 21
3433.11644084986
 31
0.0
  0
LINE
  5
1C7F1
330
1F
100
AcDbEntity
  8
02製品
  6
Continuous
100
AcDbLine
 10
-11621.04134297358
 20
3437.616472321112
 30
0.0
 11
-11621.04134297358
 21
3433.11644084986
 31
0.0
  0
LINE
  5
1C7F2
330
1F
100
AcDbEntity
  8
02製品
  6
Continuous
100
AcDbLine
 10
-11586.54134011255
 20
4243.116465585787
 30
0.0
 11
-11591.04137158381
 21
4243.116465585787
 31
0.0
  0
LINE
  5
1C7F3
330
1F
100
AcDbEntity
  8
02製品
  6
Continuous
100
AcDbLine
 10
-11586.54134011255
 20
4243.116465585787
 30
0.0
 11
-11586.54134011255
 21
4278.116464803476
 31
0.0
  0
ARC
  5
1C7F4
330
1F
100
AcDbEntity
  8
02製品
  6
Continuous
100
AcDbCircle
 10
-11581.54133725159
 20
4278.116464691718
 30
0.0
 40
5.0
100
AcDbArc
 50
90.0
 51
180.0
  0
LINE
  5
1C7F5
330
1F
100
AcDbEntity
  8
02製品
  6
Continuous
100
AcDbLine
 10
-11581.54134488092
 20
4283.116464691718
 30
0.0
 11
-11520.54135537134
 21
4283.116464691718
 31
0.0
  0
ARC
  5
1C7F6
330
1F
100
AcDbEntity
  8
02製品
  6
Continuous
100
AcDbCircle
 10
-11520.54133725153
 20
4278.116464691718
 30
0.0
 40
5.0
100
AcDbArc
 50
0.0
 51
90.0
  0
LINE
  5
1C7F7
330
1F
100
AcDbEntity
  8
02製品
  6
Continuous
100
AcDbLine
 10
-11515.54136013971
 20
4278.116464803476
 30
0.0
 11
-11515.54136013971
 21
4243.116465585787
 31
0.0
  0
CIRCLE
  5
1C7F8
330
1F
100
AcDbEntity
  8
02製品
  6
Continuous
100
AcDbCircle
 10
-11531.04133725159
 20
3553.116464691718
 30
0.0
 40
2.349999999999852
  0
CIRCLE
  5
1C7F9
330
1F
100
AcDbEntity
  8
02製品
  6
Continuous
100
AcDbCircle
 10
-11571.04133725159
 20
4053.116464691718
 30
0.0
 40
2.350000000000136
  0
CIRCLE
  5
1C7FA
330
1F
100
AcDbEntity
  8
02製品
  6
Continuous
100
AcDbCircle
 10
-11531.04133725159
 20
4053.116464691718
 30
0.0
 40
2.349999999999852
  0
CIRCLE
  5
1C7FB
330
1F
100
AcDbEntity
  8
02製品
  6
Continuous
100
AcDbCircle
 10
-11531.04133725159
 20
3903.116464691718
 30
0.0
 40
2.349999999999852
  0
CIRCLE
  5
1C7FC
330
1F
100
AcDbEntity
  8
02製品
  6
Continuous
100
AcDbCircle
 10
-11571.04133725159
 20
3903.116464691718
 30
0.0
 40
2.350000000000136
  0
CIRCLE
  5
1C7FD
330
1F
100
AcDbEntity
  8
02製品
  6
Continuous
100
AcDbCircle
 10
-11531.04133725159
 20
3703.116464691718
 30
0.0
 40
2.349999999999852
  0
CIRCLE
  5
1C7FE
330
1F
100
AcDbEntity
  8
02製品
  6
Continuous
100
AcDbCircle
 10
-11571.04133725159
 20
3703.116464691718
 30
0.0
 40
2.350000000000136
  0
CIRCLE
  5
1C7FF
330
1F
100
AcDbEntity
  8
02製品
  6
Continuous
100
AcDbCircle
 10
-11571.04133725159
 20
3553.116464691718
 30
0.0
 40
2.350000000000136
  0
CIRCLE
  5
1C800
330
1F
100
AcDbEntity
  8
02製品
  6
Continuous
100
AcDbCircle
 10
-11576.04133725159
 20
4263.116464691718
 30
0.0
 40
5.0
  0
CIRCLE
  5
1C801
330
1F
100
AcDbEntity
  8
02製品
  6
Continuous
100
AcDbCircle
 10
-11526.04133725159
 20
4263.116464691718
 30
0.0
 40
5.0
  0
LINE
  5
1C802
330
1F
100
AcDbEntity
  8
02製品
  6
Continuous
100
AcDbLine
 10
-11481.04135727869
 20
3437.616472321112
 30
0.0
 11
-11511.04132866846
 21
3437.616472321112
 31
0.0
  0
LINE
  5
1C803
330
1F
100
AcDbEntity
  8
02製品
  6
Continuous
100
AcDbLine
 10
-11591.04137158381
 20
4243.116465585787
 30
0.0
 11
-11591.04137158381
 21
3699.916486816962
 31
0.0
  0
LINE
  5
1C804
330
1F
100
AcDbEntity
  8
02製品
  6
Continuous
100
AcDbLine
 10
-11591.04137158381
 20
3663.116459923346
 30
0.0
 11
-11591.04137158381
 21
3437.616472321112
 31
0.0
  0
LINE
  5
1C805
330
1F
100
AcDbEntity
  8
02製品
  6
Continuous
100
AcDbLine
 10
-11591.04137158381
 20
3437.616472321112
 30
0.0
 11
-11621.04134297358
 21
3437.616472321112
 31
0.0
  0
LINE
  5
1C806
330
1F
100
AcDbEntity
  8
02製品
  6
Continuous
100
AcDbLine
 10
-11511.04132866846
 20
4243.116465585787
 30
0.0
 11
-11511.04132866846
 21
3699.916486816962
 31
0.0
  0
LINE
  5
1C807
330
1F
100
AcDbEntity
  8
02製品
  6
Continuous
100
AcDbLine
 10
-11511.04132866846
 20
3663.116459923346
 30
0.0
 11
-11511.04132866846
 21
3437.616472321112
 31
0.0
  0
LINE
  5
1C808
330
1F
100
AcDbEntity
  8
02製品
  6
Continuous
100
AcDbLine
 10
-11621.04134297358
 20
3433.11644084986
 30
0.0
 11
-11626.0413382052
 21
3433.11644084986
 31
0.0
  0
LINE
  5
1C809
330
1F
100
AcDbEntity
  8
02製品
  6
Continuous
100
AcDbLine
 10
-11626.0413382052
 20
3433.11644084986
 30
0.0
 11
-11626.0413382052
 21
3437.616472321112
 31
0.0
  0
LINE
  5
1C80A
330
1F
100
AcDbEntity
  8
02製品
  6
Continuous
100
AcDbLine
 10
-11626.0413382052
 20
3437.616472321112
 30
0.0
 11
-11621.04134297358
 21
3437.616472321112
 31
0.0
  0
LINE
  5
1C80B
330
1F
100
AcDbEntity
  8
02製品
  6
Continuous
100
AcDbLine
 10
-11476.04136204706
 20
3437.616472321112
 30
0.0
 11
-11476.04136204706
 21
3433.11644084986
 31
0.0
  0
LINE
  5
1C80C
330
1F
100
AcDbEntity
  8
02製品
  6
Continuous
100
AcDbLine
 10
-11476.04136204706
 20
3433.11644084986
 30
0.0
 11
-11481.04135727869
 21
3433.11644084986
 31
0.0
  0
LINE
  5
1C80D
330
1F
100
AcDbEntity
  8
02製品
  6
Continuous
100
AcDbLine
 10
-11481.04135727869
 20
3437.616472321112
 30
0.0
 11
-11476.04136204706
 21
3437.616472321112
 31
0.0
  0
ARC
  5
1C80E
330
1F
100
AcDbEntity
  8
02製品
  6
Continuous
100
AcDbCircle
 10
-12535.34133725158
 20
4280.116464691725
 30
0.0
 40
3.000000000000114
100
AcDbArc
 50
0.0
 51
90.0
  0
LINE
  5
1C80F
330
1F
100
AcDbEntity
  8
02製品
  6
Continuous
100
AcDbLine
 10
-12532.34133160101
 20
4280.116464665641
 30
0.0
 11
-12532.34133160101
 21
4243.116465585787
 31
0.0
  0
LINE
  5
1C810
330
1F
100
AcDbEntity
  8
02製品
  6
Continuous
100
AcDbLine
 10
-12532.34133160101
 20
4243.116465585787
 30
0.0
 11
-12642.34133845554
 21
4133.116458731253
 31
0.0
  0
LINE
  5
1C811
330
1F
100
AcDbEntity
  8
02製品
  6
Continuous
100
AcDbLine
 10
-12642.34133845554
 20
4133.116458731253
 30
0.0
 11
-12642.34133845554
 21
3699.916486816962
 31
0.0
  0
LINE
  5
1C812
330
1F
100
AcDbEntity
  8
02製品
  6
Continuous
100
AcDbLine
 10
-12642.34133845554
 20
3663.116459923346
 30
0.0
 11
-12642.34133845554
 21
3433.11644084986
 31
0.0
  0
LINE
  5
1C813
330
1F
100
AcDbEntity
  8
02製品
  6
Continuous
100
AcDbLine
 10
-12642.34133845554
 20
3433.11644084986
 30
0.0
 11
-12662.84123750763
 21
3433.11644084986
 31
0.0
  0
LINE
  5
1C814
330
1F
100
AcDbEntity
  8
02製品
  6
Continuous
100
AcDbLine
 10
-12662.84123750763
 20
3437.616472321112
 30
0.0
 11
-12662.84123750763
 21
3433.11644084986
 31
0.0
  0
LINE
  5
1C815
330
1F
100
AcDbEntity
  8
02製品
  6
Continuous
100
AcDbLine
 10
-12677.84123723056
 20
3437.616472321112
 30
0.0
 11
-12662.84123750763
 21
3437.616472321112
 31
0.0
  0
LINE
  5
1C816
330
1F
100
AcDbEntity
  8
02製品
  6
Continuous
100
AcDbLine
 10
-12677.84123723056
 20
3437.616591530402
 30
0.0
 11
-12677.84123723056
 21
3437.616472321112
 31
0.0
  0
LINE
  5
1C817
330
1F
100
AcDbEntity
  8
02製品
  6
Continuous
100
AcDbLine
 10
-12682.34133709581
 20
3437.616591530402
 30
0.0
 11
-12677.84123723056
 21
3437.616591530402
 31
0.0
  0
LINE
  5
1C818
330
1F
100
AcDbEntity
  8
02製品
  6
Continuous
100
AcDbLine
 10
-12682.34133709581
 20
4283.116464691725
 30
0.0
 11
-12682.34133709581
 21
3437.616591530402
 31
0.0
  0
LINE
  5
1C819
330
1F
100
AcDbEntity
  8
02製品
  6
Continuous
100
AcDbLine
 10
-12535.34133768068
 20
4283.116464691725
 30
0.0
 11
-12682.34133709581
 21
4283.116464691725
 31
0.0
  0
CIRCLE
  5
1C81A
330
1F
100
AcDbEntity
  8
02製品
  6
Continuous
100
AcDbCircle
 10
-12552.04133725153
 20
4263.116464691725
 30
0.0
 40
5.000000000000142
  0
CIRCLE
  5
1C81B
330
1F
100
AcDbEntity
  8
02製品
  6
Continuous
100
AcDbCircle
 10
-12652.04133725153
 20
4263.116464691725
 30
0.0
 40
5.000000000000284
  0
CIRCLE
  5
1C81C
330
1F
100
AcDbEntity
  8
02製品
  6
Continuous
100
AcDbCircle
 10
-12657.04133725153
 20
3553.116464691725
 30
0.0
 40
2.350000000000136
  0
CIRCLE
  5
1C81D
330
1F
100
AcDbEntity
  8
02製品
  6
Continuous
100
AcDbCircle
 10
-12657.04133725153
 20
3703.116464691725
 30
0.0
 40
2.349999999999852
  0
CIRCLE
  5
1C81E
330
1F
100
AcDbEntity
  8
02製品
  6
Continuous
100
AcDbCircle
 10
-12657.04133725153
 20
3903.116464691725
 30
0.0
 40
2.350000000000136
  0
CIRCLE
  5
1C81F
330
1F
100
AcDbEntity
  8
02製品
  6
Continuous
100
AcDbCircle
 10
-12657.04133725153
 20
4053.116464691725
 30
0.0
 40
2.350000000000136
  0
LINE
  5
1C820
330
1F
100
AcDbEntity
  8
02製品
  6
Continuous
100
AcDbLine
 10
-12677.84123723056
 20
3437.616472321112
 30
0.0
 11
-12677.84123723056
 21
3433.11644084986
 31
0.0
  0
LINE
  5
1C821
330
1F
100
AcDbEntity
  8
02製品
  6
Continuous
100
AcDbLine
 10
-12662.84123750763
 20
3433.11644084986
 30
0.0
 11
-12677.84123723056
 21
3433.11644084986
 31
0.0
  0
LINE
  5
1C822
330
1F
100
AcDbEntity
  8
02製品
  6
Continuous
100
AcDbLine
 10
-12607.04133695351
 20
3437.616472321112
 30
0.0
 11
-12607.04133695351
 21
3433.11644084986
 31
0.0
  0
LINE
  5
1C823
330
1F
100
AcDbEntity
  8
02製品
  6
Continuous
100
AcDbLine
 10
-12642.34133845554
 20
3437.616472321112
 30
0.0
 11
-12607.04133695351
 21
3437.616472321112
 31
0.0
  0
LINE
  5
1C824
330
1F
100
AcDbEntity
  8
02製品
  6
Continuous
100
AcDbLine
 10
-12642.34133845554
 20
3433.11644084986
 30
0.0
 11
-12607.04133695351
 21
3433.11644084986
 31
0.0
  0
LINE
  5
1C825
330
1F
100
AcDbEntity
  8
02製品
  6
Continuous
100
AcDbLine
 10
-12602.0413342713
 20
3433.11644084986
 30
0.0
 11
-12602.0413342713
 21
3437.616472321112
 31
0.0
  0
LINE
  5
1C826
330
1F
100
AcDbEntity
  8
02製品
  6
Continuous
100
AcDbLine
 10
-12602.0413342713
 20
3437.616472321112
 30
0.0
 11
-12607.04133695351
 21
3437.616472321112
 31
0.0
  0
LINE
  5
1C827
330
1F
100
AcDbEntity
  8
02製品
  6
Continuous
100
AcDbLine
 10
-12607.04133695351
 20
3433.11644084986
 30
0.0
 11
-12602.0413342713
 21
3433.11644084986
 31
0.0
  0
LINE
  5
1C828
330
1F
100
AcDbEntity
  8
02製品
  6
Continuous
100
AcDbLine
 10
-9293.741271257268
 20
4283.116464691725
 30
0.0
 11
-9293.741271257268
 21
3437.616591530402
 31
0.0
  0
LINE
  5
1C829
330
1F
100
AcDbEntity
  8
02製品
  6
Continuous
100
AcDbLine
 10
-9293.741271257268
 20
3437.616591530402
 30
0.0
 11
-9298.24142193781
 21
3437.616591530402
 31
0.0
  0
LINE
  5
1C82A
330
1F
100
AcDbEntity
  8
02製品
  6
Continuous
100
AcDbLine
 10
-9298.24142193781
 20
3437.616591530402
 30
0.0
 11
-9298.24142193781
 21
3437.616472321112
 31
0.0
  0
LINE
  5
1C82B
330
1F
100
AcDbEntity
  8
02製品
  6
Continuous
100
AcDbLine
 10
-9298.24142193781
 20
3437.616472321112
 30
0.0
 11
-9313.241526841985
 21
3437.616472321112
 31
0.0
  0
LINE
  5
1C82C
330
1F
100
AcDbEntity
  8
02製品
  6
Continuous
100
AcDbLine
 10
-9313.241526841985
 20
3437.616472321112
 30
0.0
 11
-9313.241526841985
 21
3433.11644084986
 31
0.0
  0
LINE
  5
1C82D
330
1F
100
AcDbEntity
  8
02製品
  6
Continuous
100
AcDbLine
 10
-9333.741233110295
 20
3433.11644084986
 30
0.0
 11
-9313.241526841985
 21
3433.11644084986
 31
0.0
  0
LINE
  5
1C82E
330
1F
100
AcDbEntity
  8
02製品
  6
Continuous
100
AcDbLine
 10
-9333.741233110295
 20
4133.116458731253
 30
0.0
 11
-9333.741233110295
 21
3699.916486816962
 31
0.0
  0
LINE
  5
1C82F
330
1F
100
AcDbEntity
  8
02製品
  6
Continuous
100
AcDbLine
 10
-9333.741233110295
 20
3663.116459923346
 30
0.0
 11
-9333.741233110295
 21
3433.11644084986
 31
0.0
  0
LINE
  5
1C830
330
1F
100
AcDbEntity
  8
02製品
  6
Continuous
100
AcDbLine
 10
-9443.7413666247
 20
4243.116465585787
 30
0.0
 11
-9333.741233110295
 21
4133.116458731253
 31
0.0
  0
LINE
  5
1C831
330
1F
100
AcDbEntity
  8
02製品
  6
Continuous
100
AcDbLine
 10
-9443.7413666247
 20
4280.116464665641
 30
0.0
 11
-9443.7413666247
 21
4243.116465585787
 31
0.0
  0
LINE
  5
1C832
330
1F
100
AcDbEntity
  8
02製品
  6
Continuous
100
AcDbLine
 10
-9440.741345643864
 20
4283.116464691725
 30
0.0
 11
-9293.741271257268
 21
4283.116464691725
 31
0.0
  0
CIRCLE
  5
1C833
330
1F
100
AcDbEntity
  8
02製品
  6
Continuous
100
AcDbCircle
 10
-9424.041337251589
 20
4263.116464691725
 30
0.0
 40
4.999999999999432
  0
CIRCLE
  5
1C834
330
1F
100
AcDbEntity
  8
02製品
  6
Continuous
100
AcDbCircle
 10
-9324.041337251589
 20
4263.116464691725
 30
0.0
 40
4.999999999999432
  0
CIRCLE
  5
1C835
330
1F
100
AcDbEntity
  8
02製品
  6
Continuous
100
AcDbCircle
 10
-9319.041337251589
 20
3553.116464691725
 30
0.0
 40
2.350000000001273
  0
CIRCLE
  5
1C836
330
1F
100
AcDbEntity
  8
02製品
  6
Continuous
100
AcDbCircle
 10
-9319.041337251589
 20
3703.116464691725
 30
0.0
 40
2.350000000001273
  0
CIRCLE
  5
1C837
330
1F
100
AcDbEntity
  8
02製品
  6
Continuous
100
AcDbCircle
 10
-9319.041337251589
 20
3903.116464691725
 30
0.0
 40
2.350000000001273
  0
CIRCLE
  5
1C838
330
1F
100
AcDbEntity
  8
02製品
  6
Continuous
100
AcDbCircle
 10
-9319.041337251589
 20
4053.116464691725
 30
0.0
 40
2.350000000001273
  0
ARC
  5
1C839
330
1F
100
AcDbEntity
  8
02製品
  6
Continuous
100
AcDbCircle
 10
-9440.741337251542
 20
4280.116464691725
 30
0.0
 40
3.000000000000682
100
AcDbArc
 50
90.0
 51
179.999999999861
  0
LINE
  5
1C83A
330
1F
100
AcDbEntity
  8
02製品
  6
Continuous
100
AcDbLine
 10
-9298.24142193781
 20
3437.616472321112
 30
0.0
 11
-9298.24142193781
 21
3433.11644084986
 31
0.0
  0
LINE
  5
1C83B
330
1F
100
AcDbEntity
  8
02製品
  6
Continuous
100
AcDbLine
 10
-9313.241526841985
 20
3433.11644084986
 30
0.0
 11
-9298.24142193781
 21
3433.11644084986
 31
0.0
  0
LINE
  5
1C83C
330
1F
100
AcDbEntity
  8
02製品
  6
Continuous
100
AcDbLine
 10
-9369.041249513493
 20
3437.616472321112
 30
0.0
 11
-9369.041249513493
 21
3433.11644084986
 31
0.0
  0
LINE
  5
1C83D
330
1F
100
AcDbEntity
  8
02製品
  6
Continuous
100
AcDbLine
 10
-9333.741233110295
 20
3437.616472321112
 30
0.0
 11
-9369.041249513493
 21
3437.616472321112
 31
0.0
  0
LINE
  5
1C83E
330
1F
100
AcDbEntity
  8
02製品
  6
Continuous
100
AcDbLine
 10
-9333.741233110295
 20
3433.11644084986
 30
0.0
 11
-9369.041249513493
 21
3433.11644084986
 31
0.0
  0
LINE
  5
1C83F
330
1F
100
AcDbEntity
  8
02製品
  6
Continuous
100
AcDbLine
 10
-9374.041363954411
 20
3433.11644084986
 30
0.0
 11
-9374.041363954411
 21
3437.616472321112
 31
0.0
  0
LINE
  5
1C840
330
1F
100
AcDbEntity
  8
02製品
  6
Continuous
100
AcDbLine
 10
-9374.041363954411
 20
3437.616472321112
 30
0.0
 11
-9369.041249513493
 21
3437.616472321112
 31
0.0
  0
LINE
  5
1C841
330
1F
100
AcDbEntity
  8
02製品
  6
Continuous
100
AcDbLine
 10
-9369.041249513493
 20
3433.11644084986
 30
0.0
 11
-9374.041363954411
 21
3433.11644084986
 31
0.0
  0
LINE
  5
1C842
330
1F
100
AcDbEntity
  8
02製品
  6
Continuous
100
AcDbLine
 10
-9440.741345643864
 20
4283.116464691718
 30
0.0
 11
-10394.5413086413
 21
4283.116464691718
 31
0.0
  0
LINE
  5
1C843
330
1F
100
AcDbEntity
  8
02製品
  6
Continuous
100
AcDbLine
 10
-9443.7413666247
 20
4243.116465585787
 30
0.0
 11
-10385.04128193842
 21
4243.116465585787
 31
0.0
  0
CIRCLE
  5
1C844
330
1F
100
AcDbEntity
  8
02製品
  6
Continuous
100
AcDbCircle
 10
-10300.04133725153
 20
4263.116464691718
 30
0.0
 40
4.999999999999432
  0
LINE
  5
1C845
330
1F
100
AcDbEntity
  8
02製品
  6
Continuous
100
AcDbLine
 10
-10465.04144406305
 20
4243.116465585787
 30
0.0
 11
-11511.04132866846
 21
4243.116465585787
 31
0.0
  0
CIRCLE
  5
1C846
330
1F
100
AcDbEntity
  8
02製品
  6
Continuous
100
AcDbCircle
 10
-10550.04133725153
 20
4263.116464691718
 30
0.0
 40
5.0
  0
CIRCLE
  5
1C847
330
1F
100
AcDbEntity
  8
02製品
  6
Continuous
100
AcDbCircle
 10
-11426.04133725159
 20
4263.116464691718
 30
0.0
 40
4.999999999999716
  0
LINE
  5
1C848
330
1F
100
AcDbEntity
  8
02製品
  6
Continuous
100
AcDbLine
 10
-10455.54141736017
 20
4283.116464691718
 30
0.0
 11
-11520.54135537134
 21
4283.116464691718
 31
0.0
  0
LINE
  5
1C849
330
1F
100
AcDbEntity
  8
02製品
  6
Continuous
100
AcDbLine
 10
-11581.54134488092
 20
4283.116464691718
 30
0.0
 11
-12535.34133768068
 21
4283.116464691718
 31
0.0
  0
LINE
  5
1C84A
330
1F
100
AcDbEntity
  8
02製品
  6
Continuous
100
AcDbLine
 10
-11591.04137158381
 20
4243.116465585787
 30
0.0
 11
-12532.34133160101
 21
4243.116465585787
 31
0.0
  0
CIRCLE
  5
1C84B
330
1F
100
AcDbEntity
  8
02製品
  6
Continuous
100
AcDbCircle
 10
-11676.04133725159
 20
4263.116464691718
 30
0.0
 40
4.999999999999716
  0
LINE
  5
1C84C
330
1F
100
AcDbEntity
  8
02製品
  6
Continuous
100
AcDbLine
 10
-8523.116104278482
 20
3696.916465836127
 30
0.0
 11
-8526.316104896136
 21
3696.916465836127
 31
0.0
  0
LINE
  5
1C84D
330
1F
100
AcDbEntity
  8
02製品
  6
Continuous
100
AcDbLine
 10
-8526.316104896136
 20
3666.116480904181
 30
0.0
 11
-8523.116104278482
 21
3666.116480904181
 31
0.0
  0
LINE
  5
1C84E
330
1F
100
AcDbEntity
  8
02製品
  6
Continuous
100
AcDbLine
 10
-8526.316104896136
 20
3696.916465836127
 30
0.0
 11
-8526.316104896136
 21
3666.116480904181
 31
0.0
  0
LINE
  5
1C84F
330
1F
100
AcDbEntity
  8
02製品
  6
Continuous
100
AcDbLine
 10
-8523.116104278482
 20
3663.116459923346
 30
0.0
 11
-8526.316104896136
 21
3663.116459923346
 31
0.0
  0
LINE
  5
1C850
330
1F
100
AcDbEntity
  8
02製品
  6
Continuous
100
AcDbLine
 10
-8526.316104896136
 20
3663.116459923346
 30
0.0
 11
-8526.316104896136
 21
3666.116480904181
 31
0.0
  0
LINE
  5
1C851
330
1F
100
AcDbEntity
  8
02製品
  6
Continuous
100
AcDbLine
 10
-8526.316104896136
 20
3696.916465836127
 30
0.0
 11
-8526.316104896136
 21
3699.916486816962
 31
0.0
  0
LINE
  5
1C852
330
1F
100
AcDbEntity
  8
02製品
  6
Continuous
100
AcDbLine
 10
-8526.316104896136
 20
3699.916486816962
 30
0.0
 11
-8523.116104278482
 21
3699.916486816962
 31
0.0
  0
LINE
  5
1C853
330
1F
100
AcDbEntity
  8
02製品
  6
Continuous
100
AcDbLine
 10
-8500.766104526587
 20
3703.116481381018
 30
0.0
 11
-8505.466103993125
 21
3703.116481381018
 31
0.0
  0
LINE
  5
1C854
330
1F
100
AcDbEntity
  8
02製品
  6
Continuous
100
AcDbLine
 10
-8523.116104278482
 20
3703.116481381018
 30
0.0
 11
-8526.316104896136
 21
3703.116481381018
 31
0.0
  0
LINE
  5
1C855
330
1F
100
AcDbEntity
  8
02製品
  6
Continuous
100
AcDbLine
 10
-8526.316104896136
 20
3699.916486816962
 30
0.0
 11
-8526.316104896136
 21
3703.116481381018
 31
0.0
  0
LINE
  5
1C856
330
1F
100
AcDbEntity
  8
02製品
  6
Continuous
100
AcDbLine
 10
-7443.116106532283
 20
3666.116480904181
 30
0.0
 11
-7439.916052363582
 21
3666.116480904181
 31
0.0
  0
LINE
  5
1C857
330
1F
100
AcDbEntity
  8
02製品
  6
Continuous
100
AcDbLine
 10
-7439.916052363582
 20
3696.916465836127
 30
0.0
 11
-7443.116106532283
 21
3696.916465836127
 31
0.0
  0
LINE
  5
1C858
330
1F
100
AcDbEntity
  8
02製品
  6
Continuous
100
AcDbLine
 10
-7439.916052363582
 20
3666.116480904181
 30
0.0
 11
-7439.916052363582
 21
3696.916465836127
 31
0.0
  0
LINE
  5
1C859
330
1F
100
AcDbEntity
  8
02製品
  6
Continuous
100
AcDbLine
 10
-7443.116106532283
 20
3699.916486816962
 30
0.0
 11
-7439.916052363582
 21
3699.916486816962
 31
0.0
  0
LINE
  5
1C85A
330
1F
100
AcDbEntity
  8
02製品
  6
Continuous
100
AcDbLine
 10
-7439.916052363582
 20
3699.916486816962
 30
0.0
 11
-7439.916052363582
 21
3696.916465836127
 31
0.0
  0
LINE
  5
1C85B
330
1F
100
AcDbEntity
  8
02製品
  6
Continuous
100
AcDbLine
 10
-7439.916052363582
 20
3663.116459923346
 30
0.0
 11
-7443.116106532283
 21
3663.116459923346
 31
0.0
  0
LINE
  5
1C85C
330
1F
100
AcDbEntity
  8
02製品
  6
Continuous
100
AcDbLine
 10
-7439.916052363582
 20
3666.116480904181
 30
0.0
 11
-7439.916052363582
 21
3663.116459923346
 31
0.0
  0
LINE
  5
1C85D
330
1F
100
AcDbEntity
  8
02製品
  6
Continuous
100
AcDbLine
 10
-7465.466060183711
 20
3703.116481381018
 30
0.0
 11
-7460.766114733882
 21
3703.116481381018
 31
0.0
  0
LINE
  5
1C85E
330
1F
100
AcDbEntity
  8
02製品
  6
Continuous
100
AcDbLine
 10
-7443.116106532283
 20
3703.116481381018
 30
0.0
 11
-7439.916052363582
 21
3703.116481381018
 31
0.0
  0
LINE
  5
1C85F
330
1F
100
AcDbEntity
  8
02製品
  6
Continuous
100
AcDbLine
 10
-7439.916052363582
 20
3703.116481381018
 30
0.0
 11
-7439.916052363582
 21
3699.916486816962
 31
0.0
  0
LINE
  5
1C860
330
1F
100
AcDbEntity
  8
02製品
  6
Continuous
100
AcDbLine
 10
-8483.116105638213
 20
3793.116455154975
 30
0.0
 11
-7483.11606838531
 21
3793.116455154975
 31
0.0
  0
LINE
  5
1C861
330
1F
100
AcDbEntity
  8
02製品
  6
Continuous
100
AcDbLine
 10
-8493.11610355205
 20
3437.616591530403
 30
0.0
 11
-8493.11610355205
 21
3437.616472321113
 31
0.0
  0
LINE
  5
1C862
330
1F
100
AcDbEntity
  8
02製品
  6
Continuous
100
AcDbLine
 10
-7473.116077922054
 20
3437.616591530403
 30
0.0
 11
-7473.116077922054
 21
3437.616472321113
 31
0.0
  0
LINE
  5
1C863
330
1F
100
AcDbEntity
  8
02製品
  6
Continuous
100
AcDbLine
 10
-7508.116163752742
 20
3738.116448002417
 30
0.0
 11
-7483.11606838531
 21
3713.116471844275
 31
0.0
  0
LINE
  5
1C864
330
1F
100
AcDbEntity
  8
02製品
  6
Continuous
100
AcDbLine
 10
-8458.11610340304
 20
3738.116448002417
 30
0.0
 11
-7508.116163752742
 21
3738.116448002417
 31
0.0
  0
LINE
  5
1C865
330
1F
100
AcDbEntity
  8
02製品
  6
Continuous
100
AcDbLine
 10
-8483.116105638213
 20
3713.116471844275
 30
0.0
 11
-8458.11610340304
 21
3738.116448002417
 31
0.0
  0
LINE
  5
1C866
330
1F
100
AcDbEntity
  8
02製品
  6
Continuous
100
AcDbLine
 10
-8483.116105638213
 20
3778.116469460089
 30
0.0
 11
-7483.11606838531
 21
3778.116469460089
 31
0.0
  0
ARC
  5
1C867
330
1F
100
AcDbEntity
  8
02製品
  6
Continuous
100
AcDbCircle
 10
-7480.116104434246
 20
4280.116464691725
 30
0.0
 40
2.999999999999545
100
AcDbArc
 50
90.0
 51
180.0
  0
LINE
  5
1C868
330
1F
100
AcDbEntity
  8
02製品
  6
Continuous
100
AcDbLine
 10
-7443.116106532283
 20
4283.116464691725
 30
0.0
 11
-7480.116047404475
 21
4283.116464691725
 31
0.0
  0
LINE
  5
1C869
330
1F
100
AcDbEntity
  8
02製品
  6
Continuous
100
AcDbLine
 10
-7483.11606838531
 20
4280.116464665641
 30
0.0
 11
-7483.11606838531
 21
3437.616591530403
 31
0.0
  0
LINE
  5
1C86A
330
1F
100
AcDbEntity
  8
02製品
  6
Continuous
100
AcDbLine
 10
-7443.116106532283
 20
4283.116464691725
 30
0.0
 11
-7443.116106532283
 21
3437.616591530403
 31
0.0
  0
LINE
  5
1C86B
330
1F
100
AcDbEntity
  8
02製品
  6
Continuous
100
AcDbLine
 10
-7483.11606838531
 20
3437.616591530403
 30
0.0
 11
-7443.116106532283
 21
3437.616591530403
 31
0.0
  0
CIRCLE
  5
1C86C
330
1F
100
AcDbEntity
  8
02製品
  6
Continuous
100
AcDbCircle
 10
-7463.116104434188
 20
3553.116464691726
 30
0.0
 40
2.350000000000136
  0
CIRCLE
  5
1C86D
330
1F
100
AcDbEntity
  8
02製品
  6
Continuous
100
AcDbCircle
 10
-7463.116104434188
 20
4053.116464691725
 30
0.0
 40
2.350000000000136
  0
CIRCLE
  5
1C86E
330
1F
100
AcDbEntity
  8
02製品
  6
Continuous
100
AcDbCircle
 10
-7463.116104434188
 20
3903.116464691725
 30
0.0
 40
2.350000000000136
  0
CIRCLE
  5
1C86F
330
1F
100
AcDbEntity
  8
02製品
  6
Continuous
100
AcDbCircle
 10
-7463.116104434188
 20
3703.116464691725
 30
0.0
 40
2.350000000000136
  0
LINE
  5
1C870
330
1F
100
AcDbEntity
  8
02製品
  6
Continuous
100
AcDbLine
 10
-7458.116092227168
 20
3437.616472321113
 30
0.0
 11
-7458.116092227168
 21
3433.116440849861
 31
0.0
  0
LINE
  5
1C871
330
1F
100
AcDbEntity
  8
02製品
  6
Continuous
100
AcDbLine
 10
-7483.11606838531
 20
3433.116440849861
 30
0.0
 11
-7483.11606838531
 21
3437.616472321113
 31
0.0
  0
LINE
  5
1C872
330
1F
100
AcDbEntity
  8
02製品
  6
Continuous
100
AcDbLine
 10
-7483.11606838531
 20
3433.116440849861
 30
0.0
 11
-7458.116092227168
 21
3433.116440849861
 31
0.0
  0
LINE
  5
1C873
330
1F
100
AcDbEntity
  8
02製品
  6
Continuous
100
AcDbLine
 10
-7483.11606838531
 20
3437.616472321113
 30
0.0
 11
-7458.116092227168
 21
3437.616472321113
 31
0.0
  0
LINE
  5
1C874
330
1F
100
AcDbEntity
  8
02製品
  6
Continuous
100
AcDbLine
 10
-7443.116106532283
 20
3433.116440849861
 30
0.0
 11
-7458.116092227168
 21
3433.116440849861
 31
0.0
  0
LINE
  5
1C875
330
1F
100
AcDbEntity
  8
02製品
  6
Continuous
100
AcDbLine
 10
-7447.616138003536
 20
3437.616472321113
 30
0.0
 11
-7458.116092227168
 21
3437.616472321113
 31
0.0
  0
LINE
  5
1C876
330
1F
100
AcDbEntity
  8
02製品
  6
Continuous
100
AcDbLine
 10
-7443.116106532283
 20
3437.616472321113
 30
0.0
 11
-7443.116106532283
 21
3433.116440849861
 31
0.0
  0
LINE
  5
1C877
330
1F
100
AcDbEntity
  8
02製品
  6
Continuous
100
AcDbLine
 10
-7443.116106532283
 20
3437.616472321113
 30
0.0
 11
-7447.616138003536
 21
3437.616472321113
 31
0.0
  0
LINE
  5
1C878
330
1F
100
AcDbEntity
  8
02製品
  6
Continuous
100
AcDbLine
 10
-7447.616138003536
 20
3437.616591530403
 30
0.0
 11
-7447.616138003536
 21
3437.616472321113
 31
0.0
  0
LINE
  5
1C879
330
1F
100
AcDbEntity
  8
02製品
  6
Continuous
100
AcDbLine
 10
-7443.116106532283
 20
3437.616591530403
 30
0.0
 11
-7443.116106532283
 21
3437.616472321113
 31
0.0
  0
LINE
  5
1C87A
330
1F
100
AcDbEntity
  8
02製品
  6
Continuous
100
AcDbLine
 10
-8483.116105638213
 20
3437.616591530403
 30
0.0
 11
-8523.116104278482
 21
3437.616591530403
 31
0.0
  0
LINE
  5
1C87B
330
1F
100
AcDbEntity
  8
02製品
  6
Continuous
100
AcDbLine
 10
-8523.116104278482
 20
4283.116464691725
 30
0.0
 11
-8523.116104278482
 21
3437.616591530403
 31
0.0
  0
LINE
  5
1C87C
330
1F
100
AcDbEntity
  8
02製品
  6
Continuous
100
AcDbLine
 10
-8523.116104278482
 20
4283.116464691725
 30
0.0
 11
-8486.116104267307
 21
4283.116464691725
 31
0.0
  0
ARC
  5
1C87D
330
1F
100
AcDbEntity
  8
02製品
  6
Continuous
100
AcDbCircle
 10
-8486.116104434246
 20
4280.116464691725
 30
0.0
 40
3.000000000000682
100
AcDbArc
 50
0.0
 51
90.0
  0
CIRCLE
  5
1C87E
330
1F
100
AcDbEntity
  8
02製品
  6
Continuous
100
AcDbCircle
 10
-8503.116104434188
 20
3553.116464691726
 30
0.0
 40
2.350000000000136
  0
CIRCLE
  5
1C87F
330
1F
100
AcDbEntity
  8
02製品
  6
Continuous
100
AcDbCircle
 10
-8503.116104434188
 20
3903.116464691725
 30
0.0
 40
2.350000000000136
  0
CIRCLE
  5
1C880
330
1F
100
AcDbEntity
  8
02製品
  6
Continuous
100
AcDbCircle
 10
-8503.116104434188
 20
4053.116464691725
 30
0.0
 40
2.350000000000136
  0
CIRCLE
  5
1C881
330
1F
100
AcDbEntity
  8
02製品
  6
Continuous
100
AcDbCircle
 10
-8503.116104434188
 20
3703.116464691725
 30
0.0
 40
2.350000000000136
  0
LINE
  5
1C882
330
1F
100
AcDbEntity
  8
02製品
  6
Continuous
100
AcDbLine
 10
-8483.116105638213
 20
4280.116464665641
 30
0.0
 11
-8483.116105638213
 21
3437.616591530403
 31
0.0
  0
LINE
  5
1C883
330
1F
100
AcDbEntity
  8
02製品
  6
Continuous
100
AcDbLine
 10
-8483.116105638213
 20
3433.116440849861
 30
0.0
 11
-8508.116104148097
 21
3433.116440849861
 31
0.0
  0
LINE
  5
1C884
330
1F
100
AcDbEntity
  8
02製品
  6
Continuous
100
AcDbLine
 10
-8508.116104148097
 20
3437.616472321113
 30
0.0
 11
-8508.116104148097
 21
3433.116440849861
 31
0.0
  0
LINE
  5
1C885
330
1F
100
AcDbEntity
  8
02製品
  6
Continuous
100
AcDbLine
 10
-8483.116105638213
 20
3437.616472321113
 30
0.0
 11
-8508.116104148097
 21
3437.616472321113
 31
0.0
  0
LINE
  5
1C886
330
1F
100
AcDbEntity
  8
02製品
  6
Continuous
100
AcDbLine
 10
-8483.116105638213
 20
3433.116440849861
 30
0.0
 11
-8483.116105638213
 21
3437.616472321113
 31
0.0
  0
LINE
  5
1C887
330
1F
100
AcDbEntity
  8
02製品
  6
Continuous
100
AcDbLine
 10
-8523.116104278482
 20
3437.616472321113
 30
0.0
 11
-8518.61610441399
 21
3437.616472321113
 31
0.0
  0
LINE
  5
1C888
330
1F
100
AcDbEntity
  8
02製品
  6
Continuous
100
AcDbLine
 10
-8518.61610441399
 20
3437.616591530403
 30
0.0
 11
-8518.61610441399
 21
3437.616472321113
 31
0.0
  0
LINE
  5
1C889
330
1F
100
AcDbEntity
  8
02製品
  6
Continuous
100
AcDbLine
 10
-8523.116104278482
 20
3437.616591530403
 30
0.0
 11
-8523.116104278482
 21
3437.616472321113
 31
0.0
  0
LINE
  5
1C88A
330
1F
100
AcDbEntity
  8
02製品
  6
Continuous
100
AcDbLine
 10
-8518.61610441399
 20
3437.616472321113
 30
0.0
 11
-8508.116104148097
 21
3437.616472321113
 31
0.0
  0
LINE
  5
1C88B
330
1F
100
AcDbEntity
  8
02製品
  6
Continuous
100
AcDbLine
 10
-8523.116104278482
 20
3433.116440849861
 30
0.0
 11
-8508.116104148097
 21
3433.116440849861
 31
0.0
  0
LINE
  5
1C88C
330
1F
100
AcDbEntity
  8
02製品
  6
Continuous
100
AcDbLine
 10
-8523.116104278482
 20
3437.616472321113
 30
0.0
 11
-8523.116104278482
 21
3433.116440849861
 31
0.0
  0
LINE
  5
1C88D
330
1F
100
AcDbEntity
  8
02製品
  6
Continuous
100
AcDbLine
 10
-8483.116105638213
 20
4279.916464772557
 30
0.0
 11
-8477.81610532827
 21
4279.916464772557
 31
0.0
  0
LINE
  5
1C88E
330
1F
100
AcDbEntity
  8
02製品
  6
Continuous
100
AcDbLine
 10
-8477.81610532827
 20
4279.916464772557
 30
0.0
 11
-8477.81610532827
 21
4283.116464691718
 31
0.0
  0
LINE
  5
1C88F
330
1F
100
AcDbEntity
  8
02製品
  6
Continuous
100
AcDbLine
 10
-8477.81610532827
 20
4283.116464691718
 30
0.0
 11
-7488.416113398738
 21
4283.116464691718
 31
0.0
  0
CIRCLE
  5
1C890
330
1F
100
AcDbEntity
  8
02製品
  6
Continuous
100
AcDbCircle
 10
-8467.8161044342
 20
4263.116464691718
 30
0.0
 40
5.0
  0
LINE
  5
1C891
330
1F
100
AcDbEntity
  8
02製品
  6
Continuous
100
AcDbLine
 10
-7488.416113398738
 20
4283.116464691718
 30
0.0
 11
-7488.416113398738
 21
4279.916464772557
 31
0.0
  0
CIRCLE
  5
1C892
330
1F
100
AcDbEntity
  8
02製品
  6
Continuous
100
AcDbCircle
 10
-7498.416104434235
 20
4263.116464691718
 30
0.0
 40
5.000000000001137
  0
LINE
  5
1C893
330
1F
100
AcDbEntity
  8
02製品
  6
Continuous
100
AcDbLine
 10
-8483.116105638213
 20
4243.116465585787
 30
0.0
 11
-7483.11606838531
 21
4243.116465585787
 31
0.0
  0
LINE
  5
1C894
330
1F
100
AcDbEntity
  8
02製品
  6
Continuous
100
AcDbLine
 10
-7488.416113398738
 20
4279.916464772557
 30
0.0
 11
-7483.11606838531
 21
4279.916464772557
 31
0.0
  0
LINE
  5
1C895
330
1F
100
AcDbEntity
  8
02製品
  6
Continuous
100
AcDbLine
 10
-8477.81610532827
 20
4283.116464691718
 30
0.0
 11
-8486.116104267307
 21
4283.116464691718
 31
0.0
  0
LINE
  5
1C896
330
1F
100
AcDbEntity
  8
02製品
  6
Continuous
100
AcDbLine
 10
-7488.416113398738
 20
4283.116464691718
 30
0.0
 11
-7480.116047404475
 21
4283.116464691718
 31
0.0
  0
LINE
  5
1C897
330
1F
100
AcDbEntity
  8
02製品
  6
Continuous
100
AcDbLine
 10
-10467.54126286493
 20
5307.649043557006
 30
0.0
 11
-11508.54139065729
 21
5307.649043557006
 31
0.0
  0
LINE
  5
1C898
330
1F
100
AcDbEntity
  8
02製品
  6
Continuous
100
AcDbLine
 10
-10467.54126286493
 20
5316.149044018927
 30
0.0
 11
-10467.54126286493
 21
5307.649043557006
 31
0.0
  0
LINE
  5
1C899
330
1F
100
AcDbEntity
  8
02製品
  6
Continuous
100
AcDbLine
 10
-11508.54139065729
 20
5316.149044018927
 30
0.0
 11
-11508.54139065729
 21
5307.649043557006
 31
0.0
  0
LINE
  5
1C89A
330
1F
100
AcDbEntity
  8
02製品
  6
Continuous
100
AcDbLine
 10
-11545.54133152948
 20
5310.849044174659
 30
0.0
 11
-11545.54133152948
 21
5307.649043557006
 31
0.0
  0
LINE
  5
1C89B
330
1F
100
AcDbEntity
  8
02製品
  6
Continuous
100
AcDbLine
 10
-11511.04132866846
 20
5310.849044174659
 30
0.0
 11
-11508.54139065729
 21
5310.849044174659
 31
0.0
  0
LINE
  5
1C89C
330
1F
100
AcDbEntity
  8
02製品
  6
Continuous
100
AcDbLine
 10
-11545.54133152948
 20
5307.649043557006
 30
0.0
 11
-11508.54139065729
 21
5307.649043557006
 31
0.0
  0
LINE
  5
1C89D
330
1F
100
AcDbEntity
  8
02製品
  6
Continuous
100
AcDbLine
 10
-10467.54126286493
 20
5310.849044174659
 30
0.0
 11
-10465.04144406305
 21
5310.849044174659
 31
0.0
  0
LINE
  5
1C89E
330
1F
100
AcDbEntity
  8
02製品
  6
Continuous
100
AcDbLine
 10
-10430.54132199274
 20
5307.649043557006
 30
0.0
 11
-10430.54132199274
 21
5310.849044174659
 31
0.0
  0
LINE
  5
1C89F
330
1F
100
AcDbEntity
  8
02製品
  6
Continuous
100
AcDbLine
 10
-10467.54126286493
 20
5307.649043557006
 30
0.0
 11
-10430.54132199274
 21
5307.649043557006
 31
0.0
  0
LINE
  5
1C8A0
330
1F
100
AcDbEntity
  8
02製品
  6
Continuous
100
AcDbLine
 10
-10427.54130101191
 20
5310.849044174659
 30
0.0
 11
-10427.54130101191
 21
5307.649043557006
 31
0.0
  0
LINE
  5
1C8A1
330
1F
100
AcDbEntity
  8
02製品
  6
Continuous
100
AcDbLine
 10
-10427.54130101191
 20
5307.649043557006
 30
0.0
 11
-10430.54132199274
 21
5307.649043557006
 31
0.0
  0
LINE
  5
1C8A2
330
1F
100
AcDbEntity
  8
02製品
  6
Continuous
100
AcDbLine
 10
-11548.54135251032
 20
5307.649043557006
 30
0.0
 11
-11548.54135251032
 21
5310.849044174659
 31
0.0
  0
LINE
  5
1C8A3
330
1F
100
AcDbEntity
  8
02製品
  6
Continuous
100
AcDbLine
 10
-11545.54133152948
 20
5307.649043557006
 30
0.0
 11
-11548.54135251032
 21
5307.649043557006
 31
0.0
  0
LINE
  5
1C8A4
330
1F
100
AcDbEntity
  8
02製品
  6
Continuous
100
AcDbLine
 10
-9341.541335344182
 20
5307.649043557006
 30
0.0
 11
-10382.54122471796
 21
5307.649043557006
 31
0.0
  0
LINE
  5
1C8A5
330
1F
100
AcDbEntity
  8
02製品
  6
Continuous
100
AcDbLine
 10
-10382.54122471796
 20
5316.149044018927
 30
0.0
 11
-10382.54122471796
 21
5307.649043557006
 31
0.0
  0
LINE
  5
1C8A6
330
1F
100
AcDbEntity
  8
02製品
  6
Continuous
100
AcDbLine
 10
-9341.541335344182
 20
5316.149044018927
 30
0.0
 11
-9341.541335344182
 21
5315.349044039152
 31
0.0
  0
LINE
  5
1C8A7
330
1F
100
AcDbEntity
  8
02製品
  6
Continuous
100
AcDbLine
 10
-9341.541335344182
 20
5310.849044174659
 30
0.0
 11
-9341.541335344182
 21
5307.649043557006
 31
0.0
  0
LINE
  5
1C8A8
330
1F
100
AcDbEntity
  8
02製品
  6
Continuous
100
AcDbLine
 10
-10419.54140400873
 20
5310.849044174659
 30
0.0
 11
-10419.54140400873
 21
5307.649043557006
 31
0.0
  0
LINE
  5
1C8A9
330
1F
100
AcDbEntity
  8
02製品
  6
Continuous
100
AcDbLine
 10
-10385.04128193842
 20
5310.849044174659
 30
0.0
 11
-10382.54122471796
 21
5310.849044174659
 31
0.0
  0
LINE
  5
1C8AA
330
1F
100
AcDbEntity
  8
02製品
  6
Continuous
100
AcDbLine
 10
-10419.54140400873
 20
5307.649043557006
 30
0.0
 11
-10382.54122471796
 21
5307.649043557006
 31
0.0
  0
LINE
  5
1C8AB
330
1F
100
AcDbEntity
  8
02製品
  6
Continuous
100
AcDbLine
 10
-9304.54139447199
 20
5307.649043557006
 30
0.0
 11
-9304.54139447199
 21
5310.849044174659
 31
0.0
  0
LINE
  5
1C8AC
330
1F
100
AcDbEntity
  8
02製品
  6
Continuous
100
AcDbLine
 10
-9341.541335344182
 20
5307.649043557006
 30
0.0
 11
-9304.54139447199
 21
5307.649043557006
 31
0.0
  0
LINE
  5
1C8AD
330
1F
100
AcDbEntity
  8
02製品
  6
Continuous
100
AcDbLine
 10
-10422.54142498957
 20
5307.649043557006
 30
0.0
 11
-10422.54142498957
 21
5310.849044174659
 31
0.0
  0
LINE
  5
1C8AE
330
1F
100
AcDbEntity
  8
02製品
  6
Continuous
100
AcDbLine
 10
-10419.54140400873
 20
5307.649043557006
 30
0.0
 11
-10422.54142498957
 21
5307.649043557006
 31
0.0
  0
LINE
  5
1C8AF
330
1F
100
AcDbEntity
  8
02製品
  6
Continuous
100
AcDbLine
 10
-9301.541373491154
 20
5310.849044174659
 30
0.0
 11
-9301.541373491154
 21
5307.649043557006
 31
0.0
  0
LINE
  5
1C8B0
330
1F
100
AcDbEntity
  8
02製品
  6
Continuous
100
AcDbLine
 10
-9301.541373491154
 20
5307.649043557006
 30
0.0
 11
-9304.54139447199
 21
5307.649043557006
 31
0.0
  0
LINE
  5
1C8B1
330
1F
100
AcDbEntity
  8
02製品
  6
Continuous
100
AcDbLine
 10
-9341.541335344182
 20
6385.548996907431
 30
0.0
 11
-9341.541335344182
 21
6386.349010449606
 31
0.0
  0
LINE
  5
1C8B2
330
1F
100
AcDbEntity
  8
02製品
  6
Continuous
100
AcDbLine
 10
-9341.541335344182
 20
6390.849041920858
 30
0.0
 11
-9341.541335344182
 21
6394.049096089559
 31
0.0
  0
LINE
  5
1C8B3
330
1F
100
AcDbEntity
  8
02製品
  6
Continuous
100
AcDbLine
 10
-10382.54122471796
 20
6385.548996907431
 30
0.0
 11
-10382.54122471796
 21
6394.049096089559
 31
0.0
  0
LINE
  5
1C8B4
330
1F
100
AcDbEntity
  8
02製品
  6
Continuous
100
AcDbLine
 10
-10382.54122471796
 20
6394.049096089559
 30
0.0
 11
-9341.541335344182
 21
6394.049096089559
 31
0.0
  0
LINE
  5
1C8B5
330
1F
100
AcDbEntity
  8
02製品
  6
Continuous
100
AcDbLine
 10
-10382.54122471796
 20
6390.849041920858
 30
0.0
 11
-10385.04128193842
 21
6390.849041920858
 31
0.0
  0
LINE
  5
1C8B6
330
1F
100
AcDbEntity
  8
02製品
  6
Continuous
100
AcDbLine
 10
-10419.54140400873
 20
6394.049096089559
 30
0.0
 11
-10419.54140400873
 21
6390.849041920858
 31
0.0
  0
LINE
  5
1C8B7
330
1F
100
AcDbEntity
  8
02製品
  6
Continuous
100
AcDbLine
 10
-10382.54122471796
 20
6394.049096089559
 30
0.0
 11
-10419.54140400873
 21
6394.049096089559
 31
0.0
  0
LINE
  5
1C8B8
330
1F
100
AcDbEntity
  8
02製品
  6
Continuous
100
AcDbLine
 10
-9304.54139447199
 20
6390.849041920858
 30
0.0
 11
-9304.54139447199
 21
6394.049096089559
 31
0.0
  0
LINE
  5
1C8B9
330
1F
100
AcDbEntity
  8
02製品
  6
Continuous
100
AcDbLine
 10
-9304.54139447199
 20
6394.049096089559
 30
0.0
 11
-9341.541335344182
 21
6394.049096089559
 31
0.0
  0
LINE
  5
1C8BA
330
1F
100
AcDbEntity
  8
02製品
  6
Continuous
100
AcDbLine
 10
-10422.54142498957
 20
6390.849041920858
 30
0.0
 11
-10422.54142498957
 21
6394.049096089559
 31
0.0
  0
LINE
  5
1C8BB
330
1F
100
AcDbEntity
  8
02製品
  6
Continuous
100
AcDbLine
 10
-10422.54142498957
 20
6394.049096089559
 30
0.0
 11
-10419.54140400873
 21
6394.049096089559
 31
0.0
  0
LINE
  5
1C8BC
330
1F
100
AcDbEntity
  8
02製品
  6
Continuous
100
AcDbLine
 10
-9301.541373491154
 20
6394.049096089559
 30
0.0
 11
-9301.541373491154
 21
6390.849041920858
 31
0.0
  0
LINE
  5
1C8BD
330
1F
100
AcDbEntity
  8
02製品
  6
Continuous
100
AcDbLine
 10
-9304.54139447199
 20
6394.049096089559
 30
0.0
 11
-9301.541373491154
 21
6394.049096089559
 31
0.0
  0
LINE
  5
1C8BE
330
1F
100
AcDbEntity
  8
02製品
  6
Continuous
100
AcDbLine
 10
-11593.54130959498
 20
6385.548996907431
 30
0.0
 11
-11593.54130959498
 21
6394.049096089559
 31
0.0
  0
LINE
  5
1C8BF
330
1F
100
AcDbEntity
  8
02製品
  6
Continuous
100
AcDbLine
 10
-12634.5413368045
 20
6385.548996907431
 30
0.0
 11
-12634.5413368045
 21
6386.349010449606
 31
0.0
  0
LINE
  5
1C8C0
330
1F
100
AcDbEntity
  8
02製品
  6
Continuous
100
AcDbLine
 10
-12634.5413368045
 20
6390.849041920858
 30
0.0
 11
-12634.5413368045
 21
6394.049096089559
 31
0.0
  0
LINE
  5
1C8C1
330
1F
100
AcDbEntity
  8
02製品
  6
Continuous
100
AcDbLine
 10
-12634.5413368045
 20
6394.049096089559
 30
0.0
 11
-11593.54130959498
 21
6394.049096089559
 31
0.0
  0
LINE
  5
1C8C2
330
1F
100
AcDbEntity
  8
02製品
  6
Continuous
100
AcDbLine
 10
-12671.54133728133
 20
6394.049096089559
 30
0.0
 11
-12671.54133728133
 21
6390.849041920858
 31
0.0
  0
LINE
  5
1C8C3
330
1F
100
AcDbEntity
  8
02製品
  6
Continuous
100
AcDbLine
 10
-12634.5413368045
 20
6394.049096089559
 30
0.0
 11
-12671.54133728133
 21
6394.049096089559
 31
0.0
  0
LINE
  5
1C8C4
330
1F
100
AcDbEntity
  8
02製品
  6
Continuous
100
AcDbLine
 10
-11556.54136872278
 20
6390.849041920858
 30
0.0
 11
-11556.54136872278
 21
6394.049096089559
 31
0.0
  0
LINE
  5
1C8C5
330
1F
100
AcDbEntity
  8
02製品
  6
Continuous
100
AcDbLine
 10
-11591.04137158381
 20
6390.849041920858
 30
0.0
 11
-11593.54130959498
 21
6390.849041920858
 31
0.0
  0
LINE
  5
1C8C6
330
1F
100
AcDbEntity
  8
02製品
  6
Continuous
100
AcDbLine
 10
-11556.54136872278
 20
6394.049096089559
 30
0.0
 11
-11593.54130959498
 21
6394.049096089559
 31
0.0
  0
LINE
  5
1C8C7
330
1F
100
AcDbEntity
  8
02製品
  6
Continuous
100
AcDbLine
 10
-12674.54133730741
 20
6390.849041920858
 30
0.0
 11
-12674.54133730741
 21
6394.049096089559
 31
0.0
  0
LINE
  5
1C8C8
330
1F
100
AcDbEntity
  8
02製品
  6
Continuous
100
AcDbLine
 10
-12674.54133730741
 20
6394.049096089559
 30
0.0
 11
-12671.54133728133
 21
6394.049096089559
 31
0.0
  0
LINE
  5
1C8C9
330
1F
100
AcDbEntity
  8
02製品
  6
Continuous
100
AcDbLine
 10
-11553.54134774195
 20
6394.049096089559
 30
0.0
 11
-11553.54134774195
 21
6390.849041920858
 31
0.0
  0
LINE
  5
1C8CA
330
1F
100
AcDbEntity
  8
02製品
  6
Continuous
100
AcDbLine
 10
-11556.54136872278
 20
6394.049096089559
 30
0.0
 11
-11553.54134774195
 21
6394.049096089559
 31
0.0
  0
LINE
  5
1C8CB
330
1F
100
AcDbEntity
  8
02製品
  6
Continuous
100
AcDbLine
 10
-11593.54130959498
 20
5307.649043557006
 30
0.0
 11
-12634.5413368045
 21
5307.649043557006
 31
0.0
  0
LINE
  5
1C8CC
330
1F
100
AcDbEntity
  8
02製品
  6
Continuous
100
AcDbLine
 10
-12634.5413368045
 20
5316.149044018927
 30
0.0
 11
-12634.5413368045
 21
5315.349044039152
 31
0.0
  0
LINE
  5
1C8CD
330
1F
100
AcDbEntity
  8
02製品
  6
Continuous
100
AcDbLine
 10
-12634.5413368045
 20
5310.849044174659
 30
0.0
 11
-12634.5413368045
 21
5307.649043557006
 31
0.0
  0
LINE
  5
1C8CE
330
1F
100
AcDbEntity
  8
02製品
  6
Continuous
100
AcDbLine
 10
-11593.54130959498
 20
5316.149044018927
 30
0.0
 11
-11593.54130959498
 21
5307.649043557006
 31
0.0
  0
LINE
  5
1C8CF
330
1F
100
AcDbEntity
  8
02製品
  6
Continuous
100
AcDbLine
 10
-12671.54133728133
 20
5310.849044174659
 30
0.0
 11
-12671.54133728133
 21
5307.649043557006
 31
0.0
  0
LINE
  5
1C8D0
330
1F
100
AcDbEntity
  8
02製品
  6
Continuous
100
AcDbLine
 10
-12671.54133728133
 20
5307.649043557006
 30
0.0
 11
-12634.5413368045
 21
5307.649043557006
 31
0.0
  0
LINE
  5
1C8D1
330
1F
100
AcDbEntity
  8
02製品
  6
Continuous
100
AcDbLine
 10
-11593.54130959498
 20
5310.849044174659
 30
0.0
 11
-11591.04137158381
 21
5310.849044174659
 31
0.0
  0
LINE
  5
1C8D2
330
1F
100
AcDbEntity
  8
02製品
  6
Continuous
100
AcDbLine
 10
-11556.54136872278
 20
5307.649043557006
 30
0.0
 11
-11556.54136872278
 21
5310.849044174659
 31
0.0
  0
LINE
  5
1C8D3
330
1F
100
AcDbEntity
  8
02製品
  6
Continuous
100
AcDbLine
 10
-11593.54130959498
 20
5307.649043557006
 30
0.0
 11
-11556.54136872278
 21
5307.649043557006
 31
0.0
  0
LINE
  5
1C8D4
330
1F
100
AcDbEntity
  8
02製品
  6
Continuous
100
AcDbLine
 10
-12674.54133730741
 20
5307.649043557006
 30
0.0
 11
-12674.54133730741
 21
5310.849044174659
 31
0.0
  0
LINE
  5
1C8D5
330
1F
100
AcDbEntity
  8
02製品
  6
Continuous
100
AcDbLine
 10
-12671.54133728133
 20
5307.649043557006
 30
0.0
 11
-12674.54133730741
 21
5307.649043557006
 31
0.0
  0
LINE
  5
1C8D6
330
1F
100
AcDbEntity
  8
02製品
  6
Continuous
100
AcDbLine
 10
-11553.54134774195
 20
5310.849044174659
 30
0.0
 11
-11553.54134774195
 21
5307.649043557006
 31
0.0
  0
LINE
  5
1C8D7
330
1F
100
AcDbEntity
  8
02製品
  6
Continuous
100
AcDbLine
 10
-11553.54134774195
 20
5307.649043557006
 30
0.0
 11
-11556.54136872278
 21
5307.649043557006
 31
0.0
  0
LINE
  5
1C8D8
330
1F
100
AcDbEntity
  8
02製品
  6
Continuous
100
AcDbLine
 10
-10467.54126286493
 20
6385.548996907431
 30
0.0
 11
-10467.54126286493
 21
6394.049096089559
 31
0.0
  0
LINE
  5
1C8D9
330
1F
100
AcDbEntity
  8
02製品
  6
Continuous
100
AcDbLine
 10
-11508.54139065729
 20
6385.548996907431
 30
0.0
 11
-11508.54139065729
 21
6394.049096089559
 31
0.0
  0
LINE
  5
1C8DA
330
1F
100
AcDbEntity
  8
02製品
  6
Continuous
100
AcDbLine
 10
-11508.54139065729
 20
6394.049096089559
 30
0.0
 11
-10467.54126286493
 21
6394.049096089559
 31
0.0
  0
LINE
  5
1C8DB
330
1F
100
AcDbEntity
  8
02製品
  6
Continuous
100
AcDbLine
 10
-11508.54139065729
 20
6390.849041920858
 30
0.0
 11
-11511.04132866846
 21
6390.849041920858
 31
0.0
  0
LINE
  5
1C8DC
330
1F
100
AcDbEntity
  8
02製品
  6
Continuous
100
AcDbLine
 10
-11545.54133152948
 20
6394.049096089559
 30
0.0
 11
-11545.54133152948
 21
6390.849041920858
 31
0.0
  0
LINE
  5
1C8DD
330
1F
100
AcDbEntity
  8
02製品
  6
Continuous
100
AcDbLine
 10
-11508.54139065729
 20
6394.049096089559
 30
0.0
 11
-11545.54133152948
 21
6394.049096089559
 31
0.0
  0
LINE
  5
1C8DE
330
1F
100
AcDbEntity
  8
02製品
  6
Continuous
100
AcDbLine
 10
-10430.54132199274
 20
6390.849041920858
 30
0.0
 11
-10430.54132199274
 21
6394.049096089559
 31
0.0
  0
LINE
  5
1C8DF
330
1F
100
AcDbEntity
  8
02製品
  6
Continuous
100
AcDbLine
 10
-10465.04144406305
 20
6390.849041920858
 30
0.0
 11
-10467.54126286493
 21
6390.849041920858
 31
0.0
  0
LINE
  5
1C8E0
330
1F
100
AcDbEntity
  8
02製品
  6
Continuous
100
AcDbLine
 10
-10430.54132199274
 20
6394.049096089559
 30
0.0
 11
-10467.54126286493
 21
6394.049096089559
 31
0.0
  0
LINE
  5
1C8E1
330
1F
100
AcDbEntity
  8
02製品
  6
Continuous
100
AcDbLine
 10
-11548.54135251032
 20
6390.849041920858
 30
0.0
 11
-11548.54135251032
 21
6394.049096089559
 31
0.0
  0
LINE
  5
1C8E2
330
1F
100
AcDbEntity
  8
02製品
  6
Continuous
100
AcDbLine
 10
-11548.54135251032
 20
6394.049096089559
 30
0.0
 11
-11545.54133152948
 21
6394.049096089559
 31
0.0
  0
LINE
  5
1C8E3
330
1F
100
AcDbEntity
  8
02製品
  6
Continuous
100
AcDbLine
 10
-10427.54130101191
 20
6394.049096089559
 30
0.0
 11
-10427.54130101191
 21
6390.849041920858
 31
0.0
  0
LINE
  5
1C8E4
330
1F
100
AcDbEntity
  8
02製品
  6
Continuous
100
AcDbLine
 10
-10430.54132199274
 20
6394.049096089559
 30
0.0
 11
-10427.54130101191
 21
6394.049096089559
 31
0.0
  0
LINE
  5
1C8E5
330
1F
100
AcDbEntity
  8
02製品
  6
Continuous
100
AcDbLine
 10
-11568.64135003077
 20
5316.149044018942
 30
0.0
 11
-11567.84133648859
 21
5315.349044039152
 31
0.0
  0
LINE
  5
1C8E6
330
1F
100
AcDbEntity
  8
02製品
  6
Continuous
100
AcDbLine
 10
-11534.24136376368
 20
5315.349044039152
 30
0.0
 11
-11533.4413502215
 21
5316.149044018942
 31
0.0
  0
LINE
  5
1C8E7
330
1F
100
AcDbEntity
  8
02製品
  6
Continuous
100
AcDbLine
 10
-11567.84133648859
 20
6386.349010449606
 30
0.0
 11
-11568.64135003077
 21
6385.548996907431
 31
0.0
  0
LINE
  5
1C8E8
330
1F
100
AcDbEntity
  8
02製品
  6
Continuous
100
AcDbLine
 10
-11533.4413502215
 20
6385.548996907431
 30
0.0
 11
-11534.24136376368
 21
6386.349010449606
 31
0.0
  0
LINE
  5
1C8E9
330
1F
100
AcDbEntity
  8
02製品
  6
Continuous
100
AcDbLine
 10
-10442.64130330072
 20
5316.149044018942
 30
0.0
 11
-10441.84140896784
 21
5315.349044039152
 31
0.0
  0
LINE
  5
1C8EA
330
1F
100
AcDbEntity
  8
02製品
  6
Continuous
100
AcDbLine
 10
-10408.24131703363
 20
5315.349044039152
 30
0.0
 11
-10407.44142270075
 21
5316.149044018942
 31
0.0
  0
LINE
  5
1C8EB
330
1F
100
AcDbEntity
  8
02製品
  6
Continuous
100
AcDbLine
 10
-10441.84140896784
 20
6386.349010449606
 30
0.0
 11
-10442.64130330072
 21
6385.548996907431
 31
0.0
  0
LINE
  5
1C8EC
330
1F
100
AcDbEntity
  8
02製品
  6
Continuous
100
AcDbLine
 10
-10407.44142270075
 20
6385.548996907431
 30
0.0
 11
-10408.24131703363
 21
6386.349010449606
 31
0.0
  0
LINE
  5
1C8ED
330
1F
100
AcDbEntity
  8
02製品
  6
Continuous
100
AcDbLine
 10
-10455.54141736017
 20
5315.349044039152
 30
0.0
 11
-10455.54141736017
 21
5310.849044174659
 31
0.0
  0
LINE
  5
1C8EE
330
1F
100
AcDbEntity
  8
02製品
  6
Continuous
100
AcDbLine
 10
-10394.5413086413
 20
5310.849044174659
 30
0.0
 11
-10394.5413086413
 21
5315.349044039152
 31
0.0
  0
LINE
  5
1C8EF
330
1F
100
AcDbEntity
  8
02製品
  6
Continuous
100
AcDbLine
 10
-10455.54141736017
 20
5310.849044174659
 30
0.0
 11
-10394.5413086413
 21
5310.849044174659
 31
0.0
  0
LINE
  5
1C8F0
330
1F
100
AcDbEntity
  8
02製品
  6
Continuous
100
AcDbLine
 10
-10394.5413086413
 20
5315.349044039152
 30
0.0
 11
-10455.54141736017
 21
5315.349044039152
 31
0.0
  0
LINE
  5
1C8F1
330
1F
100
AcDbEntity
  8
02製品
  6
Continuous
100
AcDbLine
 10
-10460.54129338251
 20
5310.849044174659
 30
0.0
 11
-10460.54129338251
 21
5315.349044039152
 31
0.0
  0
LINE
  5
1C8F2
330
1F
100
AcDbEntity
  8
02製品
  6
Continuous
100
AcDbLine
 10
-10455.54141736017
 20
5310.849044174659
 30
0.0
 11
-10460.54129338251
 21
5310.849044174659
 31
0.0
  0
LINE
  5
1C8F3
330
1F
100
AcDbEntity
  8
02製品
  6
Continuous
100
AcDbLine
 10
-10460.54129338251
 20
5315.349044039152
 30
0.0
 11
-10455.54141736017
 21
5315.349044039152
 31
0.0
  0
LINE
  5
1C8F4
330
1F
100
AcDbEntity
  8
02製品
  6
Continuous
100
AcDbLine
 10
-10389.54143261896
 20
5315.349044039152
 30
0.0
 11
-10389.54143261896
 21
5310.849044174659
 31
0.0
  0
LINE
  5
1C8F5
330
1F
100
AcDbEntity
  8
02製品
  6
Continuous
100
AcDbLine
 10
-10389.54143261896
 20
5310.849044174659
 30
0.0
 11
-10394.5413086413
 21
5310.849044174659
 31
0.0
  0
LINE
  5
1C8F6
330
1F
100
AcDbEntity
  8
02製品
  6
Continuous
100
AcDbLine
 10
-10394.5413086413
 20
5315.349044039152
 30
0.0
 11
-10389.54143261896
 21
5315.349044039152
 31
0.0
  0
LINE
  5
1C8F7
330
1F
100
AcDbEntity
  8
02製品
  6
Continuous
100
AcDbLine
 10
-10460.54129338251
 20
5316.149044018942
 30
0.0
 11
-10460.54129338251
 21
5315.349044039152
 31
0.0
  0
LINE
  5
1C8F8
330
1F
100
AcDbEntity
  8
02製品
  6
Continuous
100
AcDbLine
 10
-10465.04144406305
 20
5316.149044018942
 30
0.0
 11
-10465.04144406305
 21
5310.849044174659
 31
0.0
  0
LINE
  5
1C8F9
330
1F
100
AcDbEntity
  8
02製品
  6
Continuous
100
AcDbLine
 10
-10460.54129338251
 20
5310.849044174659
 30
0.0
 11
-10465.04144406305
 21
5310.849044174659
 31
0.0
  0
LINE
  5
1C8FA
330
1F
100
AcDbEntity
  8
02製品
  6
Continuous
100
AcDbLine
 10
-10389.54143261896
 20
5315.349044039152
 30
0.0
 11
-10389.54143261896
 21
5316.149044018942
 31
0.0
  0
LINE
  5
1C8FB
330
1F
100
AcDbEntity
  8
02製品
  6
Continuous
100
AcDbLine
 10
-10385.04128193842
 20
5310.849044174659
 30
0.0
 11
-10385.04128193842
 21
5316.149044018942
 31
0.0
  0
LINE
  5
1C8FC
330
1F
100
AcDbEntity
  8
02製品
  6
Continuous
100
AcDbLine
 10
-10389.54143261896
 20
5310.849044174659
 30
0.0
 11
-10385.04128193842
 21
5310.849044174659
 31
0.0
  0
LINE
  5
1C8FD
330
1F
100
AcDbEntity
  8
02製品
  6
Continuous
100
AcDbLine
 10
-11515.54136013971
 20
5315.349044039152
 30
0.0
 11
-11515.54136013971
 21
5310.849044174659
 31
0.0
  0
LINE
  5
1C8FE
330
1F
100
AcDbEntity
  8
02製品
  6
Continuous
100
AcDbLine
 10
-11515.54136013971
 20
5310.849044174659
 30
0.0
 11
-11520.54135537134
 21
5310.849044174659
 31
0.0
  0
LINE
  5
1C8FF
330
1F
100
AcDbEntity
  8
02製品
  6
Continuous
100
AcDbLine
 10
-11520.54135537134
 20
5310.849044174659
 30
0.0
 11
-11520.54135537134
 21
5315.349044039152
 31
0.0
  0
LINE
  5
1C900
330
1F
100
AcDbEntity
  8
02製品
  6
Continuous
100
AcDbLine
 10
-11520.54135537134
 20
5315.349044039152
 30
0.0
 11
-11515.54136013971
 21
5315.349044039152
 31
0.0
  0
LINE
  5
1C901
330
1F
100
AcDbEntity
  8
02製品
  6
Continuous
100
AcDbLine
 10
-11581.54134488092
 20
5315.349044039152
 30
0.0
 11
-11581.54134488092
 21
5310.849044174659
 31
0.0
  0
LINE
  5
1C902
330
1F
100
AcDbEntity
  8
02製品
  6
Continuous
100
AcDbLine
 10
-11520.54135537134
 20
5315.349044039152
 30
0.0
 11
-11581.54134488092
 21
5315.349044039152
 31
0.0
  0
LINE
  5
1C903
330
1F
100
AcDbEntity
  8
02製品
  6
Continuous
100
AcDbLine
 10
-11581.54134488092
 20
5310.849044174659
 30
0.0
 11
-11520.54135537134
 21
5310.849044174659
 31
0.0
  0
LINE
  5
1C904
330
1F
100
AcDbEntity
  8
02製品
  6
Continuous
100
AcDbLine
 10
-11586.54134011255
 20
5310.849044174659
 30
0.0
 11
-11586.54134011255
 21
5315.349044039152
 31
0.0
  0
LINE
  5
1C905
330
1F
100
AcDbEntity
  8
02製品
  6
Continuous
100
AcDbLine
 10
-11586.54134011255
 20
5315.349044039152
 30
0.0
 11
-11581.54134488092
 21
5315.349044039152
 31
0.0
  0
LINE
  5
1C906
330
1F
100
AcDbEntity
  8
02製品
  6
Continuous
100
AcDbLine
 10
-11581.54134488092
 20
5310.849044174659
 30
0.0
 11
-11586.54134011255
 21
5310.849044174659
 31
0.0
  0
LINE
  5
1C907
330
1F
100
AcDbEntity
  8
02製品
  6
Continuous
100
AcDbLine
 10
-11586.54134011255
 20
5316.149044018942
 30
0.0
 11
-11586.54134011255
 21
5315.349044039152
 31
0.0
  0
LINE
  5
1C908
330
1F
100
AcDbEntity
  8
02製品
  6
Continuous
100
AcDbLine
 10
-11591.04137158381
 20
5316.149044018942
 30
0.0
 11
-11591.04137158381
 21
5310.849044174659
 31
0.0
  0
LINE
  5
1C909
330
1F
100
AcDbEntity
  8
02製品
  6
Continuous
100
AcDbLine
 10
-11586.54134011255
 20
5310.849044174659
 30
0.0
 11
-11591.04137158381
 21
5310.849044174659
 31
0.0
  0
LINE
  5
1C90A
330
1F
100
AcDbEntity
  8
02製品
  6
Continuous
100
AcDbLine
 10
-11515.54136013971
 20
5315.349044039152
 30
0.0
 11
-11515.54136013971
 21
5316.149044018942
 31
0.0
  0
LINE
  5
1C90B
330
1F
100
AcDbEntity
  8
02製品
  6
Continuous
100
AcDbLine
 10
-11511.04132866846
 20
5310.849044174659
 30
0.0
 11
-11511.04132866846
 21
5316.149044018942
 31
0.0
  0
LINE
  5
1C90C
330
1F
100
AcDbEntity
  8
02製品
  6
Continuous
100
AcDbLine
 10
-11515.54136013971
 20
5310.849044174659
 30
0.0
 11
-11511.04132866846
 21
5310.849044174659
 31
0.0
  0
LINE
  5
1C90D
330
1F
100
AcDbEntity
  8
02製品
  6
Continuous
100
AcDbLine
 10
-11586.54134011255
 20
6386.349010449606
 30
0.0
 11
-11586.54134011255
 21
6390.849041920858
 31
0.0
  0
LINE
  5
1C90E
330
1F
100
AcDbEntity
  8
02製品
  6
Continuous
100
AcDbLine
 10
-11586.54134011255
 20
6390.849041920858
 30
0.0
 11
-11581.54134488092
 21
6390.849041920858
 31
0.0
  0
LINE
  5
1C90F
330
1F
100
AcDbEntity
  8
02製品
  6
Continuous
100
AcDbLine
 10
-11581.54134488092
 20
6390.849041920858
 30
0.0
 11
-11581.54134488092
 21
6386.349010449606
 31
0.0
  0
LINE
  5
1C910
330
1F
100
AcDbEntity
  8
02製品
  6
Continuous
100
AcDbLine
 10
-11581.54134488092
 20
6386.349010449606
 30
0.0
 11
-11586.54134011255
 21
6386.349010449606
 31
0.0
  0
LINE
  5
1C911
330
1F
100
AcDbEntity
  8
02製品
  6
Continuous
100
AcDbLine
 10
-11515.54136013971
 20
6390.849041920858
 30
0.0
 11
-11515.54136013971
 21
6386.349010449606
 31
0.0
  0
LINE
  5
1C912
330
1F
100
AcDbEntity
  8
02製品
  6
Continuous
100
AcDbLine
 10
-11515.54136013971
 20
6386.349010449606
 30
0.0
 11
-11520.54135537134
 21
6386.349010449606
 31
0.0
  0
LINE
  5
1C913
330
1F
100
AcDbEntity
  8
02製品
  6
Continuous
100
AcDbLine
 10
-11520.54135537134
 20
6386.349010449606
 30
0.0
 11
-11520.54135537134
 21
6390.849041920858
 31
0.0
  0
LINE
  5
1C914
330
1F
100
AcDbEntity
  8
02製品
  6
Continuous
100
AcDbLine
 10
-11520.54135537134
 20
6390.849041920858
 30
0.0
 11
-11515.54136013971
 21
6390.849041920858
 31
0.0
  0
LINE
  5
1C915
330
1F
100
AcDbEntity
  8
02製品
  6
Continuous
100
AcDbLine
 10
-11581.54134488092
 20
6386.349010449606
 30
0.0
 11
-11520.54135537134
 21
6386.349010449606
 31
0.0
  0
LINE
  5
1C916
330
1F
100
AcDbEntity
  8
02製品
  6
Continuous
100
AcDbLine
 10
-11520.54135537134
 20
6390.849041920858
 30
0.0
 11
-11581.54134488092
 21
6390.849041920858
 31
0.0
  0
LINE
  5
1C917
330
1F
100
AcDbEntity
  8
02製品
  6
Continuous
100
AcDbLine
 10
-11586.54134011255
 20
6386.349010449606
 30
0.0
 11
-11586.54134011255
 21
6385.548996907431
 31
0.0
  0
LINE
  5
1C918
330
1F
100
AcDbEntity
  8
02製品
  6
Continuous
100
AcDbLine
 10
-11591.04137158381
 20
6390.849041920858
 30
0.0
 11
-11591.04137158381
 21
6385.548996907431
 31
0.0
  0
LINE
  5
1C919
330
1F
100
AcDbEntity
  8
02製品
  6
Continuous
100
AcDbLine
 10
-11586.54134011255
 20
6390.849041920858
 30
0.0
 11
-11591.04137158381
 21
6390.849041920858
 31
0.0
  0
LINE
  5
1C91A
330
1F
100
AcDbEntity
  8
02製品
  6
Continuous
100
AcDbLine
 10
-11515.54136013971
 20
6385.548996907431
 30
0.0
 11
-11515.54136013971
 21
6386.349010449606
 31
0.0
  0
LINE
  5
1C91B
330
1F
100
AcDbEntity
  8
02製品
  6
Continuous
100
AcDbLine
 10
-11511.04132866846
 20
6385.548996907431
 30
0.0
 11
-11511.04132866846
 21
6390.849041920858
 31
0.0
  0
LINE
  5
1C91C
330
1F
100
AcDbEntity
  8
02製品
  6
Continuous
100
AcDbLine
 10
-11515.54136013971
 20
6390.849041920858
 30
0.0
 11
-11511.04132866846
 21
6390.849041920858
 31
0.0
  0
LINE
  5
1C91D
330
1F
100
AcDbEntity
  8
02製品
  6
Continuous
100
AcDbLine
 10
-10460.54129338251
 20
6386.349010449606
 30
0.0
 11
-10460.54129338251
 21
6390.849041920858
 31
0.0
  0
LINE
  5
1C91E
330
1F
100
AcDbEntity
  8
02製品
  6
Continuous
100
AcDbLine
 10
-10460.54129338251
 20
6390.849041920858
 30
0.0
 11
-10455.54141736017
 21
6390.849041920858
 31
0.0
  0
LINE
  5
1C91F
330
1F
100
AcDbEntity
  8
02製品
  6
Continuous
100
AcDbLine
 10
-10455.54141736017
 20
6390.849041920858
 30
0.0
 11
-10455.54141736017
 21
6386.349010449606
 31
0.0
  0
LINE
  5
1C920
330
1F
100
AcDbEntity
  8
02製品
  6
Continuous
100
AcDbLine
 10
-10455.54141736017
 20
6386.349010449606
 30
0.0
 11
-10460.54129338251
 21
6386.349010449606
 31
0.0
  0
LINE
  5
1C921
330
1F
100
AcDbEntity
  8
02製品
  6
Continuous
100
AcDbLine
 10
-10389.54143261896
 20
6390.849041920858
 30
0.0
 11
-10389.54143261896
 21
6386.349010449606
 31
0.0
  0
LINE
  5
1C922
330
1F
100
AcDbEntity
  8
02製品
  6
Continuous
100
AcDbLine
 10
-10389.54143261896
 20
6386.349010449606
 30
0.0
 11
-10394.5413086413
 21
6386.349010449606
 31
0.0
  0
LINE
  5
1C923
330
1F
100
AcDbEntity
  8
02製品
  6
Continuous
100
AcDbLine
 10
-10394.5413086413
 20
6386.349010449606
 30
0.0
 11
-10394.5413086413
 21
6390.849041920858
 31
0.0
  0
LINE
  5
1C924
330
1F
100
AcDbEntity
  8
02製品
  6
Continuous
100
AcDbLine
 10
-10394.5413086413
 20
6390.849041920858
 30
0.0
 11
-10389.54143261896
 21
6390.849041920858
 31
0.0
  0
LINE
  5
1C925
330
1F
100
AcDbEntity
  8
02製品
  6
Continuous
100
AcDbLine
 10
-10455.54141736017
 20
6386.349010449606
 30
0.0
 11
-10394.5413086413
 21
6386.349010449606
 31
0.0
  0
LINE
  5
1C926
330
1F
100
AcDbEntity
  8
02製品
  6
Continuous
100
AcDbLine
 10
-10394.5413086413
 20
6390.849041920858
 30
0.0
 11
-10455.54141736017
 21
6390.849041920858
 31
0.0
  0
LINE
  5
1C927
330
1F
100
AcDbEntity
  8
02製品
  6
Continuous
100
AcDbLine
 10
-10460.54129338251
 20
6386.349010449606
 30
0.0
 11
-10460.54129338251
 21
6385.548996907431
 31
0.0
  0
LINE
  5
1C928
330
1F
100
AcDbEntity
  8
02製品
  6
Continuous
100
AcDbLine
 10
-10465.04144406305
 20
6390.849041920858
 30
0.0
 11
-10465.04144406305
 21
6385.548996907431
 31
0.0
  0
LINE
  5
1C929
330
1F
100
AcDbEntity
  8
02製品
  6
Continuous
100
AcDbLine
 10
-10460.54129338251
 20
6390.849041920858
 30
0.0
 11
-10465.04144406305
 21
6390.849041920858
 31
0.0
  0
LINE
  5
1C92A
330
1F
100
AcDbEntity
  8
02製品
  6
Continuous
100
AcDbLine
 10
-10389.54143261896
 20
6385.548996907431
 30
0.0
 11
-10389.54143261896
 21
6386.349010449606
 31
0.0
  0
LINE
  5
1C92B
330
1F
100
AcDbEntity
  8
02製品
  6
Continuous
100
AcDbLine
 10
-10385.04128193842
 20
6385.548996907431
 30
0.0
 11
-10385.04128193842
 21
6390.849041920858
 31
0.0
  0
LINE
  5
1C92C
330
1F
100
AcDbEntity
  8
02製品
  6
Continuous
100
AcDbLine
 10
-10389.54143261896
 20
6390.849041920858
 30
0.0
 11
-10385.04128193842
 21
6390.849041920858
 31
0.0
  0
LINE
  5
1C92D
330
1F
100
AcDbEntity
  8
02製品
  6
Continuous
100
AcDbLine
 10
-9298.24142193781
 20
5350.849042814928
 30
0.0
 11
-9298.24142193781
 21
6350.849080067831
 31
0.0
  0
LINE
  5
1C92E
330
1F
100
AcDbEntity
  8
02製品
  6
Continuous
100
AcDbLine
 10
-9298.24142193781
 20
5323.349043895262
 30
0.0
 11
-9299.041316270695
 21
5323.349043895262
 31
0.0
  0
LINE
  5
1C92F
330
1F
100
AcDbEntity
  8
02製品
  6
Continuous
100
AcDbLine
 10
-9298.24142193781
 20
6378.348994237143
 30
0.0
 11
-9299.041316270695
 21
6378.348994237143
 31
0.0
  0
LINE
  5
1C930
330
1F
100
AcDbEntity
  8
02製品
  6
Continuous
100
AcDbLine
 10
-12677.84133723132
 20
6350.849080067831
 30
0.0
 11
-12677.84133723132
 21
5350.849042814928
 31
0.0
  0
LINE
  5
1C931
330
1F
100
AcDbEntity
  8
02製品
  6
Continuous
100
AcDbLine
 10
-12677.84133723132
 20
6378.348994237143
 30
0.0
 11
-12677.04133725153
 21
6378.348994237143
 31
0.0
  0
LINE
  5
1C932
330
1F
100
AcDbEntity
  8
02製品
  6
Continuous
100
AcDbLine
 10
-12677.84133723132
 20
5323.349043895262
 30
0.0
 11
-12677.04133725153
 21
5323.349043895262
 31
0.0
  0
LINE
  5
1C933
330
1F
100
AcDbEntity
  8
02製品
  6
Continuous
100
AcDbLine
 10
-9443.7413666247
 20
6390.849041920858
 30
0.0
 11
-9443.7413666247
 21
6386.349010449606
 31
0.0
  0
LINE
  5
1C934
330
1F
100
AcDbEntity
  8
02製品
  6
Continuous
100
AcDbLine
 10
-9440.741345643864
 20
6390.849041920858
 30
0.0
 11
-9443.7413666247
 21
6390.849041920858
 31
0.0
  0
LINE
  5
1C935
330
1F
100
AcDbEntity
  8
02製品
  6
Continuous
100
AcDbLine
 10
-9440.741345643864
 20
6386.349010449606
 30
0.0
 11
-9440.741345643864
 21
6390.849041920858
 31
0.0
  0
LINE
  5
1C936
330
1F
100
AcDbEntity
  8
02製品
  6
Continuous
100
AcDbLine
 10
-9443.7413666247
 20
6386.349010449606
 30
0.0
 11
-9440.741345643864
 21
6386.349010449606
 31
0.0
  0
LINE
  5
1C937
330
1F
100
AcDbEntity
  8
02製品
  6
Continuous
100
AcDbLine
 10
-9293.741271257268
 20
6353.849101048666
 30
0.0
 11
-9298.24142193781
 21
6353.849101048666
 31
0.0
  0
LINE
  5
1C938
330
1F
100
AcDbEntity
  8
02製品
  6
Continuous
100
AcDbLine
 10
-9298.24142193781
 20
6353.849101048666
 30
0.0
 11
-9298.24142193781
 21
6386.349010449606
 31
0.0
  0
LINE
  5
1C939
330
1F
100
AcDbEntity
  8
02製品
  6
Continuous
100
AcDbLine
 10
-9298.24142193781
 20
6386.349010449606
 30
0.0
 11
-9440.741345643864
 21
6386.349010449606
 31
0.0
  0
LINE
  5
1C93A
330
1F
100
AcDbEntity
  8
02製品
  6
Continuous
100
AcDbLine
 10
-9293.741271257268
 20
6390.849041920858
 30
0.0
 11
-9293.741271257268
 21
6353.849101048666
 31
0.0
  0
LINE
  5
1C93B
330
1F
100
AcDbEntity
  8
02製品
  6
Continuous
100
AcDbLine
 10
-9440.741345643864
 20
6390.849041920858
 30
0.0
 11
-9293.741271257268
 21
6390.849041920858
 31
0.0
  0
LINE
  5
1C93C
330
1F
100
AcDbEntity
  8
02製品
  6
Continuous
100
AcDbLine
 10
-9298.24142193781
 20
6350.849080067831
 30
0.0
 11
-9293.741271257268
 21
6350.849080067831
 31
0.0
  0
LINE
  5
1C93D
330
1F
100
AcDbEntity
  8
02製品
  6
Continuous
100
AcDbLine
 10
-9298.24142193781
 20
6353.849101048666
 30
0.0
 11
-9298.24142193781
 21
6350.849080067831
 31
0.0
  0
LINE
  5
1C93E
330
1F
100
AcDbEntity
  8
02製品
  6
Continuous
100
AcDbLine
 10
-9293.741271257268
 20
6350.849080067831
 30
0.0
 11
-9293.741271257268
 21
6353.849101048666
 31
0.0
  0
LINE
  5
1C93F
330
1F
100
AcDbEntity
  8
02製品
  6
Continuous
100
AcDbLine
 10
-9308.741376161443
 20
6386.349010449606
 30
0.0
 11
-9307.941481828557
 21
6385.548996907431
 31
0.0
  0
LINE
  5
1C940
330
1F
100
AcDbEntity
  8
02製品
  6
Continuous
100
AcDbLine
 10
-12682.34133709581
 20
5347.849044185835
 30
0.0
 11
-12677.84133723132
 21
5347.849044185835
 31
0.0
  0
LINE
  5
1C941
330
1F
100
AcDbEntity
  8
02製品
  6
Continuous
100
AcDbLine
 10
-12677.84133723132
 20
5347.849044185835
 30
0.0
 11
-12677.84133723132
 21
5315.349044039152
 31
0.0
  0
LINE
  5
1C942
330
1F
100
AcDbEntity
  8
02製品
  6
Continuous
100
AcDbLine
 10
-12677.84133723132
 20
5315.349044039152
 30
0.0
 11
-12535.34133768068
 21
5315.349044039152
 31
0.0
  0
LINE
  5
1C943
330
1F
100
AcDbEntity
  8
02製品
  6
Continuous
100
AcDbLine
 10
-12535.34133768068
 20
5315.349044039152
 30
0.0
 11
-12535.34133768068
 21
5310.849044174659
 31
0.0
  0
LINE
  5
1C944
330
1F
100
AcDbEntity
  8
02製品
  6
Continuous
100
AcDbLine
 10
-12535.34133768068
 20
5310.849044174659
 30
0.0
 11
-12682.34133709581
 21
5310.849044174659
 31
0.0
  0
LINE
  5
1C945
330
1F
100
AcDbEntity
  8
02製品
  6
Continuous
100
AcDbLine
 10
-12682.34133709581
 20
5310.849044174659
 30
0.0
 11
-12682.34133709581
 21
5347.849044185835
 31
0.0
  0
LINE
  5
1C946
330
1F
100
AcDbEntity
  8
02製品
  6
Continuous
100
AcDbLine
 10
-12532.34133160101
 20
5310.849044174659
 30
0.0
 11
-12532.34133160101
 21
5315.349044039152
 31
0.0
  0
LINE
  5
1C947
330
1F
100
AcDbEntity
  8
02製品
  6
Continuous
100
AcDbLine
 10
-12535.34133768068
 20
5310.849044174659
 30
0.0
 11
-12532.34133160101
 21
5310.849044174659
 31
0.0
  0
LINE
  5
1C948
330
1F
100
AcDbEntity
  8
02製品
  6
Continuous
100
AcDbLine
 10
-12532.34133160101
 20
5315.349044039152
 30
0.0
 11
-12535.34133768068
 21
5315.349044039152
 31
0.0
  0
LINE
  5
1C949
330
1F
100
AcDbEntity
  8
02製品
  6
Continuous
100
AcDbLine
 10
-12677.84133723132
 20
5350.849042814928
 30
0.0
 11
-12682.34133709581
 21
5350.849042814928
 31
0.0
  0
LINE
  5
1C94A
330
1F
100
AcDbEntity
  8
02製品
  6
Continuous
100
AcDbLine
 10
-12682.34133709581
 20
5350.849042814928
 30
0.0
 11
-12682.34133709581
 21
5347.849044185835
 31
0.0
  0
LINE
  5
1C94B
330
1F
100
AcDbEntity
  8
02製品
  6
Continuous
100
AcDbLine
 10
-12677.84133723132
 20
5347.849044185835
 30
0.0
 11
-12677.84133723132
 21
5350.849042814928
 31
0.0
  0
LINE
  5
1C94C
330
1F
100
AcDbEntity
  8
02製品
  6
Continuous
100
AcDbLine
 10
-12667.34123731391
 20
5315.349044039152
 30
0.0
 11
-12668.14123688625
 21
5316.149044018927
 31
0.0
  0
LINE
  5
1C94D
330
1F
100
AcDbEntity
  8
02製品
  6
Continuous
100
AcDbLine
 10
-9293.741271257268
 20
5347.849044185835
 30
0.0
 11
-9298.24142193781
 21
5347.849044185835
 31
0.0
  0
LINE
  5
1C94E
330
1F
100
AcDbEntity
  8
02製品
  6
Continuous
100
AcDbLine
 10
-9298.24142193781
 20
5350.849042814928
 30
0.0
 11
-9293.741271257268
 21
5350.849042814928
 31
0.0
  0
LINE
  5
1C94F
330
1F
100
AcDbEntity
  8
02製品
  6
Continuous
100
AcDbLine
 10
-9293.741271257268
 20
5350.849042814928
 30
0.0
 11
-9293.741271257268
 21
5347.849044185835
 31
0.0
  0
LINE
  5
1C950
330
1F
100
AcDbEntity
  8
02製品
  6
Continuous
100
AcDbLine
 10
-9298.24142193781
 20
5347.849044185835
 30
0.0
 11
-9298.24142193781
 21
5350.849042814928
 31
0.0
  0
LINE
  5
1C951
330
1F
100
AcDbEntity
  8
02製品
  6
Continuous
100
AcDbLine
 10
-9440.741345643864
 20
5310.849044174659
 30
0.0
 11
-9293.741271257268
 21
5310.849044174659
 31
0.0
  0
LINE
  5
1C952
330
1F
100
AcDbEntity
  8
02製品
  6
Continuous
100
AcDbLine
 10
-9440.741345643864
 20
5315.349044039152
 30
0.0
 11
-9440.741345643864
 21
5310.849044174659
 31
0.0
  0
LINE
  5
1C953
330
1F
100
AcDbEntity
  8
02製品
  6
Continuous
100
AcDbLine
 10
-9298.24142193781
 20
5315.349044039152
 30
0.0
 11
-9440.741345643864
 21
5315.349044039152
 31
0.0
  0
LINE
  5
1C954
330
1F
100
AcDbEntity
  8
02製品
  6
Continuous
100
AcDbLine
 10
-9293.741271257268
 20
5310.849044174659
 30
0.0
 11
-9293.741271257268
 21
5347.849044185835
 31
0.0
  0
LINE
  5
1C955
330
1F
100
AcDbEntity
  8
02製品
  6
Continuous
100
AcDbLine
 10
-9298.24142193781
 20
5347.849044185835
 30
0.0
 11
-9298.24142193781
 21
5315.349044039152
 31
0.0
  0
LINE
  5
1C956
330
1F
100
AcDbEntity
  8
02製品
  6
Continuous
100
AcDbLine
 10
-9440.741345643864
 20
5310.849044174659
 30
0.0
 11
-9443.7413666247
 21
5310.849044174659
 31
0.0
  0
LINE
  5
1C957
330
1F
100
AcDbEntity
  8
02製品
  6
Continuous
100
AcDbLine
 10
-9443.7413666247
 20
5310.849044174659
 30
0.0
 11
-9443.7413666247
 21
5315.349044039152
 31
0.0
  0
LINE
  5
1C958
330
1F
100
AcDbEntity
  8
02製品
  6
Continuous
100
AcDbLine
 10
-9443.7413666247
 20
5315.349044039152
 30
0.0
 11
-9440.741345643864
 21
5315.349044039152
 31
0.0
  0
LINE
  5
1C959
330
1F
100
AcDbEntity
  8
02製品
  6
Continuous
100
AcDbLine
 10
-9308.741376161443
 20
5315.349044039152
 30
0.0
 11
-9307.941481828557
 21
5316.149044018927
 31
0.0
  0
LINE
  5
1C95A
330
1F
100
AcDbEntity
  8
02製品
  6
Continuous
100
AcDbLine
 10
-12535.34133768068
 20
6386.349010449606
 30
0.0
 11
-12535.34133768068
 21
6390.849041920858
 31
0.0
  0
LINE
  5
1C95B
330
1F
100
AcDbEntity
  8
02製品
  6
Continuous
100
AcDbLine
 10
-12535.34133768068
 20
6390.849041920858
 30
0.0
 11
-12532.34133160101
 21
6390.849041920858
 31
0.0
  0
LINE
  5
1C95C
330
1F
100
AcDbEntity
  8
02製品
  6
Continuous
100
AcDbLine
 10
-12532.34133160101
 20
6390.849041920858
 30
0.0
 11
-12532.34133160101
 21
6386.349010449606
 31
0.0
  0
LINE
  5
1C95D
330
1F
100
AcDbEntity
  8
02製品
  6
Continuous
100
AcDbLine
 10
-12532.34133160101
 20
6386.349010449606
 30
0.0
 11
-12535.34133768068
 21
6386.349010449606
 31
0.0
  0
LINE
  5
1C95E
330
1F
100
AcDbEntity
  8
02製品
  6
Continuous
100
AcDbLine
 10
-12677.84133723132
 20
6386.349010449606
 30
0.0
 11
-12535.34133768068
 21
6386.349010449606
 31
0.0
  0
LINE
  5
1C95F
330
1F
100
AcDbEntity
  8
02製品
  6
Continuous
100
AcDbLine
 10
-12677.84133723132
 20
6353.849101048666
 30
0.0
 11
-12677.84133723132
 21
6386.349010449606
 31
0.0
  0
LINE
  5
1C960
330
1F
100
AcDbEntity
  8
02製品
  6
Continuous
100
AcDbLine
 10
-12682.34133709581
 20
6353.849101048666
 30
0.0
 11
-12677.84133723132
 21
6353.849101048666
 31
0.0
  0
LINE
  5
1C961
330
1F
100
AcDbEntity
  8
02製品
  6
Continuous
100
AcDbLine
 10
-12682.34133709581
 20
6390.849041920858
 30
0.0
 11
-12682.34133709581
 21
6353.849101048666
 31
0.0
  0
LINE
  5
1C962
330
1F
100
AcDbEntity
  8
02製品
  6
Continuous
100
AcDbLine
 10
-12535.34133768068
 20
6390.849041920858
 30
0.0
 11
-12682.34133709581
 21
6390.849041920858
 31
0.0
  0
LINE
  5
1C963
330
1F
100
AcDbEntity
  8
02製品
  6
Continuous
100
AcDbLine
 10
-12677.84133723132
 20
6350.849080067831
 30
0.0
 11
-12682.34133709581
 21
6350.849080067831
 31
0.0
  0
LINE
  5
1C964
330
1F
100
AcDbEntity
  8
02製品
  6
Continuous
100
AcDbLine
 10
-12677.84133723132
 20
6353.849101048666
 30
0.0
 11
-12677.84133723132
 21
6350.849080067831
 31
0.0
  0
LINE
  5
1C965
330
1F
100
AcDbEntity
  8
02製品
  6
Continuous
100
AcDbLine
 10
-12682.34133709581
 20
6350.849080067831
 30
0.0
 11
-12682.34133709581
 21
6353.849101048666
 31
0.0
  0
LINE
  5
1C966
330
1F
100
AcDbEntity
  8
02製品
  6
Continuous
100
AcDbLine
 10
-12667.34123731391
 20
6386.349010449606
 30
0.0
 11
-12668.14123688625
 21
6385.548996907431
 31
0.0
  0
LINE
  5
1C967
330
1F
100
AcDbEntity
  8
02製品
  6
Continuous
100
AcDbLine
 10
-9877.041384935246
 20
5356.149043124872
 30
0.0
 11
-9877.041384935246
 21
6345.549035054403
 31
0.0
  0
LINE
  5
1C968
330
1F
100
AcDbEntity
  8
02製品
  6
Continuous
100
AcDbLine
 10
-9847.041413545476
 20
5356.149043124872
 30
0.0
 11
-9847.041413545476
 21
6345.549035054403
 31
0.0
  0
LINE
  5
1C969
330
1F
100
AcDbEntity
  8
02製品
  6
Continuous
100
AcDbLine
 10
-11003.041312456
 20
5356.149043124872
 30
0.0
 11
-11003.041312456
 21
6345.549035054403
 31
0.0
  0
LINE
  5
1C96A
330
1F
100
AcDbEntity
  8
02製品
  6
Continuous
100
AcDbLine
 10
-10973.04134106623
 20
5356.149043124872
 30
0.0
 11
-10973.04134106623
 21
6345.549035054403
 31
0.0
  0
LINE
  5
1C96B
330
1F
100
AcDbEntity
  8
02製品
  6
Continuous
100
AcDbLine
 10
-12129.04135918604
 20
5356.149043124872
 30
0.0
 11
-12129.04135918604
 21
6345.549035054403
 31
0.0
  0
LINE
  5
1C96C
330
1F
100
AcDbEntity
  8
02製品
  6
Continuous
100
AcDbLine
 10
-12099.04132819162
 20
5356.149043124872
 30
0.0
 11
-12099.04132819162
 21
6345.549035054403
 31
0.0
  0
LINE
  5
1C96D
330
1F
100
AcDbEntity
  8
02製品
  6
Continuous
100
AcDbLine
 10
-10385.04128193842
 20
6345.549035054403
 30
0.0
 11
-10425.04124379145
 21
6345.549035054403
 31
0.0
  0
LINE
  5
1C96E
330
1F
100
AcDbEntity
  8
02製品
  6
Continuous
100
AcDbLine
 10
-10385.04128193842
 20
6345.549035054403
 30
0.0
 11
-10385.04128193842
 21
5356.149043124872
 31
0.0
  0
LINE
  5
1C96F
330
1F
100
AcDbEntity
  8
02製品
  6
Continuous
100
AcDbLine
 10
-10385.04128193842
 20
5356.149043124872
 30
0.0
 11
-10425.04124379145
 21
5356.149043124872
 31
0.0
  0
LINE
  5
1C970
330
1F
100
AcDbEntity
  8
02製品
  6
Continuous
100
AcDbLine
 10
-10425.04124379145
 20
6345.549035054403
 30
0.0
 11
-10425.04124379145
 21
5356.149043124872
 31
0.0
  0
LINE
  5
1C971
330
1F
100
AcDbEntity
  8
02製品
  6
Continuous
100
AcDbLine
 10
-9339.041278123723
 20
5356.149043124872
 30
0.0
 11
-9299.041316270695
 21
5356.149043124872
 31
0.0
  0
LINE
  5
1C972
330
1F
100
AcDbEntity
  8
02製品
  6
Continuous
100
AcDbLine
 10
-9339.041278123723
 20
5356.149043124872
 30
0.0
 11
-9339.041278123723
 21
6345.549035054403
 31
0.0
  0
LINE
  5
1C973
330
1F
100
AcDbEntity
  8
02製品
  6
Continuous
100
AcDbLine
 10
-9339.041278123723
 20
6345.549035054403
 30
0.0
 11
-9299.041316270695
 21
6345.549035054403
 31
0.0
  0
LINE
  5
1C974
330
1F
100
AcDbEntity
  8
02製品
  6
Continuous
100
AcDbLine
 10
-9299.041316270695
 20
5356.149043124872
 30
0.0
 11
-9299.041316270695
 21
6345.549035054403
 31
0.0
  0
LINE
  5
1C975
330
1F
100
AcDbEntity
  8
02製品
  6
Continuous
100
AcDbLine
 10
-12637.0413381456
 20
6345.549035054403
 30
0.0
 11
-12677.04133725153
 21
6345.549035054403
 31
0.0
  0
LINE
  5
1C976
330
1F
100
AcDbEntity
  8
02製品
  6
Continuous
100
AcDbLine
 10
-12637.0413381456
 20
6345.549035054403
 30
0.0
 11
-12637.0413381456
 21
5356.149043124872
 31
0.0
  0
LINE
  5
1C977
330
1F
100
AcDbEntity
  8
02製品
  6
Continuous
100
AcDbLine
 10
-12637.0413381456
 20
5356.149043124872
 30
0.0
 11
-12677.04133725153
 21
5356.149043124872
 31
0.0
  0
LINE
  5
1C978
330
1F
100
AcDbEntity
  8
02製品
  6
Continuous
100
AcDbLine
 10
-12677.04133725153
 20
6345.549035054403
 30
0.0
 11
-12677.04133725153
 21
5356.149043124872
 31
0.0
  0
LINE
  5
1C979
330
1F
100
AcDbEntity
  8
02製品
  6
Continuous
100
AcDbLine
 10
-11591.04137158381
 20
5356.149043124872
 30
0.0
 11
-11551.04129052149
 21
5356.149043124872
 31
0.0
  0
LINE
  5
1C97A
330
1F
100
AcDbEntity
  8
02製品
  6
Continuous
100
AcDbLine
 10
-11591.04137158381
 20
5356.149043124872
 30
0.0
 11
-11591.04137158381
 21
6345.549035054403
 31
0.0
  0
LINE
  5
1C97B
330
1F
100
AcDbEntity
  8
02製品
  6
Continuous
100
AcDbLine
 10
-11591.04137158381
 20
6345.549035054403
 30
0.0
 11
-11551.04129052149
 21
6345.549035054403
 31
0.0
  0
LINE
  5
1C97C
330
1F
100
AcDbEntity
  8
02製品
  6
Continuous
100
AcDbLine
 10
-11551.04129052149
 20
5356.149043124872
 30
0.0
 11
-11551.04129052149
 21
6345.549035054403
 31
0.0
  0
LINE
  5
1C97D
330
1F
100
AcDbEntity
  8
02製品
  6
Continuous
100
AcDbLine
 10
-11511.04132866846
 20
6345.549035054403
 30
0.0
 11
-11551.04129052149
 21
6345.549035054403
 31
0.0
  0
LINE
  5
1C97E
330
1F
100
AcDbEntity
  8
02製品
  6
Continuous
100
AcDbLine
 10
-11511.04132866846
 20
6345.549035054403
 30
0.0
 11
-11511.04132866846
 21
5356.149043124872
 31
0.0
  0
LINE
  5
1C97F
330
1F
100
AcDbEntity
  8
02製品
  6
Continuous
100
AcDbLine
 10
-11511.04132866846
 20
5356.149043124872
 30
0.0
 11
-11551.04129052149
 21
5356.149043124872
 31
0.0
  0
LINE
  5
1C980
330
1F
100
AcDbEntity
  8
02製品
  6
Continuous
100
AcDbLine
 10
-10465.04144406305
 20
5356.149043124872
 30
0.0
 11
-10425.04124379145
 21
5356.149043124872
 31
0.0
  0
LINE
  5
1C981
330
1F
100
AcDbEntity
  8
02製品
  6
Continuous
100
AcDbLine
 10
-10465.04144406305
 20
5356.149043124872
 30
0.0
 11
-10465.04144406305
 21
6345.549035054403
 31
0.0
  0
LINE
  5
1C982
330
1F
100
AcDbEntity
  8
02製品
  6
Continuous
100
AcDbLine
 10
-10465.04144406305
 20
6345.549035054403
 30
0.0
 11
-10425.04124379145
 21
6345.549035054403
 31
0.0
  0
LINE
  5
1C983
330
1F
100
AcDbEntity
  8
02製品
  6
Continuous
100
AcDbLine
 10
-9299.041316270695
 20
5356.149043124872
 30
0.0
 11
-9299.041316270695
 21
5316.149044018942
 31
0.0
  0
LINE
  5
1C984
330
1F
100
AcDbEntity
  8
02製品
  6
Continuous
100
AcDbLine
 10
-9299.041316270695
 20
5316.149044018942
 30
0.0
 11
-10425.04124379145
 21
5316.149044018942
 31
0.0
  0
LINE
  5
1C985
330
1F
100
AcDbEntity
  8
02製品
  6
Continuous
100
AcDbLine
 10
-9299.041316270695
 20
5356.149043124872
 30
0.0
 11
-10425.04124379145
 21
5356.149043124872
 31
0.0
  0
LINE
  5
1C986
330
1F
100
AcDbEntity
  8
02製品
  6
Continuous
100
AcDbLine
 10
-10425.04124379145
 20
5356.149043124872
 30
0.0
 11
-10425.04124379145
 21
5316.149044018942
 31
0.0
  0
LINE
  5
1C987
330
1F
100
AcDbEntity
  8
02製品
  6
Continuous
100
AcDbLine
 10
-10425.04124379145
 20
5356.149043124872
 30
0.0
 11
-11551.04129052149
 21
5356.149043124872
 31
0.0
  0
LINE
  5
1C988
330
1F
100
AcDbEntity
  8
02製品
  6
Continuous
100
AcDbLine
 10
-10425.04124379145
 20
5316.149044018942
 30
0.0
 11
-11551.04129052149
 21
5316.149044018942
 31
0.0
  0
LINE
  5
1C989
330
1F
100
AcDbEntity
  8
02製品
  6
Continuous
100
AcDbLine
 10
-11551.04129052149
 20
5356.149043124872
 30
0.0
 11
-11551.04129052149
 21
5316.149044018942
 31
0.0
  0
LINE
  5
1C98A
330
1F
100
AcDbEntity
  8
02製品
  6
Continuous
100
AcDbLine
 10
-11551.04129052149
 20
6345.549035054403
 30
0.0
 11
-10425.04124379145
 21
6345.549035054403
 31
0.0
  0
LINE
  5
1C98B
330
1F
100
AcDbEntity
  8
02製品
  6
Continuous
100
AcDbLine
 10
-10425.04124379145
 20
6345.549035054403
 30
0.0
 11
-10425.04124379145
 21
6385.548996907431
 31
0.0
  0
LINE
  5
1C98C
330
1F
100
AcDbEntity
  8
02製品
  6
Continuous
100
AcDbLine
 10
-11551.04129052149
 20
6345.549035054403
 30
0.0
 11
-11551.04129052149
 21
6385.548996907431
 31
0.0
  0
LINE
  5
1C98D
330
1F
100
AcDbEntity
  8
02製品
  6
Continuous
100
AcDbLine
 10
-11551.04129052149
 20
6385.548996907431
 30
0.0
 11
-10425.04124379145
 21
6385.548996907431
 31
0.0
  0
LINE
  5
1C98E
330
1F
100
AcDbEntity
  8
02製品
  6
Continuous
100
AcDbLine
 10
-10425.04124379145
 20
6345.549035054403
 30
0.0
 11
-9299.041316270695
 21
6345.549035054403
 31
0.0
  0
LINE
  5
1C98F
330
1F
100
AcDbEntity
  8
02製品
  6
Continuous
100
AcDbLine
 10
-9299.041316270695
 20
6345.549035054403
 30
0.0
 11
-9299.041316270695
 21
6385.548996907431
 31
0.0
  0
LINE
  5
1C990
330
1F
100
AcDbEntity
  8
02製品
  6
Continuous
100
AcDbLine
 10
-10425.04124379145
 20
6385.548996907431
 30
0.0
 11
-9299.041316270695
 21
6385.548996907431
 31
0.0
  0
LINE
  5
1C991
330
1F
100
AcDbEntity
  8
02製品
  6
Continuous
100
AcDbLine
 10
-12677.04133725153
 20
6345.549035054403
 30
0.0
 11
-11551.04129052149
 21
6345.549035054403
 31
0.0
  0
LINE
  5
1C992
330
1F
100
AcDbEntity
  8
02製品
  6
Continuous
100
AcDbLine
 10
-12677.04133725153
 20
6345.549035054403
 30
0.0
 11
-12677.04133725153
 21
6385.548996907431
 31
0.0
  0
LINE
  5
1C993
330
1F
100
AcDbEntity
  8
02製品
  6
Continuous
100
AcDbLine
 10
-12677.04133725153
 20
6385.548996907431
 30
0.0
 11
-11551.04129052149
 21
6385.548996907431
 31
0.0
  0
LINE
  5
1C994
330
1F
100
AcDbEntity
  8
02製品
  6
Continuous
100
AcDbLine
 10
-11551.04129052149
 20
5316.149044018942
 30
0.0
 11
-12677.04133725153
 21
5316.149044018942
 31
0.0
  0
LINE
  5
1C995
330
1F
100
AcDbEntity
  8
02製品
  6
Continuous
100
AcDbLine
 10
-12677.04133725153
 20
5356.149043124872
 30
0.0
 11
-12677.04133725153
 21
5316.149044018942
 31
0.0
  0
LINE
  5
1C996
330
1F
100
AcDbEntity
  8
02製品
  6
Continuous
100
AcDbLine
 10
-11551.04129052149
 20
5356.149043124872
 30
0.0
 11
-12677.04133725153
 21
5356.149043124872
 31
0.0
  0
INSERT
  5
1CAD7
330
1F
100
AcDbEntity
  8
02製品
100
AcDbBlockReference
  2
A$C3C7277DA
 10
-11895.84123452496
 20
5356.149053526284
 30
0.0
 50
359.9999999999174
  0
INSERT
  5
1CAD8
330
1F
100
AcDbEntity
  8
02製品
100
AcDbBlockReference
  2
A$C20123
 10
-12266.44127812373
 20
5782.849043124875
 30
0.0
 41
1.5
 42
1.5
 43
1.5
  0
INSERT
  5
1CAD9
330
1F
100
AcDbEntity
  8
02製品
100
AcDbBlockReference
  2
A$C3C7277DA
 10
-12332.24132172249
 20
6345.549032723462
 30
0.0
 50
179.9999999999174
  0
INSERT
  5
1CADA
330
1F
100
AcDbEntity
  8
02製品
100
AcDbBlockReference
  2
A$C3C7277DA
 10
-11206.24132172249
 20
6345.549032723462
 30
0.0
 50
179.9999999999174
  0
INSERT
  5
1CADB
330
1F
100
AcDbEntity
  8
02製品
100
AcDbBlockReference
  2
A$C20123
 10
-11140.44127812373
 20
5782.849043124875
 30
0.0
 41
1.5
 42
1.5
 43
1.5
  0
INSERT
  5
1CADC
330
1F
100
AcDbEntity
  8
02製品
100
AcDbBlockReference
  2
A$C3C7277DA
 10
-10769.84123452497
 20
5356.149053526284
 30
0.0
 50
359.9999999999174
  0
INSERT
  5
1CADD
330
1F
100
AcDbEntity
  8
02製品
100
AcDbBlockReference
  2
A$C20123
 10
-10014.44127812373
 20
5782.849043124875
 30
0.0
 41
1.5
 42
1.5
 43
1.5
  0
INSERT
  5
1CADE
330
1F
100
AcDbEntity
  8
02製品
100
AcDbBlockReference
  2
A$C3C7277DA
 10
-10080.2413217225
 20
6345.549032723462
 30
0.0
 50
179.9999999999174
  0
INSERT
  5
1CADF
330
1F
100
AcDbEntity
  8
02製品
100
AcDbBlockReference
  2
A$C3C7277DA
 10
-9643.841234524962
 20
5356.149053526284
 30
0.0
 50
359.9999999999174
  0
INSERT
  5
1CAE6
330
1F
100
AcDbEntity
  8
02製品
100
AcDbBlockReference
  2
A$C10914
 10
-9315.541278123726
 20
5303.749035050885
 30
0.0
 50
90.0
  0
INSERT
  5
1CAE7
330
1F
100
AcDbEntity
  8
02製品
100
AcDbBlockReference
  2
A$C10914
 10
-10391.54127812372
 20
5303.749035050889
 30
0.0
 50
90.0
  0
INSERT
  5
1CAE8
330
1F
100
AcDbEntity
  8
02製品
100
AcDbBlockReference
  2
A$C10914
 10
-10458.54127812373
 20
5303.749035050889
 30
0.0
 41
-1.0
 50
270.0
  0
INSERT
  5
1CAE9
330
1F
100
AcDbEntity
  8
02製品
100
AcDbBlockReference
  2
A$C10914
 10
-11517.54127812373
 20
5303.749035050889
 30
0.0
 50
90.0
  0
INSERT
  5
1CAEA
330
1F
100
AcDbEntity
  8
02製品
100
AcDbBlockReference
  2
A$C10914
 10
-11584.54127812373
 20
5303.749035050889
 30
0.0
 41
-1.0
 50
270.0
  0
INSERT
  5
1CAEB
330
1F
100
AcDbEntity
  8
02製品
100
AcDbBlockReference
  2
A$C10914
 10
-12660.54127812373
 20
5303.749035050885
 30
0.0
 41
-1.0
 50
270.0
  0
INSERT
  5
1CAEC
330
1F
100
AcDbEntity
  8
02製品
100
AcDbBlockReference
  2
A$C10914
 10
-12660.54127812373
 20
6397.949035057918
 30
0.0
 50
270.0
  0
INSERT
  5
1CAED
330
1F
100
AcDbEntity
  8
02製品
100
AcDbBlockReference
  2
A$C10914
 10
-9315.541278123726
 20
6397.949035057918
 30
0.0
 41
-1.0
 50
89.99999999999982
  0
INSERT
  5
1CAEE
330
1F
100
AcDbEntity
  8
02製品
100
AcDbBlockReference
  2
A$C10914
 10
-10391.54127812372
 20
6397.949035057914
 30
0.0
 41
-1.0
 50
89.99999999999982
  0
INSERT
  5
1CAEF
330
1F
100
AcDbEntity
  8
02製品
100
AcDbBlockReference
  2
A$C10914
 10
-10458.54127812373
 20
6397.949035057914
 30
0.0
 50
270.0
  0
INSERT
  5
1CAF0
330
1F
100
AcDbEntity
  8
02製品
100
AcDbBlockReference
  2
A$C10914
 10
-11517.54127812373
 20
6397.949035057914
 30
0.0
 41
-1.0
 50
89.99999999999982
  0
INSERT
  5
1CAF1
330
1F
100
AcDbEntity
  8
02製品
100
AcDbBlockReference
  2
A$C10914
 10
-11584.54127812373
 20
6397.949035057914
 30
0.0
 50
270.0
  0
INSERT
  5
1CAF3
330
1F
100
AcDbEntity
  8
02製品
100
AcDbBlockReference
  2
A$C10914
 10
-9310.541337251587
 20
6401.149096093076
 30
0.0
 41
-1.0
 50
89.99999999999982
  0
INSERT
  5
1CAF6
330
1F
100
AcDbEntity
  8
02製品
100
AcDbBlockReference
  2
A$C10914
 10
-10396.54133725153
 20
6401.149096093075
 30
0.0
 41
-1.0
 50
89.99999999999982
  0
INSERT
  5
1CAF7
330
1F
100
AcDbEntity
  8
02製品
100
AcDbBlockReference
  2
A$C10914
 10
-11522.54132437693
 20
6401.149096093075
 30
0.0
 41
-1.0
 50
89.99999999999979
  0
INSERT
  5
1CAF8
330
1F
100
AcDbEntity
  8
02製品
100
AcDbBlockReference
  2
A$C10914
 10
-10436.54132437698
 20
6401.149096093076
 30
0.0
 41
-1.0
 50
89.99999999999982
  0
INSERT
  5
1CAF9
330
1F
100
AcDbEntity
  8
02製品
100
AcDbBlockReference
  2
A$C10914
 10
-12648.54137110697
 20
6401.149096093075
 30
0.0
 41
-1.0
 50
89.99999999999979
  0
INSERT
  5
1CAFA
330
1F
100
AcDbEntity
  8
02製品
100
AcDbBlockReference
  2
A$C10914
 10
-11562.54137110703
 20
6401.149096093076
 30
0.0
 41
-1.0
 50
89.99999999999982
  0
INSERT
  5
1CAFB
330
1F
100
AcDbEntity
  8
02製品
100
AcDbBlockReference
  2
A$C10914
 10
-12648.54137110697
 20
5300.5489820862
 30
0.0
 50
90.0000000000002
  0
INSERT
  5
1CAFC
330
1F
100
AcDbEntity
  8
02製品
100
AcDbBlockReference
  2
A$C10914
 10
-11522.54132437693
 20
5300.5489820862
 30
0.0
 50
90.0000000000002
  0
INSERT
  5
1CAFD
330
1F
100
AcDbEntity
  8
02製品
100
AcDbBlockReference
  2
A$C10914
 10
-11562.54137110703
 20
5300.548982086199
 30
0.0
 50
90.0000000000002
  0
INSERT
  5
1CAFE
330
1F
100
AcDbEntity
  8
02製品
100
AcDbBlockReference
  2
A$C10914
 10
-10396.54133725153
 20
5300.5489820862
 30
0.0
 50
90.0000000000002
  0
INSERT
  5
1CAFF
330
1F
100
AcDbEntity
  8
02製品
100
AcDbBlockReference
  2
A$C10914
 10
-10436.54132437698
 20
5300.548982086199
 30
0.0
 50
90.0000000000002
  0
INSERT
  5
1CB00
330
1F
100
AcDbEntity
  8
02製品
100
AcDbBlockReference
  2
A$C10914
 10
-9310.541337251587
 20
5300.548982086199
 30
0.0
 50
90.00000000000018
  0
INSERT
  5
1CC6E
330
1F
100
AcDbEntity
  8
02製品
100
AcDbBlockReference
  2
A$C29410
 10
-8530.216104281999
 20
4254.616464691727
 30
0.0
  0
INSERT
  5
1CC6F
330
1F
100
AcDbEntity
  8
02製品
100
AcDbBlockReference
  2
A$C29410
 10
-8533.416104899652
 20
3674.616464691702
 30
0.0
  0
INSERT
  5
1CC70
330
1F
100
AcDbEntity
  8
02製品
100
AcDbBlockReference
  2
A$C29410
 10
-7436.016069741525
 20
4254.616464691722
 30
0.0
 41
-1.0
 50
359.9999999999995
  0
INSERT
  5
1CC71
330
1F
100
AcDbEntity
  8
02製品
100
AcDbBlockReference
  2
A$C29410
 10
-7432.816069123877
 20
3674.616464691698
 30
0.0
 41
-1.0
 50
359.9999999999995
  0
ENDSEC
  0
SECTION
  2
OBJECTS
  0
DICTIONARY
  5
C
330
0
100
AcDbDictionary
281
     1
  3
ACAD_DETAILVIEWSTYLE
350
ADAF
  3
ACAD_GROUP
350
D
  3
ACAD_IMAGE_VARS
350
6A88
  3
ACAD_LAYOUT
350
1A
  3
ACAD_MLINESTYLE
350
17
  3
ACAD_PLOTSETTINGS
350
19
  3
ACAD_PLOTSTYLENAME
350
E
  3
ACAD_SCALELIST
350
6A4E
  3
ACAD_SECTIONVIEWSTYLE
350
ADB0
  3
AcadDim
350
813A
  3
AcDbVariableDictionary
350
79E
  3
AEC_DISP_REPS
350
8259
  3
AEC_DISPLAY_PROPS_DEFAULTS
350
825B
  3
AEC_VARS
350
8257
  3
APPDATA
350
6A87
  3
DWGPROPS
350
1CE58
  0
DICTIONARY
  5
7A6F
330
2
100
AcDbDictionary
280
     1
281
     1
  3
ACAD_LAYERFILTERS
360
A22F
  3
ACAD_LAYERSTATES
360
7A70
  3
ACLYDICTIONARY
360
163AB
  0
DICTIONARY
  5
CBD6
330
1F
100
AcDbDictionary
280
     1
281
     1
  3
ACAD_SORTENTS
360
CBD7
  0
DICTIONARY
  5
152CF
330
152CE
100
AcDbDictionary
280
     1
281
     1
  3
ACAD_SORTENTS
360
152D0
  0
DICTIONARY
  5
1B100
330
1B0D4
100
AcDbDictionary
280
     1
281
     1
  3
ACAD_SORTENTS
360
1B101
  0
DICTIONARY
  5
1CC5C
330
1CC30
100
AcDbDictionary
280
     1
281
     1
  3
ACAD_SORTENTS
360
1CC5D
  0
DICTIONARY
  5
ADAF
102
{ACAD_REACTORS
330
C
102
}
330
C
100
AcDbDictionary
281
     1
  0
DICTIONARY
  5
D
102
{ACAD_REACTORS
330
C
102
}
330
C
100
AcDbDictionary
281
     1
  0
RASTERVARIABLES
  5
6A88
102
{ACAD_REACTORS
330
C
102
}
330
C
100
AcDbRasterVariables
 90
        0
 70
     1
 71
     1
 72
     1
  0
DICTIONARY
  5
1A
102
{ACAD_REACTORS
330
C
102
}
330
C
100
AcDbDictionary
281
     1
  3
Layout1
350
1E
  3
Layout2
350
26
  3
Model
350
22
  0
DICTIONARY
  5
17
102
{ACAD_REACTORS
330
C
102
}
330
C
100
AcDbDictionary
281
     1
  3
Standard
350
18
  0
DICTIONARY
  5
19
102
{ACAD_REACTORS
330
C
102
}
330
C
100
AcDbDictionary
281
     1
  0
ACDBDICTIONARYWDFLT
  5
E
102
{ACAD_REACTORS
330
C
102
}
330
C
100
AcDbDictionary
281
     1
  3
Normal
350
F
100
AcDbDictionaryWithDefault
340
F
  0
DICTIONARY
  5
6A4E
102
{ACAD_REACTORS
330
C
102
}
330
C
100
AcDbDictionary
281
     1
  3
A0
350
6A4F
  3
A1
350
6A50
  3
A2
350
6A51
  3
A3
350
6A52
  3
A4
350
6A53
  3
A5
350
6A54
  3
A6
350
6A55
  3
A7
350
6A56
  3
A8
350
6A57
  3
A9
350
6A58
  3
B0
350
6A59
  3
B1
350
6A5A
  3
B2
350
6A5B
  3
B3
350
6A5C
  3
B4
350
6A5D
  3
B5
350
6A5E
  3
B6
350
6A5F
  3
B7
350
6A60
  3
B8
350
6A61
  3
B9
350
6A62
  3
C0
350
6A63
  3
C1
350
6A64
  3
C2
350
6A65
  3
C3
350
6A66
  3
C4
350
6A67
  3
C5
350
6A68
  3
C6
350
6A69
  3
C7
350
6A6A
  3
C8
350
6A6B
  3
C9
350
6A6C
  3
D0
350
6A6D
  3
D1
350
6A6E
  3
D2
350
6A6F
  0
DICTIONARY
  5
ADB0
102
{ACAD_REACTORS
330
C
102
}
330
C
100
AcDbDictionary
281
     1
  0
XRECORD
  5
813A
102
{ACAD_REACTORS
330
C
102
}
330
C
100
AcDbXrecord
280
     1
340
0
 72
     0
 71
     0
 70
     0
 69
     0
 68
     1
 67
     3
 66
     0
 65
     0
 64
     0
 63
     3
 62
     1
 61
     0
 60
     0
 40
0.0
  0
DICTIONARY
  5
79E
102
{ACAD_REACTORS
330
C
102
}
330
C
100
AcDbDictionary
281
     1
  3
DIMASSOC
350
79F
  3
SORTENTS
350
264F
  0
DICTIONARY
  5
8259
102
{ACAD_REACTORS
330
C
102
}
330
C
100
AcDbDictionary
281
     1
  0
DICTIONARY
  5
825B
102
{ACAD_REACTORS
330
C
102
}
330
C
100
AcDbDictionary
281
     1
  0
DICTIONARY
  5
8257
102
{ACAD_REACTORS
330
C
102
}
330
C
100
AcDbDictionary
281
     1
  3
AEC_VARS_DWG_SETUP
350
8258
  0
DICTIONARY
  5
6A87
102
{ACAD_REACTORS
330
C
102
}
330
C
100
AcDbDictionary
281
     1
  0
XRECORD
  5
1CE58
102
{ACAD_REACTORS
330
C
102
}
330
C
100
AcDbXrecord
280
     1
  1
DWGPROPS COOKIE
  2

  3

  4

  6

  7

  8
2121
  9

300
=
301
=
302
=
303
=
304
=
305
=
306
=
307
=
308
=
309
=
 40
0.0
 41
2455859.030048461
 42
2458240.053063692
  1

 90
        0
  0
DICTIONARY
  5
A22F
102
{ACAD_REACTORS
330
7A6F
102
}
330
7A6F
100
AcDbDictionary
280
     1
281
     1
  0
DICTIONARY
  5
7A70
102
{ACAD_REACTORS
330
7A6F
102
}
330
7A6F
100
AcDbDictionary
281
     1
  0
DICTIONARY
  5
163AB
102
{ACAD_REACTORS
330
7A6F
102
}
330
7A6F
100
AcDbDictionary
281
     1
1001
ACAD
1000
<All
  0
SORTENTSTABLE
  5
CBD7
102
{ACAD_REACTORS
330
CBD6
102
}
330
CBD6
100
AcDbSortentsTable
330
1F
331
0
  5
98EA
  0
SORTENTSTABLE
  5
152D0
102
{ACAD_REACTORS
330
152CF
102
}
330
152CF
100
AcDbSortentsTable
330
152CE
  0
SORTENTSTABLE
  5
1B101
102
{ACAD_REACTORS
330
1B100
102
}
330
1B100
100
AcDbSortentsTable
330
1B0D4
  0
SORTENTSTABLE
  5
1CC5D
102
{ACAD_REACTORS
330
1CC5C
102
}
330
1CC5C
100
AcDbSortentsTable
330
1CC30
  0
LAYOUT
  5
1E
102
{ACAD_REACTORS
330
1A
102
}
330
1A
100
AcDbPlotSettings
  1

  2

  4

  6

 40
0.0
 41
0.0
 42
0.0
 43
0.0
 44
0.0
 45
0.0
 46
0.0
 47
0.0
 48
0.0
 49
0.0
140
0.0
141
0.0
142
1.0
143
1.0
 70
   688
 72
     0
 73
     0
 74
     5
  7
monochrome.ctb
 75
    16
147
1.0
148
0.0
149
0.0
100
AcDbLayout
  1
Layout1
 70
     1
 71
     1
 10
0.0
 20
0.0
 11
420.0
 21
297.0
 12
0.0
 22
0.0
 32
0.0
 14
1.000000000000000E+20
 24
1.000000000000000E+20
 34
1.000000000000000E+20
 15
-1.000000000000000E+20
 25
-1.000000000000000E+20
 35
-1.000000000000000E+20
146
0.0
 13
0.0
 23
0.0
 33
0.0
 16
1.0
 26
0.0
 36
0.0
 17
0.0
 27
1.0
 37
0.0
 76
     0
330
1B
  0
LAYOUT
  5
26
102
{ACAD_REACTORS
330
1A
102
}
330
1A
100
AcDbPlotSettings
  1

  2

  4

  6

 40
0.0
 41
0.0
 42
0.0
 43
0.0
 44
0.0
 45
0.0
 46
0.0
 47
0.0
 48
0.0
 49
0.0
140
0.0
141
0.0
142
1.0
143
1.0
 70
   688
 72
     0
 73
     0
 74
     5
  7
monochrome.ctb
 75
    16
147
1.0
148
0.0
149
0.0
100
AcDbLayout
  1
Layout2
 70
     1
 71
     2
 10
0.0
 20
0.0
 11
12.0
 21
9.0
 12
0.0
 22
0.0
 32
0.0
 14
0.0
 24
0.0
 34
0.0
 15
0.0
 25
0.0
 35
0.0
146
0.0
 13
0.0
 23
0.0
 33
0.0
 16
1.0
 26
0.0
 36
0.0
 17
0.0
 27
1.0
 37
0.0
 76
     0
330
23
  0
LAYOUT
  5
22
102
{ACAD_REACTORS
330
1A
102
}
330
1A
100
AcDbPlotSettings
  1

  2
none_device
  4
A3
  6

 40
3.174999952316284
 41
3.174999952316284
 42
3.17498779296875
 43
3.17498779296875
 44
297.0318298339844
 45
420.1583251953125
 46
-3.16
 47
-3.1
 48
-90.0
 49
-90.0
140
329.9999999999998
141
207.0
142
1.0
143
1.0
 70
 11940
 72
     1
 73
     1
 74
     4
  7
monochrome.ctb
 75
     0
147
1.0
148
90.0
149
90.0
100
AcDbLayout
  1
Model
 70
     1
 71
     0
 10
-13510.25736412818
 20
1961.077543880496
 11
-5110.257364128185
 21
7901.077543880497
 12
0.0
 22
0.0
 32
0.0
 14
-12682.34133709581
 24
3433.11644084986
 34
0.0
 15
-7432.816069123877
 25
6401.149096093076
 35
0.0
146
0.0
 13
0.0
 23
0.0
 33
0.0
 16
1.0
 26
0.0
 36
0.0
 17
0.0
 27
1.0
 37
0.0
 76
     0
330
1F
331
A2A1
  0
MLINESTYLE
  5
18
102
{ACAD_REACTORS
330
17
102
}
330
17
100
AcDbMlineStyle
  2
STANDARD
 70
     0
  3

 62
   256
 51
90.0
 52
90.0
 71
     2
 49
0.5
 62
   256
  6
BYLAYER
 49
-0.5
 62
   256
  6
BYLAYER
  0
ACDBPLACEHOLDER
  5
F
102
{ACAD_REACTORS
330
E
102
}
330
E
  0
SCALE
  5
6A4F
102
{ACAD_REACTORS
330
6A4E
102
}
330
6A4E
100
AcDbScale
 70
     0
300
1:1
140
1.0
141
1.0
290
     1
  0
SCALE
  5
6A50
102
{ACAD_REACTORS
330
6A4E
102
}
330
6A4E
100
AcDbScale
 70
     0
300
1:2
140
1.0
141
2.0
290
     0
  0
SCALE
  5
6A51
102
{ACAD_REACTORS
330
6A4E
102
}
330
6A4E
100
AcDbScale
 70
     0
300
1:4
140
1.0
141
4.0
290
     0
  0
SCALE
  5
6A52
102
{ACAD_REACTORS
330
6A4E
102
}
330
6A4E
100
AcDbScale
 70
     0
300
1:5
140
1.0
141
5.0
290
     0
  0
SCALE
  5
6A53
102
{ACAD_REACTORS
330
6A4E
102
}
330
6A4E
100
AcDbScale
 70
     0
300
1:8
140
1.0
141
8.0
290
     0
  0
SCALE
  5
6A54
102
{ACAD_REACTORS
330
6A4E
102
}
330
6A4E
100
AcDbScale
 70
     0
300
1:10
140
1.0
141
10.0
290
     0
  0
SCALE
  5
6A55
102
{ACAD_REACTORS
330
6A4E
102
}
330
6A4E
100
AcDbScale
 70
     0
300
1:16
140
1.0
141
16.0
290
     0
  0
SCALE
  5
6A56
102
{ACAD_REACTORS
330
6A4E
102
}
330
6A4E
100
AcDbScale
 70
     0
300
1:20
140
1.0
141
20.0
290
     0
  0
SCALE
  5
6A57
102
{ACAD_REACTORS
330
6A4E
102
}
330
6A4E
100
AcDbScale
 70
     0
300
1:30
140
1.0
141
30.0
290
     0
  0
SCALE
  5
6A58
102
{ACAD_REACTORS
330
6A4E
102
}
330
6A4E
100
AcDbScale
 70
     0
300
1:40
140
1.0
141
40.0
290
     0
  0
SCALE
  5
6A59
102
{ACAD_REACTORS
330
6A4E
102
}
330
6A4E
100
AcDbScale
 70
     0
300
1:50
140
1.0
141
50.0
290
     0
  0
SCALE
  5
6A5A
102
{ACAD_REACTORS
330
6A4E
102
}
330
6A4E
100
AcDbScale
 70
     0
300
1:100
140
1.0
141
100.0
290
     0
  0
SCALE
  5
6A5B
102
{ACAD_REACTORS
330
6A4E
102
}
330
6A4E
100
AcDbScale
 70
     0
300
2:1
140
2.0
141
1.0
290
     0
  0
SCALE
  5
6A5C
102
{ACAD_REACTORS
330
6A4E
102
}
330
6A4E
100
AcDbScale
 70
     0
300
4:1
140
4.0
141
1.0
290
     0
  0
SCALE
  5
6A5D
102
{ACAD_REACTORS
330
6A4E
102
}
330
6A4E
100
AcDbScale
 70
     0
300
8:1
140
8.0
141
1.0
290
     0
  0
SCALE
  5
6A5E
102
{ACAD_REACTORS
330
6A4E
102
}
330
6A4E
100
AcDbScale
 70
     0
300
10:1
140
10.0
141
1.0
290
     0
  0
SCALE
  5
6A5F
102
{ACAD_REACTORS
330
6A4E
102
}
330
6A4E
100
AcDbScale
 70
     0
300
100:1
140
100.0
141
1.0
290
     0
  0
SCALE
  5
6A60
102
{ACAD_REACTORS
330
6A4E
102
}
330
6A4E
100
AcDbScale
 70
     0
300
1/128" = 1'-0"
140
0.0078125
141
12.0
290
     0
  0
SCALE
  5
6A61
102
{ACAD_REACTORS
330
6A4E
102
}
330
6A4E
100
AcDbScale
 70
     0
300
1/64" = 1'-0"
140
0.015625
141
12.0
290
     0
  0
SCALE
  5
6A62
102
{ACAD_REACTORS
330
6A4E
102
}
330
6A4E
100
AcDbScale
 70
     0
300
1/32" = 1'-0"
140
0.03125
141
12.0
290
     0
  0
SCALE
  5
6A63
102
{ACAD_REACTORS
330
6A4E
102
}
330
6A4E
100
AcDbScale
 70
     0
300
1/16" = 1'-0"
140
0.0625
141
12.0
290
     0
  0
SCALE
  5
6A64
102
{ACAD_REACTORS
330
6A4E
102
}
330
6A4E
100
AcDbScale
 70
     0
300
3/32" = 1'-0"
140
0.09375
141
12.0
290
     0
  0
SCALE
  5
6A65
102
{ACAD_REACTORS
330
6A4E
102
}
330
6A4E
100
AcDbScale
 70
     0
300
1/8" = 1'-0"
140
0.125
141
12.0
290
     0
  0
SCALE
  5
6A66
102
{ACAD_REACTORS
330
6A4E
102
}
330
6A4E
100
AcDbScale
 70
     0
300
3/16" = 1'-0"
140
0.1875
141
12.0
290
     0
  0
SCALE
  5
6A67
102
{ACAD_REACTORS
330
6A4E
102
}
330
6A4E
100
AcDbScale
 70
     0
300
1/4" = 1'-0"
140
0.25
141
12.0
290
     0
  0
SCALE
  5
6A68
102
{ACAD_REACTORS
330
6A4E
102
}
330
6A4E
100
AcDbScale
 70
     0
300
3/8" = 1'-0"
140
0.375
141
12.0
290
     0
  0
SCALE
  5
6A69
102
{ACAD_REACTORS
330
6A4E
102
}
330
6A4E
100
AcDbScale
 70
     0
300
1/2" = 1'-0"
140
0.5
141
12.0
290
     0
  0
SCALE
  5
6A6A
102
{ACAD_REACTORS
330
6A4E
102
}
330
6A4E
100
AcDbScale
 70
     0
300
3/4" = 1'-0"
140
0.75
141
12.0
290
     0
  0
SCALE
  5
6A6B
102
{ACAD_REACTORS
330
6A4E
102
}
330
6A4E
100
AcDbScale
 70
     0
300
1" = 1'-0"
140
1.0
141
12.0
290
     0
  0
SCALE
  5
6A6C
102
{ACAD_REACTORS
330
6A4E
102
}
330
6A4E
100
AcDbScale
 70
     0
300
1-1/2" = 1'-0"
140
1.5
141
12.0
290
     0
  0
SCALE
  5
6A6D
102
{ACAD_REACTORS
330
6A4E
102
}
330
6A4E
100
AcDbScale
 70
     0
300
3" = 1'-0"
140
3.0
141
12.0
290
     0
  0
SCALE
  5
6A6E
102
{ACAD_REACTORS
330
6A4E
102
}
330
6A4E
100
AcDbScale
 70
     0
300
6" = 1'-0"
140
6.0
141
12.0
290
     0
  0
SCALE
  5
6A6F
102
{ACAD_REACTORS
330
6A4E
102
}
330
6A4E
100
AcDbScale
 70
     0
300
1'-0" = 1'-0"
140
12.0
141
12.0
290
     0
  0
DICTIONARYVAR
  5
79F
102
{ACAD_REACTORS
330
79E
102
}
330
79E
100
DictionaryVariables
280
     0
  1
1
  0
DICTIONARYVAR
  5
264F
102
{ACAD_REACTORS
330
79E
102
}
330
79E
100
DictionaryVariables
280
     0
  1
96
  0
ACAD_PROXY_OBJECT
  5
8258
102
{ACAD_REACTORS
330
8257
102
}
330
8257
100
AcDbProxyObject
 90
      499
 91
      509
 95
  6881311
 70
     0
 93
     1864
310
51B4D146518005194651A8FC812095550000000000000B08000000000000008200000000000001807E8F2048F205000200001204000000000000581F8000000000000B0807EC3FA6DEBC0E99F8000000000001C07FE8FCC0295941A4E2D20CA600E2005C008C00E8005C008321803A80170023003A00170020898006200640
310
06001202DA008C2080248020801000140019001A801B00100021803780360037803900148010001000100010002080220019001A801B0021082008600820088008200A4008600900087A08032803180260030803C803280390029803A003200170032003B80338049C09
330
0
 94
        0
  0
ENDSEC
  0
EOF
