  0
SECTION
  2
HEADER
  9
$ACADVER
  1
AC1015
  9
$ACADMAINTVER
 70
     6
  9
$DWGCODEPAGE
  3
ANSI_932
  9
$INSBASE
 10
0.0
 20
0.0
 30
0.0
  9
$EXTMIN
 10
840.0
 20
1189.999999999999
 30
0.0
  9
$EXTMAX
 10
2760.0
 20
2470.0
 30
0.0
  9
$LIMMIN
 10
0.0
 20
0.0
  9
$LIMMAX
 10
4200.0
 20
2970.0
  9
$ORTHOMODE
 70
     1
  9
$REGENMODE
 70
     1
  9
$FILLMODE
 70
     1
  9
$QTEXTMODE
 70
     0
  9
$MIRRTEXT
 70
     0
  9
$LTSCALE
 40
3.0
  9
$ATTMODE
 70
     1
  9
$TEXTSIZE
 40
30.0
  9
$TRACEWID
 40
1.0
  9
$TEXTSTYLE
  7
Standard
  9
$CLAYER
  8
01注記寸法
  9
$CELTYPE
  6
ByLayer
  9
$CECOLOR
 62
   256
  9
$CELTSCALE
 40
1.0
  9
$DISPSILH
 70
     0
  9
$DIMSCALE
 40
10.0
  9
$DIMASZ
 40
3.0
  9
$DIMEXO
 40
1.5
  9
$DIMDLI
 40
10.0
  9
$DIMRND
 40
0.0
  9
$DIMDLE
 40
0.0
  9
$DIMEXE
 40
1.0
  9
$DIMTP
 40
0.0
  9
$DIMTM
 40
0.0
  9
$DIMTXT
 40
3.0
  9
$DIMCEN
 40
1.5
  9
$DIMTSZ
 40
0.0
  9
$DIMTOL
 70
     0
  9
$DIMLIM
 70
     0
  9
$DIMTIH
 70
     0
  9
$DIMTOH
 70
     0
  9
$DIMSE1
 70
     0
  9
$DIMSE2
 70
     0
  9
$DIMTAD
 70
     1
  9
$DIMZIN
 70
     8
  9
$DIMBLK
  1
Open
  9
$DIMASO
 70
     1
  9
$DIMSHO
 70
     1
  9
$DIMPOST
  1

  9
$DIMAPOST
  1

  9
$DIMALT
 70
     0
  9
$DIMALTD
 70
     3
  9
$DIMALTF
 40
0.03937007874016
  9
$DIMLFAC
 40
1.0
  9
$DIMTOFL
 70
     1
  9
$DIMTVP
 40
0.0
  9
$DIMTIX
 70
     0
  9
$DIMSOXD
 70
     0
  9
$DIMSAH
 70
     0
  9
$DIMBLK1
  1

  9
$DIMBLK2
  1

  9
$DIMSTYLE
  2
NEMY-10
  9
$DIMCLRD
 70
     0
  9
$DIMCLRE
 70
     0
  9
$DIMCLRT
 70
     0
  9
$DIMTFAC
 40
1.0
  9
$DIMGAP
 40
1.0
  9
$DIMJUST
 70
     0
  9
$DIMSD1
 70
     0
  9
$DIMSD2
 70
     0
  9
$DIMTOLJ
 70
     0
  9
$DIMTZIN
 70
     8
  9
$DIMALTZ
 70
     0
  9
$DIMALTTZ
 70
     0
  9
$DIMUPT
 70
     0
  9
$DIMDEC
 70
     1
  9
$DIMTDEC
 70
     1
  9
$DIMALTU
 70
     2
  9
$DIMALTTD
 70
     3
  9
$DIMTXSTY
  7
Standard
  9
$DIMAUNIT
 70
     0
  9
$DIMADEC
 70
     0
  9
$DIMALTRND
 40
0.0
  9
$DIMAZIN
 70
     0
  9
$DIMDSEP
 70
    46
  9
$DIMATFIT
 70
     3
  9
$DIMFRAC
 70
     0
  9
$DIMLDRBLK
  1
Open
  9
$DIMLUNIT
 70
     2
  9
$DIMLWD
 70
    -2
  9
$DIMLWE
 70
    -2
  9
$DIMTMOVE
 70
     0
  9
$LUNITS
 70
     2
  9
$LUPREC
 70
     4
  9
$SKETCHINC
 40
1.0
  9
$FILLETRAD
 40
5.0
  9
$AUNITS
 70
     0
  9
$AUPREC
 70
     0
  9
$MENU
  1
.
  9
$ELEVATION
 40
0.0
  9
$PELEVATION
 40
0.0
  9
$THICKNESS
 40
0.0
  9
$LIMCHECK
 70
     0
  9
$CHAMFERA
 40
5.0
  9
$CHAMFERB
 40
5.0
  9
$CHAMFERC
 40
20.0
  9
$CHAMFERD
 40
0.0
  9
$SKPOLY
 70
     0
  9
$TDCREATE
 40
2455859.405048461
  9
$TDUCREATE
 40
2455859.030048461
  9
$TDUPDATE
 40
2459075.480845694
  9
$TDUUPDATE
 40
2459075.105845694
  9
$TDINDWG
 40
1.4372489815
  9
$TDUSRTIMER
 40
0.0007067245
  9
$USRTIMER
 70
     1
  9
$ANGBASE
 50
0.0
  9
$ANGDIR
 70
     0
  9
$PDMODE
 70
     0
  9
$PDSIZE
 40
0.0
  9
$PLINEWID
 40
0.0
  9
$SPLFRAME
 70
     0
  9
$SPLINETYPE
 70
     6
  9
$SPLINESEGS
 70
     8
  9
$HANDSEED
  5
1339E
  9
$SURFTAB1
 70
     6
  9
$SURFTAB2
 70
     6
  9
$SURFTYPE
 70
     6
  9
$SURFU
 70
     6
  9
$SURFV
 70
     6
  9
$UCSBASE
  2

  9
$UCSNAME
  2

  9
$UCSORG
 10
0.0
 20
0.0
 30
0.0
  9
$UCSXDIR
 10
1.0
 20
0.0
 30
0.0
  9
$UCSYDIR
 10
0.0
 20
1.0
 30
0.0
  9
$UCSORTHOREF
  2

  9
$UCSORTHOVIEW
 70
     0
  9
$UCSORGTOP
 10
0.0
 20
0.0
 30
0.0
  9
$UCSORGBOTTOM
 10
0.0
 20
0.0
 30
0.0
  9
$UCSORGLEFT
 10
0.0
 20
0.0
 30
0.0
  9
$UCSORGRIGHT
 10
0.0
 20
0.0
 30
0.0
  9
$UCSORGFRONT
 10
0.0
 20
0.0
 30
0.0
  9
$UCSORGBACK
 10
0.0
 20
0.0
 30
0.0
  9
$PUCSBASE
  2

  9
$PUCSNAME
  2

  9
$PUCSORG
 10
0.0
 20
0.0
 30
0.0
  9
$PUCSXDIR
 10
1.0
 20
0.0
 30
0.0
  9
$PUCSYDIR
 10
0.0
 20
1.0
 30
0.0
  9
$PUCSORTHOREF
  2

  9
$PUCSORTHOVIEW
 70
     0
  9
$PUCSORGTOP
 10
0.0
 20
0.0
 30
0.0
  9
$PUCSORGBOTTOM
 10
0.0
 20
0.0
 30
0.0
  9
$PUCSORGLEFT
 10
0.0
 20
0.0
 30
0.0
  9
$PUCSORGRIGHT
 10
0.0
 20
0.0
 30
0.0
  9
$PUCSORGFRONT
 10
0.0
 20
0.0
 30
0.0
  9
$PUCSORGBACK
 10
0.0
 20
0.0
 30
0.0
  9
$USERI1
 70
     0
  9
$USERI2
 70
     0
  9
$USERI3
 70
     0
  9
$USERI4
 70
     0
  9
$USERI5
 70
     0
  9
$USERR1
 40
0.0
  9
$USERR2
 40
0.0
  9
$USERR3
 40
0.0
  9
$USERR4
 40
0.0
  9
$USERR5
 40
0.0
  9
$WORLDVIEW
 70
     1
  9
$SHADEDGE
 70
     3
  9
$SHADEDIF
 70
    70
  9
$TILEMODE
 70
     1
  9
$MAXACTVP
 70
    64
  9
$PINSBASE
 10
0.0
 20
0.0
 30
0.0
  9
$PLIMCHECK
 70
     0
  9
$PEXTMIN
 10
1.000000000000000E+20
 20
1.000000000000000E+20
 30
1.000000000000000E+20
  9
$PEXTMAX
 10
-1.000000000000000E+20
 20
-1.000000000000000E+20
 30
-1.000000000000000E+20
  9
$PLIMMIN
 10
-7.5
 20
-20.0
  9
$PLIMMAX
 10
412.5
 20
277.0
  9
$UNITMODE
 70
     0
  9
$VISRETAIN
 70
     1
  9
$PLINEGEN
 70
     0
  9
$PSLTSCALE
 70
     1
  9
$TREEDEPTH
 70
  3020
  9
$CMLSTYLE
  2
Standard
  9
$CMLJUST
 70
     0
  9
$CMLSCALE
 40
20.0
  9
$PROXYGRAPHICS
 70
     1
  9
$MEASUREMENT
 70
     1
  9
$CELWEIGHT
370
    -1
  9
$ENDCAPS
280
     0
  9
$JOINSTYLE
280
     0
  9
$LWDISPLAY
290
     0
  9
$INSUNITS
 70
     4
  9
$HYPERLINKBASE
  1

  9
$STYLESHEET
  1
monochrome.ctb
  9
$XEDIT
290
     1
  9
$CEPSNTYPE
380
     0
  9
$PSTYLEMODE
290
     1
  9
$FINGERPRINTGUID
  2
{FDEAD578-A652-11D2-9A35-0060089B3A3F}
  9
$VERSIONGUID
  2
{11DB8456-EC16-47A0-BA21-BBDA07550E8A}
  9
$EXTNAMES
290
     1
  9
$PSVPSCALE
 40
0.0
  9
$OLESTARTUP
290
     0
  0
ENDSEC
  0
SECTION
  2
CLASSES
  0
CLASS
  1
ACDBDICTIONARYWDFLT
  2
AcDbDictionaryWithDefault
  3
ObjectDBX Classes
 90
        0
280
     0
281
     0
  0
CLASS
  1
ACDBPLACEHOLDER
  2
AcDbPlaceHolder
  3
ObjectDBX Classes
 90
        0
280
     0
281
     0
  0
CLASS
  1
LAYOUT
  2
AcDbLayout
  3
ObjectDBX Classes
 90
        0
280
     0
281
     0
  0
CLASS
  1
DICTIONARYVAR
  2
AcDbDictionaryVar
  3
ObjectDBX Classes
 90
        0
280
     0
281
     0
  0
CLASS
  1
SCALE
  2
AcDbScale
  3
ObjectDBX Classes
 90
     1153
280
     0
281
     0
  0
CLASS
  1
MATERIAL
  2
AcDbMaterial
  3
ObjectDBX Classes
 90
     1153
280
     0
281
     0
  0
CLASS
  1
VISUALSTYLE
  2
AcDbVisualStyle
  3
ObjectDBX Classes
 90
     4095
280
     0
281
     0
  0
CLASS
  1
TABLESTYLE
  2
AcDbTableStyle
  3
ObjectDBX Classes
 90
     4095
280
     0
281
     0
  0
CLASS
  1
RASTERVARIABLES
  2
AcDbRasterVariables
  3
ISM
 90
        0
280
     0
281
     0
  0
CLASS
  1
SORTENTSTABLE
  2
AcDbSortentsTable
  3
ObjectDBX Classes
 90
        0
280
     0
281
     0
  0
CLASS
  1
SUN
  2
AcDbSun
  3
SCENEOE
 90
     1153
280
     0
281
     0
  0
CLASS
  1
MLEADERSTYLE
  2
AcDbMLeaderStyle
  3
ACDB_MLEADERSTYLE_CLASS
 90
     4095
280
     0
281
     0
  0
ENDSEC
  0
SECTION
  2
TABLES
  0
TABLE
  2
VPORT
  5
8
330
0
100
AcDbSymbolTable
 70
     1
  0
VPORT
  5
7A57
330
8
100
AcDbSymbolTableRecord
100
AcDbViewportTableRecord
  2
*Active
 70
     0
 10
0.0
 20
0.0
 11
1.0
 21
1.0
 12
1779.634349455949
 22
1907.643897429273
 13
0.0
 23
0.0
 14
10.0
 24
10.0
 15
10.0
 25
10.0
 16
0.0
 26
0.0
 36
1.0
 17
0.0
 27
0.0
 37
0.0
 40
2274.336197234117
 41
1.430340557275542
 42
50.0
 43
0.0
 44
0.0
 50
0.0
 51
0.0
 71
    16
 72
   100
 73
     1
 74
     2
 75
     0
 76
     0
 77
     0
 78
     0
281
     0
 65
     1
110
0.0
120
0.0
130
0.0
111
1.0
121
0.0
131
0.0
112
0.0
122
1.0
132
0.0
 79
     0
146
0.0
  0
ENDTAB
  0
TABLE
  2
LTYPE
  5
5
330
0
100
AcDbSymbolTable
 70
     5
  0
LTYPE
  5
14
330
5
100
AcDbSymbolTableRecord
100
AcDbLinetypeTableRecord
  2
ByBlock
 70
     0
  3

 72
    65
 73
     0
 40
0.0
  0
LTYPE
  5
15
330
5
100
AcDbSymbolTableRecord
100
AcDbLinetypeTableRecord
  2
ByLayer
 70
     0
  3

 72
    65
 73
     0
 40
0.0
  0
LTYPE
  5
16
330
5
100
AcDbSymbolTableRecord
100
AcDbLinetypeTableRecord
  2
Continuous
 70
     0
  3
Solid line
 72
    65
 73
     0
 40
0.0
  0
LTYPE
  5
BA
330
5
100
AcDbSymbolTableRecord
100
AcDbLinetypeTableRecord
  2
HIDDEN
 70
     0
  3
Hidden __ __ __ __ __ __ __ __ __ __ __ __ __ _
 72
    65
 73
     2
 40
9.524999999999999
 49
6.35
 74
     0
 49
-3.175
 74
     0
  0
LTYPE
  5
BB
330
5
100
AcDbSymbolTableRecord
100
AcDbLinetypeTableRecord
  2
PHANTOM
 70
     0
  3
Phantom ______  __  __  ______  __  __  ______
 72
    65
 73
     6
 40
63.5
 49
31.75
 74
     0
 49
-6.35
 74
     0
 49
6.35
 74
     0
 49
-6.35
 74
     0
 49
6.35
 74
     0
 49
-6.35
 74
     0
  0
LTYPE
  5
BC
330
5
100
AcDbSymbolTableRecord
100
AcDbLinetypeTableRecord
  2
CENTER
 70
     0
  3
Center ____ _ ____ _ ____ _ ____ _ ____ _ ____
 72
    65
 73
     4
 40
50.8
 49
31.75
 74
     0
 49
-6.35
 74
     0
 49
6.35
 74
     0
 49
-6.35
 74
     0
  0
LTYPE
  5
47C
330
5
100
AcDbSymbolTableRecord
100
AcDbLinetypeTableRecord
  2
DOT
 70
     0
  3
Dot . . . . . . . . . . . . . . . . . . . . . .
 72
    65
 73
     2
 40
6.35
 49
0.0
 74
     0
 49
-6.35
 74
     0
  0
ENDTAB
  0
TABLE
  2
LAYER
  5
2
102
{ACAD_XDICTIONARY
360
7A6F
102
}
330
0
100
AcDbSymbolTable
 70
    13
  0
LAYER
  5
10
330
2
100
AcDbSymbolTableRecord
100
AcDbLayerTableRecord
  2
0
 70
     0
 62
     7
  6
Continuous
370
    -3
390
F
  0
LAYER
  5
45
330
2
100
AcDbSymbolTableRecord
100
AcDbLayerTableRecord
  2
01注記寸法
 70
     0
 62
     7
  6
Continuous
370
     9
390
F
  0
LAYER
  5
46
330
2
100
AcDbSymbolTableRecord
100
AcDbLayerTableRecord
  2
02実線
 70
     0
 62
     2
  6
Continuous
370
    15
390
F
  0
LAYER
  5
5F
330
2
100
AcDbSymbolTableRecord
100
AcDbLayerTableRecord
  2
Defpoints
 70
     0
 62
     7
  6
Continuous
290
     0
370
    -3
390
F
  0
LAYER
  5
7E52
330
2
100
AcDbSymbolTableRecord
100
AcDbLayerTableRecord
  2
03破線
 70
     0
 62
     3
  6
HIDDEN
370
     9
390
F
  0
LAYER
  5
7E55
330
2
100
AcDbSymbolTableRecord
100
AcDbLayerTableRecord
  2
04一点鎖線
 70
     0
 62
    70
  6
CENTER
370
     9
390
F
  0
LAYER
  5
7E58
330
2
100
AcDbSymbolTableRecord
100
AcDbLayerTableRecord
  2
05二点鎖線
 70
     0
 62
   110
  6
PHANTOM
370
     9
390
F
  0
LAYER
  5
7E5B
330
2
100
AcDbSymbolTableRecord
100
AcDbLayerTableRecord
  2
06点線
 70
     0
 62
    96
  6
DOT
370
     9
390
F
  0
LAYER
  5
7E5E
330
2
100
AcDbSymbolTableRecord
100
AcDbLayerTableRecord
  2
07その他
 70
     0
 62
     6
  6
Continuous
370
    13
390
F
  0
LAYER
  5
7E60
330
2
100
AcDbSymbolTableRecord
100
AcDbLayerTableRecord
  2
08非表示
 70
     0
 62
     4
  6
Continuous
290
     0
370
     0
390
F
  0
LAYER
  5
7E62
330
2
100
AcDbSymbolTableRecord
100
AcDbLayerTableRecord
  2
09図枠
 70
     0
 62
     1
  6
Continuous
370
    30
390
F
  0
LAYER
  5
835A
330
2
100
AcDbSymbolTableRecord
100
AcDbLayerTableRecord
  2
10副資材
 70
     0
 62
    51
  6
Continuous
290
     0
370
    -3
390
F
1001
AcAecLayerStandard
1000

1000

  0
LAYER
  5
8CAC
330
2
100
AcDbSymbolTableRecord
100
AcDbLayerTableRecord
  2
11機器
 70
     0
 62
    11
  6
Continuous
290
     0
370
    -3
390
F
1001
AcAecLayerStandard
1000

1000

  0
ENDTAB
  0
TABLE
  2
STYLE
  5
3
330
0
100
AcDbSymbolTable
 70
     1
  0
STYLE
  5
11
330
3
100
AcDbSymbolTableRecord
100
AcDbTextStyleTableRecord
  2
Standard
 70
     0
 40
0.0
 41
1.0
 50
0.0
 71
     0
 42
30.0
  3
MSGOTHIC.TTC
  4

1001
ACAD
1000
MS Gothic
1071
    32817
  0
ENDTAB
  0
TABLE
  2
VIEW
  5
6
330
0
100
AcDbSymbolTable
 70
     0
  0
ENDTAB
  0
TABLE
  2
UCS
  5
7
330
0
100
AcDbSymbolTable
 70
     0
  0
ENDTAB
  0
TABLE
  2
APPID
  5
9
330
0
100
AcDbSymbolTable
 70
     9
  0
APPID
  5
12
330
9
100
AcDbSymbolTableRecord
100
AcDbRegAppTableRecord
  2
ACAD
 70
     0
  0
APPID
  5
6A9E
330
9
100
AcDbSymbolTableRecord
100
AcDbRegAppTableRecord
  2
ACAD_DSTYLE_DIMRADIAL_EXTENSION
 70
     0
  0
APPID
  5
742C
330
9
100
AcDbSymbolTableRecord
100
AcDbRegAppTableRecord
  2
ACAD_PSEXT
 70
     0
  0
APPID
  5
742D
330
9
100
AcDbSymbolTableRecord
100
AcDbRegAppTableRecord
  2
ACAD_DSTYLE_DIMJAG
 70
     0
  0
APPID
  5
742E
330
9
100
AcDbSymbolTableRecord
100
AcDbRegAppTableRecord
  2
ACAD_DSTYLE_DIMTALN
 70
     0
  0
APPID
  5
835C
330
9
100
AcDbSymbolTableRecord
100
AcDbRegAppTableRecord
  2
AcAecLayerStandard
 70
     0
  0
APPID
  5
1253F
330
9
100
AcDbSymbolTableRecord
100
AcDbRegAppTableRecord
  2
HATCHBACKGROUNDCOLOR
 70
     0
  0
APPID
  5
1262E
330
9
100
AcDbSymbolTableRecord
100
AcDbRegAppTableRecord
  2
PE_URL
 70
     0
  0
APPID
  5
1333C
330
9
100
AcDbSymbolTableRecord
100
AcDbRegAppTableRecord
  2
PLOTTRANSPARENCY
 70
     0
  0
ENDTAB
  0
TABLE
  2
DIMSTYLE
  5
A
330
0
100
AcDbSymbolTable
 70
    24
100
AcDbDimStyleTable
  0
DIMSTYLE
105
73
330
A
100
AcDbSymbolTableRecord
100
AcDbDimStyleTableRecord
  2
NEMY-1
 70
     0
 41
3.0
 42
1.5
 43
10.0
 44
1.0
 73
     0
 74
     0
 77
     1
 78
     8
140
3.0
141
1.5
143
0.03937007874016
147
1.0
171
     3
172
     1
178
     0
271
     1
272
     1
274
     3
283
     0
284
     8
340
11
341
8F
342
8F
  0
DIMSTYLE
105
4DCE
330
A
100
AcDbSymbolTableRecord
100
AcDbDimStyleTableRecord
  2
NEMY-2
 70
     0
 40
2.0
 41
3.0
 42
1.5
 43
10.0
 44
1.0
 73
     0
 74
     0
 77
     1
 78
     8
140
3.0
141
1.5
143
0.03937007874016
147
1.0
171
     3
172
     1
178
     0
271
     1
272
     1
274
     3
283
     0
284
     8
340
11
341
8F
342
8F
  0
DIMSTYLE
105
4DCF
330
A
100
AcDbSymbolTableRecord
100
AcDbDimStyleTableRecord
  2
NEMY-3
 70
     0
 40
3.0
 41
3.0
 42
1.5
 43
10.0
 44
1.0
 73
     0
 74
     0
 77
     1
 78
     8
140
3.0
141
1.5
143
0.03937007874016
147
1.0
171
     3
172
     1
178
     0
271
     1
272
     1
274
     3
283
     0
284
     8
340
11
341
8F
342
8F
  0
DIMSTYLE
105
4DD0
330
A
100
AcDbSymbolTableRecord
100
AcDbDimStyleTableRecord
  2
NEMY-5
 70
     0
 40
5.0
 41
3.0
 42
1.5
 43
10.0
 44
1.0
 73
     0
 74
     0
 77
     1
 78
     8
140
3.0
141
1.5
143
0.03937007874016
147
1.0
171
     3
172
     1
178
     0
271
     1
272
     1
274
     3
283
     0
284
     8
340
11
341
8F
342
8F
  0
DIMSTYLE
105
4DD1
330
A
100
AcDbSymbolTableRecord
100
AcDbDimStyleTableRecord
  2
NEMY-8
 70
     0
 40
8.0
 41
3.0
 42
1.5
 43
10.0
 44
1.0
 73
     0
 74
     0
 77
     1
 78
     8
140
3.0
141
1.5
143
0.03937007874016
147
1.0
171
     3
172
     1
178
     0
271
     1
272
     1
274
     3
283
     0
284
     8
340
11
341
8F
342
8F
  0
DIMSTYLE
105
4DD2
330
A
100
AcDbSymbolTableRecord
100
AcDbDimStyleTableRecord
  2
NEMY-15
 70
     0
 40
15.0
 41
3.0
 42
1.5
 43
10.0
 44
1.0
 73
     0
 74
     0
 77
     1
 78
     8
140
3.0
141
1.5
143
0.03937007874016
147
1.0
171
     3
172
     1
178
     0
271
     1
272
     1
274
     3
283
     0
284
     8
340
11
341
8F
342
8F
  0
DIMSTYLE
105
4DD3
102
{ACAD_REACTORS
102
}
330
A
100
AcDbSymbolTableRecord
100
AcDbDimStyleTableRecord
  2
NEMY-10
 70
     0
 40
10.0
 41
3.0
 42
1.5
 43
10.0
 44
1.0
 73
     0
 74
     0
 77
     1
 78
     8
140
3.0
141
1.5
143
0.03937007874016
147
1.0
171
     3
172
     1
178
     0
271
     1
272
     1
274
     3
283
     0
284
     8
340
11
341
8F
342
8F
  0
DIMSTYLE
105
4DD4
330
A
100
AcDbSymbolTableRecord
100
AcDbDimStyleTableRecord
  2
NEMY-25
 70
     0
 40
25.0
 41
3.0
 42
1.5
 43
10.0
 44
1.0
 73
     0
 74
     0
 77
     1
 78
     8
140
3.0
141
1.5
143
0.03937007874016
147
1.0
171
     3
172
     1
178
     0
271
     1
272
     1
274
     3
283
     0
284
     8
340
11
341
8F
342
8F
  0
DIMSTYLE
105
4DD5
330
A
100
AcDbSymbolTableRecord
100
AcDbDimStyleTableRecord
  2
NEMY-30
 70
     0
 40
30.0
 41
3.0
 42
1.5
 43
10.0
 44
1.0
 73
     0
 74
     0
 77
     1
 78
     8
140
3.0
141
1.5
143
0.03937007874016
147
1.0
171
     3
172
     1
178
     0
271
     1
272
     1
274
     3
283
     0
284
     8
340
11
341
8F
342
8F
  0
DIMSTYLE
105
4DD6
330
A
100
AcDbSymbolTableRecord
100
AcDbDimStyleTableRecord
  2
NEMY-50
 70
     0
 40
50.0
 41
3.0
 42
1.5
 43
10.0
 44
1.0
 73
     0
 74
     0
 77
     1
 78
     8
140
3.0
141
1.5
143
0.03937007874016
147
1.0
171
     3
172
     1
178
     0
271
     1
272
     1
274
     3
283
     0
284
     8
340
11
341
8F
342
8F
  0
DIMSTYLE
105
4E6F
330
A
100
AcDbSymbolTableRecord
100
AcDbDimStyleTableRecord
  2
NEMY-20
 70
     0
 40
20.0
 41
3.0
 42
1.5
 43
10.0
 44
1.0
 73
     0
 74
     0
 77
     1
 78
     8
140
3.0
141
1.5
143
0.03937007874016
147
1.0
171
     3
172
     1
178
     0
271
     1
272
     1
274
     3
283
     0
284
     8
340
11
341
8F
342
8F
  0
DIMSTYLE
105
4F44
330
A
100
AcDbSymbolTableRecord
100
AcDbDimStyleTableRecord
  2
NEMY-10$3
 70
     0
 40
10.0
 41
3.0
 42
1.5
 43
10.0
 44
1.0
 77
     1
 78
     8
140
3.0
141
1.5
143
0.03937007874016
147
1.0
171
     3
172
     1
178
     0
271
     1
272
     1
274
     3
283
     0
284
     8
340
11
341
8F
342
8F
  0
DIMSTYLE
105
4F45
330
A
100
AcDbSymbolTableRecord
100
AcDbDimStyleTableRecord
  2
NEMY-1$3
 70
     0
 41
3.0
 42
1.5
 43
10.0
 44
1.0
 77
     1
 78
     8
140
3.0
141
1.5
143
0.03937007874016
147
1.0
171
     3
172
     1
178
     0
271
     1
272
     1
274
     3
283
     0
284
     8
340
11
341
8F
342
8F
  0
DIMSTYLE
105
4F46
330
A
100
AcDbSymbolTableRecord
100
AcDbDimStyleTableRecord
  2
NEMY-12
 70
     0
 40
12.0
 41
3.0
 42
1.5
 43
10.0
 44
1.0
 73
     0
 74
     0
 77
     1
 78
     8
140
3.0
141
1.5
143
0.03937007874016
147
1.0
171
     3
172
     1
178
     0
271
     1
272
     1
274
     3
283
     0
284
     8
340
11
341
8F
342
8F
  0
DIMSTYLE
105
4F47
330
A
100
AcDbSymbolTableRecord
100
AcDbDimStyleTableRecord
  2
NEMY-12$3
 70
     0
 40
12.0
 41
3.0
 42
1.5
 43
10.0
 44
1.0
 77
     1
 78
     8
140
3.0
141
1.5
143
0.03937007874016
147
1.0
171
     3
172
     1
178
     0
271
     1
272
     1
274
     3
283
     0
284
     8
340
11
341
8F
342
8F
  0
DIMSTYLE
105
5E6E
330
A
100
AcDbSymbolTableRecord
100
AcDbDimStyleTableRecord
  2
NEMY-8$3
 70
     0
 40
8.0
 41
3.0
 42
1.5
 43
10.0
 44
1.0
 77
     1
 78
     8
140
3.0
141
1.5
143
0.03937007874016
147
1.0
171
     3
172
     1
178
     0
271
     1
272
     1
274
     3
283
     0
284
     8
340
11
341
8F
342
8F
  0
DIMSTYLE
105
5E6F
330
A
100
AcDbSymbolTableRecord
100
AcDbDimStyleTableRecord
  2
NEMY-50$3
 70
     0
 40
50.0
 41
3.0
 42
1.5
 43
10.0
 44
1.0
 77
     1
 78
     8
140
3.0
141
1.5
143
0.03937007874016
147
1.0
171
     3
172
     1
178
     0
271
     1
272
     1
274
     3
283
     0
284
     8
340
11
341
8F
342
8F
  0
DIMSTYLE
105
5E70
330
A
100
AcDbSymbolTableRecord
100
AcDbDimStyleTableRecord
  2
NEMY-5$3
 70
     0
 40
5.0
 41
3.0
 42
1.5
 43
10.0
 44
1.0
 77
     1
 78
     8
140
3.0
141
1.5
143
0.03937007874016
147
1.0
171
     3
172
     1
178
     0
271
     1
272
     1
274
     3
283
     0
284
     8
340
11
341
8F
342
8F
  0
DIMSTYLE
105
5E71
330
A
100
AcDbSymbolTableRecord
100
AcDbDimStyleTableRecord
  2
NEMY-30$3
 70
     0
 40
30.0
 41
3.0
 42
1.5
 43
10.0
 44
1.0
 77
     1
 78
     8
140
3.0
141
1.5
143
0.03937007874016
147
1.0
171
     3
172
     1
178
     0
271
     1
272
     1
274
     3
283
     0
284
     8
340
11
341
8F
342
8F
  0
DIMSTYLE
105
5E72
330
A
100
AcDbSymbolTableRecord
100
AcDbDimStyleTableRecord
  2
NEMY-3$3
 70
     0
 40
3.0
 41
3.0
 42
1.5
 43
10.0
 44
1.0
 77
     1
 78
     8
140
3.0
141
1.5
143
0.03937007874016
147
1.0
171
     3
172
     1
178
     0
271
     1
272
     1
274
     3
283
     0
284
     8
340
11
341
8F
342
8F
  0
DIMSTYLE
105
5E73
330
A
100
AcDbSymbolTableRecord
100
AcDbDimStyleTableRecord
  2
NEMY-25$3
 70
     0
 40
25.0
 41
3.0
 42
1.5
 43
10.0
 44
1.0
 77
     1
 78
     8
140
3.0
141
1.5
143
0.03937007874016
147
1.0
171
     3
172
     1
178
     0
271
     1
272
     1
274
     3
283
     0
284
     8
340
11
341
8F
342
8F
  0
DIMSTYLE
105
5E74
330
A
100
AcDbSymbolTableRecord
100
AcDbDimStyleTableRecord
  2
NEMY-20$3
 70
     0
 40
20.0
 41
3.0
 42
1.5
 43
10.0
 44
1.0
 77
     1
 78
     8
140
3.0
141
1.5
143
0.03937007874016
147
1.0
171
     3
172
     1
178
     0
271
     1
272
     1
274
     3
283
     0
284
     8
340
11
341
8F
342
8F
  0
DIMSTYLE
105
5E75
330
A
100
AcDbSymbolTableRecord
100
AcDbDimStyleTableRecord
  2
NEMY-2$3
 70
     0
 40
2.0
 41
3.0
 42
1.5
 43
10.0
 44
1.0
 77
     1
 78
     8
140
3.0
141
1.5
143
0.03937007874016
147
1.0
171
     3
172
     1
178
     0
271
     1
272
     1
274
     3
283
     0
284
     8
340
11
341
8F
342
8F
  0
DIMSTYLE
105
5E76
330
A
100
AcDbSymbolTableRecord
100
AcDbDimStyleTableRecord
  2
NEMY-15$3
 70
     0
 40
15.0
 41
3.0
 42
1.5
 43
10.0
 44
1.0
 77
     1
 78
     8
140
3.0
141
1.5
143
0.03937007874016
147
1.0
171
     3
172
     1
178
     0
271
     1
272
     1
274
     3
283
     0
284
     8
340
11
341
8F
342
8F
  0
ENDTAB
  0
TABLE
  2
BLOCK_RECORD
  5
1
330
0
100
AcDbSymbolTable
 70
    31
  0
BLOCK_RECORD
  5
1F
102
{ACAD_XDICTIONARY
360
969E
102
}
330
1
100
AcDbSymbolTableRecord
100
AcDbBlockTableRecord
  2
*Model_Space
340
22
  0
BLOCK_RECORD
  5
1B
330
1
100
AcDbSymbolTableRecord
100
AcDbBlockTableRecord
  2
*Paper_Space
340
1E
  0
BLOCK_RECORD
  5
8F
330
1
100
AcDbSymbolTableRecord
100
AcDbBlockTableRecord
  2
_Open
340
0
102
{BLKREFS
331
EE6C
331
EE86
331
EE92
331
EE9E
331
EEB8
331
EEE0
331
EEFA
331
EF06
331
1259A
331
125A6
331
130DE
331
130EB
331
130F8
331
13114
331
EE6D
331
EE87
331
EE93
331
EE9F
331
EEB9
331
EEE1
331
EEFB
331
EF07
331
1259B
331
125A7
331
130DF
331
130EC
331
130F9
331
13115
331
EE7A
331
EEC6
331
EED4
331
EEEE
331
125B4
331
1265E
331
13107
331
13123
331
1315C
331
1316B
331
1317A
331
EE7B
331
EEC7
331
EED5
331
EEEF
331
125B5
331
1265F
331
13108
331
13124
331
1315D
331
1316C
331
1317B
102
}
  0
BLOCK_RECORD
  5
82E2
330
1
100
AcDbSymbolTableRecord
100
AcDbBlockTableRecord
  2
hole-φ12
340
0
102
{BLKREFS
331
124FF
331
130CE
331
130D2
331
130D6
102
}
  0
BLOCK_RECORD
  5
82EB
330
1
100
AcDbSymbolTableRecord
100
AcDbBlockTableRecord
  2
hole-φ14
340
0
102
{BLKREFS
331
0
331
0
331
0
331
0
331
0
102
}
  0
BLOCK_RECORD
  5
EE66
330
1
100
AcDbSymbolTableRecord
100
AcDbBlockTableRecord
  2
*D1102
340
0
  0
BLOCK_RECORD
  5
EE72
330
1
100
AcDbSymbolTableRecord
100
AcDbBlockTableRecord
  2
*D1103
340
0
  0
BLOCK_RECORD
  5
EE80
330
1
100
AcDbSymbolTableRecord
100
AcDbBlockTableRecord
  2
*D1104
340
0
  0
BLOCK_RECORD
  5
EE8C
330
1
100
AcDbSymbolTableRecord
100
AcDbBlockTableRecord
  2
*D1105
340
0
  0
BLOCK_RECORD
  5
EE98
330
1
100
AcDbSymbolTableRecord
100
AcDbBlockTableRecord
  2
*D1106
340
0
  0
BLOCK_RECORD
  5
EEB2
330
1
100
AcDbSymbolTableRecord
100
AcDbBlockTableRecord
  2
*D1108
340
0
  0
BLOCK_RECORD
  5
EEBE
330
1
100
AcDbSymbolTableRecord
100
AcDbBlockTableRecord
  2
*D1109
340
0
  0
BLOCK_RECORD
  5
EECC
330
1
100
AcDbSymbolTableRecord
100
AcDbBlockTableRecord
  2
*D1110
340
0
  0
BLOCK_RECORD
  5
EEDA
330
1
100
AcDbSymbolTableRecord
100
AcDbBlockTableRecord
  2
*D1111
340
0
  0
BLOCK_RECORD
  5
EEE6
330
1
100
AcDbSymbolTableRecord
100
AcDbBlockTableRecord
  2
*D1112
340
0
  0
BLOCK_RECORD
  5
EEF4
330
1
100
AcDbSymbolTableRecord
100
AcDbBlockTableRecord
  2
*D1113
340
0
  0
BLOCK_RECORD
  5
EF00
330
1
100
AcDbSymbolTableRecord
100
AcDbBlockTableRecord
  2
*D1114
340
0
  0
BLOCK_RECORD
  5
11E63
330
1
100
AcDbSymbolTableRecord
100
AcDbBlockTableRecord
  2
シール(検査済)
340
0
102
{BLKREFS
331
0
102
}
  0
BLOCK_RECORD
  5
11E69
330
1
100
AcDbSymbolTableRecord
100
AcDbBlockTableRecord
  2
シール(型式)
340
0
102
{BLKREFS
331
0
102
}
  0
BLOCK_RECORD
  5
12594
330
1
100
AcDbSymbolTableRecord
100
AcDbBlockTableRecord
  2
*D1732
340
0
  0
BLOCK_RECORD
  5
125A0
330
1
100
AcDbSymbolTableRecord
100
AcDbBlockTableRecord
  2
*D1733
340
0
  0
BLOCK_RECORD
  5
125AC
330
1
100
AcDbSymbolTableRecord
100
AcDbBlockTableRecord
  2
*D1734
340
0
  0
BLOCK_RECORD
  5
12656
330
1
100
AcDbSymbolTableRecord
100
AcDbBlockTableRecord
  2
*D1742
340
0
  0
BLOCK_RECORD
  5
12D9F
330
1
100
AcDbSymbolTableRecord
100
AcDbBlockTableRecord
  2
PFAV-P80DMJ1
340
0
102
{BLKREFS
331
0
102
}
  0
BLOCK_RECORD
  5
130D8
330
1
100
AcDbSymbolTableRecord
100
AcDbBlockTableRecord
  2
*D1756
340
0
  0
BLOCK_RECORD
  5
130E5
330
1
100
AcDbSymbolTableRecord
100
AcDbBlockTableRecord
  2
*D1757
340
0
  0
BLOCK_RECORD
  5
130F2
330
1
100
AcDbSymbolTableRecord
100
AcDbBlockTableRecord
  2
*D1758
340
0
  0
BLOCK_RECORD
  5
130FF
330
1
100
AcDbSymbolTableRecord
100
AcDbBlockTableRecord
  2
*D1759
340
0
  0
BLOCK_RECORD
  5
1310E
330
1
100
AcDbSymbolTableRecord
100
AcDbBlockTableRecord
  2
*D1760
340
0
  0
BLOCK_RECORD
  5
1311B
330
1
100
AcDbSymbolTableRecord
100
AcDbBlockTableRecord
  2
*D1761
340
0
  0
BLOCK_RECORD
  5
13154
330
1
100
AcDbSymbolTableRecord
100
AcDbBlockTableRecord
  2
*D1764
340
0
  0
BLOCK_RECORD
  5
13163
330
1
100
AcDbSymbolTableRecord
100
AcDbBlockTableRecord
  2
*D1765
340
0
  0
BLOCK_RECORD
  5
13172
330
1
100
AcDbSymbolTableRecord
100
AcDbBlockTableRecord
  2
*D1766
340
0
  0
ENDTAB
  0
ENDSEC
  0
SECTION
  2
BLOCKS
  0
BLOCK
  5
20
330
1F
100
AcDbEntity
  8
0
100
AcDbBlockBegin
  2
*Model_Space
 70
     0
 10
0.0
 20
0.0
 30
0.0
  3
*Model_Space
  1

  0
ENDBLK
  5
21
330
1F
100
AcDbEntity
  8
0
100
AcDbBlockEnd
  0
BLOCK
  5
1C
330
1B
100
AcDbEntity
 67
     1
  8
0
100
AcDbBlockBegin
  2
*Paper_Space
 70
     0
 10
0.0
 20
0.0
 30
0.0
  3
*Paper_Space
  1

  0
ENDBLK
  5
1D
330
1B
100
AcDbEntity
 67
     1
  8
0
100
AcDbBlockEnd
  0
BLOCK
  5
93
330
8F
100
AcDbEntity
  8
0
100
AcDbBlockBegin
  2
_Open
 70
     0
 10
0.0
 20
0.0
 30
0.0
  3
_Open
  1

  0
LINE
  5
90
330
8F
100
AcDbEntity
  8
01注記寸法
 62
     0
370
    -2
100
AcDbLine
 10
-1.0
 20
0.1666666666666667
 30
0.0
 11
0.0
 21
0.0
 31
0.0
  0
LINE
  5
91
330
8F
100
AcDbEntity
  8
01注記寸法
 62
     0
370
    -2
100
AcDbLine
 10
-1.0
 20
-0.1666666666666667
 30
0.0
 11
0.0
 21
0.0
 31
0.0
  0
LINE
  5
92
330
8F
100
AcDbEntity
  8
01注記寸法
 62
     0
370
    -2
100
AcDbLine
 10
0.0
 20
0.0
 30
0.0
 11
-1.0
 21
0.0
 31
0.0
  0
ENDBLK
  5
94
330
8F
100
AcDbEntity
  8
0
100
AcDbBlockEnd
  0
BLOCK
  5
82E3
330
82E2
100
AcDbEntity
  8
0
100
AcDbBlockBegin
  2
hole-φ12
 70
     0
 10
0.0
 20
0.0
 30
0.0
  3
hole-φ12
  1

  0
CIRCLE
  5
82E4
330
82E2
100
AcDbEntity
  8
02実線
100
AcDbCircle
 10
0.0
 20
0.0
 30
0.0
 40
6.0
  0
LINE
  5
82E5
330
82E2
100
AcDbEntity
  8
04一点鎖線
  6
CENTER
 48
0.2
100
AcDbLine
 10
0.0
 20
-20.0
 30
0.0
 11
0.0
 21
20.0
 31
0.0
  0
LINE
  5
82E8
330
82E2
100
AcDbEntity
  8
04一点鎖線
  6
CENTER
 48
0.2
100
AcDbLine
 10
-20.0
 20
0.0
 30
0.0
 11
20.0
 21
0.0
 31
0.0
  0
ENDBLK
  5
82E9
330
82E2
100
AcDbEntity
  8
0
100
AcDbBlockEnd
  0
BLOCK
  5
82EC
330
82EB
100
AcDbEntity
  8
0
100
AcDbBlockBegin
  2
hole-φ14
 70
     0
 10
0.0
 20
0.0
 30
0.0
  3
hole-φ14
  1

  0
CIRCLE
  5
82ED
330
82EB
100
AcDbEntity
  8
02実線
100
AcDbCircle
 10
0.0
 20
0.0
 30
0.0
 40
7.0
  0
LINE
  5
82EE
330
82EB
100
AcDbEntity
  8
04一点鎖線
  6
CENTER
 48
0.2
100
AcDbLine
 10
0.0
 20
-20.0
 30
0.0
 11
0.0
 21
20.0
 31
0.0
  0
LINE
  5
82EF
330
82EB
100
AcDbEntity
  8
04一点鎖線
  6
CENTER
 48
0.2
100
AcDbLine
 10
-20.0
 20
0.0
 30
0.0
 11
20.0
 21
0.0
 31
0.0
  0
ENDBLK
  5
82F0
330
82EB
100
AcDbEntity
  8
0
100
AcDbBlockEnd
  0
BLOCK
  5
EE67
330
EE66
100
AcDbEntity
  8
0
100
AcDbBlockBegin
  2
*D1102
 70
     1
 10
0.0
 20
0.0
 30
0.0
  3
*D1102
  1

  0
LINE
  5
EE69
330
EE66
100
AcDbEntity
  8
01注記寸法
 62
     0
370
    -2
100
AcDbLine
 10
875.0
 20
1199.999999999999
 30
0.0
 11
730.0
 21
1199.999999999999
 31
0.0
  0
LINE
  5
EE6A
330
EE66
100
AcDbEntity
  8
01注記寸法
 62
     0
370
    -2
100
AcDbLine
 10
825.0
 20
1399.999999999999
 30
0.0
 11
730.0
 21
1399.999999999999
 31
0.0
  0
LINE
  5
EE6B
330
EE66
100
AcDbEntity
  8
01注記寸法
 62
     0
370
    -2
100
AcDbLine
 10
740.0
 20
1229.999999999999
 30
0.0
 11
740.0
 21
1369.999999999999
 31
0.0
  0
INSERT
  5
EE6C
330
EE66
100
AcDbEntity
  8
01注記寸法
 62
     0
370
    -2
100
AcDbBlockReference
  2
_Open
 10
740.0
 20
1199.999999999999
 30
0.0
 41
30.0
 42
30.0
 43
30.0
 50
270.0
  0
INSERT
  5
EE6D
330
EE66
100
AcDbEntity
  8
01注記寸法
 62
     0
370
    -2
100
AcDbBlockReference
  2
_Open
 10
740.0
 20
1399.999999999999
 30
0.0
 41
30.0
 42
30.0
 43
30.0
 50
90.0
  0
MTEXT
  5
EE6E
330
EE66
100
AcDbEntity
  8
01注記寸法
 62
     0
100
AcDbMText
 10
714.9943728898336
 20
1299.999999999999
 30
0.0
 40
30.0
 41
0.0
 71
     5
 72
     1
  1
200
 11
0.0
 21
1.0
 31
0.0
 73
     1
 44
1.0
  0
POINT
  5
EE6F
330
EE66
100
AcDbEntity
  8
Defpoints
 62
     0
100
AcDbPoint
 10
890.0
 20
1199.999999999999
 30
0.0
  0
POINT
  5
EE70
330
EE66
100
AcDbEntity
  8
Defpoints
 62
     0
100
AcDbPoint
 10
840.0
 20
1399.999999999999
 30
0.0
  0
POINT
  5
EE71
330
EE66
100
AcDbEntity
  8
Defpoints
 62
     0
100
AcDbPoint
 10
740.0
 20
1399.999999999999
 30
0.0
  0
ENDBLK
  5
EE68
330
EE66
100
AcDbEntity
  8
0
100
AcDbBlockEnd
  0
BLOCK
  5
EE73
330
EE72
100
AcDbEntity
  8
0
100
AcDbBlockBegin
  2
*D1103
 70
     1
 10
0.0
 20
0.0
 30
0.0
  3
*D1103
  1

  0
LINE
  5
EE75
330
EE72
100
AcDbEntity
  8
01注記寸法
 62
     0
370
    -2
100
AcDbLine
 10
825.0
 20
1399.999999999999
 30
0.0
 11
730.0
 21
1399.999999999999
 31
0.0
  0
LINE
  5
EE76
330
EE72
100
AcDbEntity
  8
01注記寸法
 62
     0
370
    -2
100
AcDbLine
 10
825.0
 20
1409.999999999999
 30
0.0
 11
730.0
 21
1409.999999999999
 31
0.0
  0
LINE
  5
EE77
330
EE72
100
AcDbEntity
  8
01注記寸法
 62
     0
370
    -2
100
AcDbLine
 10
740.0
 20
1439.999999999999
 30
0.0
 11
740.0
 21
1545.453763911466
 31
0.0
  0
LINE
  5
EE78
330
EE72
100
AcDbEntity
  8
01注記寸法
 62
     0
370
    -2
100
AcDbLine
 10
740.0
 20
1399.999999999999
 30
0.0
 11
740.0
 21
1409.999999999999
 31
0.0
  0
LINE
  5
EE79
330
EE72
100
AcDbEntity
  8
01注記寸法
 62
     0
370
    -2
100
AcDbLine
 10
740.0
 20
1369.999999999999
 30
0.0
 11
740.0
 21
1339.999999999999
 31
0.0
  0
INSERT
  5
EE7A
330
EE72
100
AcDbEntity
  8
01注記寸法
 62
     0
370
    -2
100
AcDbBlockReference
  2
_Open
 10
740.0
 20
1399.999999999999
 30
0.0
 41
30.0
 42
30.0
 43
30.0
 50
90.0
  0
INSERT
  5
EE7B
330
EE72
100
AcDbEntity
  8
01注記寸法
 62
     0
370
    -2
100
AcDbBlockReference
  2
_Open
 10
740.0
 20
1409.999999999999
 30
0.0
 41
30.0
 42
30.0
 43
30.0
 50
270.0
  0
MTEXT
  5
EE7C
330
EE72
100
AcDbEntity
  8
01注記寸法
 62
     0
100
AcDbMText
 10
714.9943728898336
 20
1507.726881955732
 30
0.0
 40
30.0
 41
0.0
 71
     5
 72
     1
  1
t10
 11
0.0
 21
1.0
 31
0.0
 73
     1
 44
1.0
  0
POINT
  5
EE7D
330
EE72
100
AcDbEntity
  8
Defpoints
 62
     0
100
AcDbPoint
 10
840.0
 20
1399.999999999999
 30
0.0
  0
POINT
  5
EE7E
330
EE72
100
AcDbEntity
  8
Defpoints
 62
     0
100
AcDbPoint
 10
840.0
 20
1409.999999999999
 30
0.0
  0
POINT
  5
EE7F
330
EE72
100
AcDbEntity
  8
Defpoints
 62
     0
100
AcDbPoint
 10
740.0
 20
1409.999999999999
 30
0.0
  0
ENDBLK
  5
EE74
330
EE72
100
AcDbEntity
  8
0
100
AcDbBlockEnd
  0
BLOCK
  5
EE81
330
EE80
100
AcDbEntity
  8
0
100
AcDbBlockBegin
  2
*D1104
 70
     1
 10
0.0
 20
0.0
 30
0.0
  3
*D1104
  1

  0
LINE
  5
EE83
330
EE80
100
AcDbEntity
  8
08非表示
 62
     0
370
    -2
100
AcDbLine
 10
2275.0
 20
1425.0
 30
0.0
 11
2275.0
 21
1510.0
 31
0.0
  0
LINE
  5
EE84
330
EE80
100
AcDbEntity
  8
08非表示
 62
     0
370
    -2
100
AcDbLine
 10
2760.0
 20
1425.0
 30
0.0
 11
2760.0
 21
1510.0
 31
0.0
  0
LINE
  5
EE85
330
EE80
100
AcDbEntity
  8
08非表示
 62
     0
370
    -2
100
AcDbLine
 10
2305.0
 20
1500.0
 30
0.0
 11
2730.0
 21
1500.0
 31
0.0
  0
INSERT
  5
EE86
330
EE80
100
AcDbEntity
  8
08非表示
 62
     0
370
    -2
100
AcDbBlockReference
  2
_Open
 10
2275.0
 20
1500.0
 30
0.0
 41
30.0
 42
30.0
 43
30.0
 50
180.0
  0
INSERT
  5
EE87
330
EE80
100
AcDbEntity
  8
08非表示
 62
     0
370
    -2
100
AcDbBlockReference
  2
_Open
 10
2760.0
 20
1500.0
 30
0.0
 41
30.0
 42
30.0
 43
30.0
  0
MTEXT
  5
EE88
330
EE80
100
AcDbEntity
  8
08非表示
 62
     0
100
AcDbMText
 10
2517.5
 20
1525.005627110166
 30
0.0
 40
30.0
 41
0.0
 71
     5
 72
     1
  1
485
 73
     1
 44
1.0
  0
POINT
  5
EE89
330
EE80
100
AcDbEntity
  8
Defpoints
 62
     0
100
AcDbPoint
 10
2275.0
 20
1410.0
 30
0.0
  0
POINT
  5
EE8A
330
EE80
100
AcDbEntity
  8
Defpoints
 62
     0
100
AcDbPoint
 10
2760.0
 20
1410.0
 30
0.0
  0
POINT
  5
EE8B
330
EE80
100
AcDbEntity
  8
Defpoints
 62
     0
100
AcDbPoint
 10
2760.0
 20
1500.0
 30
0.0
  0
ENDBLK
  5
EE82
330
EE80
100
AcDbEntity
  8
0
100
AcDbBlockEnd
  0
BLOCK
  5
EE8D
330
EE8C
100
AcDbEntity
  8
0
100
AcDbBlockBegin
  2
*D1105
 70
     1
 10
0.0
 20
0.0
 30
0.0
  3
*D1105
  1

  0
LINE
  5
EE8F
330
EE8C
100
AcDbEntity
  8
01注記寸法
 62
     0
370
    -2
100
AcDbLine
 10
875.0
 20
1984.999999999998
 30
0.0
 11
630.0
 21
1984.999999999998
 31
0.0
  0
LINE
  5
EE90
330
EE8C
100
AcDbEntity
  8
01注記寸法
 62
     0
370
    -2
100
AcDbLine
 10
875.0
 20
2469.999999999998
 30
0.0
 11
630.0
 21
2469.999999999998
 31
0.0
  0
LINE
  5
EE91
330
EE8C
100
AcDbEntity
  8
01注記寸法
 62
     0
370
    -2
100
AcDbLine
 10
640.0
 20
2014.999999999998
 30
0.0
 11
640.0
 21
2439.999999999998
 31
0.0
  0
INSERT
  5
EE92
330
EE8C
100
AcDbEntity
  8
01注記寸法
 62
     0
370
    -2
100
AcDbBlockReference
  2
_Open
 10
640.0
 20
1984.999999999998
 30
0.0
 41
30.0
 42
30.0
 43
30.0
 50
270.0
  0
INSERT
  5
EE93
330
EE8C
100
AcDbEntity
  8
01注記寸法
 62
     0
370
    -2
100
AcDbBlockReference
  2
_Open
 10
640.0
 20
2469.999999999998
 30
0.0
 41
30.0
 42
30.0
 43
30.0
 50
90.0
  0
MTEXT
  5
EE94
330
EE8C
100
AcDbEntity
  8
01注記寸法
 62
     0
100
AcDbMText
 10
614.9943728898338
 20
2227.499999999998
 30
0.0
 40
30.0
 41
0.0
 71
     5
 72
     1
  1
485
 11
0.0
 21
1.0
 31
0.0
 73
     1
 44
1.0
  0
POINT
  5
EE95
330
EE8C
100
AcDbEntity
  8
Defpoints
 62
     0
100
AcDbPoint
 10
890.0
 20
1984.999999999998
 30
0.0
  0
POINT
  5
EE96
330
EE8C
100
AcDbEntity
  8
Defpoints
 62
     0
100
AcDbPoint
 10
890.0
 20
2469.999999999998
 30
0.0
  0
POINT
  5
EE97
330
EE8C
100
AcDbEntity
  8
Defpoints
 62
     0
100
AcDbPoint
 10
640.0
 20
2469.999999999998
 30
0.0
  0
ENDBLK
  5
EE8E
330
EE8C
100
AcDbEntity
  8
0
100
AcDbBlockEnd
  0
BLOCK
  5
EE99
330
EE98
100
AcDbEntity
  8
0
100
AcDbBlockBegin
  2
*D1106
 70
     1
 10
0.0
 20
0.0
 30
0.0
  3
*D1106
  1

  0
LINE
  5
EE9B
330
EE98
100
AcDbEntity
  8
01注記寸法
 62
     0
370
    -2
100
AcDbLine
 10
867.0
 20
2419.999999999998
 30
0.0
 11
867.0
 21
2679.999999999998
 31
0.0
  0
LINE
  5
EE9C
330
EE98
100
AcDbEntity
  8
01注記寸法
 62
     0
370
    -2
100
AcDbLine
 10
1673.0
 20
2419.999999999998
 30
0.0
 11
1673.0
 21
2679.999999999998
 31
0.0
  0
LINE
  5
EE9D
330
EE98
100
AcDbEntity
  8
01注記寸法
 62
     0
370
    -2
100
AcDbLine
 10
897.0
 20
2669.999999999998
 30
0.0
 11
1643.0
 21
2669.999999999998
 31
0.0
  0
INSERT
  5
EE9E
330
EE98
100
AcDbEntity
  8
01注記寸法
 62
     0
370
    -2
100
AcDbBlockReference
  2
_Open
 10
867.0
 20
2669.999999999998
 30
0.0
 41
30.0
 42
30.0
 43
30.0
 50
180.0
  0
INSERT
  5
EE9F
330
EE98
100
AcDbEntity
  8
01注記寸法
 62
     0
370
    -2
100
AcDbBlockReference
  2
_Open
 10
1673.0
 20
2669.999999999998
 30
0.0
 41
30.0
 42
30.0
 43
30.0
  0
MTEXT
  5
EEA0
330
EE98
100
AcDbEntity
  8
01注記寸法
 62
     0
100
AcDbMText
 10
1270.0
 20
2694.999999999998
 30
0.0
 40
30.0
 41
0.0
 71
     5
 72
     1
  1
806
 73
     1
 44
1.0
  0
POINT
  5
EEA1
330
EE98
100
AcDbEntity
  8
Defpoints
 62
     0
100
AcDbPoint
 10
867.0
 20
2404.999999999998
 30
0.0
  0
POINT
  5
EEA2
330
EE98
100
AcDbEntity
  8
Defpoints
 62
     0
100
AcDbPoint
 10
1673.0
 20
2404.999999999998
 30
0.0
  0
POINT
  5
EEA3
330
EE98
100
AcDbEntity
  8
Defpoints
 62
     0
100
AcDbPoint
 10
1673.0
 20
2669.999999999998
 30
0.0
  0
ENDBLK
  5
EE9A
330
EE98
100
AcDbEntity
  8
0
100
AcDbBlockEnd
  0
BLOCK
  5
EEB3
330
EEB2
100
AcDbEntity
  8
0
100
AcDbBlockBegin
  2
*D1108
 70
     1
 10
0.0
 20
0.0
 30
0.0
  3
*D1108
  1

  0
LINE
  5
EEB5
330
EEB2
100
AcDbEntity
  8
01注記寸法
 62
     0
370
    -2
100
AcDbLine
 10
960.0
 20
329.9999999999989
 30
0.0
 11
810.0
 21
329.9999999999989
 31
0.0
  0
LINE
  5
EEB6
330
EEB2
100
AcDbEntity
  8
01注記寸法
 62
     0
370
    -2
100
AcDbLine
 10
960.0
 20
754.9999999999989
 30
0.0
 11
810.0
 21
754.9999999999989
 31
0.0
  0
LINE
  5
EEB7
330
EEB2
100
AcDbEntity
  8
01注記寸法
 62
     0
370
    -2
100
AcDbLine
 10
820.0
 20
359.9999999999989
 30
0.0
 11
820.0
 21
724.9999999999989
 31
0.0
  0
INSERT
  5
EEB8
330
EEB2
100
AcDbEntity
  8
01注記寸法
 62
     0
370
    -2
100
AcDbBlockReference
  2
_Open
 10
820.0
 20
329.9999999999989
 30
0.0
 41
30.0
 42
30.0
 43
30.0
 50
270.0
  0
INSERT
  5
EEB9
330
EEB2
100
AcDbEntity
  8
01注記寸法
 62
     0
370
    -2
100
AcDbBlockReference
  2
_Open
 10
820.0
 20
754.9999999999989
 30
0.0
 41
30.0
 42
30.0
 43
30.0
 50
90.0
  0
MTEXT
  5
EEBA
330
EEB2
100
AcDbEntity
  8
01注記寸法
 62
     0
100
AcDbMText
 10
794.9943728898337
 20
542.4999999999989
 30
0.0
 40
30.0
 41
0.0
 71
     5
 72
     1
  1
425
 11
0.0
 21
1.0
 31
0.0
 73
     1
 44
1.0
  0
POINT
  5
EEBB
330
EEB2
100
AcDbEntity
  8
Defpoints
 62
     0
100
AcDbPoint
 10
975.0
 20
329.9999999999989
 30
0.0
  0
POINT
  5
EEBC
330
EEB2
100
AcDbEntity
  8
Defpoints
 62
     0
100
AcDbPoint
 10
975.0
 20
754.9999999999989
 30
0.0
  0
POINT
  5
EEBD
330
EEB2
100
AcDbEntity
  8
Defpoints
 62
     0
100
AcDbPoint
 10
820.0
 20
754.9999999999989
 30
0.0
  0
ENDBLK
  5
EEB4
330
EEB2
100
AcDbEntity
  8
0
100
AcDbBlockEnd
  0
BLOCK
  5
EEBF
330
EEBE
100
AcDbEntity
  8
0
100
AcDbBlockBegin
  2
*D1109
 70
     1
 10
0.0
 20
0.0
 30
0.0
  3
*D1109
  1

  0
LINE
  5
EEC1
330
EEBE
100
AcDbEntity
  8
01注記寸法
 62
     0
370
    -2
100
AcDbLine
 10
960.0
 20
754.9999999999989
 30
0.0
 11
810.0
 21
754.9999999999989
 31
0.0
  0
LINE
  5
EEC2
330
EEBE
100
AcDbEntity
  8
01注記寸法
 62
     0
370
    -2
100
AcDbLine
 10
905.0
 20
784.9999999999989
 30
0.0
 11
810.0
 21
784.9999999999989
 31
0.0
  0
LINE
  5
EEC3
330
EEBE
100
AcDbEntity
  8
01注記寸法
 62
     0
370
    -2
100
AcDbLine
 10
820.0
 20
814.9999999999989
 30
0.0
 11
820.0
 21
900.7963923971479
 31
0.0
  0
LINE
  5
EEC4
330
EEBE
100
AcDbEntity
  8
01注記寸法
 62
     0
370
    -2
100
AcDbLine
 10
820.0
 20
754.9999999999989
 30
0.0
 11
820.0
 21
784.9999999999989
 31
0.0
  0
LINE
  5
EEC5
330
EEBE
100
AcDbEntity
  8
01注記寸法
 62
     0
370
    -2
100
AcDbLine
 10
820.0
 20
724.9999999999989
 30
0.0
 11
820.0
 21
694.9999999999989
 31
0.0
  0
INSERT
  5
EEC6
330
EEBE
100
AcDbEntity
  8
01注記寸法
 62
     0
370
    -2
100
AcDbBlockReference
  2
_Open
 10
820.0
 20
754.9999999999989
 30
0.0
 41
30.0
 42
30.0
 43
30.0
 50
90.0
  0
INSERT
  5
EEC7
330
EEBE
100
AcDbEntity
  8
01注記寸法
 62
     0
370
    -2
100
AcDbBlockReference
  2
_Open
 10
820.0
 20
784.9999999999989
 30
0.0
 41
30.0
 42
30.0
 43
30.0
 50
270.0
  0
MTEXT
  5
EEC8
330
EEBE
100
AcDbEntity
  8
01注記寸法
 62
     0
100
AcDbMText
 10
794.9943728898337
 20
872.8981961985734
 30
0.0
 40
30.0
 41
0.0
 71
     5
 72
     1
  1
30
 11
0.0
 21
1.0
 31
0.0
 73
     1
 44
1.0
  0
POINT
  5
EEC9
330
EEBE
100
AcDbEntity
  8
Defpoints
 62
     0
100
AcDbPoint
 10
975.0
 20
754.9999999999989
 30
0.0
  0
POINT
  5
EECA
330
EEBE
100
AcDbEntity
  8
Defpoints
 62
     0
100
AcDbPoint
 10
920.0
 20
784.9999999999989
 30
0.0
  0
POINT
  5
EECB
330
EEBE
100
AcDbEntity
  8
Defpoints
 62
     0
100
AcDbPoint
 10
820.0
 20
784.9999999999989
 30
0.0
  0
ENDBLK
  5
EEC0
330
EEBE
100
AcDbEntity
  8
0
100
AcDbBlockEnd
  0
BLOCK
  5
EECD
330
EECC
100
AcDbEntity
  8
0
100
AcDbBlockBegin
  2
*D1110
 70
     1
 10
0.0
 20
0.0
 30
0.0
  3
*D1110
  1

  0
LINE
  5
EECF
330
EECC
100
AcDbEntity
  8
01注記寸法
 62
     0
370
    -2
100
AcDbLine
 10
920.0
 20
799.9999999999989
 30
0.0
 11
920.0
 21
894.9999999999989
 31
0.0
  0
LINE
  5
EED0
330
EECC
100
AcDbEntity
  8
01注記寸法
 62
     0
370
    -2
100
AcDbLine
 10
995.0
 20
789.9999999999989
 30
0.0
 11
995.0
 21
894.9999999999989
 31
0.0
  0
LINE
  5
EED1
330
EECC
100
AcDbEntity
  8
01注記寸法
 62
     0
370
    -2
100
AcDbLine
 10
920.0
 20
884.9999999999989
 30
0.0
 11
995.0
 21
884.9999999999989
 31
0.0
  0
LINE
  5
EED2
330
EECC
100
AcDbEntity
  8
01注記寸法
 62
     0
370
    -2
100
AcDbLine
 10
890.0
 20
884.9999999999989
 30
0.0
 11
860.0
 21
884.9999999999989
 31
0.0
  0
LINE
  5
EED3
330
EECC
100
AcDbEntity
  8
01注記寸法
 62
     0
370
    -2
100
AcDbLine
 10
1025.0
 20
884.9999999999989
 30
0.0
 11
1055.0
 21
884.9999999999989
 31
0.0
  0
INSERT
  5
EED4
330
EECC
100
AcDbEntity
  8
01注記寸法
 62
     0
370
    -2
100
AcDbBlockReference
  2
_Open
 10
920.0
 20
884.9999999999989
 30
0.0
 41
30.0
 42
30.0
 43
30.0
  0
INSERT
  5
EED5
330
EECC
100
AcDbEntity
  8
01注記寸法
 62
     0
370
    -2
100
AcDbBlockReference
  2
_Open
 10
995.0
 20
884.9999999999989
 30
0.0
 41
30.0
 42
30.0
 43
30.0
 50
180.0
  0
MTEXT
  5
EED6
330
EECC
100
AcDbEntity
  8
01注記寸法
 62
     0
100
AcDbMText
 10
957.5
 20
910.0056271101652
 30
0.0
 40
30.0
 41
0.0
 71
     5
 72
     1
  1
75
 73
     1
 44
1.0
  0
POINT
  5
EED7
330
EECC
100
AcDbEntity
  8
Defpoints
 62
     0
100
AcDbPoint
 10
920.0
 20
784.9999999999989
 30
0.0
  0
POINT
  5
EED8
330
EECC
100
AcDbEntity
  8
Defpoints
 62
     0
100
AcDbPoint
 10
995.0
 20
774.9999999999989
 30
0.0
  0
POINT
  5
EED9
330
EECC
100
AcDbEntity
  8
Defpoints
 62
     0
100
AcDbPoint
 10
995.0
 20
884.9999999999989
 30
0.0
  0
ENDBLK
  5
EECE
330
EECC
100
AcDbEntity
  8
0
100
AcDbBlockEnd
  0
BLOCK
  5
EEDB
330
EEDA
100
AcDbEntity
  8
0
100
AcDbBlockBegin
  2
*D1111
 70
     1
 10
0.0
 20
0.0
 30
0.0
  3
*D1111
  1

  0
LINE
  5
EEDD
330
EEDA
100
AcDbEntity
  8
01注記寸法
 62
     0
370
    -2
100
AcDbLine
 10
995.0
 20
789.9999999999989
 30
0.0
 11
995.0
 21
894.9999999999989
 31
0.0
  0
LINE
  5
EEDE
330
EEDA
100
AcDbEntity
  8
01注記寸法
 62
     0
370
    -2
100
AcDbLine
 10
1605.0
 20
789.9999999999989
 30
0.0
 11
1605.0
 21
894.9999999999989
 31
0.0
  0
LINE
  5
EEDF
330
EEDA
100
AcDbEntity
  8
01注記寸法
 62
     0
370
    -2
100
AcDbLine
 10
1025.0
 20
884.9999999999989
 30
0.0
 11
1575.0
 21
884.9999999999989
 31
0.0
  0
INSERT
  5
EEE0
330
EEDA
100
AcDbEntity
  8
01注記寸法
 62
     0
370
    -2
100
AcDbBlockReference
  2
_Open
 10
995.0
 20
884.9999999999989
 30
0.0
 41
30.0
 42
30.0
 43
30.0
 50
180.0
  0
INSERT
  5
EEE1
330
EEDA
100
AcDbEntity
  8
01注記寸法
 62
     0
370
    -2
100
AcDbBlockReference
  2
_Open
 10
1605.0
 20
884.9999999999989
 30
0.0
 41
30.0
 42
30.0
 43
30.0
  0
MTEXT
  5
EEE2
330
EEDA
100
AcDbEntity
  8
01注記寸法
 62
     0
100
AcDbMText
 10
1300.0
 20
910.0056271101652
 30
0.0
 40
30.0
 41
0.0
 71
     5
 72
     1
  1
610
 73
     1
 44
1.0
  0
POINT
  5
EEE3
330
EEDA
100
AcDbEntity
  8
Defpoints
 62
     0
100
AcDbPoint
 10
995.0
 20
774.9999999999989
 30
0.0
  0
POINT
  5
EEE4
330
EEDA
100
AcDbEntity
  8
Defpoints
 62
     0
100
AcDbPoint
 10
1605.0
 20
774.9999999999989
 30
0.0
  0
POINT
  5
EEE5
330
EEDA
100
AcDbEntity
  8
Defpoints
 62
     0
100
AcDbPoint
 10
1605.0
 20
884.9999999999989
 30
0.0
  0
ENDBLK
  5
EEDC
330
EEDA
100
AcDbEntity
  8
0
100
AcDbBlockEnd
  0
BLOCK
  5
EEE7
330
EEE6
100
AcDbEntity
  8
0
100
AcDbBlockBegin
  2
*D1112
 70
     1
 10
0.0
 20
0.0
 30
0.0
  3
*D1112
  1

  0
LINE
  5
EEE9
330
EEE6
100
AcDbEntity
  8
01注記寸法
 62
     0
370
    -2
100
AcDbLine
 10
1605.0
 20
789.9999999999989
 30
0.0
 11
1605.0
 21
894.9999999999989
 31
0.0
  0
LINE
  5
EEEA
330
EEE6
100
AcDbEntity
  8
01注記寸法
 62
     0
370
    -2
100
AcDbLine
 10
1680.0
 20
799.9999999999989
 30
0.0
 11
1680.0
 21
894.9999999999989
 31
0.0
  0
LINE
  5
EEEB
330
EEE6
100
AcDbEntity
  8
01注記寸法
 62
     0
370
    -2
100
AcDbLine
 10
1605.0
 20
884.9999999999989
 30
0.0
 11
1680.0
 21
884.9999999999989
 31
0.0
  0
LINE
  5
EEEC
330
EEE6
100
AcDbEntity
  8
01注記寸法
 62
     0
370
    -2
100
AcDbLine
 10
1575.0
 20
884.9999999999989
 30
0.0
 11
1545.0
 21
884.9999999999989
 31
0.0
  0
LINE
  5
EEED
330
EEE6
100
AcDbEntity
  8
01注記寸法
 62
     0
370
    -2
100
AcDbLine
 10
1710.0
 20
884.9999999999989
 30
0.0
 11
1740.0
 21
884.9999999999989
 31
0.0
  0
INSERT
  5
EEEE
330
EEE6
100
AcDbEntity
  8
01注記寸法
 62
     0
370
    -2
100
AcDbBlockReference
  2
_Open
 10
1605.0
 20
884.9999999999989
 30
0.0
 41
30.0
 42
30.0
 43
30.0
  0
INSERT
  5
EEEF
330
EEE6
100
AcDbEntity
  8
01注記寸法
 62
     0
370
    -2
100
AcDbBlockReference
  2
_Open
 10
1680.0
 20
884.9999999999989
 30
0.0
 41
30.0
 42
30.0
 43
30.0
 50
180.0
  0
MTEXT
  5
EEF0
330
EEE6
100
AcDbEntity
  8
01注記寸法
 62
     0
100
AcDbMText
 10
1642.5
 20
910.0056271101652
 30
0.0
 40
30.0
 41
0.0
 71
     5
 72
     1
  1
75
 73
     1
 44
1.0
  0
POINT
  5
EEF1
330
EEE6
100
AcDbEntity
  8
Defpoints
 62
     0
100
AcDbPoint
 10
1605.0
 20
774.9999999999989
 30
0.0
  0
POINT
  5
EEF2
330
EEE6
100
AcDbEntity
  8
Defpoints
 62
     0
100
AcDbPoint
 10
1680.0
 20
784.9999999999989
 30
0.0
  0
POINT
  5
EEF3
330
EEE6
100
AcDbEntity
  8
Defpoints
 62
     0
100
AcDbPoint
 10
1680.0
 20
884.9999999999989
 30
0.0
  0
ENDBLK
  5
EEE8
330
EEE6
100
AcDbEntity
  8
0
100
AcDbBlockEnd
  0
BLOCK
  5
EEF5
330
EEF4
100
AcDbEntity
  8
0
100
AcDbBlockBegin
  2
*D1113
 70
     1
 10
0.0
 20
0.0
 30
0.0
  3
*D1113
  1

  0
LINE
  5
EEF7
330
EEF4
100
AcDbEntity
  8
08非表示
 62
     0
370
    -2
100
AcDbLine
 10
905.0
 20
299.9999999999989
 30
0.0
 11
710.0
 21
299.9999999999989
 31
0.0
  0
LINE
  5
EEF8
330
EEF4
100
AcDbEntity
  8
08非表示
 62
     0
370
    -2
100
AcDbLine
 10
905.0
 20
784.9999999999989
 30
0.0
 11
710.0
 21
784.9999999999989
 31
0.0
  0
LINE
  5
EEF9
330
EEF4
100
AcDbEntity
  8
08非表示
 62
     0
370
    -2
100
AcDbLine
 10
720.0
 20
329.9999999999989
 30
0.0
 11
720.0
 21
754.9999999999989
 31
0.0
  0
INSERT
  5
EEFA
330
EEF4
100
AcDbEntity
  8
08非表示
 62
     0
370
    -2
100
AcDbBlockReference
  2
_Open
 10
720.0
 20
299.9999999999989
 30
0.0
 41
30.0
 42
30.0
 43
30.0
 50
270.0
  0
INSERT
  5
EEFB
330
EEF4
100
AcDbEntity
  8
08非表示
 62
     0
370
    -2
100
AcDbBlockReference
  2
_Open
 10
720.0
 20
784.9999999999989
 30
0.0
 41
30.0
 42
30.0
 43
30.0
 50
90.0
  0
MTEXT
  5
EEFC
330
EEF4
100
AcDbEntity
  8
08非表示
 62
     0
100
AcDbMText
 10
694.9943728898337
 20
542.4999999999989
 30
0.0
 40
30.0
 41
0.0
 71
     5
 72
     1
  1
485
 11
0.0
 21
1.0
 31
0.0
 73
     1
 44
1.0
  0
POINT
  5
EEFD
330
EEF4
100
AcDbEntity
  8
Defpoints
 62
     0
100
AcDbPoint
 10
920.0
 20
299.9999999999989
 30
0.0
  0
POINT
  5
EEFE
330
EEF4
100
AcDbEntity
  8
Defpoints
 62
     0
100
AcDbPoint
 10
920.0
 20
784.9999999999989
 30
0.0
  0
POINT
  5
EEFF
330
EEF4
100
AcDbEntity
  8
Defpoints
 62
     0
100
AcDbPoint
 10
720.0
 20
784.9999999999989
 30
0.0
  0
ENDBLK
  5
EEF6
330
EEF4
100
AcDbEntity
  8
0
100
AcDbBlockEnd
  0
BLOCK
  5
EF01
330
EF00
100
AcDbEntity
  8
0
100
AcDbBlockBegin
  2
*D1114
 70
     1
 10
0.0
 20
0.0
 30
0.0
  3
*D1114
  1

  0
LINE
  5
EF03
330
EF00
100
AcDbEntity
  8
08非表示
 62
     0
370
    -2
100
AcDbLine
 10
920.0
 20
799.9999999999989
 30
0.0
 11
920.0
 21
994.9999999999989
 31
0.0
  0
LINE
  5
EF04
330
EF00
100
AcDbEntity
  8
08非表示
 62
     0
370
    -2
100
AcDbLine
 10
1680.0
 20
799.9999999999989
 30
0.0
 11
1680.0
 21
994.9999999999989
 31
0.0
  0
LINE
  5
EF05
330
EF00
100
AcDbEntity
  8
08非表示
 62
     0
370
    -2
100
AcDbLine
 10
950.0
 20
984.9999999999989
 30
0.0
 11
1650.0
 21
984.9999999999989
 31
0.0
  0
INSERT
  5
EF06
330
EF00
100
AcDbEntity
  8
08非表示
 62
     0
370
    -2
100
AcDbBlockReference
  2
_Open
 10
920.0
 20
984.9999999999989
 30
0.0
 41
30.0
 42
30.0
 43
30.0
 50
180.0
  0
INSERT
  5
EF07
330
EF00
100
AcDbEntity
  8
08非表示
 62
     0
370
    -2
100
AcDbBlockReference
  2
_Open
 10
1680.0
 20
984.9999999999989
 30
0.0
 41
30.0
 42
30.0
 43
30.0
  0
MTEXT
  5
EF08
330
EF00
100
AcDbEntity
  8
08非表示
 62
     0
100
AcDbMText
 10
1300.0
 20
1010.005627110165
 30
0.0
 40
30.0
 41
0.0
 71
     5
 72
     1
  1
760
 73
     1
 44
1.0
  0
POINT
  5
EF09
330
EF00
100
AcDbEntity
  8
Defpoints
 62
     0
100
AcDbPoint
 10
920.0
 20
784.9999999999989
 30
0.0
  0
POINT
  5
EF0A
330
EF00
100
AcDbEntity
  8
Defpoints
 62
     0
100
AcDbPoint
 10
1680.0
 20
784.9999999999989
 30
0.0
  0
POINT
  5
EF0B
330
EF00
100
AcDbEntity
  8
Defpoints
 62
     0
100
AcDbPoint
 10
1680.0
 20
984.9999999999989
 30
0.0
  0
ENDBLK
  5
EF02
330
EF00
100
AcDbEntity
  8
0
100
AcDbBlockEnd
  0
BLOCK
  5
11E66
330
11E63
100
AcDbEntity
  8
0
100
AcDbBlockBegin
  2
シール(検査済)
 70
     0
 10
0.0
 20
0.0
 30
0.0
  3
シール(検査済)
  1

  0
LWPOLYLINE
  5
11E64
330
11E63
100
AcDbEntity
  8
07その他
100
AcDbPolyline
 90
        4
 70
     1
 43
0.0
 10
0.0
 20
0.0
 10
0.0
 20
25.0
 10
75.0
 20
25.0
 10
75.0
 20
0.0
  0
TEXT
  5
11E65
330
11E63
100
AcDbEntity
  8
08非表示
100
AcDbText
 10
8.239027135175693
 20
5.0
 30
0.0
 40
15.0
  1
検査済
 72
     1
 11
37.5
 21
12.5
 31
0.0
100
AcDbText
 73
     2
  0
ENDBLK
  5
11E67
330
11E63
100
AcDbEntity
  8
0
100
AcDbBlockEnd
  0
BLOCK
  5
11E6C
330
11E69
100
AcDbEntity
  8
0
100
AcDbBlockBegin
  2
シール(型式)
 70
     0
 10
0.0
 20
0.0
 30
0.0
  3
シール(型式)
  1

  0
LWPOLYLINE
  5
11E6A
330
11E69
100
AcDbEntity
  8
07その他
100
AcDbPolyline
 90
        4
 70
     1
 43
0.0
 10
0.0
 20
0.0
 10
0.0
 20
24.0
 10
94.0
 20
24.0
 10
94.0
 20
0.0
  0
TEXT
  5
11E6B
330
11E69
100
AcDbEntity
  8
08非表示
100
AcDbText
 10
27.4926847567838
 20
5.0
 30
0.0
 40
15.0
  1
型式
 72
     1
 11
47.0
 21
12.5
 31
0.0
100
AcDbText
 73
     2
  0
ENDBLK
  5
11E6D
330
11E69
100
AcDbEntity
  8
0
100
AcDbBlockEnd
  0
BLOCK
  5
12595
330
12594
100
AcDbEntity
  8
0
100
AcDbBlockBegin
  2
*D1732
 70
     1
 10
0.0
 20
0.0
 30
0.0
  3
*D1732
  1

  0
LINE
  5
12597
330
12594
100
AcDbEntity
  8
01注記寸法
 62
     0
370
    -2
100
AcDbLine
 10
2750.000000000001
 20
550.0000000000009
 30
0.0
 11
2750.000000000001
 21
645.0000000000009
 31
0.0
  0
LINE
  5
12598
330
12594
100
AcDbEntity
  8
01注記寸法
 62
     0
370
    -2
100
AcDbLine
 10
2975.000000000001
 20
520.0000000000005
 30
0.0
 11
2975.000000000001
 21
645.0000000000009
 31
0.0
  0
LINE
  5
12599
330
12594
100
AcDbEntity
  8
01注記寸法
 62
     0
370
    -2
100
AcDbLine
 10
2780.000000000001
 20
635.0000000000009
 30
0.0
 11
2945.000000000001
 21
635.0000000000009
 31
0.0
  0
INSERT
  5
1259A
330
12594
100
AcDbEntity
  8
01注記寸法
 62
     0
370
    -2
100
AcDbBlockReference
  2
_Open
 10
2750.000000000001
 20
635.0000000000009
 30
0.0
 41
30.0
 42
30.0
 43
30.0
 50
180.0
  0
INSERT
  5
1259B
330
12594
100
AcDbEntity
  8
01注記寸法
 62
     0
370
    -2
100
AcDbBlockReference
  2
_Open
 10
2975.000000000001
 20
635.0000000000009
 30
0.0
 41
30.0
 42
30.0
 43
30.0
  0
MTEXT
  5
1259C
330
12594
100
AcDbEntity
  8
01注記寸法
 62
     0
100
AcDbMText
 10
2862.500000000001
 20
660.0056271101672
 30
0.0
 40
30.0
 41
0.0
 71
     5
 72
     1
  1
75
 73
     1
 44
1.0
  0
POINT
  5
1259D
330
12594
100
AcDbEntity
  8
Defpoints
 62
     0
100
AcDbPoint
 10
2750.000000000001
 20
535.0000000000009
 30
0.0
  0
POINT
  5
1259E
330
12594
100
AcDbEntity
  8
Defpoints
 62
     0
100
AcDbPoint
 10
2975.000000000001
 20
505.0000000000005
 30
0.0
  0
POINT
  5
1259F
330
12594
100
AcDbEntity
  8
Defpoints
 62
     0
100
AcDbPoint
 10
2975.000000000001
 20
635.0000000000009
 30
0.0
  0
ENDBLK
  5
12596
330
12594
100
AcDbEntity
  8
0
100
AcDbBlockEnd
  0
BLOCK
  5
125A1
330
125A0
100
AcDbEntity
  8
0
100
AcDbBlockBegin
  2
*D1733
 70
     1
 10
0.0
 20
0.0
 30
0.0
  3
*D1733
  1

  0
LINE
  5
125A3
330
125A0
100
AcDbEntity
  8
01注記寸法
 62
     0
370
    -2
100
AcDbLine
 10
2900.000000000001
 20
445.0000000000005
 30
0.0
 11
2640.000000000001
 21
445.0000000000005
 31
0.0
  0
LINE
  5
125A4
330
125A0
100
AcDbEntity
  8
01注記寸法
 62
     0
370
    -2
100
AcDbLine
 10
2735.000000000001
 20
535.0000000000009
 30
0.0
 11
2640.000000000001
 21
535.0000000000009
 31
0.0
  0
LINE
  5
125A5
330
125A0
100
AcDbEntity
  8
01注記寸法
 62
     0
370
    -2
100
AcDbLine
 10
2650.000000000001
 20
475.0000000000005
 30
0.0
 11
2650.000000000001
 21
505.0000000000009
 31
0.0
  0
INSERT
  5
125A6
330
125A0
100
AcDbEntity
  8
01注記寸法
 62
     0
370
    -2
100
AcDbBlockReference
  2
_Open
 10
2650.000000000001
 20
445.0000000000005
 30
0.0
 41
30.0
 42
30.0
 43
30.0
 50
270.0
  0
INSERT
  5
125A7
330
125A0
100
AcDbEntity
  8
01注記寸法
 62
     0
370
    -2
100
AcDbBlockReference
  2
_Open
 10
2650.000000000001
 20
535.0000000000009
 30
0.0
 41
30.0
 42
30.0
 43
30.0
 50
90.0
  0
MTEXT
  5
125A8
330
125A0
100
AcDbEntity
  8
01注記寸法
 62
     0
100
AcDbMText
 10
2624.994372889835
 20
490.0000000000007
 30
0.0
 40
30.0
 41
0.0
 71
     5
 72
     1
  1
30
 11
0.0
 21
1.0
 31
0.0
 73
     1
 44
1.0
  0
POINT
  5
125A9
330
125A0
100
AcDbEntity
  8
Defpoints
 62
     0
100
AcDbPoint
 10
2915.000000000001
 20
445.0000000000005
 30
0.0
  0
POINT
  5
125AA
330
125A0
100
AcDbEntity
  8
Defpoints
 62
     0
100
AcDbPoint
 10
2750.000000000001
 20
535.0000000000009
 30
0.0
  0
POINT
  5
125AB
330
125A0
100
AcDbEntity
  8
Defpoints
 62
     0
100
AcDbPoint
 10
2650.000000000001
 20
535.0000000000009
 30
0.0
  0
ENDBLK
  5
125A2
330
125A0
100
AcDbEntity
  8
0
100
AcDbBlockEnd
  0
BLOCK
  5
125AD
330
125AC
100
AcDbEntity
  8
0
100
AcDbBlockBegin
  2
*D1734
 70
     1
 10
0.0
 20
0.0
 30
0.0
  3
*D1734
  1

  0
LINE
  5
125AF
330
125AC
100
AcDbEntity
  8
01注記寸法
 62
     0
370
    -2
100
AcDbLine
 10
2821.275165687132
 20
225.0
 30
0.0
 11
2900.0
 21
225.0
 31
0.0
  0
LINE
  5
125B0
330
125AC
100
AcDbEntity
  8
01注記寸法
 62
     0
370
    -2
100
AcDbLine
 10
2900.0
 20
225.0
 30
0.0
 11
2958.543629682806
 21
396.727980402895
 31
0.0
  0
LINE
  5
125B1
330
125AC
100
AcDbEntity
  8
01注記寸法
 62
     0
370
    -2
100
AcDbLine
 10
2991.456370317196
 20
493.2720195971061
 30
0.0
 11
3001.13658815084
 21
521.6673252424623
 31
0.0
  0
MTEXT
  5
125B2
330
125AC
100
AcDbEntity
  8
01注記寸法
 62
     0
100
AcDbMText
 10
2855.637582843566
 20
252.4421658121796
 30
0.0
 40
30.0
 41
0.0
 71
     5
 72
     1
  1
φ14
 73
     1
 44
1.0
  0
LINE
  5
125B3
330
125AC
100
AcDbEntity
  8
01注記寸法
 62
     0
370
    -2
100
AcDbLine
 10
2981.776152483552
 20
464.8767139517499
 30
0.0
 11
2968.22384751645
 21
425.1232860482512
 31
0.0
  0
INSERT
  5
125B4
330
125AC
100
AcDbEntity
  8
01注記寸法
 62
     0
370
    -2
100
AcDbBlockReference
  2
_Open
 10
2981.776152483552
 20
464.8767139517499
 30
0.0
 41
30.0
 42
30.0
 43
30.0
 50
251.1752899817598
  0
INSERT
  5
125B5
330
125AC
100
AcDbEntity
  8
01注記寸法
 62
     0
370
    -2
100
AcDbBlockReference
  2
_Open
 10
2968.22384751645
 20
425.1232860482512
 30
0.0
 41
30.0
 42
30.0
 43
30.0
 50
71.17528998175983
  0
POINT
  5
125B6
330
125AC
100
AcDbEntity
  8
Defpoints
 62
     0
100
AcDbPoint
 10
2968.22384751645
 20
425.1232860482512
 30
0.0
  0
POINT
  5
125B7
330
125AC
100
AcDbEntity
  8
Defpoints
 62
     0
100
AcDbPoint
 10
2981.776152483552
 20
464.8767139517499
 30
0.0
  0
ENDBLK
  5
125AE
330
125AC
100
AcDbEntity
  8
0
100
AcDbBlockEnd
  0
BLOCK
  5
12657
330
12656
100
AcDbEntity
  8
0
100
AcDbBlockBegin
  2
*D1742
 70
     1
 10
0.0
 20
0.0
 30
0.0
  3
*D1742
  1

  0
LINE
  5
12659
330
12656
100
AcDbEntity
  8
01注記寸法
 62
     0
370
    -2
100
AcDbLine
 10
960.0
 20
329.9999999999989
 30
0.0
 11
810.0
 21
329.9999999999989
 31
0.0
  0
LINE
  5
1265A
330
12656
100
AcDbEntity
  8
01注記寸法
 62
     0
370
    -2
100
AcDbLine
 10
905.0
 20
299.9999999999989
 30
0.0
 11
810.0
 21
299.9999999999989
 31
0.0
  0
LINE
  5
1265B
330
12656
100
AcDbEntity
  8
01注記寸法
 62
     0
370
    -2
100
AcDbLine
 10
820.0
 20
269.9999999999989
 30
0.0
 11
820.0
 21
184.2036076028499
 31
0.0
  0
LINE
  5
1265C
330
12656
100
AcDbEntity
  8
01注記寸法
 62
     0
370
    -2
100
AcDbLine
 10
820.0
 20
329.9999999999989
 30
0.0
 11
820.0
 21
299.9999999999989
 31
0.0
  0
LINE
  5
1265D
330
12656
100
AcDbEntity
  8
01注記寸法
 62
     0
370
    -2
100
AcDbLine
 10
820.0
 20
359.9999999999989
 30
0.0
 11
820.0
 21
389.9999999999989
 31
0.0
  0
INSERT
  5
1265E
330
12656
100
AcDbEntity
  8
01注記寸法
 62
     0
370
    -2
100
AcDbBlockReference
  2
_Open
 10
820.0
 20
329.9999999999989
 30
0.0
 41
30.0
 42
30.0
 43
30.0
 50
270.0
  0
INSERT
  5
1265F
330
12656
100
AcDbEntity
  8
01注記寸法
 62
     0
370
    -2
100
AcDbBlockReference
  2
_Open
 10
820.0
 20
299.9999999999989
 30
0.0
 41
30.0
 42
30.0
 43
30.0
 50
90.0
  0
MTEXT
  5
12660
330
12656
100
AcDbEntity
  8
01注記寸法
 62
     0
100
AcDbMText
 10
794.9943728898337
 20
212.1018038014244
 30
0.0
 40
30.0
 41
0.0
 71
     5
 72
     1
  1
30
 11
0.0
 21
1.0
 31
0.0
 73
     1
 44
1.0
  0
POINT
  5
12661
330
12656
100
AcDbEntity
  8
Defpoints
 62
     0
100
AcDbPoint
 10
975.0
 20
329.9999999999989
 30
0.0
  0
POINT
  5
12662
330
12656
100
AcDbEntity
  8
Defpoints
 62
     0
100
AcDbPoint
 10
920.0
 20
299.9999999999989
 30
0.0
  0
POINT
  5
12663
330
12656
100
AcDbEntity
  8
Defpoints
 62
     0
100
AcDbPoint
 10
820.0
 20
299.9999999999989
 30
0.0
  0
ENDBLK
  5
12658
330
12656
100
AcDbEntity
  8
0
100
AcDbBlockEnd
  0
BLOCK
  5
12F8F
330
12D9F
100
AcDbEntity
  8
0
100
AcDbBlockBegin
  2
PFAV-P80DMJ1
 70
     0
 10
0.0
 20
0.0
 30
0.0
  3
PFAV-P80DMJ1
  1

  0
LINE
  5
12DA0
330
12D9F
100
AcDbEntity
  8
11機器
100
AcDbLine
 10
-14.0
 20
-25.0
 30
0.0
 11
-14.0
 21
25.0
 31
0.0
  0
LINE
  5
12DA1
330
12D9F
100
AcDbEntity
  8
11機器
100
AcDbLine
 10
-14.19999999999709
 20
275.0
 30
0.0
 11
-14.19999999999709
 21
325.0
 31
0.0
  0
LINE
  5
12DA2
330
12D9F
100
AcDbEntity
  8
11機器
100
AcDbLine
 10
51.81743508829095
 20
359.0523280011002
 30
0.0
 11
51.99178597138962
 21
359.5756080114006
 31
0.0
  0
LINE
  5
12DA3
330
12D9F
100
AcDbEntity
  8
11機器
100
AcDbLine
 10
52.80000000000291
 20
160.1189972986995
 30
0.0
 11
52.80153468879871
 21
160.1525147969005
 31
0.0
  0
LINE
  5
12DA4
330
12D9F
100
AcDbEntity
  8
11機器
100
AcDbLine
 10
53.11185086239129
 20
166.6675040856007
 30
0.0
 11
53.06284857529681
 21
160.9281444541994
 31
0.0
  0
LINE
  5
12DA5
330
12D9F
100
AcDbEntity
  8
11機器
100
AcDbLine
 10
52.78451018719352
 20
159.8066491953996
 30
0.0
 11
52.78605192938994
 21
160.1013470632006
 31
0.0
  0
LINE
  5
12DA6
330
12D9F
100
AcDbEntity
  8
11機器
100
AcDbLine
 10
19.39999999999418
 20
-78.38626842799931
 30
0.0
 11
19.39999999999418
 21
-87.08626842800004
 31
0.0
  0
LINE
  5
12DA7
330
12D9F
100
AcDbEntity
  8
11機器
100
AcDbLine
 10
21.80000000000291
 20
253.2884022579001
 30
0.0
 11
21.80000000000291
 21
270.0
 31
0.0
  0
LINE
  5
12DA8
330
12D9F
100
AcDbEntity
  8
11機器
100
AcDbLine
 10
23.0
 20
-101.0
 30
0.0
 11
23.0
 21
-87.08626842800004
 31
0.0
  0
LINE
  5
12DA9
330
12D9F
100
AcDbEntity
  8
11機器
100
AcDbLine
 10
23.0
 20
-78.38626842799931
 30
0.0
 11
23.0
 21
-74.4814834741992
 31
0.0
  0
LINE
  5
12DAA
330
12D9F
100
AcDbEntity
  8
11機器
100
AcDbLine
 10
23.0
 20
30.0
 30
0.0
 11
23.0
 21
270.0
 31
0.0
  0
LINE
  5
12DAB
330
12D9F
100
AcDbEntity
  8
11機器
100
AcDbLine
 10
23.0
 20
360.4814834743011
 30
0.0
 11
23.0
 21
381.7999999999993
 31
0.0
  0
LINE
  5
12DAC
330
12D9F
100
AcDbEntity
  8
11機器
100
AcDbLine
 10
23.0
 20
360.4814834743011
 30
0.0
 11
23.0
 21
330.0
 31
0.0
  0
LINE
  5
12DAD
330
12D9F
100
AcDbEntity
  8
11機器
100
AcDbLine
 10
23.0
 20
-30.0
 30
0.0
 11
23.0
 21
-74.4814834741992
 31
0.0
  0
LINE
  5
12DAE
330
12D9F
100
AcDbEntity
  8
11機器
100
AcDbLine
 10
23.22354286469636
 20
-100.3999999999996
 30
0.0
 11
23.22354286469636
 21
-87.08626842800004
 31
0.0
  0
LINE
  5
12DAF
330
12D9F
100
AcDbEntity
  8
11機器
100
AcDbLine
 10
23.22354286469636
 20
-78.38626842799931
 30
0.0
 11
23.22354286469636
 21
-74.4814834741992
 31
0.0
  0
LINE
  5
12DB0
330
12D9F
100
AcDbEntity
  8
11機器
100
AcDbLine
 10
23.22354286469636
 20
30.0
 30
0.0
 11
23.22354286469636
 21
270.0
 31
0.0
  0
LINE
  5
12DB1
330
12D9F
100
AcDbEntity
  8
11機器
100
AcDbLine
 10
23.22354286469636
 20
360.4814834743011
 30
0.0
 11
23.22354286469636
 21
381.7999999999993
 31
0.0
  0
LINE
  5
12DB2
330
12D9F
100
AcDbEntity
  8
11機器
100
AcDbLine
 10
23.39999999999418
 20
-76.50206672000058
 30
0.0
 11
23.39999999999418
 21
-88.49793327999942
 31
0.0
  0
LINE
  5
12DB3
330
12D9F
100
AcDbEntity
  8
11機器
100
AcDbLine
 10
23.79999999990105
 20
382.7999999999993
 30
0.0
 11
23.79999999990105
 21
385.7999999999993
 31
0.0
  0
LINE
  5
12DB4
330
12D9F
100
AcDbEntity
  8
11機器
100
AcDbLine
 10
24.0
 20
382.6356309637995
 30
0.0
 11
24.0
 21
382.7999999999993
 31
0.0
  0
LINE
  5
12DB5
330
12D9F
100
AcDbEntity
  8
11機器
100
AcDbLine
 10
24.0
 20
382.5764571352993
 30
0.0
 11
24.0
 21
381.8517638090998
 31
0.0
  0
LINE
  5
12DB6
330
12D9F
100
AcDbEntity
  8
11機器
100
AcDbLine
 10
24.0
 20
-100.4517638090001
 30
0.0
 11
24.0
 21
-102.0
 31
0.0
  0
LINE
  5
12DB7
330
12D9F
100
AcDbEntity
  8
11機器
100
AcDbLine
 10
24.39999999999418
 20
-72.79999999999927
 30
0.0
 11
24.39999999999418
 21
-95.0
 31
0.0
  0
LINE
  5
12DB8
330
12D9F
100
AcDbEntity
  8
11機器
100
AcDbLine
 10
26.0
 20
-72.79999999999927
 30
0.0
 11
26.0
 21
-95.0
 31
0.0
  0
LINE
  5
12DB9
330
12D9F
100
AcDbEntity
  8
11機器
100
AcDbLine
 10
26.19999999999709
 20
-94.5
 30
0.0
 11
26.19999999999709
 21
380.2999999999993
 31
0.0
  0
LINE
  5
12DBA
330
12D9F
100
AcDbEntity
  8
11機器
100
AcDbLine
 10
26.19999999999709
 20
-96.85857864369973
 30
0.0
 11
26.19999999999709
 21
-98.39999999999964
 31
0.0
  0
LINE
  5
12DBB
330
12D9F
100
AcDbEntity
  8
11機器
100
AcDbLine
 10
28.5
 20
-95.20000000000073
 30
0.0
 11
28.5
 21
-94.5
 31
0.0
  0
LINE
  5
12DBC
330
12D9F
100
AcDbEntity
  8
11機器
100
AcDbLine
 10
29.55000000000291
 20
380.5
 30
0.0
 11
29.55000000000291
 21
380.2999999999993
 31
0.0
  0
LINE
  5
12DBD
330
12D9F
100
AcDbEntity
  8
11機器
100
AcDbLine
 10
31.20004473469453
 20
-96.79999999999927
 30
0.0
 11
31.20004473469453
 21
-95.0
 31
0.0
  0
LINE
  5
12DBE
330
12D9F
100
AcDbEntity
  8
11機器
100
AcDbLine
 10
33.39999999999418
 20
-91.29999999999927
 30
0.0
 11
33.39999999999418
 21
-92.79999999999927
 31
0.0
  0
LINE
  5
12DBF
330
12D9F
100
AcDbEntity
  8
11機器
100
AcDbLine
 10
34.19999999999709
 20
-92.00004473459921
 30
0.0
 11
34.19999999999709
 21
-90.5
 31
0.0
  0
LINE
  5
12DC0
330
12D9F
100
AcDbEntity
  8
11機器
100
AcDbLine
 10
35.0
 20
385.7999999999993
 30
0.0
 11
35.0
 21
383.2000000000007
 31
0.0
  0
LINE
  5
12DC1
330
12D9F
100
AcDbEntity
  8
11機器
100
AcDbLine
 10
35.69999999999709
 20
-90.50004473459921
 30
0.0
 11
35.69999999999709
 21
-89.0
 31
0.0
  0
LINE
  5
12DC2
330
12D9F
100
AcDbEntity
  8
11機器
100
AcDbLine
 10
39.0
 20
384.7999999999993
 30
0.0
 11
39.0
 21
382.7999999999993
 31
0.0
  0
LINE
  5
12DC3
330
12D9F
100
AcDbEntity
  8
11機器
100
AcDbLine
 10
42.19999999999709
 20
382.7999999999993
 30
0.0
 11
42.19999999999709
 21
-82.5
 31
0.0
  0
LINE
  5
12DC4
330
12D9F
100
AcDbEntity
  8
11機器
100
AcDbLine
 10
44.0
 20
384.7999999999993
 30
0.0
 11
44.0
 21
382.7999999999993
 31
0.0
  0
LINE
  5
12DC5
330
12D9F
100
AcDbEntity
  8
11機器
100
AcDbLine
 10
45.80000000000291
 20
366.7999999999993
 30
0.0
 11
45.80000000000291
 21
-80.79999999999927
 31
0.0
  0
LINE
  5
12DC6
330
12D9F
100
AcDbEntity
  8
11機器
100
AcDbLine
 10
48.51851652580081
 20
382.7999999999993
 30
0.0
 11
48.51851652580081
 21
386.0
 31
0.0
  0
LINE
  5
12DC7
330
12D9F
100
AcDbEntity
  8
11機器
100
AcDbLine
 10
48.51851652580081
 20
-98.39999999999964
 30
0.0
 11
48.51851652580081
 21
-100.0
 31
0.0
  0
LINE
  5
12DC8
330
12D9F
100
AcDbEntity
  8
11機器
100
AcDbLine
 10
50.80000000000291
 20
366.7999999999993
 30
0.0
 11
50.80000000000291
 21
-80.79999999999927
 31
0.0
  0
LINE
  5
12DC9
330
12D9F
100
AcDbEntity
  8
11機器
100
AcDbLine
 10
51.39999999999418
 20
366.7999999999993
 30
0.0
 11
51.39999999999418
 21
359.7999999999993
 31
0.0
  0
LINE
  5
12DCA
330
12D9F
100
AcDbEntity
  8
11機器
100
AcDbLine
 10
51.39999999999418
 20
-73.79999999999927
 30
0.0
 11
51.39999999999418
 21
-80.79999999999927
 31
0.0
  0
LINE
  5
12DCB
330
12D9F
100
AcDbEntity
  8
11機器
100
AcDbLine
 10
51.5728091669007
 20
366.7999999999993
 30
0.0
 11
51.5728091669007
 21
359.2267112322006
 31
0.0
  0
LINE
  5
12DCC
330
12D9F
100
AcDbEntity
  8
11機器
100
AcDbLine
 10
51.5728091669007
 20
-73.22671123210057
 30
0.0
 11
51.5728091669007
 21
-80.79999999999927
 31
0.0
  0
LINE
  5
12DCD
330
12D9F
100
AcDbEntity
  8
11機器
100
AcDbLine
 10
51.69999999999709
 20
-73.13328457609896
 30
0.0
 11
51.69999999999709
 21
-73.09007338680021
 31
0.0
  0
LINE
  5
12DCE
330
12D9F
100
AcDbEntity
  8
11機器
100
AcDbLine
 10
51.69999999999709
 20
359.0900733869003
 30
0.0
 11
51.69999999999709
 21
359.1332845761008
 31
0.0
  0
LINE
  5
12DCF
330
12D9F
100
AcDbEntity
  8
11機器
100
AcDbLine
 10
51.81743508829095
 20
359.0523280011002
 30
0.0
 11
51.81743508829095
 21
160.1291373772001
 31
0.0
  0
LINE
  5
12DD0
330
12D9F
100
AcDbEntity
  8
11機器
100
AcDbLine
 10
51.81743508829095
 20
125.8708626228999
 30
0.0
 11
51.81743508829095
 21
-73.0523280010002
 31
0.0
  0
LINE
  5
12DD1
330
12D9F
100
AcDbEntity
  8
11機器
100
AcDbLine
 10
51.99178597138962
 20
359.5756080114006
 30
0.0
 11
51.99178597138962
 21
160.6524292106005
 31
0.0
  0
LINE
  5
12DD2
330
12D9F
100
AcDbEntity
  8
11機器
100
AcDbLine
 10
51.99178597138962
 20
125.3475865570999
 30
0.0
 11
51.99178597138962
 21
-73.57560801140062
 31
0.0
  0
LINE
  5
12DD3
330
12D9F
100
AcDbEntity
  8
11機器
100
AcDbLine
 10
52.07896141298988
 20
359.8372480165999
 30
0.0
 11
52.07896141298988
 21
160.9140692157998
 31
0.0
  0
LINE
  5
12DD4
330
12D9F
100
AcDbEntity
  8
11機器
100
AcDbLine
 10
52.07896141298988
 20
125.0859465519006
 30
0.0
 11
52.07896141298988
 21
-73.83724801649987
 31
0.0
  0
LINE
  5
12DD5
330
12D9F
100
AcDbEntity
  8
11機器
100
AcDbLine
 10
52.80000000000291
 20
160.1432094640004
 30
0.0
 11
52.80000000000291
 21
125.8567905360997
 31
0.0
  0
LINE
  5
12DD6
330
12D9F
100
AcDbEntity
  8
11機器
100
AcDbLine
 10
52.80000000000291
 20
160.1432094640004
 30
0.0
 11
52.80000000000291
 21
125.8567905360997
 31
0.0
  0
LINE
  5
12DD7
330
12D9F
100
AcDbEntity
  8
11機器
100
AcDbLine
 10
53.51851652580081
 20
382.7999999999993
 30
0.0
 11
53.51851652580081
 21
386.0
 31
0.0
  0
LINE
  5
12DD8
330
12D9F
100
AcDbEntity
  8
11機器
100
AcDbLine
 10
53.51851652580081
 20
-98.39999999999964
 30
0.0
 11
53.51851652580081
 21
-100.0
 31
0.0
  0
LINE
  5
12DD9
330
12D9F
100
AcDbEntity
  8
11機器
100
AcDbLine
 10
68.99999999999272
 20
-100.0
 30
0.0
 11
68.99999999999272
 21
-101.1764571352996
 31
0.0
  0
LINE
  5
12DDA
330
12D9F
100
AcDbEntity
  8
11機器
100
AcDbLine
 10
68.99999999999272
 20
-101.1764571352996
 30
0.0
 11
68.99999999999272
 21
-102.0
 31
0.0
  0
LINE
  5
12DDB
330
12D9F
100
AcDbEntity
  8
11機器
100
AcDbLine
 10
69.79999999999563
 20
-100.3999999999996
 30
0.0
 11
69.79999999999563
 21
-100.0
 31
0.0
  0
LINE
  5
12DDC
330
12D9F
100
AcDbEntity
  8
11機器
100
AcDbLine
 10
70.49999999999272
 20
-101.3999999999996
 30
0.0
 11
70.49999999999272
 21
-100.2999999999993
 31
0.0
  0
LINE
  5
12DDD
330
12D9F
100
AcDbEntity
  8
11機器
100
AcDbLine
 10
71.79999999979918
 20
-100.2999999999993
 30
0.0
 11
71.79999999979918
 21
-100.0
 31
0.0
  0
LINE
  5
12DDE
330
12D9F
100
AcDbEntity
  8
11機器
100
AcDbLine
 10
74.49999999999272
 20
-100.0
 30
0.0
 11
74.49999999999272
 21
-100.3999999999996
 31
0.0
  0
LINE
  5
12DDF
330
12D9F
100
AcDbEntity
  8
11機器
100
AcDbLine
 10
75.29999999999563
 20
-100.0
 30
0.0
 11
75.29999999999563
 21
-100.6000000000004
 31
0.0
  0
LINE
  5
12DE0
330
12D9F
100
AcDbEntity
  8
11機器
100
AcDbLine
 10
75.49999999999272
 20
-101.3999999999996
 30
0.0
 11
75.49999999999272
 21
-100.0
 31
0.0
  0
LINE
  5
12DE1
330
12D9F
100
AcDbEntity
  8
11機器
100
AcDbLine
 10
88.31851652579644
 20
382.7999999999993
 30
0.0
 11
88.31851652579644
 21
386.0
 31
0.0
  0
LINE
  5
12DE2
330
12D9F
100
AcDbEntity
  8
11機器
100
AcDbLine
 10
88.31851652579644
 20
-98.39999999999964
 30
0.0
 11
88.31851652579644
 21
-100.0
 31
0.0
  0
LINE
  5
12DE3
330
12D9F
100
AcDbEntity
  8
11機器
100
AcDbLine
 10
93.31851652579644
 20
382.7999999999993
 30
0.0
 11
93.31851652579644
 21
386.0
 31
0.0
  0
LINE
  5
12DE4
330
12D9F
100
AcDbEntity
  8
11機器
100
AcDbLine
 10
93.31851652579644
 20
-98.39999999999964
 30
0.0
 11
93.31851652579644
 21
-100.0
 31
0.0
  0
LINE
  5
12DE5
330
12D9F
100
AcDbEntity
  8
11機器
100
AcDbLine
 10
95.0000007346971
 20
384.7999999999993
 30
0.0
 11
95.0000007346971
 21
382.7999999999993
 31
0.0
  0
LINE
  5
12DE6
330
12D9F
100
AcDbEntity
  8
11機器
100
AcDbLine
 10
96.49999999999272
 20
-101.9529142705996
 30
0.0
 11
96.49999999999272
 21
-98.39999999999964
 31
0.0
  0
LINE
  5
12DE7
330
12D9F
100
AcDbEntity
  8
11機器
100
AcDbLine
 10
100.0000007346971
 20
384.7999999999993
 30
0.0
 11
100.0000007346971
 21
382.7999999999993
 31
0.0
  0
LINE
  5
12DE8
330
12D9F
100
AcDbEntity
  8
11機器
100
AcDbLine
 10
52.78451018709166
 20
126.1933508235998
 30
0.0
 11
52.78605192938994
 21
125.8986529368995
 31
0.0
  0
LINE
  5
12DE9
330
12D9F
100
AcDbEntity
  8
11機器
100
AcDbLine
 10
53.11141018889612
 20
119.3324918469007
 30
0.0
 11
53.06284870910167
 21
125.0718397264009
 31
0.0
  0
LINE
  5
12DEA
330
12D9F
100
AcDbEntity
  8
11機器
100
AcDbLine
 10
52.80000000000291
 20
125.8810027014006
 30
0.0
 11
52.80128589690139
 21
125.8529188003995
 31
0.0
  0
LINE
  5
12DEB
330
12D9F
100
AcDbEntity
  8
11機器
100
AcDbLine
 10
-14.19999999999709
 20
325.0
 30
0.0
 11
-9.19999999999709
 21
330.0
 31
0.0
  0
LINE
  5
12DEC
330
12D9F
100
AcDbEntity
  8
11機器
100
AcDbLine
 10
52.97391017949849
 20
160.6664896626007
 30
0.0
 11
53.06284857529681
 21
160.9281444541994
 31
0.0
  0
LINE
  5
12DED
330
12D9F
100
AcDbEntity
  8
11機器
100
AcDbLine
 10
52.07896141298988
 20
160.9140692157998
 30
0.0
 11
51.80348701769253
 21
160.0872749764003
 31
0.0
  0
LINE
  5
12DEE
330
12D9F
100
AcDbEntity
  8
11機器
100
AcDbLine
 10
52.80107500599115
 20
160.1464317648006
 30
0.0
 11
52.78605192938994
 21
160.1013470632006
 31
0.0
  0
LINE
  5
12DEF
330
12D9F
100
AcDbEntity
  8
11機器
100
AcDbLine
 10
148.4999999999927
 20
383.7999999999993
 30
0.0
 11
148.4999999999927
 21
382.7999999999993
 31
0.0
  0
LINE
  5
12DF0
330
12D9F
100
AcDbEntity
  8
11機器
100
AcDbLine
 10
149.4999999999927
 20
-110.2000000000007
 30
0.0
 11
149.4999999999927
 21
-105.2003638065999
 31
0.0
  0
LINE
  5
12DF1
330
12D9F
100
AcDbEntity
  8
11機器
100
AcDbLine
 10
149.554195812394
 20
-111.1996318436995
 30
0.0
 11
149.554195812394
 21
-110.2000000000007
 31
0.0
  0
LINE
  5
12DF2
330
12D9F
100
AcDbEntity
  8
11機器
100
AcDbLine
 10
150.7499999999927
 20
382.7999999999993
 30
0.0
 11
150.7499999999927
 21
383.7999999999993
 31
0.0
  0
LINE
  5
12DF3
330
12D9F
100
AcDbEntity
  8
11機器
100
AcDbLine
 10
151.9999999999927
 20
-104.2000000000007
 30
0.0
 11
151.9999999999927
 21
-101.9529142705996
 31
0.0
  0
LINE
  5
12DF4
330
12D9F
100
AcDbEntity
  8
11機器
100
AcDbLine
 10
155.2499999999927
 20
382.7999999999993
 30
0.0
 11
155.2499999999927
 21
383.7999999999993
 31
0.0
  0
LINE
  5
12DF5
330
12D9F
100
AcDbEntity
  8
11機器
100
AcDbLine
 10
157.4999999999927
 20
383.7999999999993
 30
0.0
 11
157.4999999999927
 21
382.7999999999993
 31
0.0
  0
LINE
  5
12DF6
330
12D9F
100
AcDbEntity
  8
11機器
100
AcDbLine
 10
161.9999999999927
 20
-104.2000000000007
 30
0.0
 11
161.9999999999927
 21
-101.9529142705996
 31
0.0
  0
LINE
  5
12DF7
330
12D9F
100
AcDbEntity
  8
11機器
100
AcDbLine
 10
164.4458041875987
 20
-111.1996318436995
 30
0.0
 11
164.4458041875987
 21
-110.2000000000007
 31
0.0
  0
LINE
  5
12DF8
330
12D9F
100
AcDbEntity
  8
11機器
100
AcDbLine
 10
164.4999999999927
 20
-110.2000000000007
 30
0.0
 11
164.4999999999927
 21
-105.2003638065999
 31
0.0
  0
LINE
  5
12DF9
330
12D9F
100
AcDbEntity
  8
11機器
100
AcDbLine
 10
51.81743508829095
 20
-73.0523280010002
 30
0.0
 11
51.99178597138962
 21
-73.57560801140062
 31
0.0
  0
LINE
  5
12DFA
330
12D9F
100
AcDbEntity
  8
11機器
100
AcDbLine
 10
51.81743508829095
 20
125.8708626228999
 30
0.0
 11
51.80348701769253
 21
125.9127250236997
 31
0.0
  0
LINE
  5
12DFB
330
12D9F
100
AcDbEntity
  8
11機器
100
AcDbLine
 10
51.99178597138962
 20
125.3475865570999
 30
0.0
 11
52.07896141298988
 21
125.0859465519006
 31
0.0
  0
LINE
  5
12DFC
330
12D9F
100
AcDbEntity
  8
11機器
100
AcDbLine
 10
51.81743508829095
 20
125.8708626228999
 30
0.0
 11
51.99178597138962
 21
125.3475865570999
 31
0.0
  0
LINE
  5
12DFD
330
12D9F
100
AcDbEntity
  8
11機器
100
AcDbLine
 10
52.78605192938994
 20
125.8986529368995
 30
0.0
 11
52.80107966529613
 21
125.8535377632998
 31
0.0
  0
LINE
  5
12DFE
330
12D9F
100
AcDbEntity
  8
11機器
100
AcDbLine
 10
52.97435098329152
 20
125.3334986902992
 30
0.0
 11
53.06284870910167
 21
125.0718397264009
 31
0.0
  0
LINE
  5
12DFF
330
12D9F
100
AcDbEntity
  8
11機器
100
AcDbLine
 10
69.22584975359496
 20
-101.3047938921009
 30
0.0
 11
68.99999999999272
 21
-100.8249357358
 31
0.0
  0
LINE
  5
12E00
330
12D9F
100
AcDbEntity
  8
11機器
100
AcDbLine
 10
-14.0
 20
25.0
 30
0.0
 11
-9.0
 21
30.0
 31
0.0
  0
LINE
  5
12E01
330
12D9F
100
AcDbEntity
  8
11機器
100
AcDbLine
 10
396.9999999999927
 20
-98.39999999999964
 30
0.0
 11
396.9999999999927
 21
-99.39999999999964
 31
0.0
  0
LINE
  5
12E02
330
12D9F
100
AcDbEntity
  8
11機器
100
AcDbLine
 10
398.5000007346971
 20
383.7999999999993
 30
0.0
 11
398.5000007346971
 21
382.7999999999993
 31
0.0
  0
LINE
  5
12E03
330
12D9F
100
AcDbEntity
  8
11機器
100
AcDbLine
 10
398.9999999999927
 20
-99.39999999999964
 30
0.0
 11
398.9999999999927
 21
-103.3999999999996
 31
0.0
  0
LINE
  5
12E04
330
12D9F
100
AcDbEntity
  8
11機器
100
AcDbLine
 10
400.7499999999927
 20
382.7999999999993
 30
0.0
 11
400.7499999999927
 21
383.7999999999993
 31
0.0
  0
LINE
  5
12E05
330
12D9F
100
AcDbEntity
  8
11機器
100
AcDbLine
 10
402.9999999999927
 20
-99.39999999999964
 30
0.0
 11
402.9999999999927
 21
-103.3999999999996
 31
0.0
  0
LINE
  5
12E06
330
12D9F
100
AcDbEntity
  8
11機器
100
AcDbLine
 10
405.2499999999927
 20
382.7999999999993
 30
0.0
 11
405.2499999999927
 21
383.7999999999993
 31
0.0
  0
LINE
  5
12E07
330
12D9F
100
AcDbEntity
  8
11機器
100
AcDbLine
 10
406.9999999999927
 20
-99.39999999999964
 30
0.0
 11
406.9999999999927
 21
-103.3999999999996
 31
0.0
  0
LINE
  5
12E08
330
12D9F
100
AcDbEntity
  8
11機器
100
AcDbLine
 10
407.5000007346971
 20
383.7999999999993
 30
0.0
 11
407.5000007346971
 21
382.7999999999993
 31
0.0
  0
LINE
  5
12E09
330
12D9F
100
AcDbEntity
  8
11機器
100
AcDbLine
 10
408.9999999999927
 20
-98.39999999999964
 30
0.0
 11
408.9999999999927
 21
-99.39999999999964
 31
0.0
  0
LINE
  5
12E0A
330
12D9F
100
AcDbEntity
  8
11機器
100
AcDbLine
 10
-9.0
 20
-30.0
 30
0.0
 11
-14.0
 21
-25.0
 31
0.0
  0
LINE
  5
12E0B
330
12D9F
100
AcDbEntity
  8
11機器
100
AcDbLine
 10
26.19999999999709
 20
-98.32672699109935
 30
0.0
 11
24.0
 21
-100.4517638090001
 31
0.0
  0
LINE
  5
12E0C
330
12D9F
100
AcDbEntity
  8
11機器
100
AcDbLine
 10
24.0
 20
-100.6588190451002
 30
0.0
 11
26.33850155319669
 21
-98.39999999999964
 31
0.0
  0
LINE
  5
12E0D
330
12D9F
100
AcDbEntity
  8
11機器
100
AcDbLine
 10
24.0
 20
-101.1764571352996
 30
0.0
 11
26.87439993809676
 21
-98.39999999999964
 31
0.0
  0
LINE
  5
12E0E
330
12D9F
100
AcDbEntity
  8
11機器
100
AcDbLine
 10
42.19999999999709
 20
-82.5
 30
0.0
 11
30.19999999999709
 21
-94.5
 31
0.0
  0
LINE
  5
12E0F
330
12D9F
100
AcDbEntity
  8
11機器
100
AcDbLine
 10
31.20004473469453
 20
-95.0
 30
0.0
 11
45.40004473469162
 21
-80.79999999999927
 31
0.0
  0
LINE
  5
12E10
330
12D9F
100
AcDbEntity
  8
11機器
100
AcDbLine
 10
28.5
 20
-94.93740961080039
 30
0.0
 11
28.24635716139164
 21
-95.20000000000073
 31
0.0
  0
LINE
  5
12E11
330
12D9F
100
AcDbEntity
  8
11機器
100
AcDbLine
 10
26.19999999999709
 20
-97.31854482569906
 30
0.0
 11
23.22354286469636
 21
-100.3999999999996
 31
0.0
  0
LINE
  5
12E12
330
12D9F
100
AcDbEntity
  8
11機器
100
AcDbLine
 10
23.74118095489393
 20
-100.3999999999996
 30
0.0
 11
26.19083101289289
 21
-97.86393564460013
 31
0.0
  0
LINE
  5
12E13
330
12D9F
100
AcDbEntity
  8
11機器
100
AcDbLine
 10
23.94823619090312
 20
-100.3999999999996
 30
0.0
 11
26.19999999999709
 21
-98.06880256449949
 31
0.0
  0
LINE
  5
12E14
330
12D9F
100
AcDbEntity
  8
11機器
100
AcDbLine
 10
163.499788826899
 20
-104.2001041157
 30
0.0
 11
164.4998812523991
 21
-105.2002450533
 31
0.0
  0
LINE
  5
12E15
330
12D9F
100
AcDbEntity
  8
11機器
100
AcDbLine
 10
782.0000000000946
 20
382.5764571352993
 30
0.0
 11
779.7907047423942
 21
380.4424417881
 31
0.0
  0
LINE
  5
12E16
330
12D9F
100
AcDbEntity
  8
11機器
100
AcDbLine
 10
782.0000000000946
 20
382.0588190450999
 30
0.0
 11
779.8000000000975
 21
379.933782227301
 31
0.0
  0
LINE
  5
12E17
330
12D9F
100
AcDbEntity
  8
11機器
100
AcDbLine
 10
782.0000000000946
 20
382.0588190450999
 30
0.0
 11
779.8000000000975
 21
379.933782227301
 31
0.0
  0
LINE
  5
12E18
330
12D9F
100
AcDbEntity
  8
11機器
100
AcDbLine
 10
782.0000000000946
 20
381.8517638090998
 30
0.0
 11
779.8000000000975
 21
379.7267269912008
 31
0.0
  0
LINE
  5
12E19
330
12D9F
100
AcDbEntity
  8
11機器
100
AcDbLine
 10
150.5002111730937
 20
-104.2001041157
 30
0.0
 11
149.5001187475937
 21
-105.2002450533
 31
0.0
  0
LINE
  5
12E1A
330
12D9F
100
AcDbEntity
  8
11機器
100
AcDbLine
 10
779.8000000000975
 20
379.4688025645992
 30
0.0
 11
782.0517638090969
 21
381.7999999999993
 31
0.0
  0
LINE
  5
12E1B
330
12D9F
100
AcDbEntity
  8
11機器
100
AcDbLine
 10
641.4999999999927
 20
-110.2000000000007
 30
0.0
 11
641.4999999999927
 21
-105.2003638065999
 31
0.0
  0
LINE
  5
12E1C
330
12D9F
100
AcDbEntity
  8
11機器
100
AcDbLine
 10
641.554195812394
 20
-111.1996318436995
 30
0.0
 11
641.554195812394
 21
-110.2000000000007
 31
0.0
  0
LINE
  5
12E1D
330
12D9F
100
AcDbEntity
  8
11機器
100
AcDbLine
 10
643.9999999999927
 20
-104.2000000000007
 30
0.0
 11
643.9999999999927
 21
-101.9529142705996
 31
0.0
  0
LINE
  5
12E1E
330
12D9F
100
AcDbEntity
  8
11機器
100
AcDbLine
 10
648.4999999999927
 20
383.7999999999993
 30
0.0
 11
648.4999999999927
 21
382.7999999999993
 31
0.0
  0
LINE
  5
12E1F
330
12D9F
100
AcDbEntity
  8
11機器
100
AcDbLine
 10
650.7499999999927
 20
382.7999999999993
 30
0.0
 11
650.7499999999927
 21
383.7999999999993
 31
0.0
  0
LINE
  5
12E20
330
12D9F
100
AcDbEntity
  8
11機器
100
AcDbLine
 10
653.9999999999927
 20
-104.2000000000007
 30
0.0
 11
653.9999999999927
 21
-101.9529142705996
 31
0.0
  0
LINE
  5
12E21
330
12D9F
100
AcDbEntity
  8
11機器
100
AcDbLine
 10
655.2499999999927
 20
382.7999999999993
 30
0.0
 11
655.2499999999927
 21
383.7999999999993
 31
0.0
  0
LINE
  5
12E22
330
12D9F
100
AcDbEntity
  8
11機器
100
AcDbLine
 10
656.4458041875987
 20
-111.1996318436995
 30
0.0
 11
656.4458041875987
 21
-110.2000000000007
 31
0.0
  0
LINE
  5
12E23
330
12D9F
100
AcDbEntity
  8
11機器
100
AcDbLine
 10
656.4999999999927
 20
-110.2000000000007
 30
0.0
 11
656.4999999999927
 21
-105.2003638065999
 31
0.0
  0
LINE
  5
12E24
330
12D9F
100
AcDbEntity
  8
11機器
100
AcDbLine
 10
657.4999999999927
 20
383.7999999999993
 30
0.0
 11
657.4999999999927
 21
382.7999999999993
 31
0.0
  0
LINE
  5
12E25
330
12D9F
100
AcDbEntity
  8
11機器
100
AcDbLine
 10
-9.19999999999709
 20
270.0
 30
0.0
 11
-14.19999999999709
 21
275.0
 31
0.0
  0
LINE
  5
12E26
330
12D9F
100
AcDbEntity
  8
11機器
100
AcDbLine
 10
820.1999999999898
 20
275.0
 30
0.0
 11
815.1999999999898
 21
270.0
 31
0.0
  0
LINE
  5
12E27
330
12D9F
100
AcDbEntity
  8
11機器
100
AcDbLine
 10
779.8000000000975
 20
379.2544432107006
 30
0.0
 11
782.2588190451934
 21
381.7999999999993
 31
0.0
  0
LINE
  5
12E28
330
12D9F
100
AcDbEntity
  8
11機器
100
AcDbLine
 10
779.8000000000975
 20
379.2544432107006
 30
0.0
 11
782.2588190451934
 21
381.7999999999993
 31
0.0
  0
LINE
  5
12E29
330
12D9F
100
AcDbEntity
  8
11機器
100
AcDbLine
 10
779.8000000000975
 20
378.7185448258006
 30
0.0
 11
782.7764571353982
 21
381.7999999999993
 31
0.0
  0
LINE
  5
12E2A
330
12D9F
100
AcDbEntity
  8
11機器
100
AcDbLine
 10
705.9999992653975
 20
384.7999999999993
 30
0.0
 11
705.9999992653975
 21
382.7999999999993
 31
0.0
  0
LINE
  5
12E2B
330
12D9F
100
AcDbEntity
  8
11機器
100
AcDbLine
 10
709.4999999999927
 20
-98.39999999999964
 30
0.0
 11
709.4999999999927
 21
-101.9529142705996
 31
0.0
  0
LINE
  5
12E2C
330
12D9F
100
AcDbEntity
  8
11機器
100
AcDbLine
 10
710.9999992653975
 20
384.7999999999993
 30
0.0
 11
710.9999992653975
 21
382.7999999999993
 31
0.0
  0
LINE
  5
12E2D
330
12D9F
100
AcDbEntity
  8
11機器
100
AcDbLine
 10
712.6814834741963
 20
382.7999999999993
 30
0.0
 11
712.6814834741963
 21
386.0
 31
0.0
  0
LINE
  5
12E2E
330
12D9F
100
AcDbEntity
  8
11機器
100
AcDbLine
 10
712.6814834741963
 20
-98.39999999999964
 30
0.0
 11
712.6814834741963
 21
-100.0
 31
0.0
  0
LINE
  5
12E2F
330
12D9F
100
AcDbEntity
  8
11機器
100
AcDbLine
 10
717.6814834741963
 20
382.7999999999993
 30
0.0
 11
717.6814834741963
 21
386.0
 31
0.0
  0
LINE
  5
12E30
330
12D9F
100
AcDbEntity
  8
11機器
100
AcDbLine
 10
717.6814834741963
 20
-98.39999999999964
 30
0.0
 11
717.6814834741963
 21
-100.0
 31
0.0
  0
LINE
  5
12E31
330
12D9F
100
AcDbEntity
  8
11機器
100
AcDbLine
 10
730.4999999999927
 20
-101.3999999999996
 30
0.0
 11
730.4999999999927
 21
-100.0
 31
0.0
  0
LINE
  5
12E32
330
12D9F
100
AcDbEntity
  8
11機器
100
AcDbLine
 10
730.6999999999971
 20
-100.0
 30
0.0
 11
730.6999999999971
 21
-100.5999999999003
 31
0.0
  0
LINE
  5
12E33
330
12D9F
100
AcDbEntity
  8
11機器
100
AcDbLine
 10
731.4999999999927
 20
-100.3999999999996
 30
0.0
 11
731.4999999999927
 21
-100.0
 31
0.0
  0
LINE
  5
12E34
330
12D9F
100
AcDbEntity
  8
11機器
100
AcDbLine
 10
734.2000000004991
 20
-100.0
 30
0.0
 11
734.2000000004991
 21
-100.2999999999993
 31
0.0
  0
LINE
  5
12E35
330
12D9F
100
AcDbEntity
  8
11機器
100
AcDbLine
 10
735.4999999999927
 20
-101.3999999999996
 30
0.0
 11
735.4999999999927
 21
-100.2999999999993
 31
0.0
  0
LINE
  5
12E36
330
12D9F
100
AcDbEntity
  8
11機器
100
AcDbLine
 10
736.200000000099
 20
-100.0
 30
0.0
 11
736.200000000099
 21
-100.3999999999996
 31
0.0
  0
LINE
  5
12E37
330
12D9F
100
AcDbEntity
  8
11機器
100
AcDbLine
 10
737.0000000000946
 20
-101.1764571352996
 30
0.0
 11
737.0000000000946
 21
-100.0
 31
0.0
  0
LINE
  5
12E38
330
12D9F
100
AcDbEntity
  8
11機器
100
AcDbLine
 10
737.0000000000946
 20
-101.1764571352996
 30
0.0
 11
737.0000000000946
 21
-101.3999999999996
 31
0.0
  0
LINE
  5
12E39
330
12D9F
100
AcDbEntity
  8
11機器
100
AcDbLine
 10
752.4814834741992
 20
382.7999999999993
 30
0.0
 11
752.4814834741992
 21
386.0
 31
0.0
  0
LINE
  5
12E3A
330
12D9F
100
AcDbEntity
  8
11機器
100
AcDbLine
 10
752.4814834741992
 20
-98.39999999999964
 30
0.0
 11
752.4814834741992
 21
-100.0
 31
0.0
  0
LINE
  5
12E3B
330
12D9F
100
AcDbEntity
  8
11機器
100
AcDbLine
 10
754.4789614129986
 20
359.8372480165999
 30
0.0
 11
754.4789614129986
 21
143.8372480165999
 31
0.0
  0
LINE
  5
12E3C
330
12D9F
100
AcDbEntity
  8
11機器
100
AcDbLine
 10
754.4789614129986
 20
142.1627519835001
 30
0.0
 11
754.4789614129986
 21
-73.83724801649987
 31
0.0
  0
LINE
  5
12E3D
330
12D9F
100
AcDbEntity
  8
11機器
100
AcDbLine
 10
755.1999999999971
 20
366.7999999999993
 30
0.0
 11
755.1999999999971
 21
-80.79999999999927
 31
0.0
  0
LINE
  5
12E3E
330
12D9F
100
AcDbEntity
  8
11機器
100
AcDbLine
 10
757.4814834741992
 20
382.7999999999993
 30
0.0
 11
757.4814834741992
 21
386.0
 31
0.0
  0
LINE
  5
12E3F
330
12D9F
100
AcDbEntity
  8
11機器
100
AcDbLine
 10
757.4814834741992
 20
-98.39999999999964
 30
0.0
 11
757.4814834741992
 21
-100.0
 31
0.0
  0
LINE
  5
12E40
330
12D9F
100
AcDbEntity
  8
11機器
100
AcDbLine
 10
760.1999999999971
 20
-80.79999999999927
 30
0.0
 11
760.1999999999971
 21
366.7999999999993
 31
0.0
  0
LINE
  5
12E41
330
12D9F
100
AcDbEntity
  8
11機器
100
AcDbLine
 10
761.9999999999927
 20
384.7999999999993
 30
0.0
 11
761.9999999999927
 21
382.7999999999993
 31
0.0
  0
LINE
  5
12E42
330
12D9F
100
AcDbEntity
  8
11機器
100
AcDbLine
 10
763.7999999999956
 20
382.7999999999993
 30
0.0
 11
763.7999999999956
 21
-82.5
 31
0.0
  0
LINE
  5
12E43
330
12D9F
100
AcDbEntity
  8
11機器
100
AcDbLine
 10
766.9999999999927
 20
384.7999999999993
 30
0.0
 11
766.9999999999927
 21
382.7999999999993
 31
0.0
  0
LINE
  5
12E44
330
12D9F
100
AcDbEntity
  8
11機器
100
AcDbLine
 10
770.9999999999927
 20
383.2000000000007
 30
0.0
 11
770.9999999999927
 21
385.7999999999993
 31
0.0
  0
LINE
  5
12E45
330
12D9F
100
AcDbEntity
  8
11機器
100
AcDbLine
 10
771.7999999999956
 20
-90.5
 30
0.0
 11
771.7999999999956
 21
-92.00004473459921
 31
0.0
  0
LINE
  5
12E46
330
12D9F
100
AcDbEntity
  8
11機器
100
AcDbLine
 10
772.5999999999985
 20
-92.79999999999927
 30
0.0
 11
772.5999999999985
 21
-91.29999999999927
 31
0.0
  0
LINE
  5
12E47
330
12D9F
100
AcDbEntity
  8
11機器
100
AcDbLine
 10
774.7999552653928
 20
-96.79999999999927
 30
0.0
 11
774.7999552653928
 21
-95.0
 31
0.0
  0
LINE
  5
12E48
330
12D9F
100
AcDbEntity
  8
11機器
100
AcDbLine
 10
776.4499999999971
 20
380.5
 30
0.0
 11
776.4499999999971
 21
380.2999999999993
 31
0.0
  0
LINE
  5
12E49
330
12D9F
100
AcDbEntity
  8
11機器
100
AcDbLine
 10
777.4999999999927
 20
-95.20000000000073
 30
0.0
 11
777.4999999999927
 21
-94.5
 31
0.0
  0
LINE
  5
12E4A
330
12D9F
100
AcDbEntity
  8
11機器
100
AcDbLine
 10
779.7999999999956
 20
380.2999999999993
 30
0.0
 11
779.7999999999956
 21
-94.5
 31
0.0
  0
LINE
  5
12E4B
330
12D9F
100
AcDbEntity
  8
11機器
100
AcDbLine
 10
779.7999999999956
 20
-96.85857864369973
 30
0.0
 11
779.7999999999956
 21
-98.39999999999964
 31
0.0
  0
LINE
  5
12E4C
330
12D9F
100
AcDbEntity
  8
11機器
100
AcDbLine
 10
779.9999999999927
 20
-72.79999999999927
 30
0.0
 11
779.9999999999927
 21
-95.0
 31
0.0
  0
LINE
  5
12E4D
330
12D9F
100
AcDbEntity
  8
11機器
100
AcDbLine
 10
781.5999999999985
 20
-72.79999999999927
 30
0.0
 11
781.5999999999985
 21
-95.0
 31
0.0
  0
LINE
  5
12E4E
330
12D9F
100
AcDbEntity
  8
11機器
100
AcDbLine
 10
782.0000000000946
 20
382.5764571352993
 30
0.0
 11
782.0000000000946
 21
382.7999999999993
 31
0.0
  0
LINE
  5
12E4F
330
12D9F
100
AcDbEntity
  8
11機器
100
AcDbLine
 10
782.0000000000946
 20
382.5764571352993
 30
0.0
 11
782.0000000000946
 21
381.7464101615005
 31
0.0
  0
LINE
  5
12E50
330
12D9F
100
AcDbEntity
  8
11機器
100
AcDbLine
 10
782.0000000000946
 20
-100.3444717462007
 30
0.0
 11
782.0000000000946
 21
-101.1764571352996
 31
0.0
  0
LINE
  5
12E51
330
12D9F
100
AcDbEntity
  8
11機器
100
AcDbLine
 10
782.0000000000946
 20
-101.0833836245001
 30
0.0
 11
782.0000000000946
 21
-101.3999999999996
 31
0.0
  0
LINE
  5
12E52
330
12D9F
100
AcDbEntity
  8
11機器
100
AcDbLine
 10
782.5999999999985
 20
-76.50206672000058
 30
0.0
 11
782.5999999999985
 21
-88.49793327999942
 31
0.0
  0
LINE
  5
12E53
330
12D9F
100
AcDbEntity
  8
11機器
100
AcDbLine
 10
782.7764571353982
 20
381.7999999999993
 30
0.0
 11
782.7764571353982
 21
360.4814834743011
 31
0.0
  0
LINE
  5
12E54
330
12D9F
100
AcDbEntity
  8
11機器
100
AcDbLine
 10
782.7764571353982
 20
270.0
 30
0.0
 11
782.7764571353982
 21
30.0
 31
0.0
  0
LINE
  5
12E55
330
12D9F
100
AcDbEntity
  8
11機器
100
AcDbLine
 10
782.7764571353982
 20
-74.4814834741992
 30
0.0
 11
782.7764571353982
 21
-78.38626842799931
 31
0.0
  0
LINE
  5
12E56
330
12D9F
100
AcDbEntity
  8
11機器
100
AcDbLine
 10
782.7764571353982
 20
-87.08626842800004
 30
0.0
 11
782.7764571353982
 21
-100.3999999999996
 31
0.0
  0
LINE
  5
12E57
330
12D9F
100
AcDbEntity
  8
11機器
100
AcDbLine
 10
782.9999999999927
 20
382.7999999999993
 30
0.0
 11
782.9999999999927
 21
385.7999999999993
 31
0.0
  0
LINE
  5
12E58
330
12D9F
100
AcDbEntity
  8
11機器
100
AcDbLine
 10
783.0000000000946
 20
381.7999999999993
 30
0.0
 11
782.9999999999927
 21
330.0
 31
0.0
  0
LINE
  5
12E59
330
12D9F
100
AcDbEntity
  8
11機器
100
AcDbLine
 10
783.0000000000946
 20
270.0
 30
0.0
 11
783.0000000000946
 21
30.0
 31
0.0
  0
LINE
  5
12E5A
330
12D9F
100
AcDbEntity
  8
11機器
100
AcDbLine
 10
782.9999999999927
 20
-30.0
 30
0.0
 11
783.0000000000946
 21
-78.38626842799931
 31
0.0
  0
LINE
  5
12E5B
330
12D9F
100
AcDbEntity
  8
11機器
100
AcDbLine
 10
783.0000000000946
 20
-87.08626842800004
 30
0.0
 11
783.0000000000946
 21
-100.3999999999996
 31
0.0
  0
LINE
  5
12E5C
330
12D9F
100
AcDbEntity
  8
11機器
100
AcDbLine
 10
783.0999999999985
 20
270.0
 30
0.0
 11
783.0999999999985
 21
253.2884022579001
 31
0.0
  0
LINE
  5
12E5D
330
12D9F
100
AcDbEntity
  8
11機器
100
AcDbLine
 10
784.5999999999985
 20
270.0
 30
0.0
 11
784.5999999999985
 21
253.2884022579001
 31
0.0
  0
LINE
  5
12E5E
330
12D9F
100
AcDbEntity
  8
11機器
100
AcDbLine
 10
786.5999999999985
 20
-87.08626842800004
 30
0.0
 11
786.5999999999985
 21
-78.38626842799931
 31
0.0
  0
LINE
  5
12E5F
330
12D9F
100
AcDbEntity
  8
11機器
100
AcDbLine
 10
23.22354286469636
 20
381.7999999999993
 30
0.0
 11
26.19999999999709
 21
378.7185448258006
 31
0.0
  0
LINE
  5
12E60
330
12D9F
100
AcDbEntity
  8
11機器
100
AcDbLine
 10
26.19999999999709
 20
379.2544432107006
 30
0.0
 11
23.74118095489393
 21
381.7999999999993
 31
0.0
  0
LINE
  5
12E61
330
12D9F
100
AcDbEntity
  8
11機器
100
AcDbLine
 10
26.19999999999709
 20
379.4688025645992
 30
0.0
 11
23.94823619099043
 21
381.7999999999993
 31
0.0
  0
LINE
  5
12E62
330
12D9F
100
AcDbEntity
  8
11機器
100
AcDbLine
 10
24.0
 20
381.8517638090998
 30
0.0
 11
26.19999999999709
 21
379.7267269912008
 31
0.0
  0
LINE
  5
12E63
330
12D9F
100
AcDbEntity
  8
11機器
100
AcDbLine
 10
26.19999999999709
 20
379.933782227301
 30
0.0
 11
24.0
 21
382.0588190450999
 31
0.0
  0
LINE
  5
12E64
330
12D9F
100
AcDbEntity
  8
11機器
100
AcDbLine
 10
26.20929525759129
 20
380.4424417881
 30
0.0
 11
24.0
 21
382.5764571352993
 31
0.0
  0
LINE
  5
12E65
330
12D9F
100
AcDbEntity
  8
11機器
100
AcDbLine
 10
50.8024341861892
 20
359.2296307933993
 30
0.0
 11
51.5729072552931
 21
359.2268121280995
 31
0.0
  0
LINE
  5
12E66
330
12D9F
100
AcDbEntity
  8
11機器
100
AcDbLine
 10
757.4814834741992
 20
386.0
 30
0.0
 11
712.6814834741963
 21
386.0
 31
0.0
  0
LINE
  5
12E67
330
12D9F
100
AcDbEntity
  8
11機器
100
AcDbLine
 10
93.31851652579644
 20
386.0
 30
0.0
 11
48.51851652580081
 21
386.0
 31
0.0
  0
LINE
  5
12E68
330
12D9F
100
AcDbEntity
  8
11機器
100
AcDbLine
 10
783.0000000001965
 20
385.7999999999993
 30
0.0
 11
757.4814834743956
 21
385.7999999999993
 31
0.0
  0
LINE
  5
12E69
330
12D9F
100
AcDbEntity
  8
11機器
100
AcDbLine
 10
48.51851652580081
 20
385.7999999999993
 30
0.0
 11
23.79999999990105
 21
385.7999999999993
 31
0.0
  0
LINE
  5
12E6A
330
12D9F
100
AcDbEntity
  8
11機器
100
AcDbLine
 10
710.9999992653975
 20
384.7999999999993
 30
0.0
 11
95.0000007346971
 21
384.7999999999993
 31
0.0
  0
LINE
  5
12E6B
330
12D9F
100
AcDbEntity
  8
11機器
100
AcDbLine
 10
48.51851652580081
 20
384.7999999999993
 30
0.0
 11
39.0
 21
384.7999999999993
 31
0.0
  0
LINE
  5
12E6C
330
12D9F
100
AcDbEntity
  8
11機器
100
AcDbLine
 10
757.4814834741992
 20
384.7999999999993
 30
0.0
 11
766.9999999999927
 21
384.7999999999993
 31
0.0
  0
LINE
  5
12E6D
330
12D9F
100
AcDbEntity
  8
11機器
100
AcDbLine
 10
770.9999999999927
 20
384.0
 30
0.0
 11
766.9999999999927
 21
384.0
 31
0.0
  0
LINE
  5
12E6E
330
12D9F
100
AcDbEntity
  8
11機器
100
AcDbLine
 10
770.9999999999927
 20
384.0
 30
0.0
 11
766.9999999999927
 21
384.0
 31
0.0
  0
LINE
  5
12E6F
330
12D9F
100
AcDbEntity
  8
11機器
100
AcDbLine
 10
39.0
 20
384.0
 30
0.0
 11
35.0
 21
384.0
 31
0.0
  0
LINE
  5
12E70
330
12D9F
100
AcDbEntity
  8
11機器
100
AcDbLine
 10
35.0
 20
384.0
 30
0.0
 11
39.0
 21
384.0
 31
0.0
  0
LINE
  5
12E71
330
12D9F
100
AcDbEntity
  8
11機器
100
AcDbLine
 10
48.51851652580081
 20
383.7999999999993
 30
0.0
 11
39.0
 21
383.7999999999993
 31
0.0
  0
LINE
  5
12E72
330
12D9F
100
AcDbEntity
  8
11機器
100
AcDbLine
 10
95.0000007346971
 20
383.7999999999993
 30
0.0
 11
148.4999999999927
 21
383.7999999999993
 31
0.0
  0
LINE
  5
12E73
330
12D9F
100
AcDbEntity
  8
11機器
100
AcDbLine
 10
157.4999999999927
 20
383.7999999999993
 30
0.0
 11
398.5000007346971
 21
383.7999999999993
 31
0.0
  0
LINE
  5
12E74
330
12D9F
100
AcDbEntity
  8
11機器
100
AcDbLine
 10
407.5000007346971
 20
383.7999999999993
 30
0.0
 11
648.4999999999927
 21
383.7999999999993
 31
0.0
  0
LINE
  5
12E75
330
12D9F
100
AcDbEntity
  8
11機器
100
AcDbLine
 10
657.4999999999927
 20
383.7999999999993
 30
0.0
 11
710.9999992653975
 21
383.7999999999993
 31
0.0
  0
LINE
  5
12E76
330
12D9F
100
AcDbEntity
  8
11機器
100
AcDbLine
 10
95.0000007346971
 20
383.7999999999993
 30
0.0
 11
710.9999992653975
 21
383.7999999999993
 31
0.0
  0
LINE
  5
12E77
330
12D9F
100
AcDbEntity
  8
11機器
100
AcDbLine
 10
757.4814834741992
 20
383.7999999999993
 30
0.0
 11
766.9999999999927
 21
383.7999999999993
 31
0.0
  0
LINE
  5
12E78
330
12D9F
100
AcDbEntity
  8
11機器
100
AcDbLine
 10
770.9999999999927
 20
383.2000000000007
 30
0.0
 11
766.9999999999927
 21
383.2000000000007
 31
0.0
  0
LINE
  5
12E79
330
12D9F
100
AcDbEntity
  8
11機器
100
AcDbLine
 10
35.0
 20
383.2000000000007
 30
0.0
 11
39.0
 21
383.2000000000007
 31
0.0
  0
LINE
  5
12E7A
330
12D9F
100
AcDbEntity
  8
11機器
100
AcDbLine
 10
783.0000000001965
 20
382.7999999999993
 30
0.0
 11
782.0000000008949
 21
382.7999999999993
 31
0.0
  0
LINE
  5
12E7B
330
12D9F
100
AcDbEntity
  8
11機器
100
AcDbLine
 10
24.0
 20
383.0
 30
0.0
 11
28.69999999999709
 21
383.0
 31
0.0
  0
LINE
  5
12E7C
330
12D9F
100
AcDbEntity
  8
11機器
100
AcDbLine
 10
28.69999999999709
 20
382.7999999999993
 30
0.0
 11
782.0000000000946
 21
382.7999999999993
 31
0.0
  0
LINE
  5
12E7D
330
12D9F
100
AcDbEntity
  8
11機器
100
AcDbLine
 10
24.0
 20
382.5764571352993
 30
0.0
 11
27.67572132989881
 21
382.5764571352993
 31
0.0
  0
LINE
  5
12E7E
330
12D9F
100
AcDbEntity
  8
11機器
100
AcDbLine
 10
778.3242786701958
 20
382.5764571352993
 30
0.0
 11
782.0000000000946
 21
382.5764571352993
 31
0.0
  0
LINE
  5
12E7F
330
12D9F
100
AcDbEntity
  8
11機器
100
AcDbLine
 10
783.000000001397
 20
382.0
 30
0.0
 11
782.9771927307957
 21
382.0
 31
0.0
  0
LINE
  5
12E80
330
12D9F
100
AcDbEntity
  8
11機器
100
AcDbLine
 10
23.0
 20
381.7999999999993
 30
0.0
 11
23.94823619099043
 21
381.7999999999993
 31
0.0
  0
LINE
  5
12E81
330
12D9F
100
AcDbEntity
  8
11機器
100
AcDbLine
 10
782.0517638090969
 20
381.7999999999993
 30
0.0
 11
782.7764571353982
 21
381.7999999999993
 31
0.0
  0
LINE
  5
12E82
330
12D9F
100
AcDbEntity
  8
11機器
100
AcDbLine
 10
782.6833836245933
 20
381.7999999999993
 30
0.0
 11
783.0000000000946
 21
381.7999999999993
 31
0.0
  0
LINE
  5
12E83
330
12D9F
100
AcDbEntity
  8
11機器
100
AcDbLine
 10
777.2999999999956
 20
380.5
 30
0.0
 11
763.7999999999956
 21
380.5
 31
0.0
  0
LINE
  5
12E84
330
12D9F
100
AcDbEntity
  8
11機器
100
AcDbLine
 10
28.69999999999709
 20
380.5
 30
0.0
 11
42.19999999999709
 21
380.5
 31
0.0
  0
LINE
  5
12E85
330
12D9F
100
AcDbEntity
  8
11機器
100
AcDbLine
 10
779.7999999999956
 20
380.2999999999993
 30
0.0
 11
763.7999999999956
 21
380.2999999999993
 31
0.0
  0
LINE
  5
12E86
330
12D9F
100
AcDbEntity
  8
11機器
100
AcDbLine
 10
26.19999999999709
 20
380.2999999999993
 30
0.0
 11
42.19999999999709
 21
380.2999999999993
 31
0.0
  0
LINE
  5
12E87
330
12D9F
100
AcDbEntity
  8
11機器
100
AcDbLine
 10
763.7999999999956
 20
366.7999999999993
 30
0.0
 11
42.19999999999709
 21
366.7999999999993
 31
0.0
  0
LINE
  5
12E88
330
12D9F
100
AcDbEntity
  8
11機器
100
AcDbLine
 10
26.19999999999709
 20
360.4814834743011
 30
0.0
 11
23.0
 21
360.4814834743011
 31
0.0
  0
LINE
  5
12E89
330
12D9F
100
AcDbEntity
  8
11機器
100
AcDbLine
 10
779.7999999999956
 20
360.4814834743011
 30
0.0
 11
782.9999999999927
 21
360.4814834743011
 31
0.0
  0
LINE
  5
12E8A
330
12D9F
100
AcDbEntity
  8
11機器
100
AcDbLine
 10
760.1999999999971
 20
360.0219499453997
 30
0.0
 11
755.1999999999971
 21
360.0219499453997
 31
0.0
  0
LINE
  5
12E8B
330
12D9F
100
AcDbEntity
  8
11機器
100
AcDbLine
 10
45.80000000000291
 20
360.0219499450995
 30
0.0
 11
50.80000000000291
 21
360.0219499450995
 31
0.0
  0
LINE
  5
12E8C
330
12D9F
100
AcDbEntity
  8
11機器
100
AcDbLine
 10
51.39999999999418
 20
359.7999999999993
 30
0.0
 11
51.5728091669007
 21
359.7999999999993
 31
0.0
  0
LINE
  5
12E8D
330
12D9F
100
AcDbEntity
  8
11機器
100
AcDbLine
 10
26.19999999999709
 20
355.4814834743011
 30
0.0
 11
23.0
 21
355.4814834743011
 31
0.0
  0
LINE
  5
12E8E
330
12D9F
100
AcDbEntity
  8
11機器
100
AcDbLine
 10
779.7999999999956
 20
355.4814834743011
 30
0.0
 11
782.9999999999927
 21
355.4814834743011
 31
0.0
  0
LINE
  5
12E8F
330
12D9F
100
AcDbEntity
  8
11機器
100
AcDbLine
 10
755.1993905004929
 20
359.2150961303996
 30
0.0
 11
754.4789614129986
 21
359.2137791125006
 31
0.0
  0
LWPOLYLINE
  5
12E90
330
12D9F
100
AcDbEntity
  8
11機器
100
AcDbPolyline
 90
        4
 70
     0
 43
0.0
 10
51.55417437489086
 20
125.8457386259997
 10
51.62965894558874
 20
125.8623302337
 10
51.72886878869031
 20
125.8890700084994
 10
51.7786544339906
 20
125.9079513780998
  0
LINE
  5
12E91
330
12D9F
100
AcDbEntity
  8
11機器
100
AcDbLine
 10
820.1999999999898
 20
325.0
 30
0.0
 11
820.1999999999898
 21
275.0
 31
0.0
  0
LINE
  5
12E92
330
12D9F
100
AcDbEntity
  8
11機器
100
AcDbLine
 10
819.9999999999927
 20
25.0
 30
0.0
 11
819.9999999999927
 21
-25.0
 31
0.0
  0
LINE
  5
12E93
330
12D9F
100
AcDbEntity
  8
11機器
100
AcDbLine
 10
782.0517638090969
 20
-100.3999999999996
 30
0.0
 11
779.8000000000975
 21
-97.98448007170009
 31
0.0
  0
LINE
  5
12E94
330
12D9F
100
AcDbEntity
  8
11機器
100
AcDbLine
 10
782.2588190451934
 20
-100.3999999999996
 30
0.0
 11
779.8000000000975
 21
-97.76236705659903
 31
0.0
  0
LINE
  5
12E95
330
12D9F
100
AcDbEntity
  8
11機器
100
AcDbLine
 10
782.2588190451934
 20
-100.3999999999996
 30
0.0
 11
779.8000000000975
 21
-97.76236705659903
 31
0.0
  0
LINE
  5
12E96
330
12D9F
100
AcDbEntity
  8
11機器
100
AcDbLine
 10
782.7764571353982
 20
-100.3999999999996
 30
0.0
 11
779.8000000000975
 21
-97.20708451879909
 31
0.0
  0
LINE
  5
12E97
330
12D9F
100
AcDbEntity
  8
11機器
100
AcDbLine
 10
777.928982407393
 20
-95.20000000000073
 30
0.0
 11
777.5000000000946
 21
-94.73982049550068
 31
0.0
  0
LINE
  5
12E98
330
12D9F
100
AcDbEntity
  8
11機器
100
AcDbLine
 10
655.499788826899
 20
-104.2001041157
 30
0.0
 11
656.4998812523991
 21
-105.2002450533
 31
0.0
  0
LINE
  5
12E99
330
12D9F
100
AcDbEntity
  8
11機器
100
AcDbLine
 10
760.5999552653957
 20
-80.79999999999927
 30
0.0
 11
774.7999552653928
 21
-95.0
 31
0.0
  0
LINE
  5
12E9A
330
12D9F
100
AcDbEntity
  8
11機器
100
AcDbLine
 10
775.7999999999956
 20
-94.5
 30
0.0
 11
763.7999999999956
 21
-82.5
 31
0.0
  0
LINE
  5
12E9B
330
12D9F
100
AcDbEntity
  8
11機器
100
AcDbLine
 10
-9.19999999999709
 20
330.0
 30
0.0
 11
25.80000000000291
 21
330.0
 31
0.0
  0
LINE
  5
12E9C
330
12D9F
100
AcDbEntity
  8
11機器
100
AcDbLine
 10
780.1999999999898
 20
330.0
 30
0.0
 11
815.1999999999898
 21
330.0
 31
0.0
  0
LINE
  5
12E9D
330
12D9F
100
AcDbEntity
  8
11機器
100
AcDbLine
 10
-9.19999999999709
 20
270.0
 30
0.0
 11
25.80000000000291
 21
270.0
 31
0.0
  0
LINE
  5
12E9E
330
12D9F
100
AcDbEntity
  8
11機器
100
AcDbLine
 10
780.1999999999898
 20
270.0
 30
0.0
 11
815.1999999999898
 21
270.0
 31
0.0
  0
LINE
  5
12E9F
330
12D9F
100
AcDbEntity
  8
11機器
100
AcDbLine
 10
784.5999999999985
 20
253.2879692105998
 30
0.0
 11
783.0999999999985
 21
253.2879692105998
 31
0.0
  0
LINE
  5
12EA0
330
12D9F
100
AcDbEntity
  8
11機器
100
AcDbLine
 10
21.80000000000291
 20
253.2879692105998
 30
0.0
 11
23.0
 21
253.2879692105998
 31
0.0
  0
LINE
  5
12EA1
330
12D9F
100
AcDbEntity
  8
11機器
100
AcDbLine
 10
51.77861228799156
 20
125.9080382362008
 30
0.0
 11
51.80348701769253
 21
125.9127250236997
 31
0.0
  0
LINE
  5
12EA2
330
12D9F
100
AcDbEntity
  8
11機器
100
AcDbLine
 10
642.5002111730937
 20
-104.2001041157
 30
0.0
 11
641.5001187475937
 21
-105.2002450533
 31
0.0
  0
LINE
  5
12EA3
330
12D9F
100
AcDbEntity
  8
11機器
100
AcDbLine
 10
819.9999999999927
 20
-25.0
 30
0.0
 11
814.9999999999927
 21
-30.0
 31
0.0
  0
LINE
  5
12EA4
330
12D9F
100
AcDbEntity
  8
11機器
100
AcDbLine
 10
814.9999999999927
 20
30.0
 30
0.0
 11
819.9999999999927
 21
25.0
 31
0.0
  0
LINE
  5
12EA5
330
12D9F
100
AcDbEntity
  8
11機器
100
AcDbLine
 10
779.0234717301937
 20
-98.39999999999964
 30
0.0
 11
782.0000000000946
 21
-101.1764571352996
 31
0.0
  0
LINE
  5
12EA6
330
12D9F
100
AcDbEntity
  8
11機器
100
AcDbLine
 10
782.0000000000946
 20
-100.6588190451002
 30
0.0
 11
779.5784107528962
 21
-98.39999999999964
 31
0.0
  0
LINE
  5
12EA7
330
12D9F
100
AcDbEntity
  8
11機器
100
AcDbLine
 10
779.5784107528962
 20
-98.39999999999964
 30
0.0
 11
782.0000000000946
 21
-100.6588190451002
 31
0.0
  0
LINE
  5
12EA8
330
12D9F
100
AcDbEntity
  8
11機器
100
AcDbLine
 10
782.0000000000946
 20
-100.4517638090001
 30
0.0
 11
779.8001797606994
 21
-98.39980728569935
 31
0.0
  0
LINE
  5
12EA9
330
12D9F
100
AcDbEntity
  8
11機器
100
AcDbLine
 10
45.80000000000291
 20
163.75
 30
0.0
 11
42.19999999999709
 21
163.75
 31
0.0
  0
LINE
  5
12EAA
330
12D9F
100
AcDbEntity
  8
11機器
100
AcDbLine
 10
755.1999999999971
 20
143.0000169702998
 30
0.0
 11
760.1999999999971
 21
143.0000169702998
 31
0.0
  0
LINE
  5
12EAB
330
12D9F
100
AcDbEntity
  8
11機器
100
AcDbLine
 10
50.80000000000291
 20
142.9999934274001
 30
0.0
 11
45.80000000000291
 21
142.9999934274001
 31
0.0
  0
LINE
  5
12EAC
330
12D9F
100
AcDbEntity
  8
11機器
100
AcDbLine
 10
45.80000000000291
 20
122.25
 30
0.0
 11
42.19999999999709
 21
122.25
 31
0.0
  0
LINE
  5
12EAD
330
12D9F
100
AcDbEntity
  8
11機器
100
AcDbLine
 10
53.06284857529681
 20
160.9281444541994
 30
0.0
 11
52.07896141298988
 21
160.9140692157998
 31
0.0
  0
LINE
  5
12EAE
330
12D9F
100
AcDbEntity
  8
11機器
100
AcDbLine
 10
52.97435084979224
 20
160.6664855327999
 30
0.0
 11
51.99178597138962
 21
160.6524292106005
 31
0.0
  0
LINE
  5
12EAF
330
12D9F
100
AcDbEntity
  8
11機器
100
AcDbLine
 10
52.80000000000291
 20
160.1432094640004
 30
0.0
 11
51.81743508829095
 21
160.1291373772001
 31
0.0
  0
LINE
  5
12EB0
330
12D9F
100
AcDbEntity
  8
11機器
100
AcDbLine
 10
51.81803198039415
 20
160.0874835163995
 30
0.0
 11
51.80348701769253
 21
160.0872749764003
 31
0.0
  0
LINE
  5
12EB1
330
12D9F
100
AcDbEntity
  8
11機器
100
AcDbLine
 10
51.7786544339906
 20
160.0920486219002
 30
0.0
 11
51.72886878869031
 21
160.1109299916006
 31
0.0
  0
LINE
  5
12EB2
330
12D9F
100
AcDbEntity
  8
11機器
100
AcDbLine
 10
51.80348701769253
 20
125.9127250236997
 30
0.0
 11
51.81803198039415
 21
125.9125164837005
 31
0.0
  0
LINE
  5
12EB3
330
12D9F
100
AcDbEntity
  8
11機器
100
AcDbLine
 10
51.81743508829095
 20
125.8708626228999
 30
0.0
 11
52.80000000000291
 21
125.8567905360997
 31
0.0
  0
LINE
  5
12EB4
330
12D9F
100
AcDbEntity
  8
11機器
100
AcDbLine
 10
51.99178597138962
 20
125.3475865570999
 30
0.0
 11
52.97435098329152
 21
125.3334986902992
 31
0.0
  0
LINE
  5
12EB5
330
12D9F
100
AcDbEntity
  8
11機器
100
AcDbLine
 10
52.07896141298988
 20
125.0859465519006
 30
0.0
 11
53.06284870910167
 21
125.0718397264009
 31
0.0
  0
LINE
  5
12EB6
330
12D9F
100
AcDbEntity
  8
11機器
100
AcDbLine
 10
-9.0
 20
30.0
 30
0.0
 11
26.0
 21
30.0
 31
0.0
  0
LINE
  5
12EB7
330
12D9F
100
AcDbEntity
  8
11機器
100
AcDbLine
 10
779.9999999999927
 20
30.0
 30
0.0
 11
814.9999999999927
 21
30.0
 31
0.0
  0
LINE
  5
12EB8
330
12D9F
100
AcDbEntity
  8
11機器
100
AcDbLine
 10
815.1999999999898
 20
330.0
 30
0.0
 11
820.1999999999898
 21
325.0
 31
0.0
  0
LINE
  5
12EB9
330
12D9F
100
AcDbEntity
  8
11機器
100
AcDbLine
 10
51.80348701769253
 20
160.0872749764003
 30
0.0
 11
51.77861228799156
 21
160.0919617637992
 31
0.0
  0
LINE
  5
12EBA
330
12D9F
100
AcDbEntity
  8
11機器
100
AcDbLine
 10
755.1993905004929
 20
-73.21509613029957
 30
0.0
 11
754.4789614129986
 21
-73.21377911240052
 31
0.0
  0
LINE
  5
12EBB
330
12D9F
100
AcDbEntity
  8
11機器
100
AcDbLine
 10
-9.0
 20
-30.0
 30
0.0
 11
26.0
 21
-30.0
 31
0.0
  0
LINE
  5
12EBC
330
12D9F
100
AcDbEntity
  8
11機器
100
AcDbLine
 10
779.9999999999927
 20
-30.0
 30
0.0
 11
814.9999999999927
 21
-30.0
 31
0.0
  0
LINE
  5
12EBD
330
12D9F
100
AcDbEntity
  8
11機器
100
AcDbLine
 10
26.19999999999709
 20
-34.68148347419992
 30
0.0
 11
23.0
 21
-34.68148347419992
 31
0.0
  0
LINE
  5
12EBE
330
12D9F
100
AcDbEntity
  8
11機器
100
AcDbLine
 10
779.9999999999927
 20
-34.68148347419992
 30
0.0
 11
783.1999999999898
 21
-34.68148347419992
 31
0.0
  0
LINE
  5
12EBF
330
12D9F
100
AcDbEntity
  8
11機器
100
AcDbLine
 10
26.19999999999709
 20
-69.4814834741992
 30
0.0
 11
23.0
 21
-69.4814834741992
 31
0.0
  0
LINE
  5
12EC0
330
12D9F
100
AcDbEntity
  8
11機器
100
AcDbLine
 10
779.7999999999956
 20
-69.4814834741992
 30
0.0
 11
782.9999999999927
 21
-69.4814834741992
 31
0.0
  0
LINE
  5
12EC1
330
12D9F
100
AcDbEntity
  8
11機器
100
AcDbLine
 10
26.0
 20
-72.79999999999927
 30
0.0
 11
24.39999999999418
 21
-72.79999999999927
 31
0.0
  0
LINE
  5
12EC2
330
12D9F
100
AcDbEntity
  8
11機器
100
AcDbLine
 10
779.9999999999927
 20
-72.79999999999927
 30
0.0
 11
781.5999999999985
 21
-72.79999999999927
 31
0.0
  0
LINE
  5
12EC3
330
12D9F
100
AcDbEntity
  8
11機器
100
AcDbLine
 10
51.5728091669007
 20
-73.79999999999927
 30
0.0
 11
51.39999999999418
 21
-73.79999999999927
 31
0.0
  0
LINE
  5
12EC4
330
12D9F
100
AcDbEntity
  8
11機器
100
AcDbLine
 10
760.1999999999971
 20
-74.02194994509955
 30
0.0
 11
755.1999999999971
 21
-74.02194994509955
 31
0.0
  0
LINE
  5
12EC5
330
12D9F
100
AcDbEntity
  8
11機器
100
AcDbLine
 10
45.80000000000291
 20
-74.02194994509955
 30
0.0
 11
50.80000000000291
 21
-74.02194994509955
 31
0.0
  0
LINE
  5
12EC6
330
12D9F
100
AcDbEntity
  8
11機器
100
AcDbLine
 10
26.19999999999709
 20
-74.4814834741992
 30
0.0
 11
26.0
 21
-74.4814834741992
 31
0.0
  0
LINE
  5
12EC7
330
12D9F
100
AcDbEntity
  8
11機器
100
AcDbLine
 10
24.39999999999418
 20
-74.4814834741992
 30
0.0
 11
23.0
 21
-74.4814834741992
 31
0.0
  0
LINE
  5
12EC8
330
12D9F
100
AcDbEntity
  8
11機器
100
AcDbLine
 10
779.7999999999956
 20
-74.4814834741992
 30
0.0
 11
779.9999999999927
 21
-74.4814834741992
 31
0.0
  0
LINE
  5
12EC9
330
12D9F
100
AcDbEntity
  8
11機器
100
AcDbLine
 10
781.5999999999985
 20
-74.4814834741992
 30
0.0
 11
782.9999999999927
 21
-74.4814834741992
 31
0.0
  0
LINE
  5
12ECA
330
12D9F
100
AcDbEntity
  8
11機器
100
AcDbLine
 10
26.0
 20
-75.79999999999927
 30
0.0
 11
24.39999999999418
 21
-75.79999999999927
 31
0.0
  0
LINE
  5
12ECB
330
12D9F
100
AcDbEntity
  8
11機器
100
AcDbLine
 10
779.9999999999927
 20
-75.79999999999927
 30
0.0
 11
781.5999999999985
 21
-75.79999999999927
 31
0.0
  0
LINE
  5
12ECC
330
12D9F
100
AcDbEntity
  8
11機器
100
AcDbLine
 10
24.39999999999418
 20
-76.5
 30
0.0
 11
23.39999999999418
 21
-76.5
 31
0.0
  0
LINE
  5
12ECD
330
12D9F
100
AcDbEntity
  8
11機器
100
AcDbLine
 10
781.5999999999985
 20
-76.5
 30
0.0
 11
782.5999999999985
 21
-76.5
 31
0.0
  0
LINE
  5
12ECE
330
12D9F
100
AcDbEntity
  8
11機器
100
AcDbLine
 10
23.39999999999418
 20
-78.38626842799931
 30
0.0
 11
19.39999999999418
 21
-78.38626842799931
 31
0.0
  0
LINE
  5
12ECF
330
12D9F
100
AcDbEntity
  8
11機器
100
AcDbLine
 10
782.5999999999985
 20
-78.38626842799931
 30
0.0
 11
786.5999999999985
 21
-78.38626842799931
 31
0.0
  0
LINE
  5
12ED0
330
12D9F
100
AcDbEntity
  8
11機器
100
AcDbLine
 10
26.19999999999709
 20
-80.25
 30
0.0
 11
26.0
 21
-80.25
 31
0.0
  0
LINE
  5
12ED1
330
12D9F
100
AcDbEntity
  8
11機器
100
AcDbLine
 10
779.7999999999956
 20
-80.25
 30
0.0
 11
779.9999999999927
 21
-80.25
 31
0.0
  0
LINE
  5
12ED2
330
12D9F
100
AcDbEntity
  8
11機器
100
AcDbLine
 10
782.5999999999985
 20
-80.66313577919937
 30
0.0
 11
786.5999999999985
 21
-80.66313577919937
 31
0.0
  0
LINE
  5
12ED3
330
12D9F
100
AcDbEntity
  8
11機器
100
AcDbLine
 10
23.39999999999418
 20
-80.69566950469925
 30
0.0
 11
19.39999999999418
 21
-80.69566950469925
 31
0.0
  0
LINE
  5
12ED4
330
12D9F
100
AcDbEntity
  8
11機器
100
AcDbLine
 10
45.40004473469162
 20
-80.79999999999927
 30
0.0
 11
760.5999552653957
 21
-80.79999999999927
 31
0.0
  0
LINE
  5
12ED5
330
12D9F
100
AcDbEntity
  8
11機器
100
AcDbLine
 10
26.19999999999709
 20
-84.75
 30
0.0
 11
26.0
 21
-84.75
 31
0.0
  0
LINE
  5
12ED6
330
12D9F
100
AcDbEntity
  8
11機器
100
AcDbLine
 10
779.7999999999956
 20
-84.75
 30
0.0
 11
779.9999999999927
 21
-84.75
 31
0.0
  0
LINE
  5
12ED7
330
12D9F
100
AcDbEntity
  8
11機器
100
AcDbLine
 10
782.5999999999985
 20
-84.77686735120005
 30
0.0
 11
786.5999999999985
 21
-84.77686735120005
 31
0.0
  0
LINE
  5
12ED8
330
12D9F
100
AcDbEntity
  8
11機器
100
AcDbLine
 10
23.39999999999418
 20
-84.80940107669994
 30
0.0
 11
19.39999999999418
 21
-84.80940107669994
 31
0.0
  0
LINE
  5
12ED9
330
12D9F
100
AcDbEntity
  8
11機器
100
AcDbLine
 10
23.39999999999418
 20
-87.08626842800004
 30
0.0
 11
19.39999999999418
 21
-87.08626842800004
 31
0.0
  0
LINE
  5
12EDA
330
12D9F
100
AcDbEntity
  8
11機器
100
AcDbLine
 10
782.5999999999985
 20
-87.08626842800004
 30
0.0
 11
786.5999999999985
 21
-87.08626842800004
 31
0.0
  0
LINE
  5
12EDB
330
12D9F
100
AcDbEntity
  8
11機器
100
AcDbLine
 10
24.39999999999418
 20
-88.5
 30
0.0
 11
23.39999999999418
 21
-88.5
 31
0.0
  0
LINE
  5
12EDC
330
12D9F
100
AcDbEntity
  8
11機器
100
AcDbLine
 10
781.5999999999985
 20
-88.5
 30
0.0
 11
782.5999999999985
 21
-88.5
 31
0.0
  0
LINE
  5
12EDD
330
12D9F
100
AcDbEntity
  8
11機器
100
AcDbLine
 10
775.7999999999956
 20
-94.5
 30
0.0
 11
774.2999552653928
 21
-94.5
 31
0.0
  0
LINE
  5
12EDE
330
12D9F
100
AcDbEntity
  8
11機器
100
AcDbLine
 10
31.70004473469453
 20
-94.5
 30
0.0
 11
30.19999999999709
 21
-94.5
 31
0.0
  0
LINE
  5
12EDF
330
12D9F
100
AcDbEntity
  8
11機器
100
AcDbLine
 10
30.19999999999709
 20
-94.5
 30
0.0
 11
26.19999999999709
 21
-94.5
 31
0.0
  0
LINE
  5
12EE0
330
12D9F
100
AcDbEntity
  8
11機器
100
AcDbLine
 10
775.7999999999956
 20
-94.5
 30
0.0
 11
779.7999999999956
 21
-94.5
 31
0.0
  0
LINE
  5
12EE1
330
12D9F
100
AcDbEntity
  8
11機器
100
AcDbLine
 10
779.7999999999956
 20
-95.20000000000073
 30
0.0
 11
774.7999552653928
 21
-95.20000000000073
 31
0.0
  0
LINE
  5
12EE2
330
12D9F
100
AcDbEntity
  8
11機器
100
AcDbLine
 10
26.19999999999709
 20
-95.20000000000073
 30
0.0
 11
31.20004473469453
 21
-95.20000000000073
 31
0.0
  0
LINE
  5
12EE3
330
12D9F
100
AcDbEntity
  8
11機器
100
AcDbLine
 10
26.19999999999709
 20
-96.79999999999927
 30
0.0
 11
779.7999999999956
 21
-96.79999999999927
 31
0.0
  0
LINE
  5
12EE4
330
12D9F
100
AcDbEntity
  8
11機器
100
AcDbLine
 10
779.7999999999956
 20
-98.39999999999964
 30
0.0
 11
26.19999999999709
 21
-98.39999999999964
 31
0.0
  0
LINE
  5
12EE5
330
12D9F
100
AcDbEntity
  8
11機器
100
AcDbLine
 10
396.9999999999927
 20
-99.39999999999964
 30
0.0
 11
408.9999999999927
 21
-99.39999999999964
 31
0.0
  0
LINE
  5
12EE6
330
12D9F
100
AcDbEntity
  8
11機器
100
AcDbLine
 10
48.51851652580081
 20
-100.0
 30
0.0
 11
93.31851652579644
 21
-100.0
 31
0.0
  0
LINE
  5
12EE7
330
12D9F
100
AcDbEntity
  8
11機器
100
AcDbLine
 10
712.6814834741963
 20
-100.0
 30
0.0
 11
757.4814834741992
 21
-100.0
 31
0.0
  0
LINE
  5
12EE8
330
12D9F
100
AcDbEntity
  8
11機器
100
AcDbLine
 10
736.200000000099
 20
-100.0900000000001
 30
0.0
 11
737.0000000000946
 21
-100.0900000000001
 31
0.0
  0
LINE
  5
12EE9
330
12D9F
100
AcDbEntity
  8
11機器
100
AcDbLine
 10
736.2000000004991
 20
-100.2999999999993
 30
0.0
 11
734.2000000004991
 21
-100.2999999999993
 31
0.0
  0
LINE
  5
12EEA
330
12D9F
100
AcDbEntity
  8
11機器
100
AcDbLine
 10
69.79999999979918
 20
-100.2999999999993
 30
0.0
 11
71.79999999979918
 21
-100.2999999999993
 31
0.0
  0
LINE
  5
12EEB
330
12D9F
100
AcDbEntity
  8
11機器
100
AcDbLine
 10
731.4999999999927
 20
-100.3999999999996
 30
0.0
 11
730.6999999999971
 21
-100.3999999999996
 31
0.0
  0
LINE
  5
12EEC
330
12D9F
100
AcDbEntity
  8
11機器
100
AcDbLine
 10
69.79999999999563
 20
-100.3999999999996
 30
0.0
 11
68.99999999999272
 21
-100.3999999999996
 31
0.0
  0
LINE
  5
12EED
330
12D9F
100
AcDbEntity
  8
11機器
100
AcDbLine
 10
23.16436903619615
 20
-100.3999999999996
 30
0.0
 11
23.0
 21
-100.3999999999996
 31
0.0
  0
LINE
  5
12EEE
330
12D9F
100
AcDbEntity
  8
11機器
100
AcDbLine
 10
23.22354286469636
 20
-100.3999999999996
 30
0.0
 11
23.94823619090312
 21
-100.3999999999996
 31
0.0
  0
LINE
  5
12EEF
330
12D9F
100
AcDbEntity
  8
11機器
100
AcDbLine
 10
74.49999999999272
 20
-100.3999999999996
 30
0.0
 11
75.29999999999563
 21
-100.3999999999996
 31
0.0
  0
LINE
  5
12EF0
330
12D9F
100
AcDbEntity
  8
11機器
100
AcDbLine
 10
782.0517638090969
 20
-100.3999999999996
 30
0.0
 11
782.7764571353982
 21
-100.3999999999996
 31
0.0
  0
LINE
  5
12EF1
330
12D9F
100
AcDbEntity
  8
11機器
100
AcDbLine
 10
782.7764571353982
 20
-100.3999999999996
 30
0.0
 11
783.0000000000946
 21
-100.3999999999996
 31
0.0
  0
LINE
  5
12EF2
330
12D9F
100
AcDbEntity
  8
11機器
100
AcDbLine
 10
75.29999999999563
 20
-100.6000000000004
 30
0.0
 11
75.49999999999272
 21
-100.6000000000004
 31
0.0
  0
LINE
  5
12EF3
330
12D9F
100
AcDbEntity
  8
11機器
100
AcDbLine
 10
730.4999999999927
 20
-100.5999999999003
 30
0.0
 11
730.6999999999971
 21
-100.5999999999003
 31
0.0
  0
LINE
  5
12EF4
330
12D9F
100
AcDbEntity
  8
11機器
100
AcDbLine
 10
782.0000000000946
 20
-101.1764571352996
 30
0.0
 11
737.0000000000946
 21
-101.1764571352996
 31
0.0
  0
LINE
  5
12EF5
330
12D9F
100
AcDbEntity
  8
11機器
100
AcDbLine
 10
68.99999999999272
 20
-101.1764571352996
 30
0.0
 11
24.0
 21
-101.1764571352996
 31
0.0
  0
LINE
  5
12EF6
330
12D9F
100
AcDbEntity
  8
11機器
100
AcDbLine
 10
782.0000000000946
 20
-101.3999999999996
 30
0.0
 11
737.0000000000946
 21
-101.3999999999996
 31
0.0
  0
LINE
  5
12EF7
330
12D9F
100
AcDbEntity
  8
11機器
100
AcDbLine
 10
70.49999999999272
 20
-101.3999999999996
 30
0.0
 11
96.49999999999272
 21
-101.3999999999996
 31
0.0
  0
LINE
  5
12EF8
330
12D9F
100
AcDbEntity
  8
11機器
100
AcDbLine
 10
709.4999999999927
 20
-101.3999999999996
 30
0.0
 11
735.4999999999927
 21
-101.3999999999996
 31
0.0
  0
LINE
  5
12EF9
330
12D9F
100
AcDbEntity
  8
11機器
100
AcDbLine
 10
68.99999999999272
 20
-102.0
 30
0.0
 11
24.0
 21
-102.0
 31
0.0
  0
LINE
  5
12EFA
330
12D9F
100
AcDbEntity
  8
11機器
100
AcDbLine
 10
709.4999999999927
 20
-101.9529142705996
 30
0.0
 11
406.9999999999927
 21
-101.9529142705996
 31
0.0
  0
LINE
  5
12EFB
330
12D9F
100
AcDbEntity
  8
11機器
100
AcDbLine
 10
398.9999999999927
 20
-101.9529142705996
 30
0.0
 11
96.49999999999272
 21
-101.9529142705996
 31
0.0
  0
LINE
  5
12EFC
330
12D9F
100
AcDbEntity
  8
11機器
100
AcDbLine
 10
398.9999999999927
 20
-103.3999999999996
 30
0.0
 11
406.9999999999927
 21
-103.3999999999996
 31
0.0
  0
LINE
  5
12EFD
330
12D9F
100
AcDbEntity
  8
11機器
100
AcDbLine
 10
150.5005751416975
 20
-104.2000000000007
 30
0.0
 11
163.4994248582952
 21
-104.2000000000007
 31
0.0
  0
LINE
  5
12EFE
330
12D9F
100
AcDbEntity
  8
11機器
100
AcDbLine
 10
642.5005751416975
 20
-104.2000000000007
 30
0.0
 11
655.4994248582952
 21
-104.2000000000007
 31
0.0
  0
LINE
  5
12EFF
330
12D9F
100
AcDbEntity
  8
11機器
100
AcDbLine
 10
641.4999999999927
 20
-105.2000004189995
 30
0.0
 11
656.4999999999927
 21
-105.2000004189995
 31
0.0
  0
LINE
  5
12F00
330
12D9F
100
AcDbEntity
  8
11機器
100
AcDbLine
 10
149.4999999999927
 20
-105.2000004189995
 30
0.0
 11
164.4999999999927
 21
-105.2000004189995
 31
0.0
  0
LINE
  5
12F01
330
12D9F
100
AcDbEntity
  8
11機器
100
AcDbLine
 10
656.4999999999927
 20
-110.2000000000007
 30
0.0
 11
656.4458041875987
 21
-110.2000000000007
 31
0.0
  0
LINE
  5
12F02
330
12D9F
100
AcDbEntity
  8
11機器
100
AcDbLine
 10
641.554195812394
 20
-110.2000000000007
 30
0.0
 11
641.4999999999927
 21
-110.2000000000007
 31
0.0
  0
LINE
  5
12F03
330
12D9F
100
AcDbEntity
  8
11機器
100
AcDbLine
 10
164.4999999999927
 20
-110.2000000000007
 30
0.0
 11
164.4458041875987
 21
-110.2000000000007
 31
0.0
  0
LINE
  5
12F04
330
12D9F
100
AcDbEntity
  8
11機器
100
AcDbLine
 10
149.554195812394
 20
-110.2000000000007
 30
0.0
 11
149.4999999999927
 21
-110.2000000000007
 31
0.0
  0
LINE
  5
12F05
330
12D9F
100
AcDbEntity
  8
11機器
100
AcDbLine
 10
641.554195812394
 20
-111.1996318436995
 30
0.0
 11
648.9999999999927
 21
-111.2000000000007
 31
0.0
  0
LINE
  5
12F06
330
12D9F
100
AcDbEntity
  8
11機器
100
AcDbLine
 10
149.554195812394
 20
-111.1996318436995
 30
0.0
 11
156.9999999999927
 21
-111.2000000000007
 31
0.0
  0
LINE
  5
12F07
330
12D9F
100
AcDbEntity
  8
11機器
100
AcDbLine
 10
150.5629313805985
 20
-112.2000000000007
 30
0.0
 11
163.4370686193943
 21
-112.2000000000007
 31
0.0
  0
LINE
  5
12F08
330
12D9F
100
AcDbEntity
  8
11機器
100
AcDbLine
 10
642.5629313805985
 20
-112.2000000000007
 30
0.0
 11
655.4370686193943
 21
-112.2000000000007
 31
0.0
  0
LINE
  5
12F09
330
12D9F
100
AcDbEntity
  8
11機器
100
AcDbLine
 10
156.9999999999927
 20
-111.2000000000007
 30
0.0
 11
164.4458041875987
 21
-111.1996318436995
 31
0.0
  0
LINE
  5
12F0A
330
12D9F
100
AcDbEntity
  8
11機器
100
AcDbLine
 10
648.9999999999927
 20
-111.2000000000007
 30
0.0
 11
656.4458041875987
 21
-111.1996318436995
 31
0.0
  0
LINE
  5
12F0B
330
12D9F
100
AcDbEntity
  8
11機器
100
AcDbLine
 10
50.8024341861892
 20
-73.2296307932993
 30
0.0
 11
51.5729072552931
 21
-73.22681212799944
 31
0.0
  0
ARC
  5
12F0C
330
12D9F
100
AcDbEntity
  8
11機器
100
AcDbCircle
 10
-678.774408904399
 20
352.4636130099007
 30
0.0
 40
730.8905659519
100
AcDbArc
 50
0.578041846837008
 51
1.124335348172098
  0
ARC
  5
12F0D
330
12D9F
100
AcDbEntity
  8
11機器
100
AcDbCircle
 10
-2002.472994147611
 20
149.4416098434995
 30
0.0
 40
2055.6570206305
100
AcDbArc
 50
0.3205442622600136
 51
0.4801299923021116
  0
ARC
  5
12F0E
330
12D9F
100
AcDbEntity
  8
11機器
100
AcDbCircle
 10
-1882.138175849497
 20
135.7175712973003
 30
0.0
 40
1935.3193887789
100
AcDbArc
 50
359.5149085269775
 51
359.6844168208255
  0
ARC
  5
12F0F
330
12D9F
100
AcDbEntity
  8
11機器
100
AcDbCircle
 10
-608.2925110080105
 20
-67.51077219440049
 30
0.0
 40
660.4017761059
100
AcDbArc
 50
358.8465097425558
 51
359.4511130626766
  0
ARC
  5
12F10
330
12D9F
100
AcDbEntity
  8
11機器
100
AcDbCircle
 10
-163.8093061398977
 20
367.2081274164993
 30
0.0
 40
918.3178330597
100
AcDbArc
 50
359.5502629046533
 51
359.9748615492347
  0
ARC
  5
12F11
330
12D9F
100
AcDbEntity
  8
11機器
100
AcDbCircle
 10
41.65418793608842
 20
288.5754494018001
 30
0.0
 40
71.2064069362
100
AcDbArc
 50
81.97129327649183
 51
82.09415079802429
  0
ARC
  5
12F12
330
12D9F
100
AcDbEntity
  8
11機器
100
AcDbCircle
 10
47.51447771099629
 20
330.0735628269995
 30
0.0
 40
29.296540748
100
AcDbArc
 50
81.72443941967339
 51
81.92748417901463
  0
ARC
  5
12F13
330
12D9F
100
AcDbEntity
  8
11機器
100
AcDbCircle
 10
24.49688219549716
 20
354.9423733713993
 30
0.0
 40
27.6279629619
100
AcDbArc
 50
8.55511313836727
 51
8.866194054218205
  0
ARC
  5
12F14
330
12D9F
100
AcDbEntity
  8
11機器
100
AcDbCircle
 10
24.49689451570157
 20
354.9423752884995
 30
0.0
 40
27.6279504937
100
AcDbArc
 50
8.555113007449426
 51
8.866194064977734
  0
ARC
  5
12F15
330
12D9F
100
AcDbEntity
  8
11機器
100
AcDbCircle
 10
48.82458957219205
 20
339.0634480826993
 30
0.0
 40
20.2116907921
100
AcDbArc
 50
81.48461528006779
 51
81.63410751338853
  0
ARC
  5
12F16
330
12D9F
100
AcDbEntity
  8
11機器
100
AcDbCircle
 10
32.9609065666009
 20
356.2573944001997
 30
0.0
 40
19.0623953096
100
AcDbArc
 50
8.881915598437496
 51
9.001179271797982
  0
ARC
  5
12F17
330
12D9F
100
AcDbEntity
  8
11機器
100
AcDbCircle
 10
32.96093364398985
 20
356.2573985832005
 30
0.0
 40
19.0623679112
100
AcDbArc
 50
8.881915743535023
 51
9.001179586864332
  0
CIRCLE
  5
12F18
330
12D9F
100
AcDbEntity
  8
11機器
100
AcDbCircle
 10
-0.1999999999970896
 20
300.0
 30
0.0
 40
6.0
  0
ARC
  5
12F19
330
12D9F
100
AcDbEntity
  8
11機器
100
AcDbCircle
 10
28.69999999999709
 20
380.2999999999993
 30
0.0
 40
2.5
100
AcDbArc
 50
90.0
 51
180.0
  0
ARC
  5
12F1A
330
12D9F
100
AcDbEntity
  8
11機器
100
AcDbCircle
 10
24.0
 20
381.7999999999993
 30
0.0
 40
1.0
100
AcDbArc
 50
90.0
 51
180.0
  0
ARC
  5
12F1B
330
12D9F
100
AcDbEntity
  8
11機器
100
AcDbCircle
 10
28.69999999999709
 20
380.2999999999993
 30
0.0
 40
0.2
100
AcDbArc
 50
90.0
 51
180.0
  0
ARC
  5
12F1C
330
12D9F
100
AcDbEntity
  8
11機器
100
AcDbCircle
 10
24.0
 20
381.7999999999993
 30
0.0
 40
0.2
100
AcDbArc
 50
90.0
 51
180.0
  0
ARC
  5
12F1D
330
12D9F
100
AcDbEntity
  8
11機器
100
AcDbCircle
 10
51.56610862658999
 20
359.0549687570001
 30
0.0
 40
0.145915796
100
AcDbArc
 50
68.61393918164943
 51
71.92869613685896
  0
ARC
  5
12F1E
330
12D9F
100
AcDbEntity
  8
11機器
100
AcDbCircle
 10
51.74026883760234
 20
359.2510527413997
 30
0.0
 40
0.142873751
100
AcDbArc
 50
204.2415506499423
 51
207.7262966160172
  0
ARC
  5
12F1F
330
12D9F
100
AcDbEntity
  8
11機器
100
AcDbCircle
 10
51.56991379910323
 20
359.0667979942009
 30
0.0
 40
0.1334897251
100
AcDbArc
 50
71.9063918432371
 51
77.41277870223938
  0
ARC
  5
12F20
330
12D9F
100
AcDbEntity
  8
11機器
100
AcDbCircle
 10
51.72670424300304
 20
359.2449387134002
 30
0.0
 40
0.1279949226
100
AcDbArc
 50
200.5544556348557
 51
204.2390894681241
  0
ARC
  5
12F21
330
12D9F
100
AcDbEntity
  8
11機器
100
AcDbCircle
 10
51.71437536038866
 20
359.2403500908003
 30
0.0
 40
0.1148398609
100
AcDbArc
 50
195.1056607342248
 51
200.5704876277632
  0
ARC
  5
12F22
330
12D9F
100
AcDbEntity
  8
11機器
100
AcDbCircle
 10
62.66484685179603
 20
159.7516729044
 30
0.0
 40
9.880489613399998
100
AcDbArc
 50
179.6811973772108
 51
180.1621750646839
  0
ARC
  5
12F23
330
12D9F
100
AcDbEntity
  8
11機器
100
AcDbCircle
 10
59.41046842309879
 20
159.6468061402993
 30
0.0
 40
6.6265178302
100
AcDbArc
 50
179.3350723402892
 51
179.8989948869998
  0
ARC
  5
12F24
330
12D9F
100
AcDbEntity
  8
11機器
100
AcDbCircle
 10
51.79933354740206
 20
161.331304405001
 30
0.0
 40
1.202303301299999
100
AcDbArc
 50
258.235374066273
 51
270.862661762656
  0
CIRCLE
  5
12F25
330
12D9F
100
AcDbEntity
  8
11機器
100
AcDbCircle
 10
806.1999999999898
 20
300.0
 30
0.0
 40
6.0
  0
ARC
  5
12F26
330
12D9F
100
AcDbEntity
  8
11機器
100
AcDbCircle
 10
777.2999999999956
 20
380.2999999999993
 30
0.0
 40
2.5
100
AcDbArc
 50
0.0
 51
90.0
  0
ARC
  5
12F27
330
12D9F
100
AcDbEntity
  8
11機器
100
AcDbCircle
 10
782.0000000000946
 20
381.7999999999993
 30
0.0
 40
1.0
100
AcDbArc
 50
0.0
 51
90.0
  0
ARC
  5
12F28
330
12D9F
100
AcDbEntity
  8
11機器
100
AcDbCircle
 10
782.0000000000946
 20
381.7999999999993
 30
0.0
 40
0.2
100
AcDbArc
 50
0.0
 51
90.0
  0
ARC
  5
12F29
330
12D9F
100
AcDbEntity
  8
11機器
100
AcDbCircle
 10
777.2999999999956
 20
380.2999999999993
 30
0.0
 40
0.2
100
AcDbArc
 50
0.0
 51
90.0
  0
ARC
  5
12F2A
330
12D9F
100
AcDbEntity
  8
11機器
100
AcDbCircle
 10
63.29259830548835
 20
126.2491851190007
 30
0.0
 40
10.508236454
100
AcDbArc
 50
179.8521914378967
 51
180.3044358527309
  0
ARC
  5
12F2B
330
12D9F
100
AcDbEntity
  8
11機器
100
AcDbCircle
 10
51.79997842440207
 20
124.6619376962008
 30
0.0
 40
1.209050955699999
100
AcDbArc
 50
89.17271648610206
 51
101.7292476855098
  0
ARC
  5
12F2C
330
12D9F
100
AcDbEntity
  8
11機器
100
AcDbCircle
 10
-163.8093062361004
 20
-81.20812741689952
 30
0.0
 40
918.3178331559
100
AcDbArc
 50
0.0251384507652334
 51
0.449737095346697
  0
ARC
  5
12F2D
330
12D9F
100
AcDbEntity
  8
11機器
100
AcDbCircle
 10
47.51447771210223
 20
-44.07356283459922
 30
0.0
 40
29.2965407403
100
AcDbArc
 50
278.072515820987
 51
278.2755605803239
  0
ARC
  5
12F2E
330
12D9F
100
AcDbEntity
  8
11機器
100
AcDbCircle
 10
24.49688219689415
 20
-68.94237337149934
 30
0.0
 40
27.6279629605
100
AcDbArc
 50
351.1338059457813
 51
351.4448868616328
  0
ARC
  5
12F2F
330
12D9F
100
AcDbEntity
  8
11機器
100
AcDbCircle
 10
24.49689450739243
 20
-68.94237528719896
 30
0.0
 40
27.6279505021
100
AcDbArc
 50
351.1338059352923
 51
351.4448869925486
  0
ARC
  5
12F30
330
12D9F
100
AcDbEntity
  8
11機器
100
AcDbCircle
 10
48.8245895736909
 20
-53.06344809229995
 30
0.0
 40
20.2116907823
100
AcDbArc
 50
278.3658924866107
 51
278.5153847199364
  0
ARC
  5
12F31
330
12D9F
100
AcDbEntity
  8
11機器
100
AcDbCircle
 10
32.96090656908927
 20
-70.25739440049983
 30
0.0
 40
19.062395307
100
AcDbArc
 50
350.9988207282041
 51
351.1180844015641
  0
ARC
  5
12F32
330
12D9F
100
AcDbEntity
  8
11機器
100
AcDbCircle
 10
32.96093370259041
 20
-70.25739859230089
 30
0.0
 40
19.0623678518
100
AcDbArc
 50
350.9988204127255
 51
351.1180842564651
  0
CIRCLE
  5
12F33
330
12D9F
100
AcDbEntity
  8
11機器
100
AcDbCircle
 10
0.0
 20
0.0
 30
0.0
 40
6.0
  0
ARC
  5
12F34
330
12D9F
100
AcDbEntity
  8
11機器
100
AcDbCircle
 10
26.19999999999709
 20
-95.0
 30
0.0
 40
1.8
100
AcDbArc
 50
180.0
 51
270.0
  0
ARC
  5
12F35
330
12D9F
100
AcDbEntity
  8
11機器
100
AcDbCircle
 10
68.99999999999272
 20
-100.2000000000007
 30
0.0
 40
1.199999999999999
100
AcDbArc
 50
270.0
 51
355.1915121867298
  0
ARC
  5
12F36
330
12D9F
100
AcDbEntity
  8
11機器
100
AcDbCircle
 10
24.0
 20
-101.0
 30
0.0
 40
1.0
100
AcDbArc
 50
180.0
 51
270.0
  0
ARC
  5
12F37
330
12D9F
100
AcDbEntity
  8
11機器
100
AcDbCircle
 10
68.79999999999563
 20
-100.3999999999996
 30
0.0
 40
1.0
100
AcDbArc
 50
281.5665489458996
 51
0.0
  0
ARC
  5
12F38
330
12D9F
100
AcDbEntity
  8
11機器
100
AcDbCircle
 10
75.49999999999272
 20
-100.3999999999996
 30
0.0
 40
1.0
100
AcDbArc
 50
180.0
 51
270.0
  0
ARC
  5
12F39
330
12D9F
100
AcDbEntity
  8
11機器
100
AcDbCircle
 10
26.19999999999709
 20
-95.0
 30
0.0
 40
0.2
100
AcDbArc
 50
180.0
 51
270.0
  0
ARC
  5
12F3A
330
12D9F
100
AcDbEntity
  8
11機器
100
AcDbCircle
 10
75.49999999999272
 20
-100.3999999999996
 30
0.0
 40
0.2
100
AcDbArc
 50
180.0
 51
270.0
  0
ARC
  5
12F3B
330
12D9F
100
AcDbEntity
  8
11機器
100
AcDbCircle
 10
24.0
 20
-100.3999999999996
 30
0.0
 40
0.2
100
AcDbArc
 50
180.0
 51
270.0
  0
ARC
  5
12F3C
330
12D9F
100
AcDbEntity
  8
11機器
100
AcDbCircle
 10
51.56610862658999
 20
-73.0549687570001
 30
0.0
 40
0.145915796
100
AcDbArc
 50
288.0713038631411
 51
291.3860608190807
  0
ARC
  5
12F3D
330
12D9F
100
AcDbEntity
  8
11機器
100
AcDbCircle
 10
51.74026883760234
 20
-73.25105274129965
 30
0.0
 40
0.142873751
100
AcDbArc
 50
152.2737033839828
 51
155.7584493504652
  0
ARC
  5
12F3E
330
12D9F
100
AcDbEntity
  8
11機器
100
AcDbCircle
 10
51.5697729017993
 20
-73.0663207064008
 30
0.0
 40
0.1339871704
100
AcDbArc
 50
283.0490271441491
 51
288.08749254193
  0
ARC
  5
12F3F
330
12D9F
100
AcDbEntity
  8
11機器
100
AcDbCircle
 10
51.72670424290118
 20
-73.24493871330014
 30
0.0
 40
0.1279949226
100
AcDbArc
 50
155.7609105318758
 51
159.4455443660497
  0
CIRCLE
  5
12F40
330
12D9F
100
AcDbEntity
  8
11機器
100
AcDbCircle
 10
805.9999999999927
 20
0.0
 30
0.0
 40
6.0
  0
ARC
  5
12F41
330
12D9F
100
AcDbEntity
  8
11機器
100
AcDbCircle
 10
779.7999999999956
 20
-95.0
 30
0.0
 40
1.8
100
AcDbArc
 50
270.0
 51
0.0
  0
ARC
  5
12F42
330
12D9F
100
AcDbEntity
  8
11機器
100
AcDbCircle
 10
736.9999999999927
 20
-100.2000000000007
 30
0.0
 40
1.199999999999999
100
AcDbArc
 50
184.8084878126598
 51
270.0
  0
ARC
  5
12F43
330
12D9F
100
AcDbEntity
  8
11機器
100
AcDbCircle
 10
730.4999999999927
 20
-100.3999999999996
 30
0.0
 40
1.0
100
AcDbArc
 50
270.0
 51
0.0
  0
ARC
  5
12F44
330
12D9F
100
AcDbEntity
  8
11機器
100
AcDbCircle
 10
782.0000000000946
 20
-100.3999999999996
 30
0.0
 40
1.0
100
AcDbArc
 50
270.0
 51
0.0
  0
ARC
  5
12F45
330
12D9F
100
AcDbEntity
  8
11機器
100
AcDbCircle
 10
737.200000000099
 20
-100.3999999999996
 30
0.0
 40
1.0
100
AcDbArc
 50
180.0
 51
258.4334510541004
  0
ARC
  5
12F46
330
12D9F
100
AcDbEntity
  8
11機器
100
AcDbCircle
 10
779.7999999999956
 20
-95.0
 30
0.0
 40
0.2
100
AcDbArc
 50
270.0
 51
0.0
  0
ARC
  5
12F47
330
12D9F
100
AcDbEntity
  8
11機器
100
AcDbCircle
 10
730.4999999999927
 20
-100.3999999999996
 30
0.0
 40
0.2
100
AcDbArc
 50
270.0
 51
0.0
  0
ARC
  5
12F48
330
12D9F
100
AcDbEntity
  8
11機器
100
AcDbCircle
 10
782.0000000000946
 20
-100.3999999999996
 30
0.0
 40
0.2
100
AcDbArc
 50
270.0
 51
0.0
  0
LINE
  5
12F49
330
12D9F
100
AcDbEntity
  8
11機器
100
AcDbLine
 10
642.5629313805985
 20
-112.2000000000007
 30
0.0
 11
642.2302654044979
 21
-111.8703671093008
 31
0.0
  0
LINE
  5
12F4A
330
12D9F
100
AcDbEntity
  8
11機器
100
AcDbLine
 10
642.2302654044979
 20
-111.8703671093008
 30
0.0
 11
642.0579693904947
 21
-111.6995286165002
 31
0.0
  0
LINE
  5
12F4B
330
12D9F
100
AcDbEntity
  8
11機器
100
AcDbLine
 10
642.0579693904947
 20
-111.6995286165002
 30
0.0
 11
641.8940673822945
 21
-111.5369479067995
 31
0.0
  0
LINE
  5
12F4C
330
12D9F
100
AcDbEntity
  8
11機器
100
AcDbLine
 10
641.8940673822945
 20
-111.5369479067995
 30
0.0
 11
641.554195812394
 21
-111.1996318436995
 31
0.0
  0
LINE
  5
12F4D
330
12D9F
100
AcDbEntity
  8
11機器
100
AcDbLine
 10
656.4458041875987
 20
-111.1996318436995
 30
0.0
 11
656.1059326177929
 21
-111.5369479066994
 31
0.0
  0
LINE
  5
12F4E
330
12D9F
100
AcDbEntity
  8
11機器
100
AcDbLine
 10
656.1059326177929
 20
-111.5369479066994
 30
0.0
 11
655.9420304420928
 21
-111.6995287825994
 31
0.0
  0
LINE
  5
12F4F
330
12D9F
100
AcDbEntity
  8
11機器
100
AcDbLine
 10
655.9420304420928
 20
-111.6995287825994
 30
0.0
 11
655.7697345954948
 21
-111.8703671093008
 31
0.0
  0
LINE
  5
12F50
330
12D9F
100
AcDbEntity
  8
11機器
100
AcDbLine
 10
655.7697345954948
 20
-111.8703671093008
 30
0.0
 11
655.4370686193943
 21
-112.2000000000007
 31
0.0
  0
LINE
  5
12F51
330
12D9F
100
AcDbEntity
  8
11機器
100
AcDbLine
 10
150.5629313805985
 20
-112.2000000000007
 30
0.0
 11
150.2302654044979
 21
-111.8703671093008
 31
0.0
  0
LINE
  5
12F52
330
12D9F
100
AcDbEntity
  8
11機器
100
AcDbLine
 10
150.2302654044979
 20
-111.8703671093008
 30
0.0
 11
150.0579693904947
 21
-111.6995286165002
 31
0.0
  0
LINE
  5
12F53
330
12D9F
100
AcDbEntity
  8
11機器
100
AcDbLine
 10
150.0579693904947
 20
-111.6995286165002
 30
0.0
 11
149.8940673822945
 21
-111.5369479067995
 31
0.0
  0
LINE
  5
12F54
330
12D9F
100
AcDbEntity
  8
11機器
100
AcDbLine
 10
149.8940673822945
 20
-111.5369479067995
 30
0.0
 11
149.554195812394
 21
-111.1996318436995
 31
0.0
  0
LINE
  5
12F55
330
12D9F
100
AcDbEntity
  8
11機器
100
AcDbLine
 10
164.4458041875987
 20
-111.1996318436995
 30
0.0
 11
164.1059326177929
 21
-111.5369479066994
 31
0.0
  0
LINE
  5
12F56
330
12D9F
100
AcDbEntity
  8
11機器
100
AcDbLine
 10
164.1059326177929
 20
-111.5369479066994
 30
0.0
 11
163.9420304420928
 21
-111.6995287825994
 31
0.0
  0
LINE
  5
12F57
330
12D9F
100
AcDbEntity
  8
11機器
100
AcDbLine
 10
163.9420304420928
 20
-111.6995287825994
 30
0.0
 11
163.7697345954948
 21
-111.8703671093008
 31
0.0
  0
LINE
  5
12F58
330
12D9F
100
AcDbEntity
  8
11機器
100
AcDbLine
 10
163.7697345954948
 20
-111.8703671093008
 30
0.0
 11
163.4370686193943
 21
-112.2000000000007
 31
0.0
  0
LWPOLYLINE
  5
12F59
330
12D9F
100
AcDbEntity
  8
11機器
100
AcDbPolyline
 90
       10
 70
     0
 43
0.0
 10
51.5728091669007
 20
-74.0
 10
51.58342133229598
 20
-73.99788615015405
 10
51.59320648875655
 20
-73.99239193583617
 10
51.60191456324901
 20
-73.9847883598768
 10
51.609329991501
 20
-73.97628436216564
 10
51.61563219397794
 20
-73.9673785149198
 10
51.62125214462503
 20
-73.95811634941401
 10
51.6265102200141
 20
-73.94854781979848
 10
51.6314505418668
 20
-73.93875117117022
 10
51.63607646907622
 20
-73.92880882310055
  0
LWPOLYLINE
  5
12F5A
330
12D9F
100
AcDbEntity
  8
11機器
100
AcDbPolyline
 90
       11
 70
     0
 43
0.0
 10
51.63607646907622
 20
-73.92880882310055
 10
51.66111448575975
 20
-73.86271761624175
 10
51.68095419413476
 20
-73.79475431677383
 10
51.69821719263928
 20
-73.72618882675943
 10
51.71369097594834
 20
-73.657236382257
 10
51.72792524295619
 20
-73.58800433021588
 10
51.74120841116564
 20
-73.51856699415293
 10
51.75376242550192
 20
-73.44899026280109
 10
51.76577312341942
 20
-73.37932569400346
 10
51.77734019996205
 20
-73.30959065607385
 10
51.78855077728804
 20
-73.2397975271997
  0
LWPOLYLINE
  5
12F5B
330
12D9F
100
AcDbEntity
  8
11機器
100
AcDbPolyline
 90
       15
 70
     0
 43
0.0
 10
51.78855077728804
 20
359.2397975272997
 10
51.77945699765769
 20
359.2966275928238
 10
51.7701454756625
 20
359.3534241770094
 10
51.76055409732362
 20
359.4101739522957
 10
51.75062074865491
 20
359.4668635911248
 10
51.74028331567752
 20
359.5234797659377
 10
51.72947551399193
 20
359.5800080774152
 10
51.71807957415876
 20
359.6364208950308
 10
51.70594172790879
 20
359.6926812068332
 10
51.69282296693746
 20
359.7487216221061
 10
51.67834674548794
 20
359.8044254525948
 10
51.6619482308397
 20
359.8595959772774
 10
51.64258241066273
 20
359.9138120714888
 10
51.6168707029592
 20
359.9653041950469
 10
51.5728091669007
 20
360.0
  0
LWPOLYLINE
  5
12F5C
330
12D9F
100
AcDbEntity
  8
11機器
100
AcDbPolyline
 90
        9
 70
     0
 43
0.0
 10
51.82504016980238
 20
-80.80752066589957
 10
51.85599711389841
 20
-79.90381038441046
 10
51.8827349767671
 20
-78.99995899168152
 10
51.90608100731151
 20
-78.09600587810564
 10
51.92685832256575
 20
-77.19199021382701
 10
51.94564156659908
 20
-76.28793792416764
 10
51.96261992752079
 20
-75.38385438776459
 10
51.97794939816777
 20
-74.4797432137866
 10
51.99178597137507
 20
-73.57560801140062
  0
LWPOLYLINE
  5
12F5D
330
12D9F
100
AcDbEntity
  8
11機器
100
AcDbPolyline
 90
        9
 70
     0
 43
0.0
 10
51.99178597137507
 20
359.5756080114006
 10
51.97794939816777
 20
360.4797432138339
 10
51.96261992752079
 20
361.3838543878264
 10
51.94564156659908
 20
362.2879379242249
 10
51.92685832256575
 20
363.1919902138779
 10
51.90608100731151
 20
364.096005878162
 10
51.8827349767671
 20
364.9999589917552
 10
51.85599711389841
 20
365.9038103845023
 10
51.82504016980238
 20
366.8075206659996
  0
LINE
  5
12F5E
330
12D9F
100
AcDbEntity
  8
11機器
100
AcDbLine
 10
53.0319621279923
 20
125.1553912007003
 30
0.0
 11
53.03287359219394
 21
125.3289413007005
 31
0.0
  0
LINE
  5
12F5F
330
12D9F
100
AcDbEntity
  8
11機器
100
AcDbLine
 10
53.03287359219394
 20
125.3289413007005
 30
0.0
 11
53.03372270239925
 21
125.4928957759003
 31
0.0
  0
LINE
  5
12F60
330
12D9F
100
AcDbEntity
  8
11機器
100
AcDbLine
 10
53.03372270679392
 20
160.5071044222004
 30
0.0
 11
53.03287368139718
 21
160.6710425820002
 31
0.0
  0
LINE
  5
12F61
330
12D9F
100
AcDbEntity
  8
11機器
100
AcDbLine
 10
53.03287368139718
 20
160.6710425820002
 30
0.0
 11
53.03195979679003
 21
160.8450503795993
 31
0.0
  0
LWPOLYLINE
  5
12F62
330
12D9F
100
AcDbEntity
  8
11機器
100
AcDbPolyline
 90
        9
 70
     0
 43
0.0
 10
51.82504019209591
 20
-80.80752431990004
 10
51.85494832744735
 20
-79.93643279806383
 10
51.88090012043176
 20
-79.06520855012059
 10
51.9036578971627
 20
-78.1938880089856
 10
51.92398024368595
 20
-77.32250740696054
 10
51.94239976451718
 20
-76.45109085487456
 10
51.95909788268182
 20
-75.57964362645816
 10
51.97422570542221
 20
-74.70816936932806
 10
51.98793433998071
 20
-73.83667173110007
  0
LINE
  5
12F63
330
12D9F
100
AcDbEntity
  8
11機器
100
AcDbLine
 10
51.98793433999526
 20
-73.83667173110007
 30
0.0
 11
51.99178597138962
 21
-73.57560801140062
 31
0.0
  0
LINE
  5
12F64
330
12D9F
100
AcDbEntity
  8
11機器
100
AcDbLine
 10
51.99178597138962
 20
359.5756080114006
 30
0.0
 11
51.98793433999526
 21
359.8366717311001
 31
0.0
  0
LWPOLYLINE
  5
12F65
330
12D9F
100
AcDbEntity
  8
11機器
100
AcDbPolyline
 90
        9
 70
     0
 43
0.0
 10
51.98793433998071
 20
359.8366717311001
 10
51.97422570542039
 20
360.7081693693353
 10
51.95909788268182
 20
361.5796436264818
 10
51.94239976451718
 20
362.4510908549146
 10
51.92398024368595
 20
363.3225074070097
 10
51.9036578971627
 20
364.1938880090302
 10
51.88090012043176
 20
365.0652085501561
 10
51.85494832744735
 20
365.9364327981102
 10
51.82504019209591
 20
366.8075243200001
  0
LINE
  5
12F66
330
12D9F
100
AcDbEntity
  8
11機器
100
AcDbLine
 10
53.03196211750037
 20
125.1553810701007
 30
0.0
 11
53.03287347540027
 21
125.3289391087001
 31
0.0
  0
LWPOLYLINE
  5
12F67
330
12D9F
100
AcDbEntity
  8
11機器
100
AcDbPolyline
 90
       11
 70
     0
 43
0.0
 10
53.03287347538571
 20
125.3289391087001
 10
53.04883843231983
 20
128.8631264104306
 10
53.06041019282929
 20
132.3973321772601
 10
53.06835226220937
 20
135.9315479569614
 10
53.07304608285631
 20
139.4657687085473
 10
53.07459026292963
 20
142.9999919163083
 10
53.07304610549545
 20
146.5342151239647
 10
53.06835230491561
 20
150.0684358753642
 10
53.06041025065861
 20
153.6026516549791
 10
53.04883850197803
 20
157.1368574217204
 10
53.0328735626972
 20
160.6710447228998
  0
LINE
  5
12F68
330
12D9F
100
AcDbEntity
  8
11機器
100
AcDbLine
 10
53.0328735626972
 20
160.6710447228998
 30
0.0
 11
53.03195978509029
 21
160.8450604915997
 31
0.0
  0
LINE
  5
12F69
330
12D9F
100
AcDbEntity
  8
11機器
100
AcDbLine
 10
754.4802369196987
 20
359.9999637901001
 30
0.0
 11
754.4789614129986
 21
359.8372480165999
 31
0.0
  0
LINE
  5
12F6A
330
12D9F
100
AcDbEntity
  8
11機器
100
AcDbLine
 10
754.4802369196987
 20
-73.99996379000004
 30
0.0
 11
754.4789614129986
 21
-73.83724801649987
 31
0.0
  0
LWPOLYLINE
  5
12F6B
330
12D9F
100
AcDbEntity
  8
11機器
100
AcDbPolyline
 90
        8
 70
     0
 43
0.0
 10
754.4789614129913
 20
143.8372480165999
 10
754.4791489937088
 20
143.5980343588708
 10
754.4792740475204
 20
143.3588206398572
 10
754.4793365744263
 20
143.1196068840709
 10
754.4793365744263
 20
142.8803931160282
 10
754.4792740475204
 20
142.6411793602429
 10
754.4791489937088
 20
142.4019656412283
 10
754.4789614129913
 20
142.1627519835001
  0
LWPOLYLINE
  5
12F6C
330
12D9F
100
AcDbEntity
  8
11機器
100
AcDbPolyline
 90
       11
 70
     0
 43
0.0
 10
53.15185644918529
 20
125.0579526870006
 10
53.16956556429614
 20
128.646332887387
 10
53.18266838053751
 20
132.2347342267813
 10
53.19176638360659
 20
135.8231479814376
 10
53.19716999904449
 20
139.4115683984101
 10
53.19895569113942
 20
142.9999921127483
 10
53.1971700227441
 20
146.5884158270801
 10
53.19176642816092
 20
150.1768362440926
 10
53.18266844047503
 20
153.7652499989208
 10
53.16956563660824
 20
157.3536513385134
 10
53.15185654089146
 20
160.9420315387997
  0
LWPOLYLINE
  5
12F6D
330
12D9F
100
AcDbEntity
  8
11機器
100
AcDbPolyline
 90
        9
 70
     0
 43
0.0
 10
51.73098718917754
 20
359.0648510062001
 10
51.71952551417053
 20
359.0738100169729
 10
51.70816042347724
 20
359.0828984696936
 10
51.6969007678963
 20
359.09214412235
 10
51.68579233501805
 20
359.1015861337482
 10
51.6748959743727
 20
359.1112683116808
 10
51.66427257981377
 20
359.1212344776177
 10
51.65398304520204
 20
359.1315284530338
 10
51.64408826439467
 20
359.1421940594009
  0
LWPOLYLINE
  5
12F6E
330
12D9F
100
AcDbEntity
  8
11機器
100
AcDbPolyline
 90
        9
 70
     0
 43
0.0
 10
51.64408826439467
 20
359.1421940594009
 10
51.63980466086105
 20
359.1471083955494
 10
51.6356314579225
 20
359.1521201718788
 10
51.6315771387799
 20
359.1572395336398
 10
51.62765990764456
 20
359.1624713620877
 10
51.62390165900979
 20
359.1678185401634
 10
51.62032429445571
 20
359.1732839469705
 10
51.6169497155588
 20
359.1788704616147
 10
51.61379982389917
 20
359.1845809631996
  0
LWPOLYLINE
  5
12F6F
330
12D9F
100
AcDbEntity
  8
11機器
100
AcDbPolyline
 90
        8
 70
     0
 43
0.0
 10
51.5728091669007
 20
-73.20000000000073
 10
51.57672537757389
 20
-73.19993328141209
 10
51.58064207748976
 20
-73.19973471974845
 10
51.58455333072197
 20
-73.19940670616506
 10
51.58845320134424
 20
-73.19895163181354
 10
51.59233575343205
 20
-73.19837188785004
 10
51.59619505106093
 20
-73.197669865428
 10
51.60002515830274
 20
-73.19684795569992
  0
LWPOLYLINE
  5
12F70
330
12D9F
100
AcDbEntity
  8
11機器
100
AcDbPolyline
 90
        9
 70
     0
 43
0.0
 10
51.61931685979653
 20
-73.19083745620082
 10
51.62548945031813
 20
-73.18826756198268
 10
51.63155288267808
 20
-73.18544402681073
 10
51.63750582482862
 20
-73.18238785860922
 10
51.64334853290165
 20
-73.17911784387252
 10
51.6490815501129
 20
-73.17565236753308
 10
51.65470541968716
 20
-73.1720098145197
 10
51.66022068484017
 20
-73.16820856976574
 10
51.66562788879673
 20
-73.16426701820092
  0
LWPOLYLINE
  5
12F71
330
12D9F
100
AcDbEntity
  8
11機器
100
AcDbPolyline
 90
        9
 70
     0
 43
0.0
 10
51.66562788879673
 20
-73.16426701820092
 10
51.67857704144444
 20
-73.15398852903672
 10
51.69100446062293
 20
-73.14307618786734
 10
51.70298045574964
 20
-73.13167383887867
 10
51.71455578185487
 20
-73.11985657959212
 10
51.72577840167651
 20
-73.10768969074434
 10
51.73669627794879
 20
-73.09523845307194
 10
51.74735737340416
 20
-73.08256814731249
 10
51.75780965077865
 20
-73.06974405420078
  0
LINE
  5
12F72
330
12D9F
100
AcDbEntity
  8
11機器
100
AcDbLine
 10
52.78396087799047
 20
126.3415121153994
 30
0.0
 11
52.78396088839509
 21
159.6584877945006
 31
0.0
  0
LWPOLYLINE
  5
12F73
330
12D9F
100
AcDbEntity
  8
11機器
100
AcDbPolyline
 90
        9
 70
     0
 43
0.0
 10
51.75780965077865
 20
359.0697440543008
 10
51.74312573884708
 20
359.087657010894
 10
51.72801204052303
 20
359.1051984037549
 10
51.7122976135397
 20
359.122226660158
 10
51.69581151563762
 20
359.138600207375
 10
51.67838541452147
 20
359.1541601778636
 10
51.65989144440391
 20
359.1684795550154
 10
51.64023362989428
 20
359.1809200022071
 10
51.61931685979653
 20
359.1908374562991
  0
LINE
  5
12F74
330
12D9F
100
AcDbEntity
  8
11機器
100
AcDbLine
 10
52.78439681809687
 20
126.2762936707004
 30
0.0
 11
52.78396087659348
 21
126.3415121634007
 31
0.0
  0
LWPOLYLINE
  5
12F75
330
12D9F
100
AcDbEntity
  8
11機器
100
AcDbPolyline
 90
        8
 70
     0
 43
0.0
 10
51.60048683719651
 20
-73.22671123210057
 10
51.60096033997252
 20
-73.22281385616316
 10
51.60158991282879
 20
-73.21893248712968
 10
51.60236923540106
 20
-73.21507381857282
 10
51.60329198732143
 20
-73.21124454406072
 10
51.60435184821836
 20
-73.20745135716425
 10
51.60554249772758
 20
-73.20370095145427
 10
51.60685761547938
 20
-73.20000002050074
  0
LWPOLYLINE
  5
12F76
330
12D9F
100
AcDbEntity
  8
11機器
100
AcDbPolyline
 90
        9
 70
     0
 43
0.0
 10
51.61379982389917
 20
-73.1845809630995
 10
51.6169512189972
 20
-73.1788708932063
 10
51.62032545713009
 20
-73.17328734310104
 10
51.62389759334656
 20
-73.16782608222638
 10
51.62764880257419
 20
-73.16248256730614
 10
51.63156127955517
 20
-73.1572522029519
 10
51.63561721902624
 20
-73.15213039377522
 10
51.63979881572595
 20
-73.1471125443868
 10
51.64408826439467
 20
-73.14219405939912
  0
LWPOLYLINE
  5
12F77
330
12D9F
100
AcDbEntity
  8
11機器
100
AcDbPolyline
 90
        9
 70
     0
 43
0.0
 10
51.64408826439467
 20
-73.14219405939912
 10
51.64932446745297
 20
-73.13645316542079
 10
51.65468605971
 20
-73.13082822805518
 10
51.66015722447628
 20
-73.12530909523957
 10
51.6657270698488
 20
-73.11988815499535
 10
51.67138557261751
 20
-73.11455824339646
 10
51.67712270956872
 20
-73.10931219651593
 10
51.6829284574942
 20
-73.10414285042589
 10
51.68879279318207
 20
-73.09904304120028
  0
LWPOLYLINE
  5
12F78
330
12D9F
100
AcDbEntity
  8
11機器
100
AcDbPolyline
 90
        9
 70
     0
 43
0.0
 10
51.68879279318207
 20
-73.09904304120028
 10
51.69395943003474
 20
-73.09463874407629
 10
51.69916334271329
 20
-73.09027841092939
 10
51.70440066045376
 20
-73.08595815271474
 10
51.7096683894124
 20
-73.08167482442786
 10
51.71496371817557
 20
-73.07742543584936
 10
51.72028383533143
 20
-73.07320699676347
 10
51.72562592946997
 20
-73.06901651695352
 10
51.73098718917754
 20
-73.06485100620012
  0
LINE
  5
12F79
330
12D9F
100
AcDbEntity
  8
11機器
100
AcDbLine
 10
754.5726446061963
 20
359.099750241101
 30
0.0
 11
754.480011564694
 21
359.0876546505006
 31
0.0
  0
LWPOLYLINE
  5
12F7A
330
12D9F
100
AcDbEntity
  8
11機器
100
AcDbPolyline
 90
       11
 70
     0
 43
0.0
 10
51.5541939240793
 20
160.1542573398001
 10
51.44397537426084
 20
160.182674645881
 10
51.33687255204495
 20
160.2218204470882
 10
51.23423014958644
 20
160.2716266198249
 10
51.13749093863771
 20
160.3320213793768
 10
51.04824318221108
 20
160.4029275101275
 10
50.9682061974454
 20
160.4842536970955
 10
50.90006796194575
 20
160.5757976901277
 10
50.84699141121746
 20
160.6772753397745
 10
50.81238040166136
 20
160.7868110689124
 10
50.80000000000291
 20
160.9001124402002
  0
LINE
  5
12F7B
330
12D9F
100
AcDbEntity
  8
11機器
100
AcDbLine
 10
754.5726446061963
 20
-73.09975024099913
 30
0.0
 11
754.480011564694
 21
-73.08765465050055
 31
0.0
  0
LINE
  5
12F7C
330
12D9F
100
AcDbEntity
  8
11機器
100
AcDbLine
 10
51.44832047929231
 20
-73.10506982100014
 30
0.0
 11
51.59953227429651
 21
-73.08390644599967
 31
0.0
  0
LINE
  5
12F7D
330
12D9F
100
AcDbEntity
  8
11機器
100
AcDbLine
 10
51.59953227429651
 20
-73.08390644599967
 30
0.0
 11
51.62848287879024
 21
-73.07980803859937
 31
0.0
  0
LINE
  5
12F7E
330
12D9F
100
AcDbEntity
  8
11機器
100
AcDbLine
 10
51.73124915039807
 20
-73.06504672180017
 30
0.0
 11
51.76527134070056
 21
-73.06006868240001
 31
0.0
  0
LWPOLYLINE
  5
12F7F
330
12D9F
100
AcDbEntity
  8
11機器
100
AcDbPolyline
 90
       11
 70
     0
 43
0.0
 10
50.80000000000291
 20
125.0998875598998
 10
50.81238040166136
 20
125.2131889311277
 10
50.84699141121746
 20
125.3227246602873
 10
50.90006796194575
 20
125.4242023099623
 10
50.9682061974454
 20
125.5157463030037
 10
51.04824318221108
 20
125.5970724899726
 10
51.13749093863953
 20
125.6679786207233
 10
51.23423014958644
 20
125.7283733802751
 10
51.33687255204495
 20
125.77817955301
 10
51.44397537426084
 20
125.8173253541954
 10
51.5541939240793
 20
125.8457426601999
  0
LINE
  5
12F80
330
12D9F
100
AcDbEntity
  8
11機器
100
AcDbLine
 10
51.76527134070056
 20
359.0600686825001
 30
0.0
 11
51.73124915039807
 21
359.0650467219002
 31
0.0
  0
LINE
  5
12F81
330
12D9F
100
AcDbEntity
  8
11機器
100
AcDbLine
 10
51.62848287879024
 20
359.0798080385994
 30
0.0
 11
51.59953227429651
 21
359.0839064459997
 31
0.0
  0
LWPOLYLINE
  5
12F82
330
12D9F
100
AcDbEntity
  8
11機器
100
AcDbPolyline
 90
       15
 70
     0
 43
0.0
 10
51.78855077728804
 20
359.2397975272997
 10
51.77945699786869
 20
359.296627592691
 10
51.77014547589351
 20
359.3534241767229
 10
51.76055409745823
 20
359.4101739518455
 10
51.75062074865491
 20
359.4668635905082
 10
51.74028331558475
 20
359.5234797651619
 10
51.72947551389916
 20
359.580008076492
 10
51.71807957421697
 20
359.6364208939831
 10
51.7059417284654
 20
359.6926812057409
 10
51.69282296794518
 20
359.7487216209684
 10
51.67834674597179
 20
359.8044254512524
 10
51.66194823021033
 20
359.8595959755194
 10
51.64258241110292
 20
359.9138120695379
 10
51.61687070673361
 20
359.9653041947022
 10
51.5728091669007
 20
360.0
  0
LWPOLYLINE
  5
12F83
330
12D9F
100
AcDbEntity
  8
11機器
100
AcDbPolyline
 90
       10
 70
     0
 43
0.0
 10
755.1993905004856
 20
359.2150961303996
 10
755.1926107363961
 20
359.2074314555612
 10
755.1836808960034
 20
359.20214625055
 10
755.1743599010242
 20
359.1980756717558
 10
755.16480670292
 20
359.1945334616012
 10
755.1550829258176
 20
359.1913503804526
 10
755.1452298142158
 20
359.1884674877847
 10
755.1352886126133
 20
359.1858258430702
 10
755.1253005655071
 20
359.1833665057839
 10
755.1153069173961
 20
359.1810305353993
  0
LWPOLYLINE
  5
12F84
330
12D9F
100
AcDbEntity
  8
11機器
100
AcDbPolyline
 90
       10
 70
     0
 43
0.0
 10
755.1153069173961
 20
359.1810305353993
 10
755.05556414688
 20
359.1688018469922
 10
754.9954515041973
 20
359.1584596467364
 10
754.935200101545
 20
359.1490419413276
 10
754.8748639881196
 20
359.140206313873
 10
754.8144746245107
 20
359.1317331517585
 10
754.7540457481336
 20
359.1235313402576
 10
754.6935896153664
 20
359.1155205025352
 10
754.633118482594
 20
359.1076202617605
 10
754.5726446061963
 20
359.099750241101
  0
LWPOLYLINE
  5
12F85
330
12D9F
100
AcDbEntity
  8
11機器
100
AcDbPolyline
 90
       15
 70
     0
 43
0.0
 10
51.5728091669007
 20
-74.0
 10
51.61687070673361
 20
-73.96530419461305
 10
51.64258241110292
 20
-73.91381206943788
 10
51.66194823021033
 20
-73.85959597541932
 10
51.67834674597179
 20
-73.80442545115238
 10
51.69282296794518
 20
-73.74872162086831
 10
51.7059417284654
 20
-73.69268120564084
 10
51.71807957421697
 20
-73.63642089388395
 10
51.72947551389916
 20
-73.58000807639564
 10
51.74028331558475
 20
-73.52347976507644
 10
51.75062074865491
 20
-73.46686359043906
 10
51.76055409745823
 20
-73.41017395179188
 10
51.77014547589351
 20
-73.35342417667562
 10
51.77945699786869
 20
-73.29662759263101
 10
51.78855077728804
 20
-73.2397975271997
  0
LWPOLYLINE
  5
12F86
330
12D9F
100
AcDbEntity
  8
11機器
100
AcDbPolyline
 90
       10
 70
     0
 43
0.0
 10
755.1993905004856
 20
-73.21509613029957
 10
755.1926107363961
 20
-73.20743145546203
 10
755.1836808960034
 20
-73.20214625044991
 10
755.1743599010242
 20
-73.19807567166026
 10
755.16480670292
 20
-73.1945334615184
 10
755.1550829258176
 20
-73.19135038038621
 10
755.1452298142158
 20
-73.18846748773103
 10
755.1352886126133
 20
-73.1858258430193
 10
755.1253005655071
 20
-73.18336650572019
 10
755.1153069173961
 20
-73.18103053529921
  0
LWPOLYLINE
  5
12F87
330
12D9F
100
AcDbEntity
  8
11機器
100
AcDbPolyline
 90
       10
 70
     0
 43
0.0
 10
755.1153069173961
 20
-73.18103053529921
 10
755.05556414688
 20
-73.16880184689217
 10
754.9954515041973
 20
-73.1584596466364
 10
754.935200101545
 20
-73.14904194122846
 10
754.8748639881196
 20
-73.14020631377298
 10
754.8144746245107
 20
-73.13173315165932
 10
754.7540457481336
 20
-73.12353134015666
 10
754.6935896153664
 20
-73.11552050243426
 10
754.633118482594
 20
-73.10762026165958
 10
754.5726446061963
 20
-73.09975024099913
  0
LWPOLYLINE
  5
12F88
330
12D9F
100
AcDbEntity
  8
11機器
100
AcDbPolyline
 90
       13
 70
     0
 43
0.0
 10
51.44832047929231
 20
359.1050698211002
 10
51.39457178341945
 20
359.1125632896938
 10
51.34082840423616
 20
359.1200896533283
 10
51.28709363687449
 20
359.1276832117765
 10
51.23337077646647
 20
359.1353782648102
 10
51.17966410483132
 20
359.1432132181426
 10
51.12599177339507
 20
359.151284193721
 10
51.07238217085796
 20
359.1597299142995
 10
51.0188639250664
 20
359.1686900978366
 10
50.96547046854903
 20
359.1783667901691
 10
50.91227539393185
 20
359.1892426172772
 10
50.85971122119008
 20
359.2025108616945
 10
50.8095395120763
 20
359.2230082127007
  0
LWPOLYLINE
  5
12F89
330
12D9F
100
AcDbEntity
  8
11機器
100
AcDbPolyline
 90
       10
 70
     0
 43
0.0
 10
50.80243418617465
 20
-73.2296307932993
 10
50.81114106029781
 20
-73.22189695719226
 10
50.82145391565246
 20
-73.21626700566503
 10
50.8321419890508
 20
-73.21169555305005
 10
50.84305415211929
 20
-73.20769083039522
 10
50.85412589279986
 20
-73.20407557693034
 10
50.86532134091976
 20
-73.20078535154335
 10
50.8766046665678
 20
-73.19775587168806
 10
50.88794003982912
 20
-73.19492285482193
 10
50.89929163079069
 20
-73.19222201840057
  0
LWPOLYLINE
  5
12F8A
330
12D9F
100
AcDbEntity
  8
11機器
100
AcDbPolyline
 90
       10
 70
     0
 43
0.0
 10
50.89929163079069
 20
-73.19222201840057
 10
50.9597329609187
 20
-73.1794313769633
 10
51.0205340962184
 20
-73.16840942763884
 10
51.08148412887385
 20
-73.15830765452938
 10
51.14252621005471
 20
-73.14879747088617
 10
51.20362583739734
 20
-73.13965906130306
 10
51.26476803095466
 20
-73.13079823681892
 10
51.32593983776133
 20
-73.12213385213727
 10
51.38712830486111
 20
-73.11358476196347
 10
51.44832047929231
 20
-73.10506982100014
  0
LWPOLYLINE
  5
12F8B
330
12D9F
100
AcDbEntity
  8
11機器
100
AcDbPolyline
 90
        2
 70
     0
 43
0.0
 10
51.81803201812727
 20
125.9125164565712
 42
0.0016138695488791
 10
52.78605188418442
 20
125.8986529109197
 42
0.0016062773316817
  0
LWPOLYLINE
  5
12F8C
330
12D9F
100
AcDbEntity
  8
11機器
100
AcDbPolyline
 90
        2
 70
     0
 43
0.0
 10
52.78605188416986
 20
160.1013470891803
 42
0.0005477701608495
 10
51.81803201813273
 20
160.0874835435288
 42
0.0005399005284302
  0
LWPOLYLINE
  5
12F8D
330
12D9F
100
AcDbEntity
  8
11機器
100
AcDbPolyline
 90
        2
 70
     0
 43
0.0
 10
52.79999995487015
 20
160.1432094899801
 42
0.0005477701608495
 10
51.81743510354863
 20
160.1291374040156
 42
0.000539782512477
  0
LWPOLYLINE
  5
12F8E
330
12D9F
100
AcDbEntity
  8
11機器
100
AcDbPolyline
 90
        2
 70
     0
 43
0.0
 10
51.81743510353226
 20
125.8708625959844
 42
0.0016139839266578
 10
52.7999999548847
 20
125.8567905100199
 42
0.0016062773316817
  0
ENDBLK
  5
12F90
330
12D9F
100
AcDbEntity
  8
0
100
AcDbBlockEnd
  0
BLOCK
  5
130D9
330
130D8
100
AcDbEntity
  8
0
100
AcDbBlockBegin
  2
*D1756
 70
     1
 10
0.0
 20
0.0
 30
0.0
  3
*D1756
  1

  0
LINE
  5
130DB
330
130D8
100
AcDbEntity
  8
01注記寸法
 62
     0
370
    -2
100
AcDbLine
 10
874.9999999999991
 20
2469.999999999998
 30
0.0
 11
730.0
 21
2469.999999999998
 31
0.0
  0
LINE
  5
130DC
330
130D8
100
AcDbEntity
  8
01注記寸法
 62
     0
370
    -2
100
AcDbLine
 10
832.0
 20
2384.999999999998
 30
0.0
 11
730.0
 21
2384.999999999998
 31
0.0
  0
LINE
  5
130DD
330
130D8
100
AcDbEntity
  8
01注記寸法
 62
     0
370
    -2
100
AcDbLine
 10
740.0
 20
2439.999999999998
 30
0.0
 11
740.0
 21
2414.999999999998
 31
0.0
  0
INSERT
  5
130DE
330
130D8
100
AcDbEntity
  8
01注記寸法
 62
     0
370
    -2
100
AcDbBlockReference
  2
_Open
 10
740.0
 20
2469.999999999998
 30
0.0
 41
30.0
 42
30.0
 43
30.0
 50
90.0
  0
INSERT
  5
130DF
330
130D8
100
AcDbEntity
  8
01注記寸法
 62
     0
370
    -2
100
AcDbBlockReference
  2
_Open
 10
740.0
 20
2384.999999999998
 30
0.0
 41
30.0
 42
30.0
 43
30.0
 50
270.0
  0
MTEXT
  5
130E0
330
130D8
100
AcDbEntity
  8
01注記寸法
 62
     0
100
AcDbMText
 10
714.9943728898338
 20
2427.499999999998
 30
0.0
 40
30.0
 41
0.0
 71
     5
 72
     1
  1
85
 11
0.0
 21
1.0
 31
0.0
 73
     1
 44
1.0
  0
POINT
  5
130E1
330
130D8
100
AcDbEntity
  8
Defpoints
 62
     0
100
AcDbPoint
 10
889.9999999999991
 20
2469.999999999998
 30
0.0
  0
POINT
  5
130E2
330
130D8
100
AcDbEntity
  8
Defpoints
 62
     0
100
AcDbPoint
 10
847.0
 20
2384.999999999998
 30
0.0
  0
POINT
  5
130E3
330
130D8
100
AcDbEntity
  8
Defpoints
 62
     0
100
AcDbPoint
 10
740.0
 20
2384.999999999998
 30
0.0
  0
ENDBLK
  5
130DA
330
130D8
100
AcDbEntity
  8
0
100
AcDbBlockEnd
  0
BLOCK
  5
130E6
330
130E5
100
AcDbEntity
  8
0
100
AcDbBlockBegin
  2
*D1757
 70
     1
 10
0.0
 20
0.0
 30
0.0
  3
*D1757
  1

  0
LINE
  5
130E8
330
130E5
100
AcDbEntity
  8
01注記寸法
 62
     0
370
    -2
100
AcDbLine
 10
832.0
 20
2384.999999999998
 30
0.0
 11
730.0
 21
2384.999999999998
 31
0.0
  0
LINE
  5
130E9
330
130E5
100
AcDbEntity
  8
01注記寸法
 62
     0
370
    -2
100
AcDbLine
 10
832.0
 20
2084.999999999998
 30
0.0
 11
730.0
 21
2084.999999999998
 31
0.0
  0
LINE
  5
130EA
330
130E5
100
AcDbEntity
  8
01注記寸法
 62
     0
370
    -2
100
AcDbLine
 10
740.0
 20
2354.999999999998
 30
0.0
 11
740.0
 21
2114.999999999998
 31
0.0
  0
INSERT
  5
130EB
330
130E5
100
AcDbEntity
  8
01注記寸法
 62
     0
370
    -2
100
AcDbBlockReference
  2
_Open
 10
740.0
 20
2384.999999999998
 30
0.0
 41
30.0
 42
30.0
 43
30.0
 50
90.0
  0
INSERT
  5
130EC
330
130E5
100
AcDbEntity
  8
01注記寸法
 62
     0
370
    -2
100
AcDbBlockReference
  2
_Open
 10
740.0
 20
2084.999999999998
 30
0.0
 41
30.0
 42
30.0
 43
30.0
 50
270.0
  0
MTEXT
  5
130ED
330
130E5
100
AcDbEntity
  8
01注記寸法
 62
     0
100
AcDbMText
 10
714.9943728898338
 20
2234.999999999998
 30
0.0
 40
30.0
 41
0.0
 71
     5
 72
     1
  1
300
 11
0.0
 21
1.0
 31
0.0
 73
     1
 44
1.0
  0
POINT
  5
130EE
330
130E5
100
AcDbEntity
  8
Defpoints
 62
     0
100
AcDbPoint
 10
847.0
 20
2384.999999999998
 30
0.0
  0
POINT
  5
130EF
330
130E5
100
AcDbEntity
  8
Defpoints
 62
     0
100
AcDbPoint
 10
847.0
 20
2084.999999999998
 30
0.0
  0
POINT
  5
130F0
330
130E5
100
AcDbEntity
  8
Defpoints
 62
     0
100
AcDbPoint
 10
740.0
 20
2084.999999999998
 30
0.0
  0
ENDBLK
  5
130E7
330
130E5
100
AcDbEntity
  8
0
100
AcDbBlockEnd
  0
BLOCK
  5
130F3
330
130F2
100
AcDbEntity
  8
0
100
AcDbBlockBegin
  2
*D1758
 70
     1
 10
0.0
 20
0.0
 30
0.0
  3
*D1758
  1

  0
LINE
  5
130F5
330
130F2
100
AcDbEntity
  8
01注記寸法
 62
     0
370
    -2
100
AcDbLine
 10
832.0
 20
2084.999999999998
 30
0.0
 11
730.0
 21
2084.999999999998
 31
0.0
  0
LINE
  5
130F6
330
130F2
100
AcDbEntity
  8
01注記寸法
 62
     0
370
    -2
100
AcDbLine
 10
875.0
 20
1984.999999999998
 30
0.0
 11
730.0
 21
1984.999999999998
 31
0.0
  0
LINE
  5
130F7
330
130F2
100
AcDbEntity
  8
01注記寸法
 62
     0
370
    -2
100
AcDbLine
 10
740.0
 20
2054.999999999998
 30
0.0
 11
740.0
 21
2014.999999999998
 31
0.0
  0
INSERT
  5
130F8
330
130F2
100
AcDbEntity
  8
01注記寸法
 62
     0
370
    -2
100
AcDbBlockReference
  2
_Open
 10
740.0
 20
2084.999999999998
 30
0.0
 41
30.0
 42
30.0
 43
30.0
 50
90.0
  0
INSERT
  5
130F9
330
130F2
100
AcDbEntity
  8
01注記寸法
 62
     0
370
    -2
100
AcDbBlockReference
  2
_Open
 10
740.0
 20
1984.999999999998
 30
0.0
 41
30.0
 42
30.0
 43
30.0
 50
270.0
  0
MTEXT
  5
130FA
330
130F2
100
AcDbEntity
  8
01注記寸法
 62
     0
100
AcDbMText
 10
714.9943728898337
 20
2034.999999999998
 30
0.0
 40
30.0
 41
0.0
 71
     5
 72
     1
  1
100
 11
0.0
 21
1.0
 31
0.0
 73
     1
 44
1.0
  0
POINT
  5
130FB
330
130F2
100
AcDbEntity
  8
Defpoints
 62
     0
100
AcDbPoint
 10
847.0
 20
2084.999999999998
 30
0.0
  0
POINT
  5
130FC
330
130F2
100
AcDbEntity
  8
Defpoints
 62
     0
100
AcDbPoint
 10
890.0
 20
1984.999999999998
 30
0.0
  0
POINT
  5
130FD
330
130F2
100
AcDbEntity
  8
Defpoints
 62
     0
100
AcDbPoint
 10
740.0
 20
1984.999999999998
 30
0.0
  0
ENDBLK
  5
130F4
330
130F2
100
AcDbEntity
  8
0
100
AcDbBlockEnd
  0
BLOCK
  5
13100
330
130FF
100
AcDbEntity
  8
0
100
AcDbBlockBegin
  2
*D1759
 70
     1
 10
0.0
 20
0.0
 30
0.0
  3
*D1759
  1

  0
LINE
  5
13102
330
130FF
100
AcDbEntity
  8
01注記寸法
 62
     0
370
    -2
100
AcDbLine
 10
889.9999999999991
 20
2484.999999999998
 30
0.0
 11
889.9999999999991
 21
2579.999999999998
 31
0.0
  0
LINE
  5
13103
330
130FF
100
AcDbEntity
  8
01注記寸法
 62
     0
370
    -2
100
AcDbLine
 10
867.0
 20
2419.999999999998
 30
0.0
 11
867.0
 21
2579.999999999998
 31
0.0
  0
LINE
  5
13104
330
130FF
100
AcDbEntity
  8
01注記寸法
 62
     0
370
    -2
100
AcDbLine
 10
837.0
 20
2569.999999999998
 30
0.0
 11
752.1269225959736
 21
2569.999999999998
 31
0.0
  0
LINE
  5
13105
330
130FF
100
AcDbEntity
  8
01注記寸法
 62
     0
370
    -2
100
AcDbLine
 10
889.9999999999991
 20
2569.999999999998
 30
0.0
 11
867.0
 21
2569.999999999998
 31
0.0
  0
LINE
  5
13106
330
130FF
100
AcDbEntity
  8
01注記寸法
 62
     0
370
    -2
100
AcDbLine
 10
919.9999999999991
 20
2569.999999999998
 30
0.0
 11
949.9999999999991
 21
2569.999999999998
 31
0.0
  0
INSERT
  5
13107
330
130FF
100
AcDbEntity
  8
01注記寸法
 62
     0
370
    -2
100
AcDbBlockReference
  2
_Open
 10
889.9999999999991
 20
2569.999999999998
 30
0.0
 41
30.0
 42
30.0
 43
30.0
 50
180.0
  0
INSERT
  5
13108
330
130FF
100
AcDbEntity
  8
01注記寸法
 62
     0
370
    -2
100
AcDbBlockReference
  2
_Open
 10
867.0
 20
2569.999999999998
 30
0.0
 41
30.0
 42
30.0
 43
30.0
  0
MTEXT
  5
13109
330
130FF
100
AcDbEntity
  8
01注記寸法
 62
     0
100
AcDbMText
 10
779.5634612979868
 20
2595.005627110164
 30
0.0
 40
30.0
 41
0.0
 71
     5
 72
     1
  1
23
 73
     1
 44
1.0
  0
POINT
  5
1310A
330
130FF
100
AcDbEntity
  8
Defpoints
 62
     0
100
AcDbPoint
 10
889.9999999999991
 20
2469.999999999998
 30
0.0
  0
POINT
  5
1310B
330
130FF
100
AcDbEntity
  8
Defpoints
 62
     0
100
AcDbPoint
 10
867.0
 20
2404.999999999998
 30
0.0
  0
POINT
  5
1310C
330
130FF
100
AcDbEntity
  8
Defpoints
 62
     0
100
AcDbPoint
 10
867.0
 20
2569.999999999998
 30
0.0
  0
ENDBLK
  5
13101
330
130FF
100
AcDbEntity
  8
0
100
AcDbBlockEnd
  0
BLOCK
  5
1310F
330
1310E
100
AcDbEntity
  8
0
100
AcDbBlockBegin
  2
*D1760
 70
     1
 10
0.0
 20
0.0
 30
0.0
  3
*D1760
  1

  0
LINE
  5
13111
330
1310E
100
AcDbEntity
  8
01注記寸法
 62
     0
370
    -2
100
AcDbLine
 10
889.9999999999991
 20
2484.999999999998
 30
0.0
 11
889.9999999999991
 21
2580.0
 31
0.0
  0
LINE
  5
13112
330
1310E
100
AcDbEntity
  8
01注記寸法
 62
     0
370
    -2
100
AcDbLine
 10
1650.0
 20
2485.0
 30
0.0
 11
1650.0
 21
2580.0
 31
0.0
  0
LINE
  5
13113
330
1310E
100
AcDbEntity
  8
01注記寸法
 62
     0
370
    -2
100
AcDbLine
 10
919.9999999999991
 20
2570.0
 30
0.0
 11
1620.0
 21
2570.0
 31
0.0
  0
INSERT
  5
13114
330
1310E
100
AcDbEntity
  8
01注記寸法
 62
     0
370
    -2
100
AcDbBlockReference
  2
_Open
 10
889.9999999999991
 20
2570.0
 30
0.0
 41
30.0
 42
30.0
 43
30.0
 50
180.0
  0
INSERT
  5
13115
330
1310E
100
AcDbEntity
  8
01注記寸法
 62
     0
370
    -2
100
AcDbBlockReference
  2
_Open
 10
1650.0
 20
2570.0
 30
0.0
 41
30.0
 42
30.0
 43
30.0
  0
MTEXT
  5
13116
330
1310E
100
AcDbEntity
  8
01注記寸法
 62
     0
100
AcDbMText
 10
1270.0
 20
2595.005627110166
 30
0.0
 40
30.0
 41
0.0
 71
     5
 72
     1
  1
760
 73
     1
 44
1.0
  0
POINT
  5
13117
330
1310E
100
AcDbEntity
  8
Defpoints
 62
     0
100
AcDbPoint
 10
889.9999999999991
 20
2469.999999999998
 30
0.0
  0
POINT
  5
13118
330
1310E
100
AcDbEntity
  8
Defpoints
 62
     0
100
AcDbPoint
 10
1650.0
 20
2470.0
 30
0.0
  0
POINT
  5
13119
330
1310E
100
AcDbEntity
  8
Defpoints
 62
     0
100
AcDbPoint
 10
1650.0
 20
2570.0
 30
0.0
  0
ENDBLK
  5
13110
330
1310E
100
AcDbEntity
  8
0
100
AcDbBlockEnd
  0
BLOCK
  5
1311C
330
1311B
100
AcDbEntity
  8
0
100
AcDbBlockBegin
  2
*D1761
 70
     1
 10
0.0
 20
0.0
 30
0.0
  3
*D1761
  1

  0
LINE
  5
1311E
330
1311B
100
AcDbEntity
  8
01注記寸法
 62
     0
370
    -2
100
AcDbLine
 10
1650.0
 20
2485.0
 30
0.0
 11
1650.0
 21
2580.0
 31
0.0
  0
LINE
  5
1311F
330
1311B
100
AcDbEntity
  8
01注記寸法
 62
     0
370
    -2
100
AcDbLine
 10
1673.0
 20
2419.999999999998
 30
0.0
 11
1673.0
 21
2580.0
 31
0.0
  0
LINE
  5
13120
330
1311B
100
AcDbEntity
  8
01注記寸法
 62
     0
370
    -2
100
AcDbLine
 10
1703.0
 20
2570.0
 30
0.0
 11
1787.873077404026
 21
2570.0
 31
0.0
  0
LINE
  5
13121
330
1311B
100
AcDbEntity
  8
01注記寸法
 62
     0
370
    -2
100
AcDbLine
 10
1650.0
 20
2570.0
 30
0.0
 11
1673.0
 21
2570.0
 31
0.0
  0
LINE
  5
13122
330
1311B
100
AcDbEntity
  8
01注記寸法
 62
     0
370
    -2
100
AcDbLine
 10
1620.0
 20
2570.0
 30
0.0
 11
1590.0
 21
2570.0
 31
0.0
  0
INSERT
  5
13123
330
1311B
100
AcDbEntity
  8
01注記寸法
 62
     0
370
    -2
100
AcDbBlockReference
  2
_Open
 10
1650.0
 20
2570.0
 30
0.0
 41
30.0
 42
30.0
 43
30.0
  0
INSERT
  5
13124
330
1311B
100
AcDbEntity
  8
01注記寸法
 62
     0
370
    -2
100
AcDbBlockReference
  2
_Open
 10
1673.0
 20
2570.0
 30
0.0
 41
30.0
 42
30.0
 43
30.0
 50
180.0
  0
MTEXT
  5
13125
330
1311B
100
AcDbEntity
  8
01注記寸法
 62
     0
100
AcDbMText
 10
1760.436538702013
 20
2595.005627110166
 30
0.0
 40
30.0
 41
0.0
 71
     5
 72
     1
  1
23
 73
     1
 44
1.0
  0
POINT
  5
13126
330
1311B
100
AcDbEntity
  8
Defpoints
 62
     0
100
AcDbPoint
 10
1650.0
 20
2470.0
 30
0.0
  0
POINT
  5
13127
330
1311B
100
AcDbEntity
  8
Defpoints
 62
     0
100
AcDbPoint
 10
1673.0
 20
2404.999999999998
 30
0.0
  0
POINT
  5
13128
330
1311B
100
AcDbEntity
  8
Defpoints
 62
     0
100
AcDbPoint
 10
1673.0
 20
2570.0
 30
0.0
  0
ENDBLK
  5
1311D
330
1311B
100
AcDbEntity
  8
0
100
AcDbBlockEnd
  0
BLOCK
  5
13155
330
13154
100
AcDbEntity
  8
0
100
AcDbBlockBegin
  2
*D1764
 70
     1
 10
0.0
 20
0.0
 30
0.0
  3
*D1764
  1

  0
LINE
  5
13157
330
13154
100
AcDbEntity
  8
01注記寸法
 62
     0
370
    -2
100
AcDbLine
 10
1708.0
 20
2084.999999999998
 30
0.0
 11
1810.0
 21
2084.999999999998
 31
0.0
  0
LINE
  5
13158
330
13154
100
AcDbEntity
  8
01注記寸法
 62
     0
370
    -2
100
AcDbLine
 10
1715.0
 20
2114.999999999998
 30
0.0
 11
1810.0
 21
2114.999999999998
 31
0.0
  0
LINE
  5
13159
330
13154
100
AcDbEntity
  8
01注記寸法
 62
     0
370
    -2
100
AcDbLine
 10
1800.0
 20
2144.999999999998
 30
0.0
 11
1800.0
 21
2230.796392397147
 31
0.0
  0
LINE
  5
1315A
330
13154
100
AcDbEntity
  8
01注記寸法
 62
     0
370
    -2
100
AcDbLine
 10
1800.0
 20
2084.999999999998
 30
0.0
 11
1800.0
 21
2114.999999999998
 31
0.0
  0
LINE
  5
1315B
330
13154
100
AcDbEntity
  8
01注記寸法
 62
     0
370
    -2
100
AcDbLine
 10
1800.0
 20
2054.999999999998
 30
0.0
 11
1800.0
 21
2024.999999999998
 31
0.0
  0
INSERT
  5
1315C
330
13154
100
AcDbEntity
  8
01注記寸法
 62
     0
370
    -2
100
AcDbBlockReference
  2
_Open
 10
1800.0
 20
2084.999999999998
 30
0.0
 41
30.0
 42
30.0
 43
30.0
 50
90.0
  0
INSERT
  5
1315D
330
13154
100
AcDbEntity
  8
01注記寸法
 62
     0
370
    -2
100
AcDbBlockReference
  2
_Open
 10
1800.0
 20
2114.999999999998
 30
0.0
 41
30.0
 42
30.0
 43
30.0
 50
270.0
  0
MTEXT
  5
1315E
330
13154
100
AcDbEntity
  8
01注記寸法
 62
     0
100
AcDbMText
 10
1774.994372889834
 20
2202.898196198572
 30
0.0
 40
30.0
 41
0.0
 71
     5
 72
     1
  1
30
 11
0.0
 21
1.0
 31
0.0
 73
     1
 44
1.0
  0
POINT
  5
1315F
330
13154
100
AcDbEntity
  8
Defpoints
 62
     0
100
AcDbPoint
 10
1693.0
 20
2084.999999999998
 30
0.0
  0
POINT
  5
13160
330
13154
100
AcDbEntity
  8
Defpoints
 62
     0
100
AcDbPoint
 10
1700.0
 20
2114.999999999998
 30
0.0
  0
POINT
  5
13161
330
13154
100
AcDbEntity
  8
Defpoints
 62
     0
100
AcDbPoint
 10
1800.0
 20
2114.999999999998
 30
0.0
  0
ENDBLK
  5
13156
330
13154
100
AcDbEntity
  8
0
100
AcDbBlockEnd
  0
BLOCK
  5
13164
330
13163
100
AcDbEntity
  8
0
100
AcDbBlockBegin
  2
*D1765
 70
     1
 10
0.0
 20
0.0
 30
0.0
  3
*D1765
  1

  0
LINE
  5
13166
330
13163
100
AcDbEntity
  8
01注記寸法
 62
     0
370
    -2
100
AcDbLine
 10
1710.0
 20
2054.999999999998
 30
0.0
 11
1910.0
 21
2054.999999999998
 31
0.0
  0
LINE
  5
13167
330
13163
100
AcDbEntity
  8
01注記寸法
 62
     0
370
    -2
100
AcDbLine
 10
1715.0
 20
2114.999999999998
 30
0.0
 11
1910.0
 21
2114.999999999998
 31
0.0
  0
LINE
  5
13168
330
13163
100
AcDbEntity
  8
01注記寸法
 62
     0
370
    -2
100
AcDbLine
 10
1900.0
 20
2054.999999999998
 30
0.0
 11
1900.0
 21
2114.999999999998
 31
0.0
  0
LINE
  5
13169
330
13163
100
AcDbEntity
  8
01注記寸法
 62
     0
370
    -2
100
AcDbLine
 10
1900.0
 20
2024.999999999998
 30
0.0
 11
1900.0
 21
1994.999999999998
 31
0.0
  0
LINE
  5
1316A
330
13163
100
AcDbEntity
  8
01注記寸法
 62
     0
370
    -2
100
AcDbLine
 10
1900.0
 20
2144.999999999998
 30
0.0
 11
1900.0
 21
2174.999999999998
 31
0.0
  0
INSERT
  5
1316B
330
13163
100
AcDbEntity
  8
01注記寸法
 62
     0
370
    -2
100
AcDbBlockReference
  2
_Open
 10
1900.0
 20
2054.999999999998
 30
0.0
 41
30.0
 42
30.0
 43
30.0
 50
90.0
  0
INSERT
  5
1316C
330
13163
100
AcDbEntity
  8
01注記寸法
 62
     0
370
    -2
100
AcDbBlockReference
  2
_Open
 10
1900.0
 20
2114.999999999998
 30
0.0
 41
30.0
 42
30.0
 43
30.0
 50
270.0
  0
MTEXT
  5
1316D
330
13163
100
AcDbEntity
  8
01注記寸法
 62
     0
100
AcDbMText
 10
1875.0
 20
2084.999999999998
 30
0.0
 40
30.0
 41
0.0
 71
     5
 72
     1
  1
60
 11
0.0
 21
1.0
 31
0.0
 73
     1
 44
1.0
  0
POINT
  5
1316E
330
13163
100
AcDbEntity
  8
Defpoints
 62
     0
100
AcDbPoint
 10
1695.0
 20
2054.999999999998
 30
0.0
  0
POINT
  5
1316F
330
13163
100
AcDbEntity
  8
Defpoints
 62
     0
100
AcDbPoint
 10
1700.0
 20
2114.999999999998
 30
0.0
  0
POINT
  5
13170
330
13163
100
AcDbEntity
  8
Defpoints
 62
     0
100
AcDbPoint
 10
1900.0
 20
2114.999999999998
 30
0.0
  0
ENDBLK
  5
13165
330
13163
100
AcDbEntity
  8
0
100
AcDbBlockEnd
  0
BLOCK
  5
13173
330
13172
100
AcDbEntity
  8
0
100
AcDbBlockBegin
  2
*D1766
 70
     1
 10
0.0
 20
0.0
 30
0.0
  3
*D1766
  1

  0
LINE
  5
13175
330
13172
100
AcDbEntity
  8
01注記寸法
 62
     0
370
    -2
100
AcDbLine
 10
1700.0
 20
2044.999999999998
 30
0.0
 11
1700.0
 21
1875.0
 31
0.0
  0
LINE
  5
13176
330
13172
100
AcDbEntity
  8
01注記寸法
 62
     0
370
    -2
100
AcDbLine
 10
1650.0
 20
1969.999999999998
 30
0.0
 11
1650.0
 21
1875.0
 31
0.0
  0
LINE
  5
13177
330
13172
100
AcDbEntity
  8
01注記寸法
 62
     0
370
    -2
100
AcDbLine
 10
1620.0
 20
1885.0
 30
0.0
 11
1534.203607602851
 21
1885.0
 31
0.0
  0
LINE
  5
13178
330
13172
100
AcDbEntity
  8
01注記寸法
 62
     0
370
    -2
100
AcDbLine
 10
1700.0
 20
1885.0
 30
0.0
 11
1650.0
 21
1885.0
 31
0.0
  0
LINE
  5
13179
330
13172
100
AcDbEntity
  8
01注記寸法
 62
     0
370
    -2
100
AcDbLine
 10
1730.0
 20
1885.0
 30
0.0
 11
1760.0
 21
1885.0
 31
0.0
  0
INSERT
  5
1317A
330
13172
100
AcDbEntity
  8
01注記寸法
 62
     0
370
    -2
100
AcDbBlockReference
  2
_Open
 10
1700.0
 20
1885.0
 30
0.0
 41
30.0
 42
30.0
 43
30.0
 50
180.0
  0
INSERT
  5
1317B
330
13172
100
AcDbEntity
  8
01注記寸法
 62
     0
370
    -2
100
AcDbBlockReference
  2
_Open
 10
1650.0
 20
1885.0
 30
0.0
 41
30.0
 42
30.0
 43
30.0
  0
MTEXT
  5
1317C
330
13172
100
AcDbEntity
  8
01注記寸法
 62
     0
100
AcDbMText
 10
1562.101803801426
 20
1910.005627110166
 30
0.0
 40
30.0
 41
0.0
 71
     5
 72
     1
  1
50
 73
     1
 44
1.0
  0
POINT
  5
1317D
330
13172
100
AcDbEntity
  8
Defpoints
 62
     0
100
AcDbPoint
 10
1700.0
 20
2059.999999999998
 30
0.0
  0
POINT
  5
1317E
330
13172
100
AcDbEntity
  8
Defpoints
 62
     0
100
AcDbPoint
 10
1650.0
 20
1984.999999999998
 30
0.0
  0
POINT
  5
1317F
330
13172
100
AcDbEntity
  8
Defpoints
 62
     0
100
AcDbPoint
 10
1650.0
 20
1885.0
 30
0.0
  0
ENDBLK
  5
13174
330
13172
100
AcDbEntity
  8
0
100
AcDbBlockEnd
  0
ENDSEC
  0
SECTION
  2
ENTITIES
  0
LWPOLYLINE
  5
ECC5
330
1F
100
AcDbEntity
  8
02実線
100
AcDbPolyline
 90
        4
 70
     1
 43
0.0
 10
890.0
 20
1984.999999999998
 10
890.0
 20
2469.999999999998
 10
1650.0
 20
2470.0
 10
1650.0
 20
1985.0
  0
LWPOLYLINE
  5
ECC6
330
1F
100
AcDbEntity
  8
02実線
100
AcDbPolyline
 90
        4
 70
     1
 43
0.0
 10
940.0
 20
2034.999999999998
 10
940.0
 20
2419.999999999998
 10
1600.0
 20
2420.0
 10
1600.0
 20
2035.0
  0
LWPOLYLINE
  5
ECC7
330
1F
100
AcDbEntity
  8
03破線
100
AcDbPolyline
 90
        4
 70
     1
 43
0.0
 10
893.2000000000007
 20
1988.200000000002
 10
893.2000000000007
 20
2466.800000000001
 10
1646.799999999999
 20
2466.800000000003
 10
1646.799999999999
 20
1988.200000000004
  0
LWPOLYLINE
  5
ECCA
330
1F
100
AcDbEntity
  8
02実線
100
AcDbPolyline
 90
        4
 70
     1
 43
0.0
 10
890.0
 20
1199.999999999999
 10
890.0
 20
1399.999999999999
 10
1650.0
 20
1400.0
 10
1650.0
 20
1200.0
  0
LWPOLYLINE
  5
ECCB
330
1F
100
AcDbEntity
  8
03破線
100
AcDbPolyline
 90
        4
 70
     1
 43
0.0
 10
893.2000000000007
 20
1203.199999999996
 10
893.2000000000007
 20
1396.800000000002
 10
1646.799999999999
 20
1396.800000000003
 10
1646.799999999999
 20
1203.199999999997
  0
LWPOLYLINE
  5
ECCD
330
1F
100
AcDbEntity
  8
02実線
100
AcDbPolyline
 90
        4
 70
     1
 43
0.0
 10
2275.0
 20
1200.0
 10
2275.0
 20
1400.0
 10
2760.0
 20
1400.0
 10
2760.0
 20
1200.0
  0
LWPOLYLINE
  5
ECCE
330
1F
100
AcDbEntity
  8
03破線
100
AcDbPolyline
 90
        4
 70
     1
 43
0.0
 10
2278.200000000001
 20
1203.199999999997
 10
2278.200000000001
 20
1396.800000000003
 10
2756.799999999999
 20
1396.800000000003
 10
2756.799999999999
 20
1203.199999999997
  0
LINE
  5
ECCF
330
1F
100
AcDbEntity
  8
04一点鎖線
100
AcDbLine
 10
965.0
 20
1213.199999999996
 30
0.0
 11
965.0
 21
1189.999999999999
 31
0.0
  0
LINE
  5
ECD0
330
1F
100
AcDbEntity
  8
04一点鎖線
100
AcDbLine
 10
1575.0
 20
1213.199999999997
 30
0.0
 11
1575.0
 21
1190.0
 31
0.0
  0
LINE
  5
ECD1
330
1F
100
AcDbEntity
  8
04一点鎖線
100
AcDbLine
 10
2305.0
 20
1213.199999999997
 30
0.0
 11
2305.0
 21
1190.0
 31
0.0
  0
LINE
  5
ECD2
330
1F
100
AcDbEntity
  8
04一点鎖線
100
AcDbLine
 10
2730.0
 20
1213.199999999997
 30
0.0
 11
2730.0
 21
1190.0
 31
0.0
  0
LINE
  5
ECED
330
1F
100
AcDbEntity
  8
03破線
100
AcDbLine
 10
2626.516620570558
 20
1200.0
 30
0.0
 11
2626.516620570558
 21
1203.200000000004
 31
0.0
  0
LINE
  5
ECEF
330
1F
100
AcDbEntity
  8
03破線
100
AcDbLine
 10
2626.516620570558
 20
1400.0
 30
0.0
 11
2626.516620570558
 21
1396.800000000003
 31
0.0
  0
LINE
  5
ECF0
330
1F
100
AcDbEntity
  8
03破線
100
AcDbLine
 10
2710.0
 20
1200.0
 30
0.0
 11
2710.0
 21
1203.200000000004
 31
0.0
  0
LINE
  5
ECF1
330
1F
100
AcDbEntity
  8
03破線
100
AcDbLine
 10
2710.0
 20
1400.0
 30
0.0
 11
2710.0
 21
1396.800000000003
 31
0.0
  0
LINE
  5
ECF3
330
1F
100
AcDbEntity
  8
03破線
100
AcDbLine
 10
940.0
 20
1399.999999999999
 30
0.0
 11
940.0
 21
1396.800000000002
 31
0.0
  0
LINE
  5
ECF4
330
1F
100
AcDbEntity
  8
03破線
100
AcDbLine
 10
940.0
 20
1199.999999999999
 30
0.0
 11
940.0
 21
1203.200000000003
 31
0.0
  0
LINE
  5
ECF6
330
1F
100
AcDbEntity
  8
03破線
100
AcDbLine
 10
1600.0
 20
1400.0
 30
0.0
 11
1600.0
 21
1396.800000000003
 31
0.0
  0
LINE
  5
ECF7
330
1F
100
AcDbEntity
  8
03破線
100
AcDbLine
 10
1600.0
 20
1200.0
 30
0.0
 11
1600.0
 21
1203.200000000004
 31
0.0
  0
LWPOLYLINE
  5
ED10
102
{ACAD_REACTORS
330
ED11
102
}
330
1F
100
AcDbEntity
  8
02実線
100
AcDbPolyline
 90
        4
 70
     1
 43
0.0
 10
890.0
 20
1399.999999999999
 10
890.0
 20
1409.999999999999
 10
1650.0
 20
1410.0
 10
1650.0
 20
1400.0
  0
HATCH
  5
ED11
330
1F
100
AcDbEntity
  8
01注記寸法
100
AcDbHatch
 10
0.0
 20
0.0
 30
0.0
210
0.0
220
0.0
230
1.0
  2
ANSI31
 70
     0
 71
     1
 91
        1
 92
        1
 93
        4
 72
     1
 10
890.0
 20
1399.999999999999
 11
890.0
 21
1409.999999999999
 72
     1
 10
890.0
 20
1409.999999999999
 11
1650.0
 21
1410.0
 72
     1
 10
1650.0
 20
1410.0
 11
1650.0
 21
1400.0
 72
     1
 10
1650.0
 20
1400.0
 11
890.0
 21
1399.999999999999
 97
        1
330
ED10
 75
     0
 76
     1
 52
45.0
 41
5.00000000000001
 77
     0
 78
     1
 53
90.0
 43
13090.0
 44
0.0000000000075033
 45
-15.875
 46
0.000000000000001
 79
     0
 98
        1
 10
13090.0
 20
-10890.0
1001
ACAD
1010
0.0
1020
0.0
1030
0.0
  0
LWPOLYLINE
  5
ED12
102
{ACAD_REACTORS
330
ED13
102
}
330
1F
100
AcDbEntity
  8
02実線
100
AcDbPolyline
 90
        4
 70
     1
 43
0.0
 10
2275.0
 20
1400.0
 10
2275.0
 20
1410.0
 10
2760.0
 20
1410.0
 10
2760.0
 20
1400.0
  0
HATCH
  5
ED13
330
1F
100
AcDbEntity
  8
01注記寸法
100
AcDbHatch
 10
0.0
 20
0.0
 30
0.0
210
0.0
220
0.0
230
1.0
  2
ANSI31
 70
     0
 71
     1
 91
        1
 92
        1
 93
        4
 72
     1
 10
2275.0
 20
1400.0
 11
2275.0
 21
1410.0
 72
     1
 10
2275.0
 20
1410.0
 11
2760.0
 21
1410.0
 72
     1
 10
2760.0
 20
1410.0
 11
2760.0
 21
1400.0
 72
     1
 10
2760.0
 20
1400.0
 11
2275.0
 21
1400.0
 97
        1
330
ED12
 75
     0
 76
     1
 52
45.0
 41
5.00000000000001
 77
     0
 78
     1
 53
90.0
 43
13275.0
 44
0.0000000000084128
 45
-15.875
 46
0.000000000000001
 79
     0
 98
        1
 10
14475.0
 20
-10890.0
1001
ACAD
1010
0.0
1020
0.0
1030
0.0
  0
LWPOLYLINE
  5
124FD
102
{ACAD_REACTORS
330
130B6
102
}
330
1F
100
AcDbEntity
  8
02実線
100
AcDbPolyline
 90
        5
 70
     1
 43
0.0
 10
840.0
 20
2059.999999999998
 10
840.0
 20
2114.999999999998
 10
890.0
 20
2114.999999999998
 10
890.0
 20
2054.999999999998
 10
845.0
 20
2054.999999999998
  0
LWPOLYLINE
  5
124FE
330
1F
100
AcDbEntity
  8
03破線
100
AcDbPolyline
 90
        4
 70
     1
 43
0.0
 10
840.0
 20
2111.799999999998
 10
840.0
 20
2114.999999999998
 10
890.0
 20
2114.999999999998
 10
890.0
 20
2111.799999999998
  0
INSERT
  5
124FF
102
{ACAD_REACTORS
330
130B6
102
}
330
1F
100
AcDbEntity
  8
02実線
100
AcDbBlockReference
  2
hole-φ12
 10
867.0
 20
2084.999999999998
 30
0.0
  0
LWPOLYLINE
  5
12502
330
1F
100
AcDbEntity
  8
02実線
100
AcDbPolyline
 90
        4
 70
     1
 43
0.0
 10
840.0
 20
1396.799999999999
 10
840.0
 20
1399.999999999999
 10
890.0
 20
1399.999999999999
 10
890.0
 20
1396.799999999999
  0
LWPOLYLINE
  5
12503
330
1F
100
AcDbEntity
  8
02実線
100
AcDbPolyline
 90
        5
 70
     1
 43
0.0
 10
840.0
 20
1354.999999999999
 10
840.0
 20
1399.999999999999
 10
890.0
 20
1399.999999999999
 10
890.0
 20
1349.999999999999
 10
845.0
 20
1349.999999999999
  0
LWPOLYLINE
  5
12504
102
{ACAD_REACTORS
330
12506
102
}
330
1F
100
AcDbEntity
  8
02実線
100
AcDbPolyline
 90
        4
 70
     1
 43
0.0
 10
840.0
 20
1399.999999999999
 10
840.0
 20
1409.999999999999
 10
890.0
 20
1409.999999999999
 10
890.0
 20
1399.999999999999
  0
LINE
  5
12505
330
1F
100
AcDbEntity
  8
04一点鎖線
100
AcDbLine
 10
867.0
 20
1381.799999999999
 30
0.0
 11
867.0
 21
1424.999999999999
 31
0.0
  0
HATCH
  5
12506
330
1F
100
AcDbEntity
  8
01注記寸法
100
AcDbHatch
 10
0.0
 20
0.0
 30
0.0
210
0.0
220
0.0
230
1.0
  2
ANSI31
 70
     0
 71
     1
 91
        1
 92
        1
 93
        4
 72
     1
 10
840.0
 20
1399.999999999999
 11
840.0
 21
1409.999999999999
 72
     1
 10
840.0
 20
1409.999999999999
 11
890.0
 21
1409.999999999999
 72
     1
 10
890.0
 20
1409.999999999999
 11
890.0
 21
1399.999999999999
 72
     1
 10
890.0
 20
1399.999999999999
 11
840.0
 21
1399.999999999999
 97
        1
330
12504
 75
     0
 76
     1
 52
45.0
 41
5.000000000000009
 77
     0
 78
     1
 53
90.0
 43
4511.681869869737
 44
2426.698660858377
 45
-15.875
 46
0.000000000000001
 79
     0
 98
        1
 10
4511.681869869737
 20
2416.698660858377
1001
ACAD
1010
0.0
1020
0.0
1030
0.0
  0
LWPOLYLINE
  5
12507
330
1F
100
AcDbEntity
  8
02実線
100
AcDbPolyline
 90
        9
 70
     0
 43
0.0
 10
2345.0
 20
1399.999999999997
 10
2398.6
 20
1399.999999999997
 42
-0.4142135623730948
 10
2405.0
 20
1393.599999999998
 10
2405.0
 20
1349.999999999997
 10
2401.800000000001
 20
1349.999999999997
 10
2401.800000000001
 20
1393.599999999998
 42
0.4142135623730948
 10
2398.600000000001
 20
1396.799999999997
 10
2345.0
 20
1396.799999999997
 10
2345.0
 20
1399.999999999997
  0
LWPOLYLINE
  5
12508
102
{ACAD_REACTORS
330
1250A
102
}
330
1F
100
AcDbEntity
  8
02実線
100
AcDbPolyline
 90
        4
 70
     1
 43
0.0
 10
2345.0
 20
1399.999999999997
 10
2345.0
 20
1409.999999999997
 10
2405.0
 20
1409.999999999997
 10
2405.0
 20
1399.999999999997
  0
LINE
  5
12509
330
1F
100
AcDbEntity
  8
04一点鎖線
100
AcDbLine
 10
2375.0
 20
1381.799999999997
 30
0.0
 11
2375.0
 21
1424.999999999997
 31
0.0
  0
HATCH
  5
1250A
330
1F
100
AcDbEntity
  8
01注記寸法
100
AcDbHatch
 10
0.0
 20
0.0
 30
0.0
210
0.0
220
0.0
230
1.0
  2
ANSI31
 70
     0
 71
     1
 91
        1
 92
        1
 93
        4
 72
     1
 10
2345.0
 20
1399.999999999997
 11
2345.0
 21
1409.999999999997
 72
     1
 10
2345.0
 20
1409.999999999997
 11
2405.0
 21
1409.999999999997
 72
     1
 10
2405.0
 20
1409.999999999997
 11
2405.0
 21
1399.999999999997
 72
     1
 10
2405.0
 20
1399.999999999997
 11
2345.0
 21
1399.999999999997
 97
        1
330
12508
 75
     0
 76
     1
 52
45.0
 41
5.000000000000012
 77
     0
 78
     1
 53
90.0
 43
5896.681869869737
 44
2426.698660858375
 45
-15.875
 46
0.000000000000001
 79
     0
 98
        1
 10
5896.681869869737
 20
2426.698660858375
1001
ACAD
1010
0.0
1020
0.0
1030
0.0
  0
HATCH
  5
130B6
330
1F
100
AcDbEntity
  8
01注記寸法
100
AcDbHatch
 10
0.0
 20
0.0
 30
0.0
210
0.0
220
0.0
230
1.0
  2
ANSI31
 70
     0
 71
     1
 91
        2
 92
        1
 93
        5
 72
     1
 10
840.0
 20
2059.999999999998
 11
840.0
 21
2114.999999999998
 72
     1
 10
840.0
 20
2114.999999999998
 11
890.0
 21
2114.999999999998
 72
     1
 10
890.0
 20
2114.999999999998
 11
890.0
 21
2054.999999999998
 72
     1
 10
890.0
 20
2054.999999999998
 11
845.0
 21
2054.999999999998
 72
     1
 10
845.0
 20
2054.999999999998
 11
840.0
 21
2059.999999999998
 97
        1
330
124FD
 92
       16
 93
        1
 72
     2
 10
867.0
 20
2084.999999999998
 40
6.0
 50
0.0
 51
360.0
 73
     1
 97
        1
330
124FF
 75
     0
 76
     1
 52
135.0
 41
5.0
 77
     0
 78
     1
 53
180.0
 43
4794.765320007411
 44
-398.3594970125582
 45
-0.0000000000000019
 46
-15.875
 79
     0
 98
        1
 10
4794.765320007411
 20
-398.3594970125582
1001
ACAD
1010
0.0
1020
0.0
1030
0.0
1001
HATCHBACKGROUNDCOLOR
1071
-939524096
1000

1000

  0
LWPOLYLINE
  5
130B9
330
1F
100
AcDbEntity
  8
02実線
100
AcDbPolyline
 90
        4
 70
     1
 43
0.0
 10
1700.0
 20
1396.799999999996
 10
1700.0
 20
1399.999999999996
 10
1650.0
 20
1399.999999999996
 10
1650.0
 20
1396.799999999996
  0
LWPOLYLINE
  5
130BA
330
1F
100
AcDbEntity
  8
02実線
100
AcDbPolyline
 90
        5
 70
     1
 43
0.0
 10
1700.0
 20
1354.999999999996
 10
1700.0
 20
1399.999999999996
 10
1650.0
 20
1399.999999999996
 10
1650.0
 20
1349.999999999996
 10
1695.0
 20
1349.999999999996
  0
LWPOLYLINE
  5
130BB
102
{ACAD_REACTORS
330
130BD
102
}
330
1F
100
AcDbEntity
  8
02実線
100
AcDbPolyline
 90
        4
 70
     1
 43
0.0
 10
1700.0
 20
1399.999999999996
 10
1700.0
 20
1409.999999999996
 10
1650.0
 20
1409.999999999996
 10
1650.0
 20
1399.999999999996
  0
LINE
  5
130BC
330
1F
100
AcDbEntity
  8
04一点鎖線
100
AcDbLine
 10
1673.0
 20
1381.799999999996
 30
0.0
 11
1673.0
 21
1424.999999999996
 31
0.0
  0
HATCH
  5
130BD
330
1F
100
AcDbEntity
  8
01注記寸法
100
AcDbHatch
 10
0.0
 20
0.0
 30
0.0
210
0.0
220
0.0
230
1.0
  2
ANSI31
 70
     0
 71
     1
 91
        1
 92
        1
 93
        4
 72
     1
 10
1700.0
 20
1399.999999999996
 11
1700.0
 21
1409.999999999996
 72
     1
 10
1700.0
 20
1409.999999999996
 11
1650.0
 21
1409.999999999996
 72
     1
 10
1650.0
 20
1409.999999999996
 11
1650.0
 21
1399.999999999996
 72
     1
 10
1650.0
 20
1399.999999999996
 11
1700.0
 21
1399.999999999996
 97
        1
330
130BB
 75
     0
 76
     1
 52
45.0
 41
5.000000000000009
 77
     0
 78
     1
 53
90.0
 43
3563.128929755295
 44
0.0000000000086402
 45
-15.87500000000001
 46
0.000000000000001
 79
     0
 98
        1
 10
-1971.681869869733
 20
2416.698660858387
1001
ACAD
1010
0.0
1020
0.0
1030
0.0
  0
LWPOLYLINE
  5
130BE
102
{ACAD_REACTORS
330
130C0
102
}
330
1F
100
AcDbEntity
  8
01注記寸法
100
AcDbPolyline
 90
        4
 70
     1
 43
0.0
 10
890.0
 20
1984.999999999998
 10
890.0
 20
2034.999999999998
 10
1650.0
 20
2034.999999999998
 10
1650.0
 20
1984.999999999998
  0
HATCH
  5
130C0
330
1F
100
AcDbEntity
  8
01注記寸法
100
AcDbHatch
 10
0.0
 20
0.0
 30
0.0
210
0.0
220
0.0
230
1.0
  2
ANSI31
 70
     0
 71
     1
 91
        1
 92
        1
 93
        4
 72
     1
 10
890.0
 20
1984.999999999998
 11
890.0
 21
2034.999999999998
 72
     1
 10
890.0
 20
2034.999999999998
 11
1650.0
 21
2034.999999999998
 72
     1
 10
1650.0
 20
2034.999999999998
 11
1650.0
 21
1984.999999999998
 72
     1
 10
1650.0
 20
1984.999999999998
 11
890.0
 21
1984.999999999998
 97
        1
330
130BE
 75
     0
 76
     1
 52
45.0
 41
10.00000000000001
 77
     0
 78
     1
 53
90.0
 43
3783.128929755295
 44
0.0000000000086402
 45
-31.75
 46
0.0000000000000019
 79
     0
 98
        1
 10
3783.128929755295
 20
0.0000000000086402
1001
ACAD
1010
0.0
1020
0.0
1030
0.0
1001
HATCHBACKGROUNDCOLOR
1071
-939524096
1000

1000

  0
LWPOLYLINE
  5
130C1
102
{ACAD_REACTORS
330
130C4
102
}
330
1F
100
AcDbEntity
  8
01注記寸法
100
AcDbPolyline
 90
        4
 70
     1
 43
0.0
 10
890.0
 20
2034.999999999998
 10
890.0
 20
2419.999999999998
 10
940.0
 20
2419.999999999998
 10
940.0
 20
2034.999999999998
  0
HATCH
  5
130C4
330
1F
100
AcDbEntity
  8
01注記寸法
100
AcDbHatch
 10
0.0
 20
0.0
 30
0.0
210
0.0
220
0.0
230
1.0
  2
ANSI31
 70
     0
 71
     1
 91
        1
 92
        1
 93
        4
 72
     1
 10
890.0
 20
2034.999999999998
 11
890.0
 21
2419.999999999998
 72
     1
 10
890.0
 20
2419.999999999998
 11
940.0
 21
2419.999999999998
 72
     1
 10
940.0
 20
2419.999999999998
 11
940.0
 21
2034.999999999998
 72
     1
 10
940.0
 20
2034.999999999998
 11
890.0
 21
2034.999999999998
 97
        1
330
130C1
 75
     0
 76
     1
 52
135.0
 41
10.0
 77
     0
 78
     1
 53
180.0
 43
3783.128929755295
 44
0.0000000000086402
 45
-0.0000000000000039
 46
-31.75
 79
     0
 98
        1
 10
3783.128929755295
 20
0.0000000000086402
1001
ACAD
1010
0.0
1020
0.0
1030
0.0
1001
HATCHBACKGROUNDCOLOR
1071
-939524096
1000

1000

  0
HATCH
  5
130C5
330
1F
100
AcDbEntity
  8
01注記寸法
100
AcDbHatch
 10
0.0
 20
0.0
 30
0.0
210
0.0
220
0.0
230
1.0
  2
ANSI31
 70
     0
 71
     1
 91
        1
 92
        1
 93
        4
 72
     1
 10
1600.0
 20
2034.999999999998
 11
1600.0
 21
2419.999999999998
 72
     1
 10
1600.0
 20
2419.999999999998
 11
1650.0
 21
2419.999999999998
 72
     1
 10
1650.0
 20
2419.999999999998
 11
1650.0
 21
2034.999999999998
 72
     1
 10
1650.0
 20
2034.999999999998
 11
1600.0
 21
2034.999999999998
 97
        1
330
130C6
 75
     0
 76
     1
 52
135.0
 41
10.0
 77
     0
 78
     1
 53
180.0
 43
4493.128929755295
 44
0.0000000000086402
 45
-0.0000000000000039
 46
-31.75
 79
     0
 98
        1
 10
4493.128929755295
 20
0.0000000000086402
1001
ACAD
1010
0.0
1020
0.0
1030
0.0
1001
HATCHBACKGROUNDCOLOR
1071
-939524096
1000

1000

  0
LWPOLYLINE
  5
130C6
102
{ACAD_REACTORS
330
130C5
102
}
330
1F
100
AcDbEntity
  8
01注記寸法
100
AcDbPolyline
 90
        4
 70
     1
 43
0.0
 10
1600.0
 20
2034.999999999998
 10
1600.0
 20
2419.999999999998
 10
1650.0
 20
2419.999999999998
 10
1650.0
 20
2034.999999999998
  0
HATCH
  5
130C7
330
1F
100
AcDbEntity
  8
01注記寸法
100
AcDbHatch
 10
0.0
 20
0.0
 30
0.0
210
0.0
220
0.0
230
1.0
  2
ANSI31
 70
     0
 71
     1
 91
        1
 92
        1
 93
        4
 72
     1
 10
889.9999999999991
 20
2419.999999999998
 11
889.9999999999991
 21
2469.999999999998
 72
     1
 10
889.9999999999991
 20
2469.999999999998
 11
1649.999999999999
 21
2469.999999999998
 72
     1
 10
1649.999999999999
 20
2469.999999999998
 11
1649.999999999999
 21
2419.999999999998
 72
     1
 10
1649.999999999999
 20
2419.999999999998
 11
889.9999999999991
 21
2419.999999999998
 97
        1
330
130C8
 75
     0
 76
     1
 52
45.0
 41
10.00000000000001
 77
     0
 78
     1
 53
90.0
 43
3783.128929755294
 44
435.0000000000091
 45
-31.75
 46
0.0000000000000019
 79
     0
 98
        1
 10
3783.128929755294
 20
435.0000000000091
1001
ACAD
1010
0.0
1020
0.0
1030
0.0
1001
HATCHBACKGROUNDCOLOR
1071
-939524096
1000

1000

  0
LWPOLYLINE
  5
130C8
102
{ACAD_REACTORS
330
130C7
102
}
330
1F
100
AcDbEntity
  8
01注記寸法
100
AcDbPolyline
 90
        4
 70
     1
 43
0.0
 10
889.9999999999991
 20
2419.999999999998
 10
889.9999999999991
 20
2469.999999999998
 10
1649.999999999999
 20
2469.999999999998
 10
1649.999999999999
 20
2419.999999999998
  0
LWPOLYLINE
  5
130CB
330
1F
100
AcDbEntity
  8
03破線
100
AcDbPolyline
 90
        4
 70
     1
 43
0.0
 10
840.0
 20
2358.199999999998
 10
840.0
 20
2354.999999999998
 10
890.0
 20
2354.999999999998
 10
890.0
 20
2358.199999999998
  0
HATCH
  5
130CC
330
1F
100
AcDbEntity
  8
01注記寸法
100
AcDbHatch
 10
0.0
 20
0.0
 30
0.0
210
0.0
220
0.0
230
1.0
  2
ANSI31
 70
     0
 71
     1
 91
        2
 92
        1
 93
        5
 72
     1
 10
840.0
 20
2409.999999999998
 11
840.0
 21
2354.999999999998
 72
     1
 10
840.0
 20
2354.999999999998
 11
890.0
 21
2354.999999999998
 72
     1
 10
890.0
 20
2354.999999999998
 11
890.0
 21
2414.999999999998
 72
     1
 10
890.0
 20
2414.999999999998
 11
845.0
 21
2414.999999999998
 72
     1
 10
845.0
 20
2414.999999999998
 11
840.0
 21
2409.999999999998
 97
        1
330
130CD
 92
       16
 93
        1
 72
     2
 10
867.0
 20
2384.999999999998
 40
6.0
 50
0.0
 51
360.0
 73
     1
 97
        1
330
130CE
 75
     0
 76
     1
 52
135.0
 41
5.0
 77
     0
 78
     1
 53
180.0
 43
3783.128929755295
 44
0.0000000000086402
 45
-0.0000000000000019
 46
-15.875
 79
     0
 98
        1
 10
4794.765320007411
 20
4868.359497012554
1001
ACAD
1010
0.0
1020
0.0
1030
0.0
1001
HATCHBACKGROUNDCOLOR
1071
-939524096
1000

1000

  0
LWPOLYLINE
  5
130CD
102
{ACAD_REACTORS
330
130CC
102
}
330
1F
100
AcDbEntity
  8
02実線
100
AcDbPolyline
 90
        5
 70
     1
 43
0.0
 10
840.0
 20
2409.999999999998
 10
840.0
 20
2354.999999999998
 10
890.0
 20
2354.999999999998
 10
890.0
 20
2414.999999999998
 10
845.0
 20
2414.999999999998
  0
INSERT
  5
130CE
102
{ACAD_REACTORS
330
130CC
102
}
330
1F
100
AcDbEntity
  8
02実線
100
AcDbBlockReference
  2
hole-φ12
 10
867.0
 20
2384.999999999998
 30
0.0
 41
-1.0
 50
180.0
  0
LWPOLYLINE
  5
130CF
330
1F
100
AcDbEntity
  8
03破線
100
AcDbPolyline
 90
        4
 70
     1
 43
0.0
 10
1700.0
 20
2111.799999999998
 10
1700.0
 20
2114.999999999998
 10
1650.0
 20
2114.999999999998
 10
1650.0
 20
2111.799999999998
  0
HATCH
  5
130D0
330
1F
100
AcDbEntity
  8
01注記寸法
100
AcDbHatch
 10
0.0
 20
0.0
 30
0.0
210
0.0
220
0.0
230
1.0
  2
ANSI31
 70
     0
 71
     1
 91
        2
 92
        1
 93
        5
 72
     1
 10
1700.0
 20
2059.999999999998
 11
1700.0
 21
2114.999999999998
 72
     1
 10
1700.0
 20
2114.999999999998
 11
1650.0
 21
2114.999999999998
 72
     1
 10
1650.0
 20
2114.999999999998
 11
1650.0
 21
2054.999999999998
 72
     1
 10
1650.0
 20
2054.999999999998
 11
1695.0
 21
2054.999999999998
 72
     1
 10
1695.0
 20
2054.999999999998
 11
1700.0
 21
2059.999999999998
 97
        1
330
130D1
 92
       16
 93
        1
 72
     2
 10
1673.0
 20
2084.999999999998
 40
6.0
 50
0.0
 51
360.0
 73
     1
 97
        1
330
130D2
 75
     0
 76
     1
 52
135.0
 41
5.0
 77
     0
 78
     1
 53
180.0
 43
3563.128929755295
 44
0.0000000000086402
 45
-0.0000000000000019
 46
-15.875
 79
     0
 98
        1
 10
-2254.765320007411
 20
-398.3594970125582
1001
ACAD
1010
0.0
1020
0.0
1030
0.0
1001
HATCHBACKGROUNDCOLOR
1071
-939524096
1000

1000

  0
LWPOLYLINE
  5
130D1
102
{ACAD_REACTORS
330
130D0
102
}
330
1F
100
AcDbEntity
  8
02実線
100
AcDbPolyline
 90
        5
 70
     1
 43
0.0
 10
1700.0
 20
2059.999999999998
 10
1700.0
 20
2114.999999999998
 10
1650.0
 20
2114.999999999998
 10
1650.0
 20
2054.999999999998
 10
1695.0
 20
2054.999999999998
  0
INSERT
  5
130D2
102
{ACAD_REACTORS
330
130D0
102
}
330
1F
100
AcDbEntity
  8
02実線
100
AcDbBlockReference
  2
hole-φ12
 10
1673.0
 20
2084.999999999998
 30
0.0
 41
-1.0
  0
LWPOLYLINE
  5
130D3
330
1F
100
AcDbEntity
  8
03破線
100
AcDbPolyline
 90
        4
 70
     1
 43
0.0
 10
1700.0
 20
2358.199999999998
 10
1700.0
 20
2354.999999999998
 10
1650.0
 20
2354.999999999998
 10
1650.0
 20
2358.199999999998
  0
HATCH
  5
130D4
330
1F
100
AcDbEntity
  8
01注記寸法
100
AcDbHatch
 10
0.0
 20
0.0
 30
0.0
210
0.0
220
0.0
230
1.0
  2
ANSI31
 70
     0
 71
     1
 91
        2
 92
        1
 93
        5
 72
     1
 10
1700.0
 20
2409.999999999998
 11
1700.0
 21
2354.999999999998
 72
     1
 10
1700.0
 20
2354.999999999998
 11
1650.0
 21
2354.999999999998
 72
     1
 10
1650.0
 20
2354.999999999998
 11
1650.0
 21
2414.999999999998
 72
     1
 10
1650.0
 20
2414.999999999998
 11
1695.0
 21
2414.999999999998
 72
     1
 10
1695.0
 20
2414.999999999998
 11
1700.0
 21
2409.999999999998
 97
        1
330
130D5
 92
       16
 93
        1
 72
     2
 10
1673.0
 20
2384.999999999998
 40
6.0
 50
0.0
 51
360.0
 73
     1
 97
        1
330
130D6
 75
     0
 76
     1
 52
135.0
 41
5.0
 77
     0
 78
     1
 53
180.0
 43
3563.128929755295
 44
0.0000000000086402
 45
-0.0000000000000019
 46
-15.875
 79
     0
 98
        1
 10
-2254.765320007411
 20
4868.359497012554
1001
ACAD
1010
0.0
1020
0.0
1030
0.0
1001
HATCHBACKGROUNDCOLOR
1071
-939524096
1000

1000

  0
LWPOLYLINE
  5
130D5
102
{ACAD_REACTORS
330
130D4
102
}
330
1F
100
AcDbEntity
  8
02実線
100
AcDbPolyline
 90
        5
 70
     1
 43
0.0
 10
1700.0
 20
2409.999999999998
 10
1700.0
 20
2354.999999999998
 10
1650.0
 20
2354.999999999998
 10
1650.0
 20
2414.999999999998
 10
1695.0
 20
2414.999999999998
  0
INSERT
  5
130D6
102
{ACAD_REACTORS
330
130D4
102
}
330
1F
100
AcDbEntity
  8
02実線
100
AcDbBlockReference
  2
hole-φ12
 10
1673.0
 20
2384.999999999998
 30
0.0
 50
180.0
  0
LWPOLYLINE
  5
1312B
330
1F
100
AcDbEntity
  8
02実線
100
AcDbPolyline
 90
        9
 70
     0
 43
0.0
 10
2705.0
 20
1399.999999999997
 10
2651.4
 20
1399.999999999997
 42
0.4142135623730948
 10
2645.0
 20
1393.599999999998
 10
2645.0
 20
1349.999999999997
 10
2648.2
 20
1349.999999999997
 10
2648.2
 20
1393.599999999998
 42
-0.4142135623730948
 10
2651.4
 20
1396.799999999997
 10
2705.0
 20
1396.799999999997
 10
2705.0
 20
1399.999999999997
  0
LWPOLYLINE
  5
1312C
102
{ACAD_REACTORS
330
1312E
102
}
330
1F
100
AcDbEntity
  8
02実線
100
AcDbPolyline
 90
        4
 70
     1
 43
0.0
 10
2705.0
 20
1399.999999999997
 10
2705.0
 20
1409.999999999997
 10
2645.0
 20
1409.999999999997
 10
2645.0
 20
1399.999999999997
  0
LINE
  5
1312D
330
1F
100
AcDbEntity
  8
04一点鎖線
100
AcDbLine
 10
2675.0
 20
1381.799999999997
 30
0.0
 11
2675.0
 21
1424.999999999997
 31
0.0
  0
HATCH
  5
1312E
330
1F
100
AcDbEntity
  8
01注記寸法
100
AcDbHatch
 10
0.0
 20
0.0
 30
0.0
210
0.0
220
0.0
230
1.0
  2
ANSI31
 70
     0
 71
     1
 91
        1
 92
        1
 93
        4
 72
     1
 10
2705.0
 20
1399.999999999997
 11
2705.0
 21
1409.999999999997
 72
     1
 10
2705.0
 20
1409.999999999997
 11
2645.0
 21
1409.999999999997
 72
     1
 10
2645.0
 20
1409.999999999997
 11
2645.0
 21
1399.999999999997
 72
     1
 10
2645.0
 20
1399.999999999997
 11
2705.0
 21
1399.999999999997
 97
        1
330
1312C
 75
     0
 76
     1
 52
45.0
 41
5.000000000000012
 77
     0
 78
     1
 53
90.0
 43
4089.645550325853
 44
0.0000000000084128
 45
-15.87500000000001
 46
0.000000000000001
 79
     0
 98
        1
 10
-846.681869869737
 20
2426.698660858375
1001
ACAD
1010
0.0
1020
0.0
1030
0.0
  0
VIEWPORT
  5
9F0D
330
1B
100
AcDbEntity
 67
     1
  8
0
100
AcDbViewport
 10
202.5
 20
128.5
 30
0.0
 40
486.0
 41
308.4
 68
     1
 69
     1
 12
202.5
 22
128.5
 13
0.0
 23
0.0
 14
0.5
 24
0.5
 15
0.0
 25
0.0
 16
0.0
 26
0.0
 36
1.0
 17
0.0
 27
0.0
 37
0.0
 42
50.0
 43
0.0
 44
0.0
 45
308.4
 50
0.0
 51
0.0
 72
   100
 90
   557152
  1

281
     0
 71
     1
 74
     0
110
0.0
120
0.0
130
0.0
111
1.0
121
0.0
131
0.0
112
0.0
122
1.0
132
0.0
 79
     0
146
0.0
  0
VIEWPORT
  5
9F0E
330
1B
100
AcDbEntity
 67
     1
  8
0
100
AcDbViewport
 10
202.5
 20
128.5
 30
0.0
 40
324.0
 41
205.6
 68
     2
 69
     2
 12
-3224.9849078482
 22
3553.815758143106
 13
0.0
 23
0.0
 14
0.5
 24
0.5
 15
0.0
 25
0.0
 16
0.0
 26
0.0
 36
1.0
 17
0.0
 27
0.0
 37
0.0
 42
50.0
 43
0.0
 44
0.0
 45
10712.16027781073
 50
0.0
 51
0.0
 72
   100
 90
   557152
  1

281
     0
 71
     1
 74
     0
110
0.0
120
0.0
130
0.0
111
1.0
121
0.0
131
0.0
112
0.0
122
1.0
132
0.0
 79
     0
146
0.0
  0
ENDSEC
  0
SECTION
  2
OBJECTS
  0
DICTIONARY
  5
C
330
0
100
AcDbDictionary
281
     1
  3
ACAD_DETAILVIEWSTYLE
350
12677
  3
ACAD_GROUP
350
D
  3
ACAD_IMAGE_VARS
350
6A88
  3
ACAD_LAYOUT
350
1A
  3
ACAD_MLINESTYLE
350
17
  3
ACAD_PLOTSETTINGS
350
19
  3
ACAD_PLOTSTYLENAME
350
E
  3
ACAD_SCALELIST
350
6A4E
  3
ACAD_SECTIONVIEWSTYLE
350
12678
  3
AcadDim
350
13181
  3
AcDbVariableDictionary
350
79E
  3
APPDATA
350
6A87
  3
DWGPROPS
350
1339D
  0
DICTIONARY
  5
7A6F
330
2
100
AcDbDictionary
280
     1
281
     1
  3
ACAD_LAYERSTATES
360
7A70
  3
ACLYDICTIONARY
360
F959
  0
DICTIONARY
  5
969E
330
1F
100
AcDbDictionary
280
     1
281
     1
  3
ACAD_SORTENTS
360
969F
  0
DICTIONARY
  5
12677
102
{ACAD_REACTORS
330
C
102
}
330
C
100
AcDbDictionary
281
     1
  0
DICTIONARY
  5
D
102
{ACAD_REACTORS
330
C
102
}
330
C
100
AcDbDictionary
281
     1
  3
*A1
350
1228F
  3
*A2
350
12290
  3
*A3
350
12291
  3
*A4
350
12292
  3
*A5
350
12293
  0
RASTERVARIABLES
  5
6A88
102
{ACAD_REACTORS
330
C
102
}
330
C
100
AcDbRasterVariables
 90
        0
 70
     1
 71
     1
 72
     1
  0
DICTIONARY
  5
1A
102
{ACAD_REACTORS
330
C
102
}
330
C
100
AcDbDictionary
281
     1
  3
Layout1
350
1E
  3
Model
350
22
  0
DICTIONARY
  5
17
102
{ACAD_REACTORS
330
C
102
}
330
C
100
AcDbDictionary
281
     1
  3
Standard
350
18
  0
DICTIONARY
  5
19
102
{ACAD_REACTORS
330
C
102
}
330
C
100
AcDbDictionary
281
     1
  0
ACDBDICTIONARYWDFLT
  5
E
102
{ACAD_REACTORS
330
C
102
}
330
C
100
AcDbDictionary
281
     1
  3
Normal
350
F
100
AcDbDictionaryWithDefault
340
F
  0
DICTIONARY
  5
6A4E
102
{ACAD_REACTORS
330
C
102
}
330
C
100
AcDbDictionary
281
     1
  3
A0
350
6A4F
  3
A1
350
6A50
  3
A2
350
6A51
  3
A3
350
6A52
  3
A4
350
6A53
  3
A5
350
6A54
  3
A6
350
6A55
  3
A7
350
6A56
  3
A8
350
6A57
  3
A9
350
6A58
  3
B0
350
6A59
  3
B1
350
6A5A
  3
B2
350
6A5B
  3
B3
350
6A5C
  3
B4
350
6A5D
  3
B5
350
6A5E
  3
B6
350
6A5F
  3
B7
350
6A60
  3
B8
350
6A61
  3
B9
350
6A62
  3
C0
350
6A63
  3
C1
350
6A64
  3
C2
350
6A65
  3
C3
350
6A66
  3
C4
350
6A67
  3
C5
350
6A68
  3
C6
350
6A69
  3
C7
350
6A6A
  3
C8
350
6A6B
  3
C9
350
6A6C
  3
D0
350
6A6D
  3
D1
350
6A6E
  3
D2
350
6A6F
  0
DICTIONARY
  5
12678
102
{ACAD_REACTORS
330
C
102
}
330
C
100
AcDbDictionary
281
     1
  0
XRECORD
  5
13181
102
{ACAD_REACTORS
330
C
102
}
330
C
100
AcDbXrecord
280
     1
340
0
 72
     0
 71
     0
 70
     0
 69
     0
 68
     1
 67
     3
 66
     0
 65
     0
 64
     0
 63
     3
 62
     1
 61
     0
 60
     0
 40
0.0
  0
DICTIONARY
  5
79E
102
{ACAD_REACTORS
330
C
102
}
330
C
100
AcDbDictionary
281
     1
  3
DIMASSOC
350
79F
  3
SORTENTS
350
264F
  0
DICTIONARY
  5
6A87
102
{ACAD_REACTORS
330
C
102
}
330
C
100
AcDbDictionary
281
     1
  0
XRECORD
  5
1339D
102
{ACAD_REACTORS
330
C
102
}
330
C
100
AcDbXrecord
280
     1
  1
DWGPROPS COOKIE
  2

  3

  4

  6

  7

  8
Sales
  9

300
=
301
=
302
=
303
=
304
=
305
=
306
=
307
=
308
=
309
=
 40
0.0
 41
2455859.030048461
 42
2459075.105845694
  1

 90
        0
  0
DICTIONARY
  5
7A70
102
{ACAD_REACTORS
330
7A6F
102
}
330
7A6F
100
AcDbDictionary
281
     1
  0
DICTIONARY
  5
F959
102
{ACAD_REACTORS
330
7A6F
102
}
330
7A6F
100
AcDbDictionary
281
     1
1001
ACAD
1000
<All
  0
SORTENTSTABLE
  5
969F
102
{ACAD_REACTORS
330
969E
102
}
330
969E
100
AcDbSortentsTable
330
1F
331
0
  5
1210F
331
0
  5
7E94
331
0
  5
12394
331
0
  5
122EF
331
0
  5
122EE
331
0
  5
122ED
331
0
  5
A78F
331
0
  5
7E95
331
0
  5
A790
331
0
  5
122EC
331
0
  5
A791
331
0
  5
A793
331
0
  5
A794
331
0
  5
122EB
331
0
  5
122EA
331
0
  5
A795
331
0
  5
A796
331
0
  5
122E9
331
0
  5
123E1
331
0
  5
A77F
331
0
  5
A780
331
0
  5
A781
331
0
  5
A782
331
0
  5
A783
331
0
  5
A784
331
0
  5
A785
331
0
  5
A786
331
0
  5
A797
331
0
  5
A798
331
0
  5
A799
331
0
  5
A79A
331
0
  5
A79B
331
0
  5
A79C
331
0
  5
A79D
331
0
  5
A79E
331
0
  5
A79F
331
0
  5
A7A0
331
0
  5
A7A1
331
0
  5
A7A2
331
0
  5
A7A3
331
0
  5
7E97
331
0
  5
7E98
331
0
  5
7EA4
331
0
  5
122E8
331
0
  5
A7A4
331
0
  5
A7A5
331
0
  5
A7A6
331
0
  5
A7A7
331
0
  5
A7A8
331
0
  5
7EA5
331
0
  5
7EA6
331
0
  5
A7A9
331
0
  5
A7AA
331
0
  5
A7AB
331
0
  5
A7B1
331
0
  5
A7B2
331
0
  5
7EA7
331
0
  5
7EA8
331
0
  5
A7B3
331
0
  5
A7B4
331
0
  5
A7B5
331
0
  5
A7B6
331
0
  5
A7B7
331
0
  5
7EA9
331
0
  5
7EAA
331
0
  5
A7B8
331
0
  5
A7B9
331
0
  5
A7BA
331
0
  5
A7BB
331
0
  5
A7BC
331
0
  5
7EB1
331
0
  5
7EB3
331
0
  5
A7BD
331
0
  5
A7BE
331
0
  5
A7BF
331
0
  5
A7C0
331
0
  5
A7C1
331
0
  5
A7C2
331
0
  5
A7C3
331
0
  5
A7C4
331
0
  5
A7C5
331
0
  5
A7C6
331
0
  5
A7C7
331
0
  5
A7C9
331
0
  5
A843
331
0
  5
A845
331
0
  5
A846
331
0
  5
A847
331
0
  5
A848
331
0
  5
A849
331
0
  5
A84A
331
0
  5
A84B
331
0
  5
A84C
331
0
  5
A84D
331
0
  5
A84E
331
0
  5
A859
331
0
  5
A85A
331
0
  5
A85B
331
0
  5
A85C
331
0
  5
A85D
331
0
  5
A85E
331
0
  5
A85F
331
0
  5
A865
331
0
  5
A867
331
0
  5
A868
331
0
  5
A8E7
331
0
  5
A8E8
331
0
  5
A8E9
331
0
  5
A8EA
331
0
  5
A916
331
0
  5
A917
331
0
  5
A919
331
0
  5
A91A
331
0
  5
A91B
331
0
  5
A91D
331
0
  5
7EB4
331
0
  5
7EB5
331
0
  5
7EB6
331
0
  5
7EB9
331
0
  5
7EBA
331
0
  5
7ED4
331
0
  5
A91E
331
0
  5
A91F
331
0
  5
A9BF
331
0
  5
7ED7
331
0
  5
7EDC
331
0
  5
7EDD
331
0
  5
7EDE
331
0
  5
7EDF
331
0
  5
7EE0
331
0
  5
7EE2
331
0
  5
7EE3
331
0
  5
7EE4
331
0
  5
A9C1
331
0
  5
A9C2
331
0
  5
AA34
331
0
  5
7EE8
331
0
  5
7EE9
331
0
  5
7EEA
331
0
  5
7EEB
331
0
  5
7EED
331
0
  5
7EEF
331
0
  5
AA35
331
0
  5
AA36
331
0
  5
AA5A
331
0
  5
7F17
331
0
  5
D2BC
331
0
  5
7E90
331
0
  5
7F4B
331
0
  5
7F4C
331
0
  5
7F4D
331
0
  5
7F91
331
0
  5
7F92
331
0
  5
7F93
331
0
  5
7F94
331
0
  5
7F95
331
0
  5
8083
331
0
  5
8084
331
0
  5
8192
331
0
  5
8193
331
0
  5
8194
331
0
  5
8195
331
0
  5
8196
331
0
  5
8197
331
0
  5
8198
331
0
  5
819A
331
0
  5
819C
331
0
  5
819D
331
0
  5
819F
331
0
  5
81A1
331
0
  5
81AB
331
0
  5
81B0
331
0
  5
81B1
331
0
  5
81B2
331
0
  5
81BA
331
0
  5
81BB
331
0
  5
81BD
331
0
  5
81BE
331
0
  5
81BF
331
0
  5
81C0
331
0
  5
81C4
331
0
  5
81C5
331
0
  5
81C6
331
0
  5
86B2
331
0
  5
86B3
331
0
  5
86B4
331
0
  5
86B5
331
0
  5
86B7
331
0
  5
86B8
331
0
  5
86B9
331
0
  5
86C4
331
0
  5
86C5
331
0
  5
86F1
331
0
  5
86F2
331
0
  5
86F3
331
0
  5
8ACA
331
0
  5
8F53
331
0
  5
D2BD
331
0
  5
D2BE
331
0
  5
D2BF
331
0
  5
D2C0
331
0
  5
EE43
331
0
  5
12299
331
0
  5
12110
331
0
  5
A787
331
0
  5
A788
331
0
  5
A789
331
0
  5
A78A
331
0
  5
A78B
331
0
  5
A78C
331
0
  5
A78D
331
0
  5
A78E
331
0
  5
EE44
331
ECC5
  5
EE46
331
ECC6
  5
EE47
331
ECC7
  5
A572
331
ECCA
  5
EE48
331
ECCB
  5
A574
331
ECCD
  5
EE49
331
ECCE
  5
A57F
331
ECCF
  5
EE4B
331
ECD0
  5
EE4C
331
ECD1
  5
EE4E
331
ECD2
  5
F114
331
ECED
  5
A581
331
ECEF
  5
A582
331
ECF0
  5
A583
331
ECF1
  5
A585
331
ECF3
  5
A586
331
ECF4
  5
A588
331
ECF6
  5
A589
331
ECF7
  5
A77D
331
ED10
  5
F115
331
ED11
  5
F118
331
ED12
  5
F119
331
ED13
  5
F11A
331
0
  5
F11B
331
0
  5
F11D
331
0
  5
8FAD
331
0
  5
F11E
331
0
  5
F121
331
0
  5
F122
331
0
  5
F124
331
0
  5
F12B
331
0
  5
F1B8
331
0
  5
F1B9
331
0
  5
F1BA
331
0
  5
F1BD
331
0
  5
F1BE
331
0
  5
F1BF
331
0
  5
8FBC
331
0
  5
9299
331
0
  5
F1C0
331
0
  5
F1C1
331
0
  5
F7E3
331
0
  5
F7E4
331
0
  5
FC03
331
0
  5
92A3
331
0
  5
92C1
331
0
  5
FC06
331
0
  5
FC0B
331
0
  5
FC0E
331
0
  5
FE79
331
0
  5
FE7A
331
0
  5
FE87
331
0
  5
9433
331
0
  5
9436
331
0
  5
9437
331
0
  5
9438
331
0
  5
9439
331
0
  5
9525
331
0
  5
9526
331
0
  5
FE88
331
0
  5
11A6E
331
0
  5
9757
331
0
  5
9771
331
0
  5
9772
331
0
  5
11A6F
331
0
  5
11A70
331
0
  5
11A71
331
0
  5
11D90
331
0
  5
9774
331
0
  5
11D91
331
0
  5
11E79
331
0
  5
9801
331
0
  5
11EA5
331
0
  5
1210C
331
0
  5
11EA7
331
0
  5
9802
331
0
  5
9803
331
0
  5
11EA8
331
0
  5
9806
331
0
  5
11EAA
331
0
  5
9A0E
331
0
  5
11EAD
331
0
  5
9AF2
331
0
  5
9A0F
331
0
  5
9A10
331
0
  5
11EB0
331
0
  5
11EB1
331
0
  5
9A59
331
0
  5
9A5A
331
0
  5
11EB3
331
0
  5
9AF1
331
0
  5
9AF3
331
0
  5
123E2
331
0
  5
123EE
331
0
  5
9AF4
331
0
  5
9B90
331
0
  5
9B91
331
0
  5
9BBB
331
0
  5
9BBC
331
0
  5
9BBD
331
0
  5
12434
331
0
  5
12435
331
0
  5
12436
331
0
  5
9BBE
331
0
  5
9BBF
331
0
  5
9BC0
331
0
  5
9BC1
331
0
  5
12437
331
0
  5
12438
331
0
  5
12463
331
0
  5
9BDC
331
0
  5
9BDD
331
0
  5
A564
331
0
  5
12464
331
0
  5
124B8
331
0
  5
124B9
331
0
  5
124FD
331
124FD
  5
12502
331
124FE
  5
12500
331
124FF
  5
12505
331
12502
  5
12506
331
12503
  5
12507
331
12504
  5
12508
331
12505
  5
12509
331
12506
  5
1250A
331
12507
  5
12584
331
12508
  5
12585
331
12509
  5
12586
331
1250A
  5
12587
331
0
  5
12588
331
0
  5
12589
331
0
  5
1258A
331
0
  5
1258B
331
0
  5
1258C
331
0
  5
1258D
331
0
  5
1258E
331
0
  5
12590
331
0
  5
12591
331
0
  5
12592
331
0
  5
12593
331
0
  5
125B8
331
0
  5
125B9
331
0
  5
125BA
331
0
  5
126F8
331
0
  5
12916
331
0
  5
130B5
331
0
  5
130B6
331
130B6
  5
12501
331
130B9
  5
130BA
331
130BA
  5
130BB
331
130BB
  5
130BC
331
130BC
  5
130BD
331
130BD
  5
130BF
331
130BE
  5
130C3
331
130C1
  5
130C5
331
130C5
  5
130C6
331
130C6
  5
130C7
331
130C7
  5
130C8
331
130C8
  5
130CB
331
130CB
  5
130CC
331
130CC
  5
130CD
331
130CD
  5
130CE
331
130CE
  5
130CF
331
130CF
  5
130D0
331
130D0
  5
130D1
331
130D1
  5
130D2
331
130D2
  5
130D3
331
130D3
  5
130D4
331
130D4
  5
130D5
331
130D5
  5
130D6
331
130D6
  5
130D7
331
0
  5
130E4
331
0
  5
130F1
331
0
  5
130FE
331
0
  5
1310D
331
0
  5
1311A
331
0
  5
1312B
331
1312B
  5
1312C
331
1312C
  5
1312D
331
1312D
  5
1312E
331
1312E
  5
13135
331
0
  5
13136
331
0
  5
13137
331
0
  5
13138
331
0
  5
13153
331
0
  5
13162
331
0
  5
13171
331
0
  5
13180
331
0
  5
13182
331
0
  5
13183
331
0
  5
13184
331
0
  5
13185
331
0
  5
13186
331
0
  5
7E8F
  0
GROUP
  5
1228F
102
{ACAD_REACTORS
330
D
102
}
330
D
100
AcDbGroup
300

 70
     1
 71
     1
  0
GROUP
  5
12290
102
{ACAD_REACTORS
330
D
102
}
330
D
100
AcDbGroup
300

 70
     1
 71
     1
  0
GROUP
  5
12291
102
{ACAD_REACTORS
330
D
102
}
330
D
100
AcDbGroup
300

 70
     1
 71
     1
  0
GROUP
  5
12292
102
{ACAD_REACTORS
330
D
102
}
330
D
100
AcDbGroup
300

 70
     1
 71
     1
  0
GROUP
  5
12293
102
{ACAD_REACTORS
330
D
102
}
330
D
100
AcDbGroup
300

 70
     1
 71
     1
  0
LAYOUT
  5
1E
102
{ACAD_REACTORS
330
1A
102
}
330
1A
100
AcDbPlotSettings
  1

  2
none_device
  4
ISO_A3_(420.00_x_297.00_MM)
  6

 40
7.5
 41
20.0
 42
7.5
 43
20.0
 44
420.0
 45
297.0
 46
0.0
 47
0.0
 48
0.0
 49
0.0
140
0.0
141
0.0
142
1.0
143
1.0
 70
   688
 72
     1
 73
     0
 74
     5
  7

 75
    16
147
1.0
148
0.0
149
0.0
100
AcDbLayout
  1
Layout1
 70
     1
 71
     1
 10
0.0
 20
0.0
 11
412.5
 21
277.0
 12
0.0
 22
0.0
 32
0.0
 14
1.000000000000000E+20
 24
1.000000000000000E+20
 34
1.000000000000000E+20
 15
-1.000000000000000E+20
 25
-1.000000000000000E+20
 35
-1.000000000000000E+20
146
0.0
 13
0.0
 23
0.0
 33
0.0
 16
1.0
 26
0.0
 36
0.0
 17
0.0
 27
1.0
 37
0.0
 76
     0
330
1B
331
9F0D
  0
LAYOUT
  5
22
102
{ACAD_REACTORS
330
1A
102
}
330
1A
100
AcDbPlotSettings
  1

  2
none_device
  4
A3
  6

 40
3.174999952316284
 41
3.174999952316284
 42
3.17498779296875
 43
3.17498779296875
 44
297.0318298339844
 45
420.1583251953125
 46
-3.16
 47
-3.1
 48
-90.0
 49
-90.0
140
329.9999999999998
141
207.0
142
1.0
143
1.0
 70
 11940
 72
     1
 73
     1
 74
     4
  7
monochrome.ctb
 75
     0
147
1.0
148
90.0
149
90.0
100
AcDbLayout
  1
Model
 70
     1
 71
     0
 10
0.0
 20
0.0
 11
4200.0
 21
2970.0
 12
0.0
 22
0.0
 32
0.0
 14
840.0
 24
1189.999999999999
 34
0.0
 15
2760.0
 25
2470.0
 35
0.0
146
0.0
 13
0.0
 23
0.0
 33
0.0
 16
1.0
 26
0.0
 36
0.0
 17
0.0
 27
1.0
 37
0.0
 76
     0
330
1F
331
7A57
  0
MLINESTYLE
  5
18
102
{ACAD_REACTORS
330
17
102
}
330
17
100
AcDbMlineStyle
  2
STANDARD
 70
     0
  3

 62
   256
 51
90.0
 52
90.0
 71
     2
 49
0.5
 62
   256
  6
BYLAYER
 49
-0.5
 62
   256
  6
BYLAYER
  0
ACDBPLACEHOLDER
  5
F
102
{ACAD_REACTORS
330
E
102
}
330
E
  0
SCALE
  5
6A4F
102
{ACAD_REACTORS
330
6A4E
102
}
330
6A4E
100
AcDbScale
 70
     0
300
1:1
140
1.0
141
1.0
290
     1
  0
SCALE
  5
6A50
102
{ACAD_REACTORS
330
6A4E
102
}
330
6A4E
100
AcDbScale
 70
     0
300
1:2
140
1.0
141
2.0
290
     0
  0
SCALE
  5
6A51
102
{ACAD_REACTORS
330
6A4E
102
}
330
6A4E
100
AcDbScale
 70
     0
300
1:4
140
1.0
141
4.0
290
     0
  0
SCALE
  5
6A52
102
{ACAD_REACTORS
330
6A4E
102
}
330
6A4E
100
AcDbScale
 70
     0
300
1:5
140
1.0
141
5.0
290
     0
  0
SCALE
  5
6A53
102
{ACAD_REACTORS
330
6A4E
102
}
330
6A4E
100
AcDbScale
 70
     0
300
1:8
140
1.0
141
8.0
290
     0
  0
SCALE
  5
6A54
102
{ACAD_REACTORS
330
6A4E
102
}
330
6A4E
100
AcDbScale
 70
     0
300
1:10
140
1.0
141
10.0
290
     0
  0
SCALE
  5
6A55
102
{ACAD_REACTORS
330
6A4E
102
}
330
6A4E
100
AcDbScale
 70
     0
300
1:16
140
1.0
141
16.0
290
     0
  0
SCALE
  5
6A56
102
{ACAD_REACTORS
330
6A4E
102
}
330
6A4E
100
AcDbScale
 70
     0
300
1:20
140
1.0
141
20.0
290
     0
  0
SCALE
  5
6A57
102
{ACAD_REACTORS
330
6A4E
102
}
330
6A4E
100
AcDbScale
 70
     0
300
1:30
140
1.0
141
30.0
290
     0
  0
SCALE
  5
6A58
102
{ACAD_REACTORS
330
6A4E
102
}
330
6A4E
100
AcDbScale
 70
     0
300
1:40
140
1.0
141
40.0
290
     0
  0
SCALE
  5
6A59
102
{ACAD_REACTORS
330
6A4E
102
}
330
6A4E
100
AcDbScale
 70
     0
300
1:50
140
1.0
141
50.0
290
     0
  0
SCALE
  5
6A5A
102
{ACAD_REACTORS
330
6A4E
102
}
330
6A4E
100
AcDbScale
 70
     0
300
1:100
140
1.0
141
100.0
290
     0
  0
SCALE
  5
6A5B
102
{ACAD_REACTORS
330
6A4E
102
}
330
6A4E
100
AcDbScale
 70
     0
300
2:1
140
2.0
141
1.0
290
     0
  0
SCALE
  5
6A5C
102
{ACAD_REACTORS
330
6A4E
102
}
330
6A4E
100
AcDbScale
 70
     0
300
4:1
140
4.0
141
1.0
290
     0
  0
SCALE
  5
6A5D
102
{ACAD_REACTORS
330
6A4E
102
}
330
6A4E
100
AcDbScale
 70
     0
300
8:1
140
8.0
141
1.0
290
     0
  0
SCALE
  5
6A5E
102
{ACAD_REACTORS
330
6A4E
102
}
330
6A4E
100
AcDbScale
 70
     0
300
10:1
140
10.0
141
1.0
290
     0
  0
SCALE
  5
6A5F
102
{ACAD_REACTORS
330
6A4E
102
}
330
6A4E
100
AcDbScale
 70
     0
300
100:1
140
100.0
141
1.0
290
     0
  0
SCALE
  5
6A60
102
{ACAD_REACTORS
330
6A4E
102
}
330
6A4E
100
AcDbScale
 70
     0
300
1/128" = 1'-0"
140
0.0078125
141
12.0
290
     0
  0
SCALE
  5
6A61
102
{ACAD_REACTORS
330
6A4E
102
}
330
6A4E
100
AcDbScale
 70
     0
300
1/64" = 1'-0"
140
0.015625
141
12.0
290
     0
  0
SCALE
  5
6A62
102
{ACAD_REACTORS
330
6A4E
102
}
330
6A4E
100
AcDbScale
 70
     0
300
1/32" = 1'-0"
140
0.03125
141
12.0
290
     0
  0
SCALE
  5
6A63
102
{ACAD_REACTORS
330
6A4E
102
}
330
6A4E
100
AcDbScale
 70
     0
300
1/16" = 1'-0"
140
0.0625
141
12.0
290
     0
  0
SCALE
  5
6A64
102
{ACAD_REACTORS
330
6A4E
102
}
330
6A4E
100
AcDbScale
 70
     0
300
3/32" = 1'-0"
140
0.09375
141
12.0
290
     0
  0
SCALE
  5
6A65
102
{ACAD_REACTORS
330
6A4E
102
}
330
6A4E
100
AcDbScale
 70
     0
300
1/8" = 1'-0"
140
0.125
141
12.0
290
     0
  0
SCALE
  5
6A66
102
{ACAD_REACTORS
330
6A4E
102
}
330
6A4E
100
AcDbScale
 70
     0
300
3/16" = 1'-0"
140
0.1875
141
12.0
290
     0
  0
SCALE
  5
6A67
102
{ACAD_REACTORS
330
6A4E
102
}
330
6A4E
100
AcDbScale
 70
     0
300
1/4" = 1'-0"
140
0.25
141
12.0
290
     0
  0
SCALE
  5
6A68
102
{ACAD_REACTORS
330
6A4E
102
}
330
6A4E
100
AcDbScale
 70
     0
300
3/8" = 1'-0"
140
0.375
141
12.0
290
     0
  0
SCALE
  5
6A69
102
{ACAD_REACTORS
330
6A4E
102
}
330
6A4E
100
AcDbScale
 70
     0
300
1/2" = 1'-0"
140
0.5
141
12.0
290
     0
  0
SCALE
  5
6A6A
102
{ACAD_REACTORS
330
6A4E
102
}
330
6A4E
100
AcDbScale
 70
     0
300
3/4" = 1'-0"
140
0.75
141
12.0
290
     0
  0
SCALE
  5
6A6B
102
{ACAD_REACTORS
330
6A4E
102
}
330
6A4E
100
AcDbScale
 70
     0
300
1" = 1'-0"
140
1.0
141
12.0
290
     0
  0
SCALE
  5
6A6C
102
{ACAD_REACTORS
330
6A4E
102
}
330
6A4E
100
AcDbScale
 70
     0
300
1-1/2" = 1'-0"
140
1.5
141
12.0
290
     0
  0
SCALE
  5
6A6D
102
{ACAD_REACTORS
330
6A4E
102
}
330
6A4E
100
AcDbScale
 70
     0
300
3" = 1'-0"
140
3.0
141
12.0
290
     0
  0
SCALE
  5
6A6E
102
{ACAD_REACTORS
330
6A4E
102
}
330
6A4E
100
AcDbScale
 70
     0
300
6" = 1'-0"
140
6.0
141
12.0
290
     0
  0
SCALE
  5
6A6F
102
{ACAD_REACTORS
330
6A4E
102
}
330
6A4E
100
AcDbScale
 70
     0
300
1'-0" = 1'-0"
140
12.0
141
12.0
290
     0
  0
DICTIONARYVAR
  5
79F
102
{ACAD_REACTORS
330
79E
102
}
330
79E
100
DictionaryVariables
280
     0
  1
1
  0
DICTIONARYVAR
  5
264F
102
{ACAD_REACTORS
330
79E
102
}
330
79E
100
DictionaryVariables
280
     0
  1
96
  0
ENDSEC
  0
EOF
