  0
SECTION
  2
HEADER
  9
$ACADVER
  1
AC1015
  9
$ACADMAINTVER
 70
     6
  9
$DWGCODEPAGE
  3
ANSI_932
  9
$INSBASE
 10
0.0
 20
0.0
 30
0.0
  9
$EXTMIN
 10
730.0
 20
1189.999999999997
 30
0.0
  9
$EXTMAX
 10
2870.0
 20
2470.0
 30
0.0
  9
$LIMMIN
 10
0.0
 20
0.0
  9
$LIMMAX
 10
4200.0
 20
2970.0
  9
$ORTHOMODE
 70
     1
  9
$REGENMODE
 70
     1
  9
$FILLMODE
 70
     1
  9
$QTEXTMODE
 70
     0
  9
$MIRRTEXT
 70
     0
  9
$LTSCALE
 40
3.0
  9
$ATTMODE
 70
     1
  9
$TEXTSIZE
 40
30.0
  9
$TRACEWID
 40
1.0
  9
$TEXTSTYLE
  7
Standard
  9
$CLAYER
  8
01注記寸法
  9
$CELTYPE
  6
ByLayer
  9
$CECOLOR
 62
   256
  9
$CELTSCALE
 40
1.0
  9
$DISPSILH
 70
     0
  9
$DIMSCALE
 40
10.0
  9
$DIMASZ
 40
3.0
  9
$DIMEXO
 40
1.5
  9
$DIMDLI
 40
10.0
  9
$DIMRND
 40
0.0
  9
$DIMDLE
 40
0.0
  9
$DIMEXE
 40
1.0
  9
$DIMTP
 40
0.0
  9
$DIMTM
 40
0.0
  9
$DIMTXT
 40
3.0
  9
$DIMCEN
 40
1.5
  9
$DIMTSZ
 40
0.0
  9
$DIMTOL
 70
     0
  9
$DIMLIM
 70
     0
  9
$DIMTIH
 70
     0
  9
$DIMTOH
 70
     0
  9
$DIMSE1
 70
     0
  9
$DIMSE2
 70
     0
  9
$DIMTAD
 70
     1
  9
$DIMZIN
 70
     8
  9
$DIMBLK
  1
Open
  9
$DIMASO
 70
     1
  9
$DIMSHO
 70
     1
  9
$DIMPOST
  1

  9
$DIMAPOST
  1

  9
$DIMALT
 70
     0
  9
$DIMALTD
 70
     3
  9
$DIMALTF
 40
0.03937007874016
  9
$DIMLFAC
 40
1.0
  9
$DIMTOFL
 70
     1
  9
$DIMTVP
 40
0.0
  9
$DIMTIX
 70
     0
  9
$DIMSOXD
 70
     0
  9
$DIMSAH
 70
     0
  9
$DIMBLK1
  1

  9
$DIMBLK2
  1

  9
$DIMSTYLE
  2
NEMY-10
  9
$DIMCLRD
 70
     0
  9
$DIMCLRE
 70
     0
  9
$DIMCLRT
 70
     0
  9
$DIMTFAC
 40
1.0
  9
$DIMGAP
 40
1.0
  9
$DIMJUST
 70
     0
  9
$DIMSD1
 70
     0
  9
$DIMSD2
 70
     0
  9
$DIMTOLJ
 70
     0
  9
$DIMTZIN
 70
     8
  9
$DIMALTZ
 70
     0
  9
$DIMALTTZ
 70
     0
  9
$DIMUPT
 70
     0
  9
$DIMDEC
 70
     1
  9
$DIMTDEC
 70
     1
  9
$DIMALTU
 70
     2
  9
$DIMALTTD
 70
     3
  9
$DIMTXSTY
  7
Standard
  9
$DIMAUNIT
 70
     0
  9
$DIMADEC
 70
     0
  9
$DIMALTRND
 40
0.0
  9
$DIMAZIN
 70
     0
  9
$DIMDSEP
 70
    46
  9
$DIMATFIT
 70
     3
  9
$DIMFRAC
 70
     0
  9
$DIMLDRBLK
  1
Open
  9
$DIMLUNIT
 70
     2
  9
$DIMLWD
 70
    -2
  9
$DIMLWE
 70
    -2
  9
$DIMTMOVE
 70
     0
  9
$LUNITS
 70
     2
  9
$LUPREC
 70
     4
  9
$SKETCHINC
 40
1.0
  9
$FILLETRAD
 40
5.0
  9
$AUNITS
 70
     0
  9
$AUPREC
 70
     0
  9
$MENU
  1
.
  9
$ELEVATION
 40
0.0
  9
$PELEVATION
 40
0.0
  9
$THICKNESS
 40
0.0
  9
$LIMCHECK
 70
     0
  9
$CHAMFERA
 40
5.0
  9
$CHAMFERB
 40
5.0
  9
$CHAMFERC
 40
20.0
  9
$CHAMFERD
 40
0.0
  9
$SKPOLY
 70
     0
  9
$TDCREATE
 40
2455859.405048461
  9
$TDUCREATE
 40
2455859.030048461
  9
$TDUPDATE
 40
2459075.481756817
  9
$TDUUPDATE
 40
2459075.106756817
  9
$TDINDWG
 40
1.4371397106
  9
$TDUSRTIMER
 40
0.0005983681
  9
$USRTIMER
 70
     1
  9
$ANGBASE
 50
0.0
  9
$ANGDIR
 70
     0
  9
$PDMODE
 70
     0
  9
$PDSIZE
 40
0.0
  9
$PLINEWID
 40
0.0
  9
$SPLFRAME
 70
     0
  9
$SPLINETYPE
 70
     6
  9
$SPLINESEGS
 70
     8
  9
$HANDSEED
  5
1339E
  9
$SURFTAB1
 70
     6
  9
$SURFTAB2
 70
     6
  9
$SURFTYPE
 70
     6
  9
$SURFU
 70
     6
  9
$SURFV
 70
     6
  9
$UCSBASE
  2

  9
$UCSNAME
  2

  9
$UCSORG
 10
0.0
 20
0.0
 30
0.0
  9
$UCSXDIR
 10
1.0
 20
0.0
 30
0.0
  9
$UCSYDIR
 10
0.0
 20
1.0
 30
0.0
  9
$UCSORTHOREF
  2

  9
$UCSORTHOVIEW
 70
     0
  9
$UCSORGTOP
 10
0.0
 20
0.0
 30
0.0
  9
$UCSORGBOTTOM
 10
0.0
 20
0.0
 30
0.0
  9
$UCSORGLEFT
 10
0.0
 20
0.0
 30
0.0
  9
$UCSORGRIGHT
 10
0.0
 20
0.0
 30
0.0
  9
$UCSORGFRONT
 10
0.0
 20
0.0
 30
0.0
  9
$UCSORGBACK
 10
0.0
 20
0.0
 30
0.0
  9
$PUCSBASE
  2

  9
$PUCSNAME
  2

  9
$PUCSORG
 10
0.0
 20
0.0
 30
0.0
  9
$PUCSXDIR
 10
1.0
 20
0.0
 30
0.0
  9
$PUCSYDIR
 10
0.0
 20
1.0
 30
0.0
  9
$PUCSORTHOREF
  2

  9
$PUCSORTHOVIEW
 70
     0
  9
$PUCSORGTOP
 10
0.0
 20
0.0
 30
0.0
  9
$PUCSORGBOTTOM
 10
0.0
 20
0.0
 30
0.0
  9
$PUCSORGLEFT
 10
0.0
 20
0.0
 30
0.0
  9
$PUCSORGRIGHT
 10
0.0
 20
0.0
 30
0.0
  9
$PUCSORGFRONT
 10
0.0
 20
0.0
 30
0.0
  9
$PUCSORGBACK
 10
0.0
 20
0.0
 30
0.0
  9
$USERI1
 70
     0
  9
$USERI2
 70
     0
  9
$USERI3
 70
     0
  9
$USERI4
 70
     0
  9
$USERI5
 70
     0
  9
$USERR1
 40
0.0
  9
$USERR2
 40
0.0
  9
$USERR3
 40
0.0
  9
$USERR4
 40
0.0
  9
$USERR5
 40
0.0
  9
$WORLDVIEW
 70
     1
  9
$SHADEDGE
 70
     3
  9
$SHADEDIF
 70
    70
  9
$TILEMODE
 70
     1
  9
$MAXACTVP
 70
    64
  9
$PINSBASE
 10
0.0
 20
0.0
 30
0.0
  9
$PLIMCHECK
 70
     0
  9
$PEXTMIN
 10
1.000000000000000E+20
 20
1.000000000000000E+20
 30
1.000000000000000E+20
  9
$PEXTMAX
 10
-1.000000000000000E+20
 20
-1.000000000000000E+20
 30
-1.000000000000000E+20
  9
$PLIMMIN
 10
-7.5
 20
-20.0
  9
$PLIMMAX
 10
412.5
 20
277.0
  9
$UNITMODE
 70
     0
  9
$VISRETAIN
 70
     1
  9
$PLINEGEN
 70
     0
  9
$PSLTSCALE
 70
     1
  9
$TREEDEPTH
 70
  3020
  9
$CMLSTYLE
  2
Standard
  9
$CMLJUST
 70
     0
  9
$CMLSCALE
 40
20.0
  9
$PROXYGRAPHICS
 70
     1
  9
$MEASUREMENT
 70
     1
  9
$CELWEIGHT
370
    -1
  9
$ENDCAPS
280
     0
  9
$JOINSTYLE
280
     0
  9
$LWDISPLAY
290
     0
  9
$INSUNITS
 70
     4
  9
$HYPERLINKBASE
  1

  9
$STYLESHEET
  1
monochrome.ctb
  9
$XEDIT
290
     1
  9
$CEPSNTYPE
380
     0
  9
$PSTYLEMODE
290
     1
  9
$FINGERPRINTGUID
  2
{FDEAD578-A652-11D2-9A35-0060089B3A3F}
  9
$VERSIONGUID
  2
{11DB8456-EC16-47A0-BA21-BBDA07550E8A}
  9
$EXTNAMES
290
     1
  9
$PSVPSCALE
 40
0.0
  9
$OLESTARTUP
290
     0
  0
ENDSEC
  0
SECTION
  2
CLASSES
  0
CLASS
  1
ACDBDICTIONARYWDFLT
  2
AcDbDictionaryWithDefault
  3
ObjectDBX Classes
 90
        0
280
     0
281
     0
  0
CLASS
  1
ACDBPLACEHOLDER
  2
AcDbPlaceHolder
  3
ObjectDBX Classes
 90
        0
280
     0
281
     0
  0
CLASS
  1
LAYOUT
  2
AcDbLayout
  3
ObjectDBX Classes
 90
        0
280
     0
281
     0
  0
CLASS
  1
DICTIONARYVAR
  2
AcDbDictionaryVar
  3
ObjectDBX Classes
 90
        0
280
     0
281
     0
  0
CLASS
  1
SCALE
  2
AcDbScale
  3
ObjectDBX Classes
 90
     1153
280
     0
281
     0
  0
CLASS
  1
MATERIAL
  2
AcDbMaterial
  3
ObjectDBX Classes
 90
     1153
280
     0
281
     0
  0
CLASS
  1
VISUALSTYLE
  2
AcDbVisualStyle
  3
ObjectDBX Classes
 90
     4095
280
     0
281
     0
  0
CLASS
  1
TABLESTYLE
  2
AcDbTableStyle
  3
ObjectDBX Classes
 90
     4095
280
     0
281
     0
  0
CLASS
  1
RASTERVARIABLES
  2
AcDbRasterVariables
  3
ISM
 90
        0
280
     0
281
     0
  0
CLASS
  1
SORTENTSTABLE
  2
AcDbSortentsTable
  3
ObjectDBX Classes
 90
        0
280
     0
281
     0
  0
CLASS
  1
SUN
  2
AcDbSun
  3
SCENEOE
 90
     1153
280
     0
281
     0
  0
CLASS
  1
MLEADERSTYLE
  2
AcDbMLeaderStyle
  3
ACDB_MLEADERSTYLE_CLASS
 90
     4095
280
     0
281
     0
  0
ENDSEC
  0
SECTION
  2
TABLES
  0
TABLE
  2
VPORT
  5
8
330
0
100
AcDbSymbolTable
 70
     1
  0
VPORT
  5
7A57
330
8
100
AcDbSymbolTableRecord
100
AcDbViewportTableRecord
  2
*Active
 70
     0
 10
0.0
 20
0.0
 11
1.0
 21
1.0
 12
1825.215690715338
 22
1800.286251276939
 13
0.0
 23
0.0
 14
10.0
 24
10.0
 15
10.0
 25
10.0
 16
0.0
 26
0.0
 36
1.0
 17
0.0
 27
0.0
 37
0.0
 40
2274.336197234117
 41
1.430340557275542
 42
50.0
 43
0.0
 44
0.0
 50
0.0
 51
0.0
 71
    16
 72
   100
 73
     1
 74
     2
 75
     0
 76
     0
 77
     0
 78
     0
281
     0
 65
     1
110
0.0
120
0.0
130
0.0
111
1.0
121
0.0
131
0.0
112
0.0
122
1.0
132
0.0
 79
     0
146
0.0
  0
ENDTAB
  0
TABLE
  2
LTYPE
  5
5
330
0
100
AcDbSymbolTable
 70
     5
  0
LTYPE
  5
14
330
5
100
AcDbSymbolTableRecord
100
AcDbLinetypeTableRecord
  2
ByBlock
 70
     0
  3

 72
    65
 73
     0
 40
0.0
  0
LTYPE
  5
15
330
5
100
AcDbSymbolTableRecord
100
AcDbLinetypeTableRecord
  2
ByLayer
 70
     0
  3

 72
    65
 73
     0
 40
0.0
  0
LTYPE
  5
16
330
5
100
AcDbSymbolTableRecord
100
AcDbLinetypeTableRecord
  2
Continuous
 70
     0
  3
Solid line
 72
    65
 73
     0
 40
0.0
  0
LTYPE
  5
BA
330
5
100
AcDbSymbolTableRecord
100
AcDbLinetypeTableRecord
  2
HIDDEN
 70
     0
  3
Hidden __ __ __ __ __ __ __ __ __ __ __ __ __ _
 72
    65
 73
     2
 40
9.524999999999999
 49
6.35
 74
     0
 49
-3.175
 74
     0
  0
LTYPE
  5
BB
330
5
100
AcDbSymbolTableRecord
100
AcDbLinetypeTableRecord
  2
PHANTOM
 70
     0
  3
Phantom ______  __  __  ______  __  __  ______
 72
    65
 73
     6
 40
63.5
 49
31.75
 74
     0
 49
-6.35
 74
     0
 49
6.35
 74
     0
 49
-6.35
 74
     0
 49
6.35
 74
     0
 49
-6.35
 74
     0
  0
LTYPE
  5
BC
330
5
100
AcDbSymbolTableRecord
100
AcDbLinetypeTableRecord
  2
CENTER
 70
     0
  3
Center ____ _ ____ _ ____ _ ____ _ ____ _ ____
 72
    65
 73
     4
 40
50.8
 49
31.75
 74
     0
 49
-6.35
 74
     0
 49
6.35
 74
     0
 49
-6.35
 74
     0
  0
LTYPE
  5
47C
330
5
100
AcDbSymbolTableRecord
100
AcDbLinetypeTableRecord
  2
DOT
 70
     0
  3
Dot . . . . . . . . . . . . . . . . . . . . . .
 72
    65
 73
     2
 40
6.35
 49
0.0
 74
     0
 49
-6.35
 74
     0
  0
ENDTAB
  0
TABLE
  2
LAYER
  5
2
102
{ACAD_XDICTIONARY
360
7A6F
102
}
330
0
100
AcDbSymbolTable
 70
    13
  0
LAYER
  5
10
330
2
100
AcDbSymbolTableRecord
100
AcDbLayerTableRecord
  2
0
 70
     0
 62
     7
  6
Continuous
370
    -3
390
F
  0
LAYER
  5
45
330
2
100
AcDbSymbolTableRecord
100
AcDbLayerTableRecord
  2
01注記寸法
 70
     0
 62
     7
  6
Continuous
370
     9
390
F
  0
LAYER
  5
46
330
2
100
AcDbSymbolTableRecord
100
AcDbLayerTableRecord
  2
02実線
 70
     0
 62
     2
  6
Continuous
370
    15
390
F
  0
LAYER
  5
5F
330
2
100
AcDbSymbolTableRecord
100
AcDbLayerTableRecord
  2
Defpoints
 70
     0
 62
     7
  6
Continuous
290
     0
370
    -3
390
F
  0
LAYER
  5
7E52
330
2
100
AcDbSymbolTableRecord
100
AcDbLayerTableRecord
  2
03破線
 70
     0
 62
     3
  6
HIDDEN
370
     9
390
F
  0
LAYER
  5
7E55
330
2
100
AcDbSymbolTableRecord
100
AcDbLayerTableRecord
  2
04一点鎖線
 70
     0
 62
    70
  6
CENTER
370
     9
390
F
  0
LAYER
  5
7E58
330
2
100
AcDbSymbolTableRecord
100
AcDbLayerTableRecord
  2
05二点鎖線
 70
     0
 62
   110
  6
PHANTOM
370
     9
390
F
  0
LAYER
  5
7E5B
330
2
100
AcDbSymbolTableRecord
100
AcDbLayerTableRecord
  2
06点線
 70
     0
 62
    96
  6
DOT
370
     9
390
F
  0
LAYER
  5
7E5E
330
2
100
AcDbSymbolTableRecord
100
AcDbLayerTableRecord
  2
07その他
 70
     0
 62
     6
  6
Continuous
370
    13
390
F
  0
LAYER
  5
7E60
330
2
100
AcDbSymbolTableRecord
100
AcDbLayerTableRecord
  2
08非表示
 70
     0
 62
     4
  6
Continuous
290
     0
370
     0
390
F
  0
LAYER
  5
7E62
330
2
100
AcDbSymbolTableRecord
100
AcDbLayerTableRecord
  2
09図枠
 70
     0
 62
     1
  6
Continuous
370
    30
390
F
  0
LAYER
  5
835A
330
2
100
AcDbSymbolTableRecord
100
AcDbLayerTableRecord
  2
10副資材
 70
     0
 62
    51
  6
Continuous
290
     0
370
    -3
390
F
1001
AcAecLayerStandard
1000

1000

  0
LAYER
  5
8CAC
330
2
100
AcDbSymbolTableRecord
100
AcDbLayerTableRecord
  2
11機器
 70
     0
 62
    11
  6
Continuous
290
     0
370
    -3
390
F
1001
AcAecLayerStandard
1000

1000

  0
ENDTAB
  0
TABLE
  2
STYLE
  5
3
330
0
100
AcDbSymbolTable
 70
     1
  0
STYLE
  5
11
330
3
100
AcDbSymbolTableRecord
100
AcDbTextStyleTableRecord
  2
Standard
 70
     0
 40
0.0
 41
1.0
 50
0.0
 71
     0
 42
30.0
  3
MSGOTHIC.TTC
  4

1001
ACAD
1000
MS Gothic
1071
    32817
  0
ENDTAB
  0
TABLE
  2
VIEW
  5
6
330
0
100
AcDbSymbolTable
 70
     0
  0
ENDTAB
  0
TABLE
  2
UCS
  5
7
330
0
100
AcDbSymbolTable
 70
     0
  0
ENDTAB
  0
TABLE
  2
APPID
  5
9
330
0
100
AcDbSymbolTable
 70
     9
  0
APPID
  5
12
330
9
100
AcDbSymbolTableRecord
100
AcDbRegAppTableRecord
  2
ACAD
 70
     0
  0
APPID
  5
6A9E
330
9
100
AcDbSymbolTableRecord
100
AcDbRegAppTableRecord
  2
ACAD_DSTYLE_DIMRADIAL_EXTENSION
 70
     0
  0
APPID
  5
742C
330
9
100
AcDbSymbolTableRecord
100
AcDbRegAppTableRecord
  2
ACAD_PSEXT
 70
     0
  0
APPID
  5
742D
330
9
100
AcDbSymbolTableRecord
100
AcDbRegAppTableRecord
  2
ACAD_DSTYLE_DIMJAG
 70
     0
  0
APPID
  5
742E
330
9
100
AcDbSymbolTableRecord
100
AcDbRegAppTableRecord
  2
ACAD_DSTYLE_DIMTALN
 70
     0
  0
APPID
  5
835C
330
9
100
AcDbSymbolTableRecord
100
AcDbRegAppTableRecord
  2
AcAecLayerStandard
 70
     0
  0
APPID
  5
1253F
330
9
100
AcDbSymbolTableRecord
100
AcDbRegAppTableRecord
  2
HATCHBACKGROUNDCOLOR
 70
     0
  0
APPID
  5
1262E
330
9
100
AcDbSymbolTableRecord
100
AcDbRegAppTableRecord
  2
PE_URL
 70
     0
  0
APPID
  5
1333C
330
9
100
AcDbSymbolTableRecord
100
AcDbRegAppTableRecord
  2
PLOTTRANSPARENCY
 70
     0
  0
ENDTAB
  0
TABLE
  2
DIMSTYLE
  5
A
330
0
100
AcDbSymbolTable
 70
    24
100
AcDbDimStyleTable
  0
DIMSTYLE
105
73
330
A
100
AcDbSymbolTableRecord
100
AcDbDimStyleTableRecord
  2
NEMY-1
 70
     0
 41
3.0
 42
1.5
 43
10.0
 44
1.0
 73
     0
 74
     0
 77
     1
 78
     8
140
3.0
141
1.5
143
0.03937007874016
147
1.0
171
     3
172
     1
178
     0
271
     1
272
     1
274
     3
283
     0
284
     8
340
11
341
8F
342
8F
  0
DIMSTYLE
105
4DCE
330
A
100
AcDbSymbolTableRecord
100
AcDbDimStyleTableRecord
  2
NEMY-2
 70
     0
 40
2.0
 41
3.0
 42
1.5
 43
10.0
 44
1.0
 73
     0
 74
     0
 77
     1
 78
     8
140
3.0
141
1.5
143
0.03937007874016
147
1.0
171
     3
172
     1
178
     0
271
     1
272
     1
274
     3
283
     0
284
     8
340
11
341
8F
342
8F
  0
DIMSTYLE
105
4DCF
330
A
100
AcDbSymbolTableRecord
100
AcDbDimStyleTableRecord
  2
NEMY-3
 70
     0
 40
3.0
 41
3.0
 42
1.5
 43
10.0
 44
1.0
 73
     0
 74
     0
 77
     1
 78
     8
140
3.0
141
1.5
143
0.03937007874016
147
1.0
171
     3
172
     1
178
     0
271
     1
272
     1
274
     3
283
     0
284
     8
340
11
341
8F
342
8F
  0
DIMSTYLE
105
4DD0
330
A
100
AcDbSymbolTableRecord
100
AcDbDimStyleTableRecord
  2
NEMY-5
 70
     0
 40
5.0
 41
3.0
 42
1.5
 43
10.0
 44
1.0
 73
     0
 74
     0
 77
     1
 78
     8
140
3.0
141
1.5
143
0.03937007874016
147
1.0
171
     3
172
     1
178
     0
271
     1
272
     1
274
     3
283
     0
284
     8
340
11
341
8F
342
8F
  0
DIMSTYLE
105
4DD1
330
A
100
AcDbSymbolTableRecord
100
AcDbDimStyleTableRecord
  2
NEMY-8
 70
     0
 40
8.0
 41
3.0
 42
1.5
 43
10.0
 44
1.0
 73
     0
 74
     0
 77
     1
 78
     8
140
3.0
141
1.5
143
0.03937007874016
147
1.0
171
     3
172
     1
178
     0
271
     1
272
     1
274
     3
283
     0
284
     8
340
11
341
8F
342
8F
  0
DIMSTYLE
105
4DD2
330
A
100
AcDbSymbolTableRecord
100
AcDbDimStyleTableRecord
  2
NEMY-15
 70
     0
 40
15.0
 41
3.0
 42
1.5
 43
10.0
 44
1.0
 73
     0
 74
     0
 77
     1
 78
     8
140
3.0
141
1.5
143
0.03937007874016
147
1.0
171
     3
172
     1
178
     0
271
     1
272
     1
274
     3
283
     0
284
     8
340
11
341
8F
342
8F
  0
DIMSTYLE
105
4DD3
330
A
100
AcDbSymbolTableRecord
100
AcDbDimStyleTableRecord
  2
NEMY-10
 70
     0
 40
10.0
 41
3.0
 42
1.5
 43
10.0
 44
1.0
 73
     0
 74
     0
 77
     1
 78
     8
140
3.0
141
1.5
143
0.03937007874016
147
1.0
171
     3
172
     1
178
     0
271
     1
272
     1
274
     3
283
     0
284
     8
340
11
341
8F
342
8F
  0
DIMSTYLE
105
4DD4
330
A
100
AcDbSymbolTableRecord
100
AcDbDimStyleTableRecord
  2
NEMY-25
 70
     0
 40
25.0
 41
3.0
 42
1.5
 43
10.0
 44
1.0
 73
     0
 74
     0
 77
     1
 78
     8
140
3.0
141
1.5
143
0.03937007874016
147
1.0
171
     3
172
     1
178
     0
271
     1
272
     1
274
     3
283
     0
284
     8
340
11
341
8F
342
8F
  0
DIMSTYLE
105
4DD5
330
A
100
AcDbSymbolTableRecord
100
AcDbDimStyleTableRecord
  2
NEMY-30
 70
     0
 40
30.0
 41
3.0
 42
1.5
 43
10.0
 44
1.0
 73
     0
 74
     0
 77
     1
 78
     8
140
3.0
141
1.5
143
0.03937007874016
147
1.0
171
     3
172
     1
178
     0
271
     1
272
     1
274
     3
283
     0
284
     8
340
11
341
8F
342
8F
  0
DIMSTYLE
105
4DD6
330
A
100
AcDbSymbolTableRecord
100
AcDbDimStyleTableRecord
  2
NEMY-50
 70
     0
 40
50.0
 41
3.0
 42
1.5
 43
10.0
 44
1.0
 73
     0
 74
     0
 77
     1
 78
     8
140
3.0
141
1.5
143
0.03937007874016
147
1.0
171
     3
172
     1
178
     0
271
     1
272
     1
274
     3
283
     0
284
     8
340
11
341
8F
342
8F
  0
DIMSTYLE
105
4E6F
330
A
100
AcDbSymbolTableRecord
100
AcDbDimStyleTableRecord
  2
NEMY-20
 70
     0
 40
20.0
 41
3.0
 42
1.5
 43
10.0
 44
1.0
 73
     0
 74
     0
 77
     1
 78
     8
140
3.0
141
1.5
143
0.03937007874016
147
1.0
171
     3
172
     1
178
     0
271
     1
272
     1
274
     3
283
     0
284
     8
340
11
341
8F
342
8F
  0
DIMSTYLE
105
4F44
330
A
100
AcDbSymbolTableRecord
100
AcDbDimStyleTableRecord
  2
NEMY-10$3
 70
     0
 40
10.0
 41
3.0
 42
1.5
 43
10.0
 44
1.0
 77
     1
 78
     8
140
3.0
141
1.5
143
0.03937007874016
147
1.0
171
     3
172
     1
178
     0
271
     1
272
     1
274
     3
283
     0
284
     8
340
11
341
8F
342
8F
  0
DIMSTYLE
105
4F45
330
A
100
AcDbSymbolTableRecord
100
AcDbDimStyleTableRecord
  2
NEMY-1$3
 70
     0
 41
3.0
 42
1.5
 43
10.0
 44
1.0
 77
     1
 78
     8
140
3.0
141
1.5
143
0.03937007874016
147
1.0
171
     3
172
     1
178
     0
271
     1
272
     1
274
     3
283
     0
284
     8
340
11
341
8F
342
8F
  0
DIMSTYLE
105
4F46
330
A
100
AcDbSymbolTableRecord
100
AcDbDimStyleTableRecord
  2
NEMY-12
 70
     0
 40
12.0
 41
3.0
 42
1.5
 43
10.0
 44
1.0
 73
     0
 74
     0
 77
     1
 78
     8
140
3.0
141
1.5
143
0.03937007874016
147
1.0
171
     3
172
     1
178
     0
271
     1
272
     1
274
     3
283
     0
284
     8
340
11
341
8F
342
8F
  0
DIMSTYLE
105
4F47
330
A
100
AcDbSymbolTableRecord
100
AcDbDimStyleTableRecord
  2
NEMY-12$3
 70
     0
 40
12.0
 41
3.0
 42
1.5
 43
10.0
 44
1.0
 77
     1
 78
     8
140
3.0
141
1.5
143
0.03937007874016
147
1.0
171
     3
172
     1
178
     0
271
     1
272
     1
274
     3
283
     0
284
     8
340
11
341
8F
342
8F
  0
DIMSTYLE
105
5E6E
330
A
100
AcDbSymbolTableRecord
100
AcDbDimStyleTableRecord
  2
NEMY-8$3
 70
     0
 40
8.0
 41
3.0
 42
1.5
 43
10.0
 44
1.0
 77
     1
 78
     8
140
3.0
141
1.5
143
0.03937007874016
147
1.0
171
     3
172
     1
178
     0
271
     1
272
     1
274
     3
283
     0
284
     8
340
11
341
8F
342
8F
  0
DIMSTYLE
105
5E6F
330
A
100
AcDbSymbolTableRecord
100
AcDbDimStyleTableRecord
  2
NEMY-50$3
 70
     0
 40
50.0
 41
3.0
 42
1.5
 43
10.0
 44
1.0
 77
     1
 78
     8
140
3.0
141
1.5
143
0.03937007874016
147
1.0
171
     3
172
     1
178
     0
271
     1
272
     1
274
     3
283
     0
284
     8
340
11
341
8F
342
8F
  0
DIMSTYLE
105
5E70
330
A
100
AcDbSymbolTableRecord
100
AcDbDimStyleTableRecord
  2
NEMY-5$3
 70
     0
 40
5.0
 41
3.0
 42
1.5
 43
10.0
 44
1.0
 77
     1
 78
     8
140
3.0
141
1.5
143
0.03937007874016
147
1.0
171
     3
172
     1
178
     0
271
     1
272
     1
274
     3
283
     0
284
     8
340
11
341
8F
342
8F
  0
DIMSTYLE
105
5E71
330
A
100
AcDbSymbolTableRecord
100
AcDbDimStyleTableRecord
  2
NEMY-30$3
 70
     0
 40
30.0
 41
3.0
 42
1.5
 43
10.0
 44
1.0
 77
     1
 78
     8
140
3.0
141
1.5
143
0.03937007874016
147
1.0
171
     3
172
     1
178
     0
271
     1
272
     1
274
     3
283
     0
284
     8
340
11
341
8F
342
8F
  0
DIMSTYLE
105
5E72
330
A
100
AcDbSymbolTableRecord
100
AcDbDimStyleTableRecord
  2
NEMY-3$3
 70
     0
 40
3.0
 41
3.0
 42
1.5
 43
10.0
 44
1.0
 77
     1
 78
     8
140
3.0
141
1.5
143
0.03937007874016
147
1.0
171
     3
172
     1
178
     0
271
     1
272
     1
274
     3
283
     0
284
     8
340
11
341
8F
342
8F
  0
DIMSTYLE
105
5E73
330
A
100
AcDbSymbolTableRecord
100
AcDbDimStyleTableRecord
  2
NEMY-25$3
 70
     0
 40
25.0
 41
3.0
 42
1.5
 43
10.0
 44
1.0
 77
     1
 78
     8
140
3.0
141
1.5
143
0.03937007874016
147
1.0
171
     3
172
     1
178
     0
271
     1
272
     1
274
     3
283
     0
284
     8
340
11
341
8F
342
8F
  0
DIMSTYLE
105
5E74
330
A
100
AcDbSymbolTableRecord
100
AcDbDimStyleTableRecord
  2
NEMY-20$3
 70
     0
 40
20.0
 41
3.0
 42
1.5
 43
10.0
 44
1.0
 77
     1
 78
     8
140
3.0
141
1.5
143
0.03937007874016
147
1.0
171
     3
172
     1
178
     0
271
     1
272
     1
274
     3
283
     0
284
     8
340
11
341
8F
342
8F
  0
DIMSTYLE
105
5E75
330
A
100
AcDbSymbolTableRecord
100
AcDbDimStyleTableRecord
  2
NEMY-2$3
 70
     0
 40
2.0
 41
3.0
 42
1.5
 43
10.0
 44
1.0
 77
     1
 78
     8
140
3.0
141
1.5
143
0.03937007874016
147
1.0
171
     3
172
     1
178
     0
271
     1
272
     1
274
     3
283
     0
284
     8
340
11
341
8F
342
8F
  0
DIMSTYLE
105
5E76
330
A
100
AcDbSymbolTableRecord
100
AcDbDimStyleTableRecord
  2
NEMY-15$3
 70
     0
 40
15.0
 41
3.0
 42
1.5
 43
10.0
 44
1.0
 77
     1
 78
     8
140
3.0
141
1.5
143
0.03937007874016
147
1.0
171
     3
172
     1
178
     0
271
     1
272
     1
274
     3
283
     0
284
     8
340
11
341
8F
342
8F
  0
ENDTAB
  0
TABLE
  2
BLOCK_RECORD
  5
1
330
0
100
AcDbSymbolTable
 70
    31
  0
BLOCK_RECORD
  5
1F
102
{ACAD_XDICTIONARY
360
969E
102
}
330
1
100
AcDbSymbolTableRecord
100
AcDbBlockTableRecord
  2
*Model_Space
340
22
  0
BLOCK_RECORD
  5
1B
330
1
100
AcDbSymbolTableRecord
100
AcDbBlockTableRecord
  2
*Paper_Space
340
1E
  0
BLOCK_RECORD
  5
8F
330
1
100
AcDbSymbolTableRecord
100
AcDbBlockTableRecord
  2
_Open
340
0
102
{BLKREFS
331
1259A
331
125A6
331
131FD
331
13209
331
13215
331
13221
331
1323B
331
13247
331
13253
331
1327B
331
132A3
331
132AF
331
132BB
331
132D5
331
1259B
331
125A7
331
131FE
331
1320A
331
13216
331
13222
331
1323C
331
13248
331
13254
331
1327C
331
132A4
331
132B0
331
132BC
331
132D6
331
125B4
331
1322F
331
13261
331
1326F
331
13289
331
13297
331
132C9
331
132E3
331
132F1
331
132FF
331
1330D
331
125B5
331
13230
331
13262
331
13270
331
1328A
331
13298
331
132CA
331
132E4
331
132F2
331
13300
331
1330E
102
}
  0
BLOCK_RECORD
  5
82E2
330
1
100
AcDbSymbolTableRecord
100
AcDbBlockTableRecord
  2
hole-φ12
340
0
102
{BLKREFS
331
131BD
331
131D8
331
131DC
331
131E0
102
}
  0
BLOCK_RECORD
  5
82EB
330
1
100
AcDbSymbolTableRecord
100
AcDbBlockTableRecord
  2
hole-φ14
340
0
102
{BLKREFS
331
0
331
0
331
0
331
0
331
0
102
}
  0
BLOCK_RECORD
  5
11E63
330
1
100
AcDbSymbolTableRecord
100
AcDbBlockTableRecord
  2
シール(検査済)
340
0
102
{BLKREFS
331
0
102
}
  0
BLOCK_RECORD
  5
11E69
330
1
100
AcDbSymbolTableRecord
100
AcDbBlockTableRecord
  2
シール(型式)
340
0
102
{BLKREFS
331
0
102
}
  0
BLOCK_RECORD
  5
12594
330
1
100
AcDbSymbolTableRecord
100
AcDbBlockTableRecord
  2
*D1732
340
0
  0
BLOCK_RECORD
  5
125A0
330
1
100
AcDbSymbolTableRecord
100
AcDbBlockTableRecord
  2
*D1733
340
0
  0
BLOCK_RECORD
  5
125AC
330
1
100
AcDbSymbolTableRecord
100
AcDbBlockTableRecord
  2
*D1734
340
0
  0
BLOCK_RECORD
  5
12F94
330
1
100
AcDbSymbolTableRecord
100
AcDbBlockTableRecord
  2
PFAV-P224DMJ1
340
0
102
{BLKREFS
331
0
102
}
  0
BLOCK_RECORD
  5
131F7
330
1
100
AcDbSymbolTableRecord
100
AcDbBlockTableRecord
  2
*D1767
340
0
  0
BLOCK_RECORD
  5
13203
330
1
100
AcDbSymbolTableRecord
100
AcDbBlockTableRecord
  2
*D1768
340
0
  0
BLOCK_RECORD
  5
1320F
330
1
100
AcDbSymbolTableRecord
100
AcDbBlockTableRecord
  2
*D1769
340
0
  0
BLOCK_RECORD
  5
1321B
330
1
100
AcDbSymbolTableRecord
100
AcDbBlockTableRecord
  2
*D1770
340
0
  0
BLOCK_RECORD
  5
13227
330
1
100
AcDbSymbolTableRecord
100
AcDbBlockTableRecord
  2
*D1771
340
0
  0
BLOCK_RECORD
  5
13235
330
1
100
AcDbSymbolTableRecord
100
AcDbBlockTableRecord
  2
*D1772
340
0
  0
BLOCK_RECORD
  5
13241
330
1
100
AcDbSymbolTableRecord
100
AcDbBlockTableRecord
  2
*D1773
340
0
  0
BLOCK_RECORD
  5
1324D
330
1
100
AcDbSymbolTableRecord
100
AcDbBlockTableRecord
  2
*D1774
340
0
  0
BLOCK_RECORD
  5
13259
330
1
100
AcDbSymbolTableRecord
100
AcDbBlockTableRecord
  2
*D1775
340
0
  0
BLOCK_RECORD
  5
13267
330
1
100
AcDbSymbolTableRecord
100
AcDbBlockTableRecord
  2
*D1776
340
0
  0
BLOCK_RECORD
  5
13275
330
1
100
AcDbSymbolTableRecord
100
AcDbBlockTableRecord
  2
*D1777
340
0
  0
BLOCK_RECORD
  5
13281
330
1
100
AcDbSymbolTableRecord
100
AcDbBlockTableRecord
  2
*D1778
340
0
  0
BLOCK_RECORD
  5
1328F
330
1
100
AcDbSymbolTableRecord
100
AcDbBlockTableRecord
  2
*D1779
340
0
  0
BLOCK_RECORD
  5
1329D
330
1
100
AcDbSymbolTableRecord
100
AcDbBlockTableRecord
  2
*D1780
340
0
  0
BLOCK_RECORD
  5
132A9
330
1
100
AcDbSymbolTableRecord
100
AcDbBlockTableRecord
  2
*D1781
340
0
  0
BLOCK_RECORD
  5
132B5
330
1
100
AcDbSymbolTableRecord
100
AcDbBlockTableRecord
  2
*D1782
340
0
  0
BLOCK_RECORD
  5
132C1
330
1
100
AcDbSymbolTableRecord
100
AcDbBlockTableRecord
  2
*D1783
340
0
  0
BLOCK_RECORD
  5
132CF
330
1
100
AcDbSymbolTableRecord
100
AcDbBlockTableRecord
  2
*D1784
340
0
  0
BLOCK_RECORD
  5
132DB
330
1
100
AcDbSymbolTableRecord
100
AcDbBlockTableRecord
  2
*D1785
340
0
  0
BLOCK_RECORD
  5
132E9
330
1
100
AcDbSymbolTableRecord
100
AcDbBlockTableRecord
  2
*D1786
340
0
  0
BLOCK_RECORD
  5
132F7
330
1
100
AcDbSymbolTableRecord
100
AcDbBlockTableRecord
  2
*D1787
340
0
  0
BLOCK_RECORD
  5
13305
330
1
100
AcDbSymbolTableRecord
100
AcDbBlockTableRecord
  2
*D1788
340
0
  0
ENDTAB
  0
ENDSEC
  0
SECTION
  2
BLOCKS
  0
BLOCK
  5
20
330
1F
100
AcDbEntity
  8
0
100
AcDbBlockBegin
  2
*Model_Space
 70
     0
 10
0.0
 20
0.0
 30
0.0
  3
*Model_Space
  1

  0
ENDBLK
  5
21
330
1F
100
AcDbEntity
  8
0
100
AcDbBlockEnd
  0
BLOCK
  5
1C
330
1B
100
AcDbEntity
 67
     1
  8
0
100
AcDbBlockBegin
  2
*Paper_Space
 70
     0
 10
0.0
 20
0.0
 30
0.0
  3
*Paper_Space
  1

  0
ENDBLK
  5
1D
330
1B
100
AcDbEntity
 67
     1
  8
0
100
AcDbBlockEnd
  0
BLOCK
  5
93
330
8F
100
AcDbEntity
  8
0
100
AcDbBlockBegin
  2
_Open
 70
     0
 10
0.0
 20
0.0
 30
0.0
  3
_Open
  1

  0
LINE
  5
90
330
8F
100
AcDbEntity
  8
01注記寸法
 62
     0
370
    -2
100
AcDbLine
 10
-1.0
 20
0.1666666666666667
 30
0.0
 11
0.0
 21
0.0
 31
0.0
  0
LINE
  5
91
330
8F
100
AcDbEntity
  8
01注記寸法
 62
     0
370
    -2
100
AcDbLine
 10
-1.0
 20
-0.1666666666666667
 30
0.0
 11
0.0
 21
0.0
 31
0.0
  0
LINE
  5
92
330
8F
100
AcDbEntity
  8
01注記寸法
 62
     0
370
    -2
100
AcDbLine
 10
0.0
 20
0.0
 30
0.0
 11
-1.0
 21
0.0
 31
0.0
  0
ENDBLK
  5
94
330
8F
100
AcDbEntity
  8
0
100
AcDbBlockEnd
  0
BLOCK
  5
82E3
330
82E2
100
AcDbEntity
  8
0
100
AcDbBlockBegin
  2
hole-φ12
 70
     0
 10
0.0
 20
0.0
 30
0.0
  3
hole-φ12
  1

  0
CIRCLE
  5
82E4
330
82E2
100
AcDbEntity
  8
02実線
100
AcDbCircle
 10
0.0
 20
0.0
 30
0.0
 40
6.0
  0
LINE
  5
82E5
330
82E2
100
AcDbEntity
  8
04一点鎖線
  6
CENTER
 48
0.2
100
AcDbLine
 10
0.0
 20
-20.0
 30
0.0
 11
0.0
 21
20.0
 31
0.0
  0
LINE
  5
82E8
330
82E2
100
AcDbEntity
  8
04一点鎖線
  6
CENTER
 48
0.2
100
AcDbLine
 10
-20.0
 20
0.0
 30
0.0
 11
20.0
 21
0.0
 31
0.0
  0
ENDBLK
  5
82E9
330
82E2
100
AcDbEntity
  8
0
100
AcDbBlockEnd
  0
BLOCK
  5
82EC
330
82EB
100
AcDbEntity
  8
0
100
AcDbBlockBegin
  2
hole-φ14
 70
     0
 10
0.0
 20
0.0
 30
0.0
  3
hole-φ14
  1

  0
CIRCLE
  5
82ED
330
82EB
100
AcDbEntity
  8
02実線
100
AcDbCircle
 10
0.0
 20
0.0
 30
0.0
 40
7.0
  0
LINE
  5
82EE
330
82EB
100
AcDbEntity
  8
04一点鎖線
  6
CENTER
 48
0.2
100
AcDbLine
 10
0.0
 20
-20.0
 30
0.0
 11
0.0
 21
20.0
 31
0.0
  0
LINE
  5
82EF
330
82EB
100
AcDbEntity
  8
04一点鎖線
  6
CENTER
 48
0.2
100
AcDbLine
 10
-20.0
 20
0.0
 30
0.0
 11
20.0
 21
0.0
 31
0.0
  0
ENDBLK
  5
82F0
330
82EB
100
AcDbEntity
  8
0
100
AcDbBlockEnd
  0
BLOCK
  5
11E66
330
11E63
100
AcDbEntity
  8
0
100
AcDbBlockBegin
  2
シール(検査済)
 70
     0
 10
0.0
 20
0.0
 30
0.0
  3
シール(検査済)
  1

  0
LWPOLYLINE
  5
11E64
330
11E63
100
AcDbEntity
  8
07その他
100
AcDbPolyline
 90
        4
 70
     1
 43
0.0
 10
0.0
 20
0.0
 10
0.0
 20
25.0
 10
75.0
 20
25.0
 10
75.0
 20
0.0
  0
TEXT
  5
11E65
330
11E63
100
AcDbEntity
  8
08非表示
100
AcDbText
 10
8.239027135175693
 20
5.0
 30
0.0
 40
15.0
  1
検査済
 72
     1
 11
37.5
 21
12.5
 31
0.0
100
AcDbText
 73
     2
  0
ENDBLK
  5
11E67
330
11E63
100
AcDbEntity
  8
0
100
AcDbBlockEnd
  0
BLOCK
  5
11E6C
330
11E69
100
AcDbEntity
  8
0
100
AcDbBlockBegin
  2
シール(型式)
 70
     0
 10
0.0
 20
0.0
 30
0.0
  3
シール(型式)
  1

  0
LWPOLYLINE
  5
11E6A
330
11E69
100
AcDbEntity
  8
07その他
100
AcDbPolyline
 90
        4
 70
     1
 43
0.0
 10
0.0
 20
0.0
 10
0.0
 20
24.0
 10
94.0
 20
24.0
 10
94.0
 20
0.0
  0
TEXT
  5
11E6B
330
11E69
100
AcDbEntity
  8
08非表示
100
AcDbText
 10
27.4926847567838
 20
5.0
 30
0.0
 40
15.0
  1
型式
 72
     1
 11
47.0
 21
12.5
 31
0.0
100
AcDbText
 73
     2
  0
ENDBLK
  5
11E6D
330
11E69
100
AcDbEntity
  8
0
100
AcDbBlockEnd
  0
BLOCK
  5
12595
330
12594
100
AcDbEntity
  8
0
100
AcDbBlockBegin
  2
*D1732
 70
     1
 10
0.0
 20
0.0
 30
0.0
  3
*D1732
  1

  0
LINE
  5
12597
330
12594
100
AcDbEntity
  8
01注記寸法
 62
     0
370
    -2
100
AcDbLine
 10
2750.000000000001
 20
550.0000000000009
 30
0.0
 11
2750.000000000001
 21
645.0000000000009
 31
0.0
  0
LINE
  5
12598
330
12594
100
AcDbEntity
  8
01注記寸法
 62
     0
370
    -2
100
AcDbLine
 10
2975.000000000001
 20
520.0000000000005
 30
0.0
 11
2975.000000000001
 21
645.0000000000009
 31
0.0
  0
LINE
  5
12599
330
12594
100
AcDbEntity
  8
01注記寸法
 62
     0
370
    -2
100
AcDbLine
 10
2780.000000000001
 20
635.0000000000009
 30
0.0
 11
2945.000000000001
 21
635.0000000000009
 31
0.0
  0
INSERT
  5
1259A
330
12594
100
AcDbEntity
  8
01注記寸法
 62
     0
370
    -2
100
AcDbBlockReference
  2
_Open
 10
2750.000000000001
 20
635.0000000000009
 30
0.0
 41
30.0
 42
30.0
 43
30.0
 50
180.0
  0
INSERT
  5
1259B
330
12594
100
AcDbEntity
  8
01注記寸法
 62
     0
370
    -2
100
AcDbBlockReference
  2
_Open
 10
2975.000000000001
 20
635.0000000000009
 30
0.0
 41
30.0
 42
30.0
 43
30.0
  0
MTEXT
  5
1259C
330
12594
100
AcDbEntity
  8
01注記寸法
 62
     0
100
AcDbMText
 10
2862.500000000001
 20
660.0056271101672
 30
0.0
 40
30.0
 41
0.0
 71
     5
 72
     1
  1
75
 73
     1
 44
1.0
  0
POINT
  5
1259D
330
12594
100
AcDbEntity
  8
Defpoints
 62
     0
100
AcDbPoint
 10
2750.000000000001
 20
535.0000000000009
 30
0.0
  0
POINT
  5
1259E
330
12594
100
AcDbEntity
  8
Defpoints
 62
     0
100
AcDbPoint
 10
2975.000000000001
 20
505.0000000000005
 30
0.0
  0
POINT
  5
1259F
330
12594
100
AcDbEntity
  8
Defpoints
 62
     0
100
AcDbPoint
 10
2975.000000000001
 20
635.0000000000009
 30
0.0
  0
ENDBLK
  5
12596
330
12594
100
AcDbEntity
  8
0
100
AcDbBlockEnd
  0
BLOCK
  5
125A1
330
125A0
100
AcDbEntity
  8
0
100
AcDbBlockBegin
  2
*D1733
 70
     1
 10
0.0
 20
0.0
 30
0.0
  3
*D1733
  1

  0
LINE
  5
125A3
330
125A0
100
AcDbEntity
  8
01注記寸法
 62
     0
370
    -2
100
AcDbLine
 10
2900.000000000001
 20
445.0000000000005
 30
0.0
 11
2640.000000000001
 21
445.0000000000005
 31
0.0
  0
LINE
  5
125A4
330
125A0
100
AcDbEntity
  8
01注記寸法
 62
     0
370
    -2
100
AcDbLine
 10
2735.000000000001
 20
535.0000000000009
 30
0.0
 11
2640.000000000001
 21
535.0000000000009
 31
0.0
  0
LINE
  5
125A5
330
125A0
100
AcDbEntity
  8
01注記寸法
 62
     0
370
    -2
100
AcDbLine
 10
2650.000000000001
 20
475.0000000000005
 30
0.0
 11
2650.000000000001
 21
505.0000000000009
 31
0.0
  0
INSERT
  5
125A6
330
125A0
100
AcDbEntity
  8
01注記寸法
 62
     0
370
    -2
100
AcDbBlockReference
  2
_Open
 10
2650.000000000001
 20
445.0000000000005
 30
0.0
 41
30.0
 42
30.0
 43
30.0
 50
270.0
  0
INSERT
  5
125A7
330
125A0
100
AcDbEntity
  8
01注記寸法
 62
     0
370
    -2
100
AcDbBlockReference
  2
_Open
 10
2650.000000000001
 20
535.0000000000009
 30
0.0
 41
30.0
 42
30.0
 43
30.0
 50
90.0
  0
MTEXT
  5
125A8
330
125A0
100
AcDbEntity
  8
01注記寸法
 62
     0
100
AcDbMText
 10
2624.994372889835
 20
490.0000000000007
 30
0.0
 40
30.0
 41
0.0
 71
     5
 72
     1
  1
30
 11
0.0
 21
1.0
 31
0.0
 73
     1
 44
1.0
  0
POINT
  5
125A9
330
125A0
100
AcDbEntity
  8
Defpoints
 62
     0
100
AcDbPoint
 10
2915.000000000001
 20
445.0000000000005
 30
0.0
  0
POINT
  5
125AA
330
125A0
100
AcDbEntity
  8
Defpoints
 62
     0
100
AcDbPoint
 10
2750.000000000001
 20
535.0000000000009
 30
0.0
  0
POINT
  5
125AB
330
125A0
100
AcDbEntity
  8
Defpoints
 62
     0
100
AcDbPoint
 10
2650.000000000001
 20
535.0000000000009
 30
0.0
  0
ENDBLK
  5
125A2
330
125A0
100
AcDbEntity
  8
0
100
AcDbBlockEnd
  0
BLOCK
  5
125AD
330
125AC
100
AcDbEntity
  8
0
100
AcDbBlockBegin
  2
*D1734
 70
     1
 10
0.0
 20
0.0
 30
0.0
  3
*D1734
  1

  0
LINE
  5
125AF
330
125AC
100
AcDbEntity
  8
01注記寸法
 62
     0
370
    -2
100
AcDbLine
 10
2821.275165687132
 20
225.0
 30
0.0
 11
2900.0
 21
225.0
 31
0.0
  0
LINE
  5
125B0
330
125AC
100
AcDbEntity
  8
01注記寸法
 62
     0
370
    -2
100
AcDbLine
 10
2900.0
 20
225.0
 30
0.0
 11
2958.543629682806
 21
396.727980402895
 31
0.0
  0
LINE
  5
125B1
330
125AC
100
AcDbEntity
  8
01注記寸法
 62
     0
370
    -2
100
AcDbLine
 10
2991.456370317196
 20
493.2720195971061
 30
0.0
 11
3001.13658815084
 21
521.6673252424623
 31
0.0
  0
MTEXT
  5
125B2
330
125AC
100
AcDbEntity
  8
01注記寸法
 62
     0
100
AcDbMText
 10
2855.637582843566
 20
252.4421658121796
 30
0.0
 40
30.0
 41
0.0
 71
     5
 72
     1
  1
φ14
 73
     1
 44
1.0
  0
LINE
  5
125B3
330
125AC
100
AcDbEntity
  8
01注記寸法
 62
     0
370
    -2
100
AcDbLine
 10
2981.776152483552
 20
464.8767139517499
 30
0.0
 11
2968.22384751645
 21
425.1232860482512
 31
0.0
  0
INSERT
  5
125B4
330
125AC
100
AcDbEntity
  8
01注記寸法
 62
     0
370
    -2
100
AcDbBlockReference
  2
_Open
 10
2981.776152483552
 20
464.8767139517499
 30
0.0
 41
30.0
 42
30.0
 43
30.0
 50
251.1752899817598
  0
INSERT
  5
125B5
330
125AC
100
AcDbEntity
  8
01注記寸法
 62
     0
370
    -2
100
AcDbBlockReference
  2
_Open
 10
2968.22384751645
 20
425.1232860482512
 30
0.0
 41
30.0
 42
30.0
 43
30.0
 50
71.17528998175983
  0
POINT
  5
125B6
330
125AC
100
AcDbEntity
  8
Defpoints
 62
     0
100
AcDbPoint
 10
2968.22384751645
 20
425.1232860482512
 30
0.0
  0
POINT
  5
125B7
330
125AC
100
AcDbEntity
  8
Defpoints
 62
     0
100
AcDbPoint
 10
2981.776152483552
 20
464.8767139517499
 30
0.0
  0
ENDBLK
  5
125AE
330
125AC
100
AcDbEntity
  8
0
100
AcDbBlockEnd
  0
BLOCK
  5
130AF
330
12F94
100
AcDbEntity
  8
0
100
AcDbBlockBegin
  2
PFAV-P224DMJ1
 70
     0
 10
0.0
 20
0.0
 30
0.0
  3
PFAV-P224DMJ1
  1

  0
LINE
  5
12F95
330
12F94
100
AcDbEntity
  8
11機器
100
AcDbLine
 10
995.7999999999993
 20
389.1000000000004
 30
0.0
 11
956.7999999999993
 21
389.1000000000004
 31
0.0
  0
LINE
  5
12F96
330
12F94
100
AcDbEntity
  8
11機器
100
AcDbLine
 10
68.79999999999927
 20
389.1000000000004
 30
0.0
 11
29.79999999999927
 21
389.1000000000004
 31
0.0
  0
LINE
  5
12F97
330
12F94
100
AcDbEntity
  8
11機器
100
AcDbLine
 10
1002.799999999999
 20
386.3000000000002
 30
0.0
 11
956.7999999999993
 21
386.3000000000002
 31
0.0
  0
LINE
  5
12F98
330
12F94
100
AcDbEntity
  8
11機器
100
AcDbLine
 10
68.79999999999927
 20
386.3000000000002
 30
0.0
 11
23.59999999999854
 21
386.3000000000002
 31
0.0
  0
LINE
  5
12F99
330
12F94
100
AcDbEntity
  8
11機器
100
AcDbLine
 10
977.2814834739984
 20
386.0
 30
0.0
 11
932.4814834739991
 21
386.0
 31
0.0
  0
LINE
  5
12F9A
330
12F94
100
AcDbEntity
  8
11機器
100
AcDbLine
 10
93.11851652599944
 20
386.0
 30
0.0
 11
48.31851652600017
 21
386.0
 31
0.0
  0
LINE
  5
12F9B
330
12F94
100
AcDbEntity
  8
11機器
100
AcDbLine
 10
-9.0
 20
-30.0
 30
0.0
 11
-14.0
 21
-25.0
 31
0.0
  0
LINE
  5
12F9C
330
12F94
100
AcDbEntity
  8
11機器
100
AcDbLine
 10
931.2999999999993
 20
384.5
 30
0.0
 11
930.7999999999993
 21
384.5
 31
0.0
  0
LINE
  5
12F9D
330
12F94
100
AcDbEntity
  8
11機器
100
AcDbLine
 10
94.29999999999927
 20
384.5
 30
0.0
 11
94.79999999999927
 21
384.5
 31
0.0
  0
LINE
  5
12F9E
330
12F94
100
AcDbEntity
  8
11機器
100
AcDbLine
 10
94.79999999999927
 20
384.3000000000002
 30
0.0
 11
930.7999999999993
 21
384.3000000000002
 31
0.0
  0
LINE
  5
12F9F
330
12F94
100
AcDbEntity
  8
11機器
100
AcDbLine
 10
1002.799999999999
 20
383.3000000000002
 30
0.0
 11
1001.799999999999
 21
383.3000000000002
 31
0.0
  0
LINE
  5
12FA0
330
12F94
100
AcDbEntity
  8
11機器
100
AcDbLine
 10
23.79999999999927
 20
383.3000000000002
 30
0.0
 11
48.31851652600017
 21
383.3000000000002
 31
0.0
  0
LINE
  5
12FA1
330
12F94
100
AcDbEntity
  8
11機器
100
AcDbLine
 10
94.79999999999927
 20
383.3000000000002
 30
0.0
 11
930.7999999999993
 21
383.3000000000002
 31
0.0
  0
LINE
  5
12FA2
330
12F94
100
AcDbEntity
  8
11機器
100
AcDbLine
 10
94.29999999999927
 20
383.3000000020002
 30
0.0
 11
931.2999999999993
 21
383.3000000000002
 31
0.0
  0
LINE
  5
12FA3
330
12F94
100
AcDbEntity
  8
11機器
100
AcDbLine
 10
977.2814834739984
 20
383.3000000000002
 30
0.0
 11
1001.799999999999
 21
383.3000000000002
 31
0.0
  0
LINE
  5
12FA4
330
12F94
100
AcDbEntity
  8
11機器
100
AcDbLine
 10
23.79999999999927
 20
383.0764571340005
 30
0.0
 11
48.31851652600017
 21
383.0764571340005
 31
0.0
  0
LINE
  5
12FA5
330
12F94
100
AcDbEntity
  8
11機器
100
AcDbLine
 10
977.2814834739984
 20
383.0764571340005
 30
0.0
 11
1001.799999999999
 21
383.0764571340005
 31
0.0
  0
LINE
  5
12FA6
330
12F94
100
AcDbEntity
  8
11機器
100
AcDbLine
 10
28.29999999999927
 20
382.8000000000002
 30
0.0
 11
997.2999999999993
 21
382.8000000000002
 31
0.0
  0
LINE
  5
12FA7
330
12F94
100
AcDbEntity
  8
11機器
100
AcDbLine
 10
22.79999999999927
 20
382.3000000000002
 30
0.0
 11
23.74823619199924
 21
382.3000000000002
 31
0.0
  0
LINE
  5
12FA8
330
12F94
100
AcDbEntity
  8
11機器
100
AcDbLine
 10
1001.851763809998
 20
382.3000000000002
 30
0.0
 11
1002.576457136
 21
382.3000000000002
 31
0.0
  0
LINE
  5
12FA9
330
12F94
100
AcDbEntity
  8
11機器
100
AcDbLine
 10
1002.483383626
 20
382.3000000000002
 30
0.0
 11
1002.799999999999
 21
382.3000000000002
 31
0.0
  0
LINE
  5
12FAA
330
12F94
100
AcDbEntity
  8
11機器
100
AcDbLine
 10
999.5999999999985
 20
380.5
 30
0.0
 11
997.2999999999993
 21
380.5
 31
0.0
  0
LINE
  5
12FAB
330
12F94
100
AcDbEntity
  8
11機器
100
AcDbLine
 10
26.0
 20
380.5
 30
0.0
 11
28.29999999999927
 21
380.5
 31
0.0
  0
LINE
  5
12FAC
330
12F94
100
AcDbEntity
  8
11機器
100
AcDbLine
 10
983.5999999999985
 20
366.8000000000002
 30
0.0
 11
42.0
 21
366.8000000000002
 31
0.0
  0
LINE
  5
12FAD
330
12F94
100
AcDbEntity
  8
11機器
100
AcDbLine
 10
981.7999999999993
 20
365.0000001040007
 30
0.0
 11
975.3999999999996
 21
365.0
 31
0.0
  0
LINE
  5
12FAE
330
12F94
100
AcDbEntity
  8
11機器
100
AcDbLine
 10
44.39999999999964
 20
365.0000001040007
 30
0.0
 11
42.0
 21
365.0000001040007
 31
0.0
  0
LINE
  5
12FAF
330
12F94
100
AcDbEntity
  8
11機器
100
AcDbLine
 10
44.39999999999964
 20
362.9999999980009
 30
0.0
 11
975.3999999999996
 21
363.0
 31
0.0
  0
LINE
  5
12FB0
330
12F94
100
AcDbEntity
  8
11機器
100
AcDbLine
 10
1002.799999999999
 20
360.4814834740009
 30
0.0
 11
999.5999999999985
 21
360.4814834740009
 31
0.0
  0
LINE
  5
12FB1
330
12F94
100
AcDbEntity
  8
11機器
100
AcDbLine
 10
22.79999999999927
 20
360.4814834740009
 30
0.0
 11
26.0
 21
360.4814834740009
 31
0.0
  0
LINE
  5
12FB2
330
12F94
100
AcDbEntity
  8
11機器
100
AcDbLine
 10
-9.0
 20
330.0
 30
0.0
 11
26.0
 21
330.0
 31
0.0
  0
LINE
  5
12FB3
330
12F94
100
AcDbEntity
  8
11機器
100
AcDbLine
 10
999.5999999999985
 20
330.0
 30
0.0
 11
1034.599999999999
 21
330.0
 31
0.0
  0
LINE
  5
12FB4
330
12F94
100
AcDbEntity
  8
11機器
100
AcDbLine
 10
-9.0
 20
270.0
 30
0.0
 11
26.0
 21
270.0
 31
0.0
  0
LINE
  5
12FB5
330
12F94
100
AcDbEntity
  8
11機器
100
AcDbLine
 10
999.5999999999985
 20
270.0
 30
0.0
 11
1034.599999999999
 21
270.0
 31
0.0
  0
LINE
  5
12FB6
330
12F94
100
AcDbEntity
  8
11機器
100
AcDbLine
 10
-14.0
 20
325.0
 30
0.0
 11
-9.0
 21
330.0
 31
0.0
  0
LINE
  5
12FB7
330
12F94
100
AcDbEntity
  8
11機器
100
AcDbLine
 10
-14.0
 20
-25.0
 30
0.0
 11
-14.0
 21
25.0
 31
0.0
  0
LINE
  5
12FB8
330
12F94
100
AcDbEntity
  8
11機器
100
AcDbLine
 10
-14.0
 20
275.0
 30
0.0
 11
-14.0
 21
325.0
 31
0.0
  0
LINE
  5
12FB9
330
12F94
100
AcDbEntity
  8
11機器
100
AcDbLine
 10
18.69999999999891
 20
-78.68626842999947
 30
0.0
 11
18.69999999999891
 21
-87.3862684300002
 31
0.0
  0
LINE
  5
12FBA
330
12F94
100
AcDbEntity
  8
11機器
100
AcDbLine
 10
22.79999999999927
 20
-99.89999999999964
 30
0.0
 11
22.79999999999927
 21
-87.3862684300002
 31
0.0
  0
LINE
  5
12FBB
330
12F94
100
AcDbEntity
  8
11機器
100
AcDbLine
 10
22.79999999999927
 20
-78.68626842999947
 30
0.0
 11
22.79999999999927
 21
-74.481483476
 31
0.0
  0
LINE
  5
12FBC
330
12F94
100
AcDbEntity
  8
11機器
100
AcDbLine
 10
22.79999999999927
 20
30.0
 30
0.0
 11
22.79999999999927
 21
270.0
 31
0.0
  0
LINE
  5
12FBD
330
12F94
100
AcDbEntity
  8
11機器
100
AcDbLine
 10
22.79999999999927
 20
360.4814834740009
 30
0.0
 11
22.79999999999927
 21
382.3000000000002
 31
0.0
  0
LINE
  5
12FBE
330
12F94
100
AcDbEntity
  8
11機器
100
AcDbLine
 10
22.79999999999927
 20
360.4814834740009
 30
0.0
 11
22.79999999999927
 21
330.0
 31
0.0
  0
LINE
  5
12FBF
330
12F94
100
AcDbEntity
  8
11機器
100
AcDbLine
 10
22.79999999999927
 20
-30.0
 30
0.0
 11
22.79999999999927
 21
-74.481483476
 31
0.0
  0
LINE
  5
12FC0
330
12F94
100
AcDbEntity
  8
11機器
100
AcDbLine
 10
23.02354286599984
 20
-99.89999999999964
 30
0.0
 11
23.02354286599984
 21
-87.3862684300002
 31
0.0
  0
LINE
  5
12FC1
330
12F94
100
AcDbEntity
  8
11機器
100
AcDbLine
 10
23.02354286599984
 20
-78.68626842999947
 30
0.0
 11
23.02354286599984
 21
-74.481483476
 31
0.0
  0
LINE
  5
12FC2
330
12F94
100
AcDbEntity
  8
11機器
100
AcDbLine
 10
23.02354286599984
 20
30.0
 30
0.0
 11
23.02354286599984
 21
270.0
 31
0.0
  0
LINE
  5
12FC3
330
12F94
100
AcDbEntity
  8
11機器
100
AcDbLine
 10
23.02354286599984
 20
360.4814834740009
 30
0.0
 11
23.02354286599984
 21
382.3000000000002
 31
0.0
  0
LINE
  5
12FC4
330
12F94
100
AcDbEntity
  8
11機器
100
AcDbLine
 10
23.19999999999891
 20
-76.80206671999986
 30
0.0
 11
23.19999999999891
 21
-88.7979332799996
 31
0.0
  0
LINE
  5
12FC5
330
12F94
100
AcDbEntity
  8
11機器
100
AcDbLine
 10
23.59999999999854
 20
383.3000000000002
 30
0.0
 11
23.59999999999854
 21
386.3000000000002
 31
0.0
  0
LINE
  5
12FC6
330
12F94
100
AcDbEntity
  8
11機器
100
AcDbLine
 10
23.79999999999927
 20
383.1356309620005
 30
0.0
 11
23.79999999999927
 21
383.3000000000002
 31
0.0
  0
LINE
  5
12FC7
330
12F94
100
AcDbEntity
  8
11機器
100
AcDbLine
 10
23.79999999999927
 20
383.0764571340005
 30
0.0
 11
23.79999999999927
 21
382.3517638080002
 31
0.0
  0
LINE
  5
12FC8
330
12F94
100
AcDbEntity
  8
11機器
100
AcDbLine
 10
23.79999999999927
 20
-99.95176380999965
 30
0.0
 11
23.79999999999927
 21
-100.8999999999996
 31
0.0
  0
LINE
  5
12FC9
330
12F94
100
AcDbEntity
  8
11機器
100
AcDbLine
 10
24.19999999999891
 20
-74.59999999999945
 30
0.0
 11
24.19999999999891
 21
-95.0
 31
0.0
  0
LINE
  5
12FCA
330
12F94
100
AcDbEntity
  8
11機器
100
AcDbLine
 10
25.79999999999927
 20
-74.59999999999945
 30
0.0
 11
25.79999999999927
 21
-95.0
 31
0.0
  0
LINE
  5
12FCB
330
12F94
100
AcDbEntity
  8
11機器
100
AcDbLine
 10
26.0
 20
-94.5
 30
0.0
 11
26.0
 21
380.5
 31
0.0
  0
LINE
  5
12FCC
330
12F94
100
AcDbEntity
  8
11機器
100
AcDbLine
 10
26.0
 20
-96.79999999999927
 30
0.0
 11
26.0
 21
-98.38198051600011
 31
0.0
  0
LINE
  5
12FCD
330
12F94
100
AcDbEntity
  8
11機器
100
AcDbLine
 10
28.29999999999927
 20
382.8000000000002
 30
0.0
 11
28.29999999999927
 21
380.5
 31
0.0
  0
LINE
  5
12FCE
330
12F94
100
AcDbEntity
  8
11機器
100
AcDbLine
 10
28.29999999999927
 20
-94.5
 30
0.0
 11
28.29999999999927
 21
-95.19999999999982
 31
0.0
  0
LINE
  5
12FCF
330
12F94
100
AcDbEntity
  8
11機器
100
AcDbLine
 10
29.79999999999927
 20
386.3000000000002
 30
0.0
 11
29.79999999999927
 21
389.1000000000004
 31
0.0
  0
LINE
  5
12FD0
330
12F94
100
AcDbEntity
  8
11機器
100
AcDbLine
 10
31.0
 20
-95.0
 30
0.0
 11
31.0
 21
-96.79999999999927
 31
0.0
  0
LINE
  5
12FD1
330
12F94
100
AcDbEntity
  8
11機器
100
AcDbLine
 10
34.79999999999927
 20
386.3000000000002
 30
0.0
 11
34.79999999999927
 21
389.1000000000004
 31
0.0
  0
LINE
  5
12FD2
330
12F94
100
AcDbEntity
  8
11機器
100
AcDbLine
 10
36.5
 20
-89.5
 30
0.0
 11
36.5
 21
-86.29999999999927
 31
0.0
  0
LINE
  5
12FD3
330
12F94
100
AcDbEntity
  8
11機器
100
AcDbLine
 10
42.0
 20
-80.79999999999927
 30
0.0
 11
42.0
 21
366.8000000000002
 31
0.0
  0
LINE
  5
12FD4
330
12F94
100
AcDbEntity
  8
11機器
100
AcDbLine
 10
44.39999999999964
 20
366.8000000000002
 30
0.0
 11
44.40000000199871
 21
-81.60000000000036
 31
0.0
  0
LINE
  5
12FD5
330
12F94
100
AcDbEntity
  8
11機器
100
AcDbLine
 10
48.31851652600017
 20
-100.0
 30
0.0
 11
48.31851652600017
 21
-98.38198051600011
 31
0.0
  0
LINE
  5
12FD6
330
12F94
100
AcDbEntity
  8
11機器
100
AcDbLine
 10
48.31851652600017
 20
386.0
 30
0.0
 11
48.31851652600017
 21
382.8000000000002
 31
0.0
  0
LINE
  5
12FD7
330
12F94
100
AcDbEntity
  8
11機器
100
AcDbLine
 10
51.39999999999964
 20
366.8000000000002
 30
0.0
 11
51.39999999999964
 21
-80.79999999999927
 31
0.0
  0
LINE
  5
12FD8
330
12F94
100
AcDbEntity
  8
11機器
100
AcDbLine
 10
69.02584975399805
 20
-100.8047938939999
 30
0.0
 11
68.79999999999927
 21
-100.324935736
 31
0.0
  0
LINE
  5
12FD9
330
12F94
100
AcDbEntity
  8
11機器
100
AcDbLine
 10
68.79999999999927
 20
-100.0
 30
0.0
 11
68.79999999999927
 21
-100.676457136
 31
0.0
  0
LINE
  5
12FDA
330
12F94
100
AcDbEntity
  8
11機器
100
AcDbLine
 10
68.79999999999927
 20
-100.7356309639999
 30
0.0
 11
68.79999999999927
 21
-100.8999999999996
 31
0.0
  0
LINE
  5
12FDB
330
12F94
100
AcDbEntity
  8
11機器
100
AcDbLine
 10
75.0
 20
-100.0
 30
0.0
 11
75.0
 21
-100.8999999999996
 31
0.0
  0
LINE
  5
12FDC
330
12F94
100
AcDbEntity
  8
11機器
100
AcDbLine
 10
92.11851652599944
 20
-100.0
 30
0.0
 11
92.11851652599944
 21
-98.38198051600011
 31
0.0
  0
LINE
  5
12FDD
330
12F94
100
AcDbEntity
  8
11機器
100
AcDbLine
 10
92.11851652599944
 20
386.0
 30
0.0
 11
92.11851652599944
 21
382.8000000000002
 31
0.0
  0
LINE
  5
12FDE
330
12F94
100
AcDbEntity
  8
11機器
100
AcDbLine
 10
93.11851652599944
 20
382.8000000000002
 30
0.0
 11
93.11851652599944
 21
386.0
 31
0.0
  0
LINE
  5
12FDF
330
12F94
100
AcDbEntity
  8
11機器
100
AcDbLine
 10
93.11851652599944
 20
-98.38198051600011
 30
0.0
 11
93.11851652599944
 21
-100.0
 31
0.0
  0
LINE
  5
12FE0
330
12F94
100
AcDbEntity
  8
11機器
100
AcDbLine
 10
94.59999999999854
 20
-98.38198051600011
 30
0.0
 11
94.59999999999854
 21
-101.2281693999994
 31
0.0
  0
LINE
  5
12FE1
330
12F94
100
AcDbEntity
  8
11機器
100
AcDbLine
 10
94.79999999999927
 20
384.5
 30
0.0
 11
94.79999999999927
 21
382.8000000000002
 31
0.0
  0
LINE
  5
12FE2
330
12F94
100
AcDbEntity
  8
11機器
100
AcDbLine
 10
99.79999999999927
 20
384.3000000000002
 30
0.0
 11
99.79999999999927
 21
382.8000000000002
 31
0.0
  0
LINE
  5
12FE3
330
12F94
100
AcDbEntity
  8
11機器
100
AcDbLine
 10
147.0
 20
-101.2281693999994
 30
0.0
 11
147.0
 21
-101.5244836040001
 31
0.0
  0
LINE
  5
12FE4
330
12F94
100
AcDbEntity
  8
11機器
100
AcDbLine
 10
-9.0
 20
270.0
 30
0.0
 11
-14.0
 21
275.0
 31
0.0
  0
LINE
  5
12FE5
330
12F94
100
AcDbEntity
  8
11機器
100
AcDbLine
 10
-9.0
 20
30.0
 30
0.0
 11
26.0
 21
30.0
 31
0.0
  0
LINE
  5
12FE6
330
12F94
100
AcDbEntity
  8
11機器
100
AcDbLine
 10
999.5999999999985
 20
30.0
 30
0.0
 11
1034.599999999999
 21
30.0
 31
0.0
  0
LINE
  5
12FE7
330
12F94
100
AcDbEntity
  8
11機器
100
AcDbLine
 10
-14.0
 20
25.0
 30
0.0
 11
-9.0
 21
30.0
 31
0.0
  0
LINE
  5
12FE8
330
12F94
100
AcDbEntity
  8
11機器
100
AcDbLine
 10
259.5
 20
-103.2578169379995
 30
0.0
 11
259.5
 21
-110.8999999999996
 31
0.0
  0
LINE
  5
12FE9
330
12F94
100
AcDbEntity
  8
11機器
100
AcDbLine
 10
274.5
 20
-103.2578169379995
 30
0.0
 11
274.5
 21
-110.8999999999996
 31
0.0
  0
LINE
  5
12FEA
330
12F94
100
AcDbEntity
  8
11機器
100
AcDbLine
 10
288.0
 20
-101.2281693999994
 30
0.0
 11
288.0
 21
-101.5244836040001
 31
0.0
  0
LINE
  5
12FEB
330
12F94
100
AcDbEntity
  8
11機器
100
AcDbLine
 10
23.02354286599984
 20
382.3000000000002
 30
0.0
 11
26.0
 21
379.2185448239998
 31
0.0
  0
LINE
  5
12FEC
330
12F94
100
AcDbEntity
  8
11機器
100
AcDbLine
 10
26.0
 20
379.7544432100003
 30
0.0
 11
23.54118095599915
 21
382.3000000000002
 31
0.0
  0
LINE
  5
12FED
330
12F94
100
AcDbEntity
  8
11機器
100
AcDbLine
 10
26.0
 20
379.9688025640007
 30
0.0
 11
23.74823619199924
 21
382.3000000000002
 31
0.0
  0
LINE
  5
12FEE
330
12F94
100
AcDbEntity
  8
11機器
100
AcDbLine
 10
42.0
 20
366.8000000000002
 30
0.0
 11
28.29999999999927
 21
380.5
 31
0.0
  0
LINE
  5
12FEF
330
12F94
100
AcDbEntity
  8
11機器
100
AcDbLine
 10
42.0
 20
366.8000000000002
 30
0.0
 11
28.29999999999927
 21
380.5
 31
0.0
  0
LINE
  5
12FF0
330
12F94
100
AcDbEntity
  8
11機器
100
AcDbLine
 10
23.79999999999927
 20
382.3517638080002
 30
0.0
 11
26.0
 21
380.2267269900003
 31
0.0
  0
LINE
  5
12FF1
330
12F94
100
AcDbEntity
  8
11機器
100
AcDbLine
 10
26.0
 20
380.4337822260004
 30
0.0
 11
23.79999999999927
 21
382.5588190440003
 31
0.0
  0
LINE
  5
12FF2
330
12F94
100
AcDbEntity
  8
11機器
100
AcDbLine
 10
26.46734470199954
 20
380.5
 30
0.0
 11
23.79999999999927
 21
383.0764571340005
 31
0.0
  0
LINE
  5
12FF3
330
12F94
100
AcDbEntity
  8
11機器
100
AcDbLine
 10
147.8678362799983
 20
-102.5157115039992
 30
0.0
 11
153.3678362799983
 21
-103.2490448379995
 31
0.0
  0
LINE
  5
12FF4
330
12F94
100
AcDbEntity
  8
11機器
100
AcDbLine
 10
153.5
 20
-103.2578169379995
 30
0.0
 11
153.3678362799983
 21
-103.2490448379995
 31
0.0
  0
LINE
  5
12FF5
330
12F94
100
AcDbEntity
  8
11機器
100
AcDbLine
 10
-9.0
 20
-30.0
 30
0.0
 11
26.0
 21
-30.0
 31
0.0
  0
LINE
  5
12FF6
330
12F94
100
AcDbEntity
  8
11機器
100
AcDbLine
 10
999.5999999999985
 20
-30.0
 30
0.0
 11
1034.599999999999
 21
-30.0
 31
0.0
  0
LINE
  5
12FF7
330
12F94
100
AcDbEntity
  8
11機器
100
AcDbLine
 10
1002.799999999999
 20
-30.68148347599981
 30
0.0
 11
999.5999999999985
 21
-30.68148347599981
 31
0.0
  0
LINE
  5
12FF8
330
12F94
100
AcDbEntity
  8
11機器
100
AcDbLine
 10
22.79999999999927
 20
-30.68148347599981
 30
0.0
 11
26.0
 21
-30.68148347599981
 31
0.0
  0
LINE
  5
12FF9
330
12F94
100
AcDbEntity
  8
11機器
100
AcDbLine
 10
1002.799999999999
 20
-74.481483476
 30
0.0
 11
999.5999999999985
 21
-74.481483476
 31
0.0
  0
LINE
  5
12FFA
330
12F94
100
AcDbEntity
  8
11機器
100
AcDbLine
 10
22.79999999999927
 20
-74.481483476
 30
0.0
 11
26.0
 21
-74.481483476
 31
0.0
  0
LINE
  5
12FFB
330
12F94
100
AcDbEntity
  8
11機器
100
AcDbLine
 10
25.79999999999927
 20
-74.59999999999945
 30
0.0
 11
24.19999999999891
 21
-74.59999999999945
 31
0.0
  0
LINE
  5
12FFC
330
12F94
100
AcDbEntity
  8
11機器
100
AcDbLine
 10
999.7999999999993
 20
-74.59999999999945
 30
0.0
 11
1001.4
 21
-74.59999999999945
 31
0.0
  0
LINE
  5
12FFD
330
12F94
100
AcDbEntity
  8
11機器
100
AcDbLine
 10
24.19999999999891
 20
-76.79999999999927
 30
0.0
 11
23.19999999999891
 21
-76.79999999999927
 31
0.0
  0
LINE
  5
12FFE
330
12F94
100
AcDbEntity
  8
11機器
100
AcDbLine
 10
1001.4
 20
-76.79999999999927
 30
0.0
 11
1002.4
 21
-76.79999999999927
 31
0.0
  0
LINE
  5
12FFF
330
12F94
100
AcDbEntity
  8
11機器
100
AcDbLine
 10
44.40000000199871
 20
-77.00000000199907
 30
0.0
 11
975.3999999999996
 21
-77.0
 31
0.0
  0
LINE
  5
13000
330
12F94
100
AcDbEntity
  8
11機器
100
AcDbLine
 10
25.79999999999927
 20
-77.59999999999945
 30
0.0
 11
24.19999999999891
 21
-77.59999999999945
 31
0.0
  0
LINE
  5
13001
330
12F94
100
AcDbEntity
  8
11機器
100
AcDbLine
 10
999.7999999999993
 20
-77.59999999999945
 30
0.0
 11
1001.4
 21
-77.59999999999945
 31
0.0
  0
LINE
  5
13002
330
12F94
100
AcDbEntity
  8
11機器
100
AcDbLine
 10
23.19999999999891
 20
-78.68626842999947
 30
0.0
 11
18.69999999999891
 21
-78.68626842999947
 31
0.0
  0
LINE
  5
13003
330
12F94
100
AcDbEntity
  8
11機器
100
AcDbLine
 10
1002.4
 20
-78.68626842999947
 30
0.0
 11
1006.9
 21
-78.68626842999947
 31
0.0
  0
LINE
  5
13004
330
12F94
100
AcDbEntity
  8
11機器
100
AcDbLine
 10
44.40000000199871
 20
-78.99999989800017
 30
0.0
 11
42.0
 21
-78.99999989800017
 31
0.0
  0
LINE
  5
13005
330
12F94
100
AcDbEntity
  8
11機器
100
AcDbLine
 10
975.3999999999996
 20
-79.0
 30
0.0
 11
981.7999999999993
 21
-78.99999989599928
 31
0.0
  0
LINE
  5
13006
330
12F94
100
AcDbEntity
  8
11機器
100
AcDbLine
 10
26.0
 20
-80.54999999999927
 30
0.0
 11
25.79999999999927
 21
-80.54999999999927
 31
0.0
  0
LINE
  5
13007
330
12F94
100
AcDbEntity
  8
11機器
100
AcDbLine
 10
999.5999999999985
 20
-80.54999999999927
 30
0.0
 11
999.7999999999993
 21
-80.54999999999927
 31
0.0
  0
LINE
  5
13008
330
12F94
100
AcDbEntity
  8
11機器
100
AcDbLine
 10
45.19999999999891
 20
-80.79999999999927
 30
0.0
 11
980.3999999999996
 21
-80.79999999999927
 31
0.0
  0
LINE
  5
13009
330
12F94
100
AcDbEntity
  8
11機器
100
AcDbLine
 10
1002.4
 20
-80.9631357799999
 30
0.0
 11
1006.9
 21
-80.9631357799999
 31
0.0
  0
LINE
  5
1300A
330
12F94
100
AcDbEntity
  8
11機器
100
AcDbLine
 10
23.19999999999891
 20
-80.9956695059991
 30
0.0
 11
18.69999999999891
 21
-80.9956695059991
 31
0.0
  0
LINE
  5
1300B
330
12F94
100
AcDbEntity
  8
11機器
100
AcDbLine
 10
26.0
 20
-85.04999999999927
 30
0.0
 11
25.79999999999927
 21
-85.04999999999927
 31
0.0
  0
LINE
  5
1300C
330
12F94
100
AcDbEntity
  8
11機器
100
AcDbLine
 10
999.5999999999985
 20
-85.04999999999927
 30
0.0
 11
999.7999999999993
 21
-85.04999999999927
 31
0.0
  0
LINE
  5
1300D
330
12F94
100
AcDbEntity
  8
11機器
100
AcDbLine
 10
1002.4
 20
-85.07686735199968
 30
0.0
 11
1006.9
 21
-85.07686735199968
 31
0.0
  0
LINE
  5
1300E
330
12F94
100
AcDbEntity
  8
11機器
100
AcDbLine
 10
23.19999999999891
 20
-85.10940107799979
 30
0.0
 11
18.69999999999891
 21
-85.10940107799979
 31
0.0
  0
LINE
  5
1300F
330
12F94
100
AcDbEntity
  8
11機器
100
AcDbLine
 10
23.19999999999891
 20
-87.3862684300002
 30
0.0
 11
18.69999999999891
 21
-87.3862684300002
 31
0.0
  0
LINE
  5
13010
330
12F94
100
AcDbEntity
  8
11機器
100
AcDbLine
 10
1002.4
 20
-87.3862684300002
 30
0.0
 11
1006.9
 21
-87.3862684300002
 31
0.0
  0
LINE
  5
13011
330
12F94
100
AcDbEntity
  8
11機器
100
AcDbLine
 10
24.19999999999891
 20
-88.79999999999927
 30
0.0
 11
23.19999999999891
 21
-88.79999999999927
 31
0.0
  0
LINE
  5
13012
330
12F94
100
AcDbEntity
  8
11機器
100
AcDbLine
 10
1001.4
 20
-88.79999999999927
 30
0.0
 11
1002.4
 21
-88.79999999999927
 31
0.0
  0
LINE
  5
13013
330
12F94
100
AcDbEntity
  8
11機器
100
AcDbLine
 10
33.19999999999891
 20
-92.80000000200016
 30
0.0
 11
30.0
 21
-92.80000000200016
 31
0.0
  0
LINE
  5
13014
330
12F94
100
AcDbEntity
  8
11機器
100
AcDbLine
 10
992.3999999999996
 20
-92.79999999999927
 30
0.0
 11
994.2999999999993
 21
-92.79999999999927
 31
0.0
  0
LINE
  5
13015
330
12F94
100
AcDbEntity
  8
11機器
100
AcDbLine
 10
29.31851652599835
 20
-93.481483476
 30
0.0
 11
32.51851652599908
 21
-93.481483476
 31
0.0
  0
LINE
  5
13016
330
12F94
100
AcDbEntity
  8
11機器
100
AcDbLine
 10
999.5999999999985
 20
-94.5
 30
0.0
 11
997.2999999999993
 21
-94.5
 31
0.0
  0
LINE
  5
13017
330
12F94
100
AcDbEntity
  8
11機器
100
AcDbLine
 10
26.0
 20
-94.5
 30
0.0
 11
28.29999999999927
 21
-94.5
 31
0.0
  0
LINE
  5
13018
330
12F94
100
AcDbEntity
  8
11機器
100
AcDbLine
 10
28.29999999999927
 20
-94.5
 30
0.0
 11
31.5
 21
-94.5
 31
0.0
  0
LINE
  5
13019
330
12F94
100
AcDbEntity
  8
11機器
100
AcDbLine
 10
994.0999999999985
 20
-94.5
 30
0.0
 11
997.2999999999993
 21
-94.5
 31
0.0
  0
LINE
  5
1301A
330
12F94
100
AcDbEntity
  8
11機器
100
AcDbLine
 10
26.0
 20
-95.19999999999982
 30
0.0
 11
31.0
 21
-95.19999999999982
 31
0.0
  0
LINE
  5
1301B
330
12F94
100
AcDbEntity
  8
11機器
100
AcDbLine
 10
994.5999999999985
 20
-95.19999999999982
 30
0.0
 11
999.5999999999985
 21
-95.19999999999982
 31
0.0
  0
LINE
  5
1301C
330
12F94
100
AcDbEntity
  8
11機器
100
AcDbLine
 10
26.0
 20
-96.79999999999927
 30
0.0
 11
999.5999999999985
 21
-96.79999999999927
 31
0.0
  0
LINE
  5
1301D
330
12F94
100
AcDbEntity
  8
11機器
100
AcDbLine
 10
26.0
 20
-98.38198051600011
 30
0.0
 11
999.5999999999985
 21
-98.38198051600011
 31
0.0
  0
LINE
  5
1301E
330
12F94
100
AcDbEntity
  8
11機器
100
AcDbLine
 10
506.7999999999993
 20
-99.38198051600011
 30
0.0
 11
518.7999999999993
 21
-99.38198051600011
 31
0.0
  0
LINE
  5
1301F
330
12F94
100
AcDbEntity
  8
11機器
100
AcDbLine
 10
23.02354286599984
 20
-99.89999999999964
 30
0.0
 11
22.79999999999927
 21
-99.89999999999964
 31
0.0
  0
LINE
  5
13020
330
12F94
100
AcDbEntity
  8
11機器
100
AcDbLine
 10
23.02354286599984
 20
-99.89999999999964
 30
0.0
 11
23.74823619199924
 21
-99.89999999999964
 31
0.0
  0
LINE
  5
13021
330
12F94
100
AcDbEntity
  8
11機器
100
AcDbLine
 10
1001.851763809998
 20
-99.89999999999964
 30
0.0
 11
1002.576457136
 21
-99.89999999999964
 31
0.0
  0
LINE
  5
13022
330
12F94
100
AcDbEntity
  8
11機器
100
AcDbLine
 10
1002.576457136
 20
-99.89999999999964
 30
0.0
 11
1002.799999999999
 21
-99.89999999999964
 31
0.0
  0
LINE
  5
13023
330
12F94
100
AcDbEntity
  8
11機器
100
AcDbLine
 10
48.31851652600017
 20
-100.0
 30
0.0
 11
93.11851652599944
 21
-100.0
 31
0.0
  0
LINE
  5
13024
330
12F94
100
AcDbEntity
  8
11機器
100
AcDbLine
 10
932.4814834739991
 20
-100.0
 30
0.0
 11
977.2814834739984
 21
-100.0
 31
0.0
  0
LINE
  5
13025
330
12F94
100
AcDbEntity
  8
11機器
100
AcDbLine
 10
1001.799999999999
 20
-100.676457136
 30
0.0
 11
956.7999999999993
 21
-100.676457136
 31
0.0
  0
LINE
  5
13026
330
12F94
100
AcDbEntity
  8
11機器
100
AcDbLine
 10
68.79999999999927
 20
-100.676457136
 30
0.0
 11
23.79999999999927
 21
-100.676457136
 31
0.0
  0
LINE
  5
13027
330
12F94
100
AcDbEntity
  8
11機器
100
AcDbLine
 10
1001.799999999999
 20
-100.8999999999996
 30
0.0
 11
956.7999999999993
 21
-100.8999999999996
 31
0.0
  0
LINE
  5
13028
330
12F94
100
AcDbEntity
  8
11機器
100
AcDbLine
 10
950.5999999999985
 20
-100.8999999999996
 30
0.0
 11
930.5999999999985
 21
-100.8999999999996
 31
0.0
  0
LINE
  5
13029
330
12F94
100
AcDbEntity
  8
11機器
100
AcDbLine
 10
94.59999999999854
 20
-100.8999999999996
 30
0.0
 11
75.0
 21
-100.8999999999996
 31
0.0
  0
LINE
  5
1302A
330
12F94
100
AcDbEntity
  8
11機器
100
AcDbLine
 10
68.79999999999927
 20
-100.8999999999996
 30
0.0
 11
23.79999999999927
 21
-100.8999999999996
 31
0.0
  0
LINE
  5
1302B
330
12F94
100
AcDbEntity
  8
11機器
100
AcDbLine
 10
94.59999999999854
 20
-101.2281693999994
 30
0.0
 11
508.7999999999993
 21
-101.2281693999994
 31
0.0
  0
LINE
  5
1302C
330
12F94
100
AcDbEntity
  8
11機器
100
AcDbLine
 10
516.7999999999993
 20
-101.2281693999994
 30
0.0
 11
930.5999999999985
 21
-101.2281693999994
 31
0.0
  0
LINE
  5
1302D
330
12F94
100
AcDbEntity
  8
11機器
100
AcDbLine
 10
751.0999999999985
 20
-102.8999999999996
 30
0.0
 11
766.0999999999985
 21
-102.8999999999996
 31
0.0
  0
LINE
  5
1302E
330
12F94
100
AcDbEntity
  8
11機器
100
AcDbLine
 10
153.5
 20
-103.2578169379995
 30
0.0
 11
281.5
 21
-103.2578169379995
 31
0.0
  0
LINE
  5
1302F
330
12F94
100
AcDbEntity
  8
11機器
100
AcDbLine
 10
508.7999999999993
 20
-103.8819805160001
 30
0.0
 11
516.7999999999993
 21
-103.8819805160001
 31
0.0
  0
LINE
  5
13030
330
12F94
100
AcDbEntity
  8
11機器
100
AcDbLine
 10
259.5
 20
-110.8999999999996
 30
0.0
 11
274.5
 21
-110.8999999999996
 31
0.0
  0
LINE
  5
13031
330
12F94
100
AcDbEntity
  8
11機器
100
AcDbLine
 10
751.0999999999985
 20
-110.8999999999996
 30
0.0
 11
766.0999999999985
 21
-110.8999999999996
 31
0.0
  0
LINE
  5
13032
330
12F94
100
AcDbEntity
  8
11機器
100
AcDbLine
 10
281.5
 20
-103.2578169379995
 30
0.0
 11
281.6321637199981
 21
-103.2490448379995
 31
0.0
  0
LINE
  5
13033
330
12F94
100
AcDbEntity
  8
11機器
100
AcDbLine
 10
26.0
 20
-97.82672699199975
 30
0.0
 11
23.79999999999927
 21
-99.95176380999965
 31
0.0
  0
LINE
  5
13034
330
12F94
100
AcDbEntity
  8
11機器
100
AcDbLine
 10
26.0
 20
-98.03378222799984
 30
0.0
 11
23.79999999999927
 21
-100.1588190459997
 31
0.0
  0
LINE
  5
13035
330
12F94
100
AcDbEntity
  8
11機器
100
AcDbLine
 10
23.79999999999927
 20
-100.676457136
 30
0.0
 11
26.17541699199865
 21
-98.38198051600011
 31
0.0
  0
LINE
  5
13036
330
12F94
100
AcDbEntity
  8
11機器
100
AcDbLine
 10
28.29999999999927
 20
-94.5
 30
0.0
 11
42.0
 21
-80.79999999999927
 31
0.0
  0
LINE
  5
13037
330
12F94
100
AcDbEntity
  8
11機器
100
AcDbLine
 10
45.19999999999891
 20
-80.79999999999927
 30
0.0
 11
31.0
 21
-95.0
 31
0.0
  0
LINE
  5
13038
330
12F94
100
AcDbEntity
  8
11機器
100
AcDbLine
 10
28.23954232799952
 20
-94.5
 30
0.0
 11
27.56339424799808
 21
-95.19999999999982
 31
0.0
  0
LINE
  5
13039
330
12F94
100
AcDbEntity
  8
11機器
100
AcDbLine
 10
26.0
 20
-96.8185448259992
 30
0.0
 11
23.02354286599984
 21
-99.89999999999964
 31
0.0
  0
LINE
  5
1303A
330
12F94
100
AcDbEntity
  8
11機器
100
AcDbLine
 10
28.29999999999927
 20
-94.97330799599968
 30
0.0
 11
28.08103234000009
 21
-95.19999999999982
 31
0.0
  0
LINE
  5
1303B
330
12F94
100
AcDbEntity
  8
11機器
100
AcDbLine
 10
26.0
 20
-97.35444321199975
 30
0.0
 11
23.54118095599915
 21
-99.89999999999964
 31
0.0
  0
LINE
  5
1303C
330
12F94
100
AcDbEntity
  8
11機器
100
AcDbLine
 10
23.74823619199924
 20
-99.89999999999964
 30
0.0
 11
26.0
 21
-97.56880256600016
 31
0.0
  0
LINE
  5
1303D
330
12F94
100
AcDbEntity
  8
11機器
100
AcDbLine
 10
28.28808757599836
 20
-95.19999999999982
 30
0.0
 11
28.29999999999927
 21
-95.18766734999917
 31
0.0
  0
LINE
  5
1303E
330
12F94
100
AcDbEntity
  8
11機器
100
AcDbLine
 10
287.1321637199981
 20
-102.5157115039992
 30
0.0
 11
281.6321637199981
 21
-103.2490448379995
 31
0.0
  0
LINE
  5
1303F
330
12F94
100
AcDbEntity
  8
11機器
100
AcDbLine
 10
506.7999999999993
 20
-98.38198051600011
 30
0.0
 11
506.7999999999993
 21
-99.38198051600011
 31
0.0
  0
LINE
  5
13040
330
12F94
100
AcDbEntity
  8
11機器
100
AcDbLine
 10
508.7999999999993
 20
-99.38198051600011
 30
0.0
 11
508.7999999999993
 21
-103.8819805160001
 31
0.0
  0
LINE
  5
13041
330
12F94
100
AcDbEntity
  8
11機器
100
AcDbLine
 10
512.7999999999993
 20
-99.38198051600011
 30
0.0
 11
512.7999999999993
 21
-103.8819805160001
 31
0.0
  0
LINE
  5
13042
330
12F94
100
AcDbEntity
  8
11機器
100
AcDbLine
 10
516.7999999999993
 20
-99.38198051600011
 30
0.0
 11
516.7999999999993
 21
-103.8819805160001
 31
0.0
  0
LINE
  5
13043
330
12F94
100
AcDbEntity
  8
11機器
100
AcDbLine
 10
518.7999999999993
 20
-98.38198051600011
 30
0.0
 11
518.7999999999993
 21
-99.38198051600011
 31
0.0
  0
LINE
  5
13044
330
12F94
100
AcDbEntity
  8
11機器
100
AcDbLine
 10
994.5999999999985
 20
-95.0
 30
0.0
 11
980.3999999999996
 21
-80.79999999999927
 31
0.0
  0
LINE
  5
13045
330
12F94
100
AcDbEntity
  8
11機器
100
AcDbLine
 10
983.5999999999985
 20
-80.79999999999927
 30
0.0
 11
997.2999999999993
 21
-94.5
 31
0.0
  0
LINE
  5
13046
330
12F94
100
AcDbEntity
  8
11機器
100
AcDbLine
 10
999.3401836979992
 20
-98.38198051600011
 30
0.0
 11
1001.799999999999
 21
-100.676457136
 31
0.0
  0
LINE
  5
13047
330
12F94
100
AcDbEntity
  8
11機器
100
AcDbLine
 10
1001.799999999999
 20
-100.1588190459997
 30
0.0
 11
999.5999999999985
 21
-98.10669484399932
 31
0.0
  0
LINE
  5
13048
330
12F94
100
AcDbEntity
  8
11機器
100
AcDbLine
 10
999.5999999999985
 20
-98.10669484399932
 30
0.0
 11
1001.799999999999
 21
-100.1588190459997
 31
0.0
  0
LINE
  5
13049
330
12F94
100
AcDbEntity
  8
11機器
100
AcDbLine
 10
1001.799999999999
 20
-99.95176380999965
 30
0.0
 11
999.6068393159985
 21
-97.90601920999961
 31
0.0
  0
LINE
  5
1304A
330
12F94
100
AcDbEntity
  8
11機器
100
AcDbLine
 10
1001.799999999999
 20
383.0764571340005
 30
0.0
 11
999.132655297999
 21
380.5
 31
0.0
  0
LINE
  5
1304B
330
12F94
100
AcDbEntity
  8
11機器
100
AcDbLine
 10
1001.799999999999
 20
382.5588190440003
 30
0.0
 11
999.5999999999985
 21
380.4337822260004
 31
0.0
  0
LINE
  5
1304C
330
12F94
100
AcDbEntity
  8
11機器
100
AcDbLine
 10
1001.799999999999
 20
382.5588190440003
 30
0.0
 11
999.5999999999985
 21
380.4337822260004
 31
0.0
  0
LINE
  5
1304D
330
12F94
100
AcDbEntity
  8
11機器
100
AcDbLine
 10
1001.799999999999
 20
382.3517638080002
 30
0.0
 11
999.5999999999985
 21
380.2267269900003
 31
0.0
  0
LINE
  5
1304E
330
12F94
100
AcDbEntity
  8
11機器
100
AcDbLine
 10
997.2999999999993
 20
380.5
 30
0.0
 11
983.5999999999985
 21
366.8000000000002
 31
0.0
  0
LINE
  5
1304F
330
12F94
100
AcDbEntity
  8
11機器
100
AcDbLine
 10
983.5999999999985
 20
366.8000000000002
 30
0.0
 11
997.2999999999993
 21
380.5
 31
0.0
  0
LINE
  5
13050
330
12F94
100
AcDbEntity
  8
11機器
100
AcDbLine
 10
1001.851763809998
 20
-99.89999999999964
 30
0.0
 11
999.5999999999985
 21
-97.48448007200022
 31
0.0
  0
LINE
  5
13051
330
12F94
100
AcDbEntity
  8
11機器
100
AcDbLine
 10
997.4703924199985
 20
-95.19999999999982
 30
0.0
 11
997.2999999999993
 21
-95.01721604999966
 31
0.0
  0
LINE
  5
13052
330
12F94
100
AcDbEntity
  8
11機器
100
AcDbLine
 10
1002.058819046
 20
-99.89999999999964
 30
0.0
 11
999.5999999999985
 21
-97.26236705799965
 31
0.0
  0
LINE
  5
13053
330
12F94
100
AcDbEntity
  8
11機器
100
AcDbLine
 10
1002.058819046
 20
-99.89999999999964
 30
0.0
 11
999.5999999999985
 21
-97.26236705799965
 31
0.0
  0
LINE
  5
13054
330
12F94
100
AcDbEntity
  8
11機器
100
AcDbLine
 10
997.6774476559985
 20
-95.19999999999982
 30
0.0
 11
997.2999999999993
 21
-94.79510303399911
 31
0.0
  0
LINE
  5
13055
330
12F94
100
AcDbEntity
  8
11機器
100
AcDbLine
 10
997.6774476559985
 20
-95.19999999999982
 30
0.0
 11
997.2999999999993
 21
-94.79510303399911
 31
0.0
  0
LINE
  5
13056
330
12F94
100
AcDbEntity
  8
11機器
100
AcDbLine
 10
1002.576457136
 20
-99.89999999999964
 30
0.0
 11
999.6830358400002
 21
-96.79615901599936
 31
0.0
  0
LINE
  5
13057
330
12F94
100
AcDbEntity
  8
11機器
100
AcDbLine
 10
998.1950857479987
 20
-95.19999999999982
 30
0.0
 11
997.5425410719981
 21
-94.5
 31
0.0
  0
LINE
  5
13058
330
12F94
100
AcDbEntity
  8
11機器
100
AcDbLine
 10
1034.599999999999
 20
30.0
 30
0.0
 11
1039.599999999999
 21
25.0
 31
0.0
  0
LINE
  5
13059
330
12F94
100
AcDbEntity
  8
11機器
100
AcDbLine
 10
1039.599999999999
 20
275.0
 30
0.0
 11
1034.599999999999
 21
270.0
 31
0.0
  0
LINE
  5
1305A
330
12F94
100
AcDbEntity
  8
11機器
100
AcDbLine
 10
999.5999999999985
 20
379.9688025640007
 30
0.0
 11
1001.851763809998
 21
382.3000000000002
 31
0.0
  0
LINE
  5
1305B
330
12F94
100
AcDbEntity
  8
11機器
100
AcDbLine
 10
999.5999999999985
 20
379.7544432100003
 30
0.0
 11
1002.058819046
 21
382.3000000000002
 31
0.0
  0
LINE
  5
1305C
330
12F94
100
AcDbEntity
  8
11機器
100
AcDbLine
 10
999.5999999999985
 20
379.7544432100003
 30
0.0
 11
1002.058819046
 21
382.3000000000002
 31
0.0
  0
LINE
  5
1305D
330
12F94
100
AcDbEntity
  8
11機器
100
AcDbLine
 10
999.5999999999985
 20
379.2185448239998
 30
0.0
 11
1002.576457136
 21
382.3000000000002
 31
0.0
  0
LINE
  5
1305E
330
12F94
100
AcDbEntity
  8
11機器
100
AcDbLine
 10
751.0999999999985
 20
-102.8999999999996
 30
0.0
 11
751.0999999999985
 21
-110.8999999999996
 31
0.0
  0
LINE
  5
1305F
330
12F94
100
AcDbEntity
  8
11機器
100
AcDbLine
 10
753.5999999999985
 20
-101.2281693999994
 30
0.0
 11
753.5999999999985
 21
-102.8999999999996
 31
0.0
  0
LINE
  5
13060
330
12F94
100
AcDbEntity
  8
11機器
100
AcDbLine
 10
763.5999999999985
 20
-101.2281693999994
 30
0.0
 11
763.5999999999985
 21
-102.8999999999996
 31
0.0
  0
LINE
  5
13061
330
12F94
100
AcDbEntity
  8
11機器
100
AcDbLine
 10
766.0999999999985
 20
-102.8999999999996
 30
0.0
 11
766.0999999999985
 21
-110.8999999999996
 31
0.0
  0
LINE
  5
13062
330
12F94
100
AcDbEntity
  8
11機器
100
AcDbLine
 10
925.7999999999993
 20
384.3000000000002
 30
0.0
 11
925.7999999999993
 21
382.8000000000002
 31
0.0
  0
LINE
  5
13063
330
12F94
100
AcDbEntity
  8
11機器
100
AcDbLine
 10
930.5999999999985
 20
-101.2281693999994
 30
0.0
 11
930.5999999999985
 21
-98.38198051600011
 31
0.0
  0
LINE
  5
13064
330
12F94
100
AcDbEntity
  8
11機器
100
AcDbLine
 10
930.7999999999993
 20
384.5
 30
0.0
 11
930.7999999999993
 21
382.8000000000002
 31
0.0
  0
LINE
  5
13065
330
12F94
100
AcDbEntity
  8
11機器
100
AcDbLine
 10
932.4814834739991
 20
382.8000000000002
 30
0.0
 11
932.4814834739991
 21
386.0
 31
0.0
  0
LINE
  5
13066
330
12F94
100
AcDbEntity
  8
11機器
100
AcDbLine
 10
932.4814834739991
 20
-98.38198051600011
 30
0.0
 11
932.4814834739991
 21
-100.0
 31
0.0
  0
LINE
  5
13067
330
12F94
100
AcDbEntity
  8
11機器
100
AcDbLine
 10
933.4814834739991
 20
-100.0
 30
0.0
 11
933.4814834739991
 21
-98.38198051600011
 31
0.0
  0
LINE
  5
13068
330
12F94
100
AcDbEntity
  8
11機器
100
AcDbLine
 10
933.4814834739991
 20
386.0
 30
0.0
 11
933.4814834739991
 21
382.8000000000002
 31
0.0
  0
LINE
  5
13069
330
12F94
100
AcDbEntity
  8
11機器
100
AcDbLine
 10
1034.599999999999
 20
330.0
 30
0.0
 11
1039.599999999999
 21
325.0
 31
0.0
  0
LINE
  5
1306A
330
12F94
100
AcDbEntity
  8
11機器
100
AcDbLine
 10
1039.599999999999
 20
-25.0
 30
0.0
 11
1034.599999999999
 21
-30.0
 31
0.0
  0
LINE
  5
1306B
330
12F94
100
AcDbEntity
  8
11機器
100
AcDbLine
 10
950.5999999999985
 20
-100.0
 30
0.0
 11
950.5999999999985
 21
-100.8999999999996
 31
0.0
  0
LINE
  5
1306C
330
12F94
100
AcDbEntity
  8
11機器
100
AcDbLine
 10
956.7999999999993
 20
-100.676457136
 30
0.0
 11
956.7999999999993
 21
-100.0
 31
0.0
  0
LINE
  5
1306D
330
12F94
100
AcDbEntity
  8
11機器
100
AcDbLine
 10
956.7999999999993
 20
-100.676457136
 30
0.0
 11
956.7999999999993
 21
-100.8999999999996
 31
0.0
  0
LINE
  5
1306E
330
12F94
100
AcDbEntity
  8
11機器
100
AcDbLine
 10
968.3999999999978
 20
366.8000000000002
 30
0.0
 11
968.4000000019987
 21
-80.79999999999927
 31
0.0
  0
LINE
  5
1306F
330
12F94
100
AcDbEntity
  8
11機器
100
AcDbLine
 10
975.3999999999996
 20
366.8000000000002
 30
0.0
 11
975.3999999999996
 21
-80.79999999999927
 31
0.0
  0
LINE
  5
13070
330
12F94
100
AcDbEntity
  8
11機器
100
AcDbLine
 10
976.7999999999993
 20
365.0000001040007
 30
0.0
 11
976.7999999999993
 21
-78.99999989599928
 31
0.0
  0
LINE
  5
13071
330
12F94
100
AcDbEntity
  8
11機器
100
AcDbLine
 10
977.2814834739984
 20
-100.0
 30
0.0
 11
977.2814834739984
 21
-98.38198051600011
 31
0.0
  0
LINE
  5
13072
330
12F94
100
AcDbEntity
  8
11機器
100
AcDbLine
 10
977.2814834739984
 20
386.0
 30
0.0
 11
977.2814834739984
 21
382.8000000000002
 31
0.0
  0
LINE
  5
13073
330
12F94
100
AcDbEntity
  8
11機器
100
AcDbLine
 10
978.0
 20
-80.79999999999927
 30
0.0
 11
978.0
 21
-78.99999989599928
 31
0.0
  0
LINE
  5
13074
330
12F94
100
AcDbEntity
  8
11機器
100
AcDbLine
 10
978.0
 20
365.0000001040007
 30
0.0
 11
978.0
 21
366.8000000000002
 31
0.0
  0
LINE
  5
13075
330
12F94
100
AcDbEntity
  8
11機器
100
AcDbLine
 10
981.7999999999993
 20
365.0000001040007
 30
0.0
 11
981.7999999999993
 21
118.0
 31
0.0
  0
LINE
  5
13076
330
12F94
100
AcDbEntity
  8
11機器
100
AcDbLine
 10
981.7999999999993
 20
118.0
 30
0.0
 11
981.7999999999993
 21
-78.99999989599928
 31
0.0
  0
LINE
  5
13077
330
12F94
100
AcDbEntity
  8
11機器
100
AcDbLine
 10
983.5999999999985
 20
366.8000000000002
 30
0.0
 11
983.5999999999985
 21
-80.79999999999927
 31
0.0
  0
LINE
  5
13078
330
12F94
100
AcDbEntity
  8
11機器
100
AcDbLine
 10
986.1000000019994
 20
-83.30000000200016
 30
0.0
 11
986.1000000019994
 21
-86.50000000199907
 31
0.0
  0
LINE
  5
13079
330
12F94
100
AcDbEntity
  8
11機器
100
AcDbLine
 10
990.7999999999993
 20
386.3000000000002
 30
0.0
 11
990.7999999999993
 21
389.1000000000004
 31
0.0
  0
LINE
  5
1307A
330
12F94
100
AcDbEntity
  8
11機器
100
AcDbLine
 10
993.0999999999985
 20
-90.29999999999927
 30
0.0
 11
993.0999999999985
 21
-92.79999999999927
 31
0.0
  0
LINE
  5
1307B
330
12F94
100
AcDbEntity
  8
11機器
100
AcDbLine
 10
994.2999999999993
 20
-92.79999999999927
 30
0.0
 11
994.2999999999993
 21
-91.50000000199907
 31
0.0
  0
LINE
  5
1307C
330
12F94
100
AcDbEntity
  8
11機器
100
AcDbLine
 10
994.5999999999985
 20
-95.0
 30
0.0
 11
994.5999999999985
 21
-96.79999999999927
 31
0.0
  0
LINE
  5
1307D
330
12F94
100
AcDbEntity
  8
11機器
100
AcDbLine
 10
995.7999999999993
 20
386.3000000000002
 30
0.0
 11
995.7999999999993
 21
389.1000000000004
 31
0.0
  0
LINE
  5
1307E
330
12F94
100
AcDbEntity
  8
11機器
100
AcDbLine
 10
997.2999999999993
 20
382.8000000000002
 30
0.0
 11
997.2999999999993
 21
380.5
 31
0.0
  0
LINE
  5
1307F
330
12F94
100
AcDbEntity
  8
11機器
100
AcDbLine
 10
997.2999999999993
 20
-94.5
 30
0.0
 11
997.2999999999993
 21
-95.19999999999982
 31
0.0
  0
LINE
  5
13080
330
12F94
100
AcDbEntity
  8
11機器
100
AcDbLine
 10
999.5999999999985
 20
-98.38198051600011
 30
0.0
 11
999.5999999999985
 21
-96.79999999999927
 31
0.0
  0
LINE
  5
13081
330
12F94
100
AcDbEntity
  8
11機器
100
AcDbLine
 10
999.5999999999985
 20
380.5
 30
0.0
 11
999.5999999999985
 21
-94.5
 31
0.0
  0
LINE
  5
13082
330
12F94
100
AcDbEntity
  8
11機器
100
AcDbLine
 10
999.7999999999993
 20
-74.59999999999945
 30
0.0
 11
999.7999999999993
 21
-95.0
 31
0.0
  0
LINE
  5
13083
330
12F94
100
AcDbEntity
  8
11機器
100
AcDbLine
 10
1001.4
 20
-95.0
 30
0.0
 11
1001.4
 21
-74.59999999999945
 31
0.0
  0
LINE
  5
13084
330
12F94
100
AcDbEntity
  8
11機器
100
AcDbLine
 10
1001.799999999999
 20
383.0764571340005
 30
0.0
 11
1001.799999999999
 21
383.3000000000002
 31
0.0
  0
LINE
  5
13085
330
12F94
100
AcDbEntity
  8
11機器
100
AcDbLine
 10
1001.799999999999
 20
383.0764571340005
 30
0.0
 11
1001.799999999999
 21
382.2464101599999
 31
0.0
  0
LINE
  5
13086
330
12F94
100
AcDbEntity
  8
11機器
100
AcDbLine
 10
1001.799999999999
 20
-99.8444717479997
 30
0.0
 11
1001.799999999999
 21
-100.676457136
 31
0.0
  0
LINE
  5
13087
330
12F94
100
AcDbEntity
  8
11機器
100
AcDbLine
 10
1001.799999999999
 20
-100.5833836259999
 30
0.0
 11
1001.799999999999
 21
-100.8999999999996
 31
0.0
  0
LINE
  5
13088
330
12F94
100
AcDbEntity
  8
11機器
100
AcDbLine
 10
1002.4
 20
-76.80206671999986
 30
0.0
 11
1002.4
 21
-88.7979332799996
 31
0.0
  0
LINE
  5
13089
330
12F94
100
AcDbEntity
  8
11機器
100
AcDbLine
 10
1002.576457136
 20
382.3000000000002
 30
0.0
 11
1002.576457136
 21
360.4814834740009
 31
0.0
  0
LINE
  5
1308A
330
12F94
100
AcDbEntity
  8
11機器
100
AcDbLine
 10
1002.576457136
 20
270.0
 30
0.0
 11
1002.576457136
 21
131.9178858499999
 31
0.0
  0
LINE
  5
1308B
330
12F94
100
AcDbEntity
  8
11機器
100
AcDbLine
 10
1002.576457136
 20
131.9178858499999
 30
0.0
 11
1002.576457136
 21
30.0
 31
0.0
  0
LINE
  5
1308C
330
12F94
100
AcDbEntity
  8
11機器
100
AcDbLine
 10
1002.576457136
 20
-74.481483476
 30
0.0
 11
1002.576457136
 21
-78.6862684279995
 31
0.0
  0
LINE
  5
1308D
330
12F94
100
AcDbEntity
  8
11機器
100
AcDbLine
 10
1002.576457136
 20
-87.38626842799931
 30
0.0
 11
1002.576457136
 21
-99.89999999999964
 31
0.0
  0
LINE
  5
1308E
330
12F94
100
AcDbEntity
  8
11機器
100
AcDbLine
 10
1002.799999999999
 20
383.3000000000002
 30
0.0
 11
1002.799999999999
 21
386.3000000000002
 31
0.0
  0
LINE
  5
1308F
330
12F94
100
AcDbEntity
  8
11機器
100
AcDbLine
 10
1002.799999999999
 20
382.3000000000002
 30
0.0
 11
1002.799999999999
 21
330.0
 31
0.0
  0
LINE
  5
13090
330
12F94
100
AcDbEntity
  8
11機器
100
AcDbLine
 10
1002.799999999999
 20
270.0
 30
0.0
 11
1002.799999999999
 21
131.9374433180001
 31
0.0
  0
LINE
  5
13091
330
12F94
100
AcDbEntity
  8
11機器
100
AcDbLine
 10
1002.799999999999
 20
131.9374433180001
 30
0.0
 11
1002.799999999999
 21
30.0
 31
0.0
  0
LINE
  5
13092
330
12F94
100
AcDbEntity
  8
11機器
100
AcDbLine
 10
1002.799999999999
 20
-30.0
 30
0.0
 11
1002.799999999999
 21
-78.6862684279995
 31
0.0
  0
LINE
  5
13093
330
12F94
100
AcDbEntity
  8
11機器
100
AcDbLine
 10
1002.799999999999
 20
-87.38626842799931
 30
0.0
 11
1002.799999999999
 21
-99.89999999999964
 31
0.0
  0
LINE
  5
13094
330
12F94
100
AcDbEntity
  8
11機器
100
AcDbLine
 10
1006.9
 20
-87.3862684300002
 30
0.0
 11
1006.9
 21
-78.68626842999947
 31
0.0
  0
LINE
  5
13095
330
12F94
100
AcDbEntity
  8
11機器
100
AcDbLine
 10
1039.599999999999
 20
325.0
 30
0.0
 11
1039.599999999999
 21
275.0
 31
0.0
  0
ARC
  5
13096
330
12F94
100
AcDbEntity
  8
11機器
100
AcDbCircle
 10
999.5999999999985
 20
-95.0
 30
0.0
 40
1.799999999999999
100
AcDbArc
 50
270.0
 51
0.0
  0
LINE
  5
13097
330
12F94
100
AcDbEntity
  8
11機器
100
AcDbLine
 10
1039.599999999999
 20
25.0
 30
0.0
 11
1039.599999999999
 21
-25.0
 31
0.0
  0
CIRCLE
  5
13098
330
12F94
100
AcDbEntity
  8
11機器
100
AcDbCircle
 10
0.0
 20
300.0
 30
0.0
 40
6.0
  0
ARC
  5
13099
330
12F94
100
AcDbEntity
  8
11機器
100
AcDbCircle
 10
23.79999999999927
 20
382.3000000000002
 30
0.0
 40
1.0
100
AcDbArc
 50
90.0
 51
180.0
  0
ARC
  5
1309A
330
12F94
100
AcDbEntity
  8
11機器
100
AcDbCircle
 10
23.79999999999927
 20
382.3000000000002
 30
0.0
 40
0.2
100
AcDbArc
 50
90.0
 51
180.0
  0
CIRCLE
  5
1309B
330
12F94
100
AcDbEntity
  8
11機器
100
AcDbCircle
 10
0.0
 20
0.0
 30
0.0
 40
6.0
  0
ARC
  5
1309C
330
12F94
100
AcDbEntity
  8
11機器
100
AcDbCircle
 10
26.0
 20
-95.0
 30
0.0
 40
1.799999999999999
100
AcDbArc
 50
180.0
 51
270.0
  0
ARC
  5
1309D
330
12F94
100
AcDbEntity
  8
11機器
100
AcDbCircle
 10
287.0
 20
-101.5244836040001
 30
0.0
 40
1.0
100
AcDbArc
 50
277.5946433685811
 51
0.0
  0
ARC
  5
1309E
330
12F94
100
AcDbEntity
  8
11機器
100
AcDbCircle
 10
148.0
 20
-101.5244836040001
 30
0.0
 40
1.0
100
AcDbArc
 50
180.0
 51
262.4053566314188
  0
ARC
  5
1309F
330
12F94
100
AcDbEntity
  8
11機器
100
AcDbCircle
 10
23.79999999999927
 20
-99.89999999999964
 30
0.0
 40
1.0
100
AcDbArc
 50
180.0
 51
270.0
  0
ARC
  5
130A0
330
12F94
100
AcDbEntity
  8
11機器
100
AcDbCircle
 10
68.59999999999854
 20
-99.89999999999964
 30
0.0
 40
1.0
100
AcDbArc
 50
281.566548946007
 51
354.2476813960431
  0
ARC
  5
130A1
330
12F94
100
AcDbEntity
  8
11機器
100
AcDbCircle
 10
75.0
 20
-99.89999999999964
 30
0.0
 40
1.0
100
AcDbArc
 50
185.7559748141935
 51
270.0
  0
ARC
  5
130A2
330
12F94
100
AcDbEntity
  8
11機器
100
AcDbCircle
 10
26.0
 20
-95.0
 30
0.0
 40
0.2
100
AcDbArc
 50
180.0
 51
270.0
  0
ARC
  5
130A3
330
12F94
100
AcDbEntity
  8
11機器
100
AcDbCircle
 10
75.0
 20
-99.89999999999964
 30
0.0
 40
0.2
100
AcDbArc
 50
210.1909573728192
 51
270.0
  0
ARC
  5
130A4
330
12F94
100
AcDbEntity
  8
11機器
100
AcDbCircle
 10
23.79999999999927
 20
-99.89999999999964
 30
0.0
 40
0.2
100
AcDbArc
 50
180.0
 51
270.0
  0
CIRCLE
  5
130A5
330
12F94
100
AcDbEntity
  8
11機器
100
AcDbCircle
 10
1025.599999999999
 20
300.0
 30
0.0
 40
6.0
  0
ARC
  5
130A6
330
12F94
100
AcDbEntity
  8
11機器
100
AcDbCircle
 10
1001.799999999999
 20
382.3000000000002
 30
0.0
 40
1.0
100
AcDbArc
 50
0.0
 51
90.0
  0
ARC
  5
130A7
330
12F94
100
AcDbEntity
  8
11機器
100
AcDbCircle
 10
1001.799999999999
 20
382.3000000000002
 30
0.0
 40
0.2
100
AcDbArc
 50
0.0
 51
90.0
  0
CIRCLE
  5
130A8
330
12F94
100
AcDbEntity
  8
11機器
100
AcDbCircle
 10
1025.599999999999
 20
0.0
 30
0.0
 40
6.0
  0
ARC
  5
130A9
330
12F94
100
AcDbEntity
  8
11機器
100
AcDbCircle
 10
1001.799999999999
 20
-99.89999999999964
 30
0.0
 40
1.0
100
AcDbArc
 50
270.0
 51
0.0
  0
ARC
  5
130AA
330
12F94
100
AcDbEntity
  8
11機器
100
AcDbCircle
 10
957.0
 20
-99.89999999999964
 30
0.0
 40
1.0
100
AcDbArc
 50
185.7652193242581
 51
258.433451053993
  0
ARC
  5
130AB
330
12F94
100
AcDbEntity
  8
11機器
100
AcDbCircle
 10
999.5999999999985
 20
-95.0
 30
0.0
 40
0.2
100
AcDbArc
 50
270.0
 51
0.0
  0
ARC
  5
130AC
330
12F94
100
AcDbEntity
  8
11機器
100
AcDbCircle
 10
950.5999999999985
 20
-99.89999999999964
 30
0.0
 40
1.0
100
AcDbArc
 50
270.0
 51
354.2440251857028
  0
ARC
  5
130AD
330
12F94
100
AcDbEntity
  8
11機器
100
AcDbCircle
 10
1001.799999999999
 20
-99.89999999999964
 30
0.0
 40
0.2
100
AcDbArc
 50
270.0
 51
0.0
  0
ARC
  5
130AE
330
12F94
100
AcDbEntity
  8
11機器
100
AcDbCircle
 10
950.5999999999985
 20
-99.89999999999964
 30
0.0
 40
0.2
100
AcDbArc
 50
270.0
 51
329.8090426267775
  0
ENDBLK
  5
130B0
330
12F94
100
AcDbEntity
  8
0
100
AcDbBlockEnd
  0
BLOCK
  5
131F8
330
131F7
100
AcDbEntity
  8
0
100
AcDbBlockBegin
  2
*D1767
 70
     1
 10
0.0
 20
0.0
 30
0.0
  3
*D1767
  1

  0
LINE
  5
131FA
330
131F7
100
AcDbEntity
  8
08非表示
 62
     0
370
    -2
100
AcDbLine
 10
2385.0
 20
1325.0
 30
0.0
 11
2385.0
 21
1410.0
 31
0.0
  0
LINE
  5
131FB
330
131F7
100
AcDbEntity
  8
08非表示
 62
     0
370
    -2
100
AcDbLine
 10
2870.0
 20
1325.0
 30
0.0
 11
2870.0
 21
1410.0
 31
0.0
  0
LINE
  5
131FC
330
131F7
100
AcDbEntity
  8
08非表示
 62
     0
370
    -2
100
AcDbLine
 10
2415.0
 20
1400.0
 30
0.0
 11
2840.0
 21
1400.0
 31
0.0
  0
INSERT
  5
131FD
330
131F7
100
AcDbEntity
  8
08非表示
 62
     0
370
    -2
100
AcDbBlockReference
  2
_Open
 10
2385.0
 20
1400.0
 30
0.0
 41
30.0
 42
30.0
 43
30.0
 50
180.0
  0
INSERT
  5
131FE
330
131F7
100
AcDbEntity
  8
08非表示
 62
     0
370
    -2
100
AcDbBlockReference
  2
_Open
 10
2870.0
 20
1400.0
 30
0.0
 41
30.0
 42
30.0
 43
30.0
  0
MTEXT
  5
131FF
330
131F7
100
AcDbEntity
  8
08非表示
 62
     0
100
AcDbMText
 10
2627.5
 20
1425.005627110166
 30
0.0
 40
30.0
 41
0.0
 71
     5
 72
     1
  1
485
 73
     1
 44
1.0
  0
POINT
  5
13200
330
131F7
100
AcDbEntity
  8
Defpoints
 62
     0
100
AcDbPoint
 10
2385.0
 20
1310.0
 30
0.0
  0
POINT
  5
13201
330
131F7
100
AcDbEntity
  8
Defpoints
 62
     0
100
AcDbPoint
 10
2870.0
 20
1310.0
 30
0.0
  0
POINT
  5
13202
330
131F7
100
AcDbEntity
  8
Defpoints
 62
     0
100
AcDbPoint
 10
2870.0
 20
1400.0
 30
0.0
  0
ENDBLK
  5
131F9
330
131F7
100
AcDbEntity
  8
0
100
AcDbBlockEnd
  0
BLOCK
  5
13204
330
13203
100
AcDbEntity
  8
0
100
AcDbBlockBegin
  2
*D1768
 70
     1
 10
0.0
 20
0.0
 30
0.0
  3
*D1768
  1

  0
LINE
  5
13206
330
13203
100
AcDbEntity
  8
08非表示
 62
     0
370
    -2
100
AcDbLine
 10
795.0
 20
299.9999999999989
 30
0.0
 11
600.0
 21
299.9999999999989
 31
0.0
  0
LINE
  5
13207
330
13203
100
AcDbEntity
  8
08非表示
 62
     0
370
    -2
100
AcDbLine
 10
795.0
 20
784.9999999999989
 30
0.0
 11
600.0
 21
784.9999999999989
 31
0.0
  0
LINE
  5
13208
330
13203
100
AcDbEntity
  8
08非表示
 62
     0
370
    -2
100
AcDbLine
 10
610.0
 20
329.9999999999989
 30
0.0
 11
610.0
 21
754.9999999999989
 31
0.0
  0
INSERT
  5
13209
330
13203
100
AcDbEntity
  8
08非表示
 62
     0
370
    -2
100
AcDbBlockReference
  2
_Open
 10
610.0
 20
299.9999999999989
 30
0.0
 41
30.0
 42
30.0
 43
30.0
 50
270.0
  0
INSERT
  5
1320A
330
13203
100
AcDbEntity
  8
08非表示
 62
     0
370
    -2
100
AcDbBlockReference
  2
_Open
 10
610.0
 20
784.9999999999989
 30
0.0
 41
30.0
 42
30.0
 43
30.0
 50
90.0
  0
MTEXT
  5
1320B
330
13203
100
AcDbEntity
  8
08非表示
 62
     0
100
AcDbMText
 10
584.9943728898337
 20
542.4999999999989
 30
0.0
 40
30.0
 41
0.0
 71
     5
 72
     1
  1
485
 11
0.0
 21
1.0
 31
0.0
 73
     1
 44
1.0
  0
POINT
  5
1320C
330
13203
100
AcDbEntity
  8
Defpoints
 62
     0
100
AcDbPoint
 10
810.0
 20
299.9999999999989
 30
0.0
  0
POINT
  5
1320D
330
13203
100
AcDbEntity
  8
Defpoints
 62
     0
100
AcDbPoint
 10
810.0
 20
784.9999999999989
 30
0.0
  0
POINT
  5
1320E
330
13203
100
AcDbEntity
  8
Defpoints
 62
     0
100
AcDbPoint
 10
610.0
 20
784.9999999999989
 30
0.0
  0
ENDBLK
  5
13205
330
13203
100
AcDbEntity
  8
0
100
AcDbBlockEnd
  0
BLOCK
  5
13210
330
1320F
100
AcDbEntity
  8
0
100
AcDbBlockBegin
  2
*D1769
 70
     1
 10
0.0
 20
0.0
 30
0.0
  3
*D1769
  1

  0
LINE
  5
13212
330
1320F
100
AcDbEntity
  8
08非表示
 62
     0
370
    -2
100
AcDbLine
 10
810.0
 20
799.9999999999989
 30
0.0
 11
810.0
 21
994.9999999999989
 31
0.0
  0
LINE
  5
13213
330
1320F
100
AcDbEntity
  8
08非表示
 62
     0
370
    -2
100
AcDbLine
 10
1790.0
 20
799.9999999999989
 30
0.0
 11
1790.0
 21
994.9999999999989
 31
0.0
  0
LINE
  5
13214
330
1320F
100
AcDbEntity
  8
08非表示
 62
     0
370
    -2
100
AcDbLine
 10
840.0
 20
984.9999999999989
 30
0.0
 11
1760.0
 21
984.9999999999989
 31
0.0
  0
INSERT
  5
13215
330
1320F
100
AcDbEntity
  8
08非表示
 62
     0
370
    -2
100
AcDbBlockReference
  2
_Open
 10
810.0
 20
984.9999999999989
 30
0.0
 41
30.0
 42
30.0
 43
30.0
 50
180.0
  0
INSERT
  5
13216
330
1320F
100
AcDbEntity
  8
08非表示
 62
     0
370
    -2
100
AcDbBlockReference
  2
_Open
 10
1790.0
 20
984.9999999999989
 30
0.0
 41
30.0
 42
30.0
 43
30.0
  0
MTEXT
  5
13217
330
1320F
100
AcDbEntity
  8
08非表示
 62
     0
100
AcDbMText
 10
1300.0
 20
1009.999999999999
 30
0.0
 40
30.0
 41
0.0
 71
     5
 72
     1
  1
980
 73
     1
 44
1.0
  0
POINT
  5
13218
330
1320F
100
AcDbEntity
  8
Defpoints
 62
     0
100
AcDbPoint
 10
810.0
 20
784.9999999999989
 30
0.0
  0
POINT
  5
13219
330
1320F
100
AcDbEntity
  8
Defpoints
 62
     0
100
AcDbPoint
 10
1790.0
 20
784.9999999999989
 30
0.0
  0
POINT
  5
1321A
330
1320F
100
AcDbEntity
  8
Defpoints
 62
     0
100
AcDbPoint
 10
1790.0
 20
984.9999999999989
 30
0.0
  0
ENDBLK
  5
13211
330
1320F
100
AcDbEntity
  8
0
100
AcDbBlockEnd
  0
BLOCK
  5
1321C
330
1321B
100
AcDbEntity
  8
0
100
AcDbBlockBegin
  2
*D1770
 70
     1
 10
0.0
 20
0.0
 30
0.0
  3
*D1770
  1

  0
LINE
  5
1321E
330
1321B
100
AcDbEntity
  8
01注記寸法
 62
     0
370
    -2
100
AcDbLine
 10
765.0
 20
1199.999999999997
 30
0.0
 11
620.0
 21
1199.999999999997
 31
0.0
  0
LINE
  5
1321F
330
1321B
100
AcDbEntity
  8
01注記寸法
 62
     0
370
    -2
100
AcDbLine
 10
715.0
 20
1299.999999999997
 30
0.0
 11
620.0
 21
1299.999999999997
 31
0.0
  0
LINE
  5
13220
330
1321B
100
AcDbEntity
  8
01注記寸法
 62
     0
370
    -2
100
AcDbLine
 10
630.0
 20
1229.999999999997
 30
0.0
 11
630.0
 21
1269.999999999997
 31
0.0
  0
INSERT
  5
13221
330
1321B
100
AcDbEntity
  8
01注記寸法
 62
     0
370
    -2
100
AcDbBlockReference
  2
_Open
 10
630.0
 20
1199.999999999997
 30
0.0
 41
30.0
 42
30.0
 43
30.0
 50
270.0
  0
INSERT
  5
13222
330
1321B
100
AcDbEntity
  8
01注記寸法
 62
     0
370
    -2
100
AcDbBlockReference
  2
_Open
 10
630.0
 20
1299.999999999997
 30
0.0
 41
30.0
 42
30.0
 43
30.0
 50
90.0
  0
MTEXT
  5
13223
330
1321B
100
AcDbEntity
  8
01注記寸法
 62
     0
100
AcDbMText
 10
604.9943728898336
 20
1249.999999999997
 30
0.0
 40
30.0
 41
0.0
 71
     5
 72
     1
  1
100
 11
0.0
 21
1.0
 31
0.0
 73
     1
 44
1.0
  0
POINT
  5
13224
330
1321B
100
AcDbEntity
  8
Defpoints
 62
     0
100
AcDbPoint
 10
780.0
 20
1199.999999999997
 30
0.0
  0
POINT
  5
13225
330
1321B
100
AcDbEntity
  8
Defpoints
 62
     0
100
AcDbPoint
 10
730.0
 20
1299.999999999997
 30
0.0
  0
POINT
  5
13226
330
1321B
100
AcDbEntity
  8
Defpoints
 62
     0
100
AcDbPoint
 10
630.0
 20
1299.999999999997
 30
0.0
  0
ENDBLK
  5
1321D
330
1321B
100
AcDbEntity
  8
0
100
AcDbBlockEnd
  0
BLOCK
  5
13228
330
13227
100
AcDbEntity
  8
0
100
AcDbBlockBegin
  2
*D1771
 70
     1
 10
0.0
 20
0.0
 30
0.0
  3
*D1771
  1

  0
LINE
  5
1322A
330
13227
100
AcDbEntity
  8
01注記寸法
 62
     0
370
    -2
100
AcDbLine
 10
715.0
 20
1299.999999999997
 30
0.0
 11
620.0
 21
1299.999999999997
 31
0.0
  0
LINE
  5
1322B
330
13227
100
AcDbEntity
  8
01注記寸法
 62
     0
370
    -2
100
AcDbLine
 10
715.0
 20
1309.999999999997
 30
0.0
 11
620.0
 21
1309.999999999997
 31
0.0
  0
LINE
  5
1322C
330
13227
100
AcDbEntity
  8
01注記寸法
 62
     0
370
    -2
100
AcDbLine
 10
630.0
 20
1339.999999999997
 30
0.0
 11
630.0
 21
1445.453763911464
 31
0.0
  0
LINE
  5
1322D
330
13227
100
AcDbEntity
  8
01注記寸法
 62
     0
370
    -2
100
AcDbLine
 10
630.0
 20
1299.999999999997
 30
0.0
 11
630.0
 21
1309.999999999997
 31
0.0
  0
LINE
  5
1322E
330
13227
100
AcDbEntity
  8
01注記寸法
 62
     0
370
    -2
100
AcDbLine
 10
630.0
 20
1269.999999999997
 30
0.0
 11
630.0
 21
1239.999999999997
 31
0.0
  0
INSERT
  5
1322F
330
13227
100
AcDbEntity
  8
01注記寸法
 62
     0
370
    -2
100
AcDbBlockReference
  2
_Open
 10
630.0
 20
1299.999999999997
 30
0.0
 41
30.0
 42
30.0
 43
30.0
 50
90.0
  0
INSERT
  5
13230
330
13227
100
AcDbEntity
  8
01注記寸法
 62
     0
370
    -2
100
AcDbBlockReference
  2
_Open
 10
630.0
 20
1309.999999999997
 30
0.0
 41
30.0
 42
30.0
 43
30.0
 50
270.0
  0
MTEXT
  5
13231
330
13227
100
AcDbEntity
  8
01注記寸法
 62
     0
100
AcDbMText
 10
604.9943728898336
 20
1407.726881955731
 30
0.0
 40
30.0
 41
0.0
 71
     5
 72
     1
  1
t10
 11
0.0
 21
1.0
 31
0.0
 73
     1
 44
1.0
  0
POINT
  5
13232
330
13227
100
AcDbEntity
  8
Defpoints
 62
     0
100
AcDbPoint
 10
730.0
 20
1299.999999999997
 30
0.0
  0
POINT
  5
13233
330
13227
100
AcDbEntity
  8
Defpoints
 62
     0
100
AcDbPoint
 10
730.0
 20
1309.999999999997
 30
0.0
  0
POINT
  5
13234
330
13227
100
AcDbEntity
  8
Defpoints
 62
     0
100
AcDbPoint
 10
630.0
 20
1309.999999999997
 30
0.0
  0
ENDBLK
  5
13229
330
13227
100
AcDbEntity
  8
0
100
AcDbBlockEnd
  0
BLOCK
  5
13236
330
13235
100
AcDbEntity
  8
0
100
AcDbBlockBegin
  2
*D1772
 70
     1
 10
0.0
 20
0.0
 30
0.0
  3
*D1772
  1

  0
LINE
  5
13238
330
13235
100
AcDbEntity
  8
01注記寸法
 62
     0
370
    -2
100
AcDbLine
 10
765.0
 20
1984.999999999997
 30
0.0
 11
520.0
 21
1984.999999999997
 31
0.0
  0
LINE
  5
13239
330
13235
100
AcDbEntity
  8
01注記寸法
 62
     0
370
    -2
100
AcDbLine
 10
765.0
 20
2469.999999999997
 30
0.0
 11
520.0
 21
2469.999999999997
 31
0.0
  0
LINE
  5
1323A
330
13235
100
AcDbEntity
  8
01注記寸法
 62
     0
370
    -2
100
AcDbLine
 10
530.0
 20
2014.999999999997
 30
0.0
 11
530.0
 21
2439.999999999997
 31
0.0
  0
INSERT
  5
1323B
330
13235
100
AcDbEntity
  8
01注記寸法
 62
     0
370
    -2
100
AcDbBlockReference
  2
_Open
 10
530.0
 20
1984.999999999997
 30
0.0
 41
30.0
 42
30.0
 43
30.0
 50
270.0
  0
INSERT
  5
1323C
330
13235
100
AcDbEntity
  8
01注記寸法
 62
     0
370
    -2
100
AcDbBlockReference
  2
_Open
 10
530.0
 20
2469.999999999997
 30
0.0
 41
30.0
 42
30.0
 43
30.0
 50
90.0
  0
MTEXT
  5
1323D
330
13235
100
AcDbEntity
  8
01注記寸法
 62
     0
100
AcDbMText
 10
504.9943728898338
 20
2227.499999999997
 30
0.0
 40
30.0
 41
0.0
 71
     5
 72
     1
  1
485
 11
0.0
 21
1.0
 31
0.0
 73
     1
 44
1.0
  0
POINT
  5
1323E
330
13235
100
AcDbEntity
  8
Defpoints
 62
     0
100
AcDbPoint
 10
780.0
 20
1984.999999999997
 30
0.0
  0
POINT
  5
1323F
330
13235
100
AcDbEntity
  8
Defpoints
 62
     0
100
AcDbPoint
 10
780.0
 20
2469.999999999997
 30
0.0
  0
POINT
  5
13240
330
13235
100
AcDbEntity
  8
Defpoints
 62
     0
100
AcDbPoint
 10
530.0
 20
2469.999999999997
 30
0.0
  0
ENDBLK
  5
13237
330
13235
100
AcDbEntity
  8
0
100
AcDbBlockEnd
  0
BLOCK
  5
13242
330
13241
100
AcDbEntity
  8
0
100
AcDbBlockBegin
  2
*D1773
 70
     1
 10
0.0
 20
0.0
 30
0.0
  3
*D1773
  1

  0
LINE
  5
13244
330
13241
100
AcDbEntity
  8
01注記寸法
 62
     0
370
    -2
100
AcDbLine
 10
757.0
 20
2419.999999999997
 30
0.0
 11
757.0
 21
2679.999999999997
 31
0.0
  0
LINE
  5
13245
330
13241
100
AcDbEntity
  8
01注記寸法
 62
     0
370
    -2
100
AcDbLine
 10
1783.0
 20
2419.999999999997
 30
0.0
 11
1783.0
 21
2679.999999999997
 31
0.0
  0
LINE
  5
13246
330
13241
100
AcDbEntity
  8
01注記寸法
 62
     0
370
    -2
100
AcDbLine
 10
787.0
 20
2669.999999999997
 30
0.0
 11
1753.0
 21
2669.999999999997
 31
0.0
  0
INSERT
  5
13247
330
13241
100
AcDbEntity
  8
01注記寸法
 62
     0
370
    -2
100
AcDbBlockReference
  2
_Open
 10
757.0
 20
2669.999999999997
 30
0.0
 41
30.0
 42
30.0
 43
30.0
 50
180.0
  0
INSERT
  5
13248
330
13241
100
AcDbEntity
  8
01注記寸法
 62
     0
370
    -2
100
AcDbBlockReference
  2
_Open
 10
1783.0
 20
2669.999999999997
 30
0.0
 41
30.0
 42
30.0
 43
30.0
  0
MTEXT
  5
13249
330
13241
100
AcDbEntity
  8
01注記寸法
 62
     0
100
AcDbMText
 10
1270.0
 20
2695.005627110163
 30
0.0
 40
30.0
 41
0.0
 71
     5
 72
     1
  1
1026
 73
     1
 44
1.0
  0
POINT
  5
1324A
330
13241
100
AcDbEntity
  8
Defpoints
 62
     0
100
AcDbPoint
 10
757.0
 20
2404.999999999997
 30
0.0
  0
POINT
  5
1324B
330
13241
100
AcDbEntity
  8
Defpoints
 62
     0
100
AcDbPoint
 10
1783.0
 20
2404.999999999997
 30
0.0
  0
POINT
  5
1324C
330
13241
100
AcDbEntity
  8
Defpoints
 62
     0
100
AcDbPoint
 10
1783.0
 20
2669.999999999997
 30
0.0
  0
ENDBLK
  5
13243
330
13241
100
AcDbEntity
  8
0
100
AcDbBlockEnd
  0
BLOCK
  5
1324E
330
1324D
100
AcDbEntity
  8
0
100
AcDbBlockBegin
  2
*D1774
 70
     1
 10
0.0
 20
0.0
 30
0.0
  3
*D1774
  1

  0
LINE
  5
13250
330
1324D
100
AcDbEntity
  8
01注記寸法
 62
     0
370
    -2
100
AcDbLine
 10
850.0
 20
329.9999999999989
 30
0.0
 11
700.0
 21
329.9999999999989
 31
0.0
  0
LINE
  5
13251
330
1324D
100
AcDbEntity
  8
01注記寸法
 62
     0
370
    -2
100
AcDbLine
 10
850.0
 20
754.9999999999989
 30
0.0
 11
700.0
 21
754.9999999999989
 31
0.0
  0
LINE
  5
13252
330
1324D
100
AcDbEntity
  8
01注記寸法
 62
     0
370
    -2
100
AcDbLine
 10
710.0
 20
359.9999999999989
 30
0.0
 11
710.0
 21
724.9999999999989
 31
0.0
  0
INSERT
  5
13253
330
1324D
100
AcDbEntity
  8
01注記寸法
 62
     0
370
    -2
100
AcDbBlockReference
  2
_Open
 10
710.0
 20
329.9999999999989
 30
0.0
 41
30.0
 42
30.0
 43
30.0
 50
270.0
  0
INSERT
  5
13254
330
1324D
100
AcDbEntity
  8
01注記寸法
 62
     0
370
    -2
100
AcDbBlockReference
  2
_Open
 10
710.0
 20
754.9999999999989
 30
0.0
 41
30.0
 42
30.0
 43
30.0
 50
90.0
  0
MTEXT
  5
13255
330
1324D
100
AcDbEntity
  8
01注記寸法
 62
     0
100
AcDbMText
 10
684.9943728898337
 20
542.4999999999989
 30
0.0
 40
30.0
 41
0.0
 71
     5
 72
     1
  1
425
 11
0.0
 21
1.0
 31
0.0
 73
     1
 44
1.0
  0
POINT
  5
13256
330
1324D
100
AcDbEntity
  8
Defpoints
 62
     0
100
AcDbPoint
 10
865.0
 20
329.9999999999989
 30
0.0
  0
POINT
  5
13257
330
1324D
100
AcDbEntity
  8
Defpoints
 62
     0
100
AcDbPoint
 10
865.0
 20
754.9999999999989
 30
0.0
  0
POINT
  5
13258
330
1324D
100
AcDbEntity
  8
Defpoints
 62
     0
100
AcDbPoint
 10
710.0
 20
754.9999999999989
 30
0.0
  0
ENDBLK
  5
1324F
330
1324D
100
AcDbEntity
  8
0
100
AcDbBlockEnd
  0
BLOCK
  5
1325A
330
13259
100
AcDbEntity
  8
0
100
AcDbBlockBegin
  2
*D1775
 70
     1
 10
0.0
 20
0.0
 30
0.0
  3
*D1775
  1

  0
LINE
  5
1325C
330
13259
100
AcDbEntity
  8
01注記寸法
 62
     0
370
    -2
100
AcDbLine
 10
850.0
 20
754.9999999999989
 30
0.0
 11
700.0
 21
754.9999999999989
 31
0.0
  0
LINE
  5
1325D
330
13259
100
AcDbEntity
  8
01注記寸法
 62
     0
370
    -2
100
AcDbLine
 10
795.0
 20
784.9999999999989
 30
0.0
 11
700.0
 21
784.9999999999989
 31
0.0
  0
LINE
  5
1325E
330
13259
100
AcDbEntity
  8
01注記寸法
 62
     0
370
    -2
100
AcDbLine
 10
710.0
 20
814.9999999999989
 30
0.0
 11
710.0
 21
900.7963923971479
 31
0.0
  0
LINE
  5
1325F
330
13259
100
AcDbEntity
  8
01注記寸法
 62
     0
370
    -2
100
AcDbLine
 10
710.0
 20
754.9999999999989
 30
0.0
 11
710.0
 21
784.9999999999989
 31
0.0
  0
LINE
  5
13260
330
13259
100
AcDbEntity
  8
01注記寸法
 62
     0
370
    -2
100
AcDbLine
 10
710.0
 20
724.9999999999989
 30
0.0
 11
710.0
 21
694.9999999999989
 31
0.0
  0
INSERT
  5
13261
330
13259
100
AcDbEntity
  8
01注記寸法
 62
     0
370
    -2
100
AcDbBlockReference
  2
_Open
 10
710.0
 20
754.9999999999989
 30
0.0
 41
30.0
 42
30.0
 43
30.0
 50
90.0
  0
INSERT
  5
13262
330
13259
100
AcDbEntity
  8
01注記寸法
 62
     0
370
    -2
100
AcDbBlockReference
  2
_Open
 10
710.0
 20
784.9999999999989
 30
0.0
 41
30.0
 42
30.0
 43
30.0
 50
270.0
  0
MTEXT
  5
13263
330
13259
100
AcDbEntity
  8
01注記寸法
 62
     0
100
AcDbMText
 10
684.9943728898337
 20
872.8981961985734
 30
0.0
 40
30.0
 41
0.0
 71
     5
 72
     1
  1
30
 11
0.0
 21
1.0
 31
0.0
 73
     1
 44
1.0
  0
POINT
  5
13264
330
13259
100
AcDbEntity
  8
Defpoints
 62
     0
100
AcDbPoint
 10
865.0
 20
754.9999999999989
 30
0.0
  0
POINT
  5
13265
330
13259
100
AcDbEntity
  8
Defpoints
 62
     0
100
AcDbPoint
 10
810.0
 20
784.9999999999989
 30
0.0
  0
POINT
  5
13266
330
13259
100
AcDbEntity
  8
Defpoints
 62
     0
100
AcDbPoint
 10
710.0
 20
784.9999999999989
 30
0.0
  0
ENDBLK
  5
1325B
330
13259
100
AcDbEntity
  8
0
100
AcDbBlockEnd
  0
BLOCK
  5
13268
330
13267
100
AcDbEntity
  8
0
100
AcDbBlockBegin
  2
*D1776
 70
     1
 10
0.0
 20
0.0
 30
0.0
  3
*D1776
  1

  0
LINE
  5
1326A
330
13267
100
AcDbEntity
  8
01注記寸法
 62
     0
370
    -2
100
AcDbLine
 10
810.0
 20
799.9999999999989
 30
0.0
 11
810.0
 21
894.9999999999989
 31
0.0
  0
LINE
  5
1326B
330
13267
100
AcDbEntity
  8
01注記寸法
 62
     0
370
    -2
100
AcDbLine
 10
885.0
 20
789.9999999999989
 30
0.0
 11
885.0
 21
894.9999999999989
 31
0.0
  0
LINE
  5
1326C
330
13267
100
AcDbEntity
  8
01注記寸法
 62
     0
370
    -2
100
AcDbLine
 10
810.0
 20
884.9999999999989
 30
0.0
 11
885.0
 21
884.9999999999989
 31
0.0
  0
LINE
  5
1326D
330
13267
100
AcDbEntity
  8
01注記寸法
 62
     0
370
    -2
100
AcDbLine
 10
780.0
 20
884.9999999999989
 30
0.0
 11
750.0
 21
884.9999999999989
 31
0.0
  0
LINE
  5
1326E
330
13267
100
AcDbEntity
  8
01注記寸法
 62
     0
370
    -2
100
AcDbLine
 10
915.0
 20
884.9999999999989
 30
0.0
 11
945.0
 21
884.9999999999989
 31
0.0
  0
INSERT
  5
1326F
330
13267
100
AcDbEntity
  8
01注記寸法
 62
     0
370
    -2
100
AcDbBlockReference
  2
_Open
 10
810.0
 20
884.9999999999989
 30
0.0
 41
30.0
 42
30.0
 43
30.0
  0
INSERT
  5
13270
330
13267
100
AcDbEntity
  8
01注記寸法
 62
     0
370
    -2
100
AcDbBlockReference
  2
_Open
 10
885.0
 20
884.9999999999989
 30
0.0
 41
30.0
 42
30.0
 43
30.0
 50
180.0
  0
MTEXT
  5
13271
330
13267
100
AcDbEntity
  8
01注記寸法
 62
     0
100
AcDbMText
 10
847.5
 20
910.0056271101652
 30
0.0
 40
30.0
 41
0.0
 71
     5
 72
     1
  1
75
 73
     1
 44
1.0
  0
POINT
  5
13272
330
13267
100
AcDbEntity
  8
Defpoints
 62
     0
100
AcDbPoint
 10
810.0
 20
784.9999999999989
 30
0.0
  0
POINT
  5
13273
330
13267
100
AcDbEntity
  8
Defpoints
 62
     0
100
AcDbPoint
 10
885.0
 20
774.9999999999989
 30
0.0
  0
POINT
  5
13274
330
13267
100
AcDbEntity
  8
Defpoints
 62
     0
100
AcDbPoint
 10
885.0
 20
884.9999999999989
 30
0.0
  0
ENDBLK
  5
13269
330
13267
100
AcDbEntity
  8
0
100
AcDbBlockEnd
  0
BLOCK
  5
13276
330
13275
100
AcDbEntity
  8
0
100
AcDbBlockBegin
  2
*D1777
 70
     1
 10
0.0
 20
0.0
 30
0.0
  3
*D1777
  1

  0
LINE
  5
13278
330
13275
100
AcDbEntity
  8
01注記寸法
 62
     0
370
    -2
100
AcDbLine
 10
885.0
 20
789.9999999999989
 30
0.0
 11
885.0
 21
894.9999999999989
 31
0.0
  0
LINE
  5
13279
330
13275
100
AcDbEntity
  8
01注記寸法
 62
     0
370
    -2
100
AcDbLine
 10
1715.0
 20
789.9999999999989
 30
0.0
 11
1715.0
 21
894.9999999999989
 31
0.0
  0
LINE
  5
1327A
330
13275
100
AcDbEntity
  8
01注記寸法
 62
     0
370
    -2
100
AcDbLine
 10
915.0
 20
884.9999999999989
 30
0.0
 11
1685.0
 21
884.9999999999989
 31
0.0
  0
INSERT
  5
1327B
330
13275
100
AcDbEntity
  8
01注記寸法
 62
     0
370
    -2
100
AcDbBlockReference
  2
_Open
 10
885.0
 20
884.9999999999989
 30
0.0
 41
30.0
 42
30.0
 43
30.0
 50
180.0
  0
INSERT
  5
1327C
330
13275
100
AcDbEntity
  8
01注記寸法
 62
     0
370
    -2
100
AcDbBlockReference
  2
_Open
 10
1715.0
 20
884.9999999999989
 30
0.0
 41
30.0
 42
30.0
 43
30.0
  0
MTEXT
  5
1327D
330
13275
100
AcDbEntity
  8
01注記寸法
 62
     0
100
AcDbMText
 10
1300.0
 20
910.0056271101652
 30
0.0
 40
30.0
 41
0.0
 71
     5
 72
     1
  1
830
 73
     1
 44
1.0
  0
POINT
  5
1327E
330
13275
100
AcDbEntity
  8
Defpoints
 62
     0
100
AcDbPoint
 10
885.0
 20
774.9999999999989
 30
0.0
  0
POINT
  5
1327F
330
13275
100
AcDbEntity
  8
Defpoints
 62
     0
100
AcDbPoint
 10
1715.0
 20
774.9999999999989
 30
0.0
  0
POINT
  5
13280
330
13275
100
AcDbEntity
  8
Defpoints
 62
     0
100
AcDbPoint
 10
1715.0
 20
884.9999999999989
 30
0.0
  0
ENDBLK
  5
13277
330
13275
100
AcDbEntity
  8
0
100
AcDbBlockEnd
  0
BLOCK
  5
13282
330
13281
100
AcDbEntity
  8
0
100
AcDbBlockBegin
  2
*D1778
 70
     1
 10
0.0
 20
0.0
 30
0.0
  3
*D1778
  1

  0
LINE
  5
13284
330
13281
100
AcDbEntity
  8
01注記寸法
 62
     0
370
    -2
100
AcDbLine
 10
1715.0
 20
789.9999999999989
 30
0.0
 11
1715.0
 21
894.9999999999989
 31
0.0
  0
LINE
  5
13285
330
13281
100
AcDbEntity
  8
01注記寸法
 62
     0
370
    -2
100
AcDbLine
 10
1790.0
 20
799.9999999999989
 30
0.0
 11
1790.0
 21
894.9999999999989
 31
0.0
  0
LINE
  5
13286
330
13281
100
AcDbEntity
  8
01注記寸法
 62
     0
370
    -2
100
AcDbLine
 10
1715.0
 20
884.9999999999989
 30
0.0
 11
1790.0
 21
884.9999999999989
 31
0.0
  0
LINE
  5
13287
330
13281
100
AcDbEntity
  8
01注記寸法
 62
     0
370
    -2
100
AcDbLine
 10
1685.0
 20
884.9999999999989
 30
0.0
 11
1655.0
 21
884.9999999999989
 31
0.0
  0
LINE
  5
13288
330
13281
100
AcDbEntity
  8
01注記寸法
 62
     0
370
    -2
100
AcDbLine
 10
1820.0
 20
884.9999999999989
 30
0.0
 11
1850.0
 21
884.9999999999989
 31
0.0
  0
INSERT
  5
13289
330
13281
100
AcDbEntity
  8
01注記寸法
 62
     0
370
    -2
100
AcDbBlockReference
  2
_Open
 10
1715.0
 20
884.9999999999989
 30
0.0
 41
30.0
 42
30.0
 43
30.0
  0
INSERT
  5
1328A
330
13281
100
AcDbEntity
  8
01注記寸法
 62
     0
370
    -2
100
AcDbBlockReference
  2
_Open
 10
1790.0
 20
884.9999999999989
 30
0.0
 41
30.0
 42
30.0
 43
30.0
 50
180.0
  0
MTEXT
  5
1328B
330
13281
100
AcDbEntity
  8
01注記寸法
 62
     0
100
AcDbMText
 10
1752.5
 20
910.0056271101652
 30
0.0
 40
30.0
 41
0.0
 71
     5
 72
     1
  1
75
 73
     1
 44
1.0
  0
POINT
  5
1328C
330
13281
100
AcDbEntity
  8
Defpoints
 62
     0
100
AcDbPoint
 10
1715.0
 20
774.9999999999989
 30
0.0
  0
POINT
  5
1328D
330
13281
100
AcDbEntity
  8
Defpoints
 62
     0
100
AcDbPoint
 10
1790.0
 20
784.9999999999989
 30
0.0
  0
POINT
  5
1328E
330
13281
100
AcDbEntity
  8
Defpoints
 62
     0
100
AcDbPoint
 10
1790.0
 20
884.9999999999989
 30
0.0
  0
ENDBLK
  5
13283
330
13281
100
AcDbEntity
  8
0
100
AcDbBlockEnd
  0
BLOCK
  5
13290
330
1328F
100
AcDbEntity
  8
0
100
AcDbBlockBegin
  2
*D1779
 70
     1
 10
0.0
 20
0.0
 30
0.0
  3
*D1779
  1

  0
LINE
  5
13292
330
1328F
100
AcDbEntity
  8
01注記寸法
 62
     0
370
    -2
100
AcDbLine
 10
850.0
 20
329.9999999999989
 30
0.0
 11
700.0
 21
329.9999999999989
 31
0.0
  0
LINE
  5
13293
330
1328F
100
AcDbEntity
  8
01注記寸法
 62
     0
370
    -2
100
AcDbLine
 10
795.0
 20
299.9999999999989
 30
0.0
 11
700.0
 21
299.9999999999989
 31
0.0
  0
LINE
  5
13294
330
1328F
100
AcDbEntity
  8
01注記寸法
 62
     0
370
    -2
100
AcDbLine
 10
710.0
 20
269.9999999999989
 30
0.0
 11
710.0
 21
184.2036076028498
 31
0.0
  0
LINE
  5
13295
330
1328F
100
AcDbEntity
  8
01注記寸法
 62
     0
370
    -2
100
AcDbLine
 10
710.0
 20
329.9999999999989
 30
0.0
 11
710.0
 21
299.9999999999989
 31
0.0
  0
LINE
  5
13296
330
1328F
100
AcDbEntity
  8
01注記寸法
 62
     0
370
    -2
100
AcDbLine
 10
710.0
 20
359.9999999999989
 30
0.0
 11
710.0
 21
389.9999999999989
 31
0.0
  0
INSERT
  5
13297
330
1328F
100
AcDbEntity
  8
01注記寸法
 62
     0
370
    -2
100
AcDbBlockReference
  2
_Open
 10
710.0
 20
329.9999999999989
 30
0.0
 41
30.0
 42
30.0
 43
30.0
 50
270.0
  0
INSERT
  5
13298
330
1328F
100
AcDbEntity
  8
01注記寸法
 62
     0
370
    -2
100
AcDbBlockReference
  2
_Open
 10
710.0
 20
299.9999999999989
 30
0.0
 41
30.0
 42
30.0
 43
30.0
 50
90.0
  0
MTEXT
  5
13299
330
1328F
100
AcDbEntity
  8
01注記寸法
 62
     0
100
AcDbMText
 10
684.9943728898337
 20
212.1018038014244
 30
0.0
 40
30.0
 41
0.0
 71
     5
 72
     1
  1
30
 11
0.0
 21
1.0
 31
0.0
 73
     1
 44
1.0
  0
POINT
  5
1329A
330
1328F
100
AcDbEntity
  8
Defpoints
 62
     0
100
AcDbPoint
 10
865.0
 20
329.9999999999989
 30
0.0
  0
POINT
  5
1329B
330
1328F
100
AcDbEntity
  8
Defpoints
 62
     0
100
AcDbPoint
 10
810.0
 20
299.9999999999989
 30
0.0
  0
POINT
  5
1329C
330
1328F
100
AcDbEntity
  8
Defpoints
 62
     0
100
AcDbPoint
 10
710.0
 20
299.9999999999989
 30
0.0
  0
ENDBLK
  5
13291
330
1328F
100
AcDbEntity
  8
0
100
AcDbBlockEnd
  0
BLOCK
  5
1329E
330
1329D
100
AcDbEntity
  8
0
100
AcDbBlockBegin
  2
*D1780
 70
     1
 10
0.0
 20
0.0
 30
0.0
  3
*D1780
  1

  0
LINE
  5
132A0
330
1329D
100
AcDbEntity
  8
01注記寸法
 62
     0
370
    -2
100
AcDbLine
 10
764.9999999999991
 20
2469.999999999998
 30
0.0
 11
620.0
 21
2469.999999999998
 31
0.0
  0
LINE
  5
132A1
330
1329D
100
AcDbEntity
  8
01注記寸法
 62
     0
370
    -2
100
AcDbLine
 10
722.0
 20
2384.999999999997
 30
0.0
 11
620.0
 21
2384.999999999997
 31
0.0
  0
LINE
  5
132A2
330
1329D
100
AcDbEntity
  8
01注記寸法
 62
     0
370
    -2
100
AcDbLine
 10
630.0
 20
2439.999999999998
 30
0.0
 11
630.0
 21
2414.999999999997
 31
0.0
  0
INSERT
  5
132A3
330
1329D
100
AcDbEntity
  8
01注記寸法
 62
     0
370
    -2
100
AcDbBlockReference
  2
_Open
 10
630.0
 20
2469.999999999998
 30
0.0
 41
30.0
 42
30.0
 43
30.0
 50
90.0
  0
INSERT
  5
132A4
330
1329D
100
AcDbEntity
  8
01注記寸法
 62
     0
370
    -2
100
AcDbBlockReference
  2
_Open
 10
630.0
 20
2384.999999999997
 30
0.0
 41
30.0
 42
30.0
 43
30.0
 50
270.0
  0
MTEXT
  5
132A5
330
1329D
100
AcDbEntity
  8
01注記寸法
 62
     0
100
AcDbMText
 10
604.9943728898338
 20
2427.499999999998
 30
0.0
 40
30.0
 41
0.0
 71
     5
 72
     1
  1
85
 11
0.0
 21
1.0
 31
0.0
 73
     1
 44
1.0
  0
POINT
  5
132A6
330
1329D
100
AcDbEntity
  8
Defpoints
 62
     0
100
AcDbPoint
 10
779.9999999999991
 20
2469.999999999998
 30
0.0
  0
POINT
  5
132A7
330
1329D
100
AcDbEntity
  8
Defpoints
 62
     0
100
AcDbPoint
 10
737.0
 20
2384.999999999997
 30
0.0
  0
POINT
  5
132A8
330
1329D
100
AcDbEntity
  8
Defpoints
 62
     0
100
AcDbPoint
 10
630.0
 20
2384.999999999997
 30
0.0
  0
ENDBLK
  5
1329F
330
1329D
100
AcDbEntity
  8
0
100
AcDbBlockEnd
  0
BLOCK
  5
132AA
330
132A9
100
AcDbEntity
  8
0
100
AcDbBlockBegin
  2
*D1781
 70
     1
 10
0.0
 20
0.0
 30
0.0
  3
*D1781
  1

  0
LINE
  5
132AC
330
132A9
100
AcDbEntity
  8
01注記寸法
 62
     0
370
    -2
100
AcDbLine
 10
722.0
 20
2384.999999999997
 30
0.0
 11
620.0
 21
2384.999999999997
 31
0.0
  0
LINE
  5
132AD
330
132A9
100
AcDbEntity
  8
01注記寸法
 62
     0
370
    -2
100
AcDbLine
 10
722.0
 20
2084.999999999997
 30
0.0
 11
620.0
 21
2084.999999999997
 31
0.0
  0
LINE
  5
132AE
330
132A9
100
AcDbEntity
  8
01注記寸法
 62
     0
370
    -2
100
AcDbLine
 10
630.0
 20
2354.999999999997
 30
0.0
 11
630.0
 21
2114.999999999997
 31
0.0
  0
INSERT
  5
132AF
330
132A9
100
AcDbEntity
  8
01注記寸法
 62
     0
370
    -2
100
AcDbBlockReference
  2
_Open
 10
630.0
 20
2384.999999999997
 30
0.0
 41
30.0
 42
30.0
 43
30.0
 50
90.0
  0
INSERT
  5
132B0
330
132A9
100
AcDbEntity
  8
01注記寸法
 62
     0
370
    -2
100
AcDbBlockReference
  2
_Open
 10
630.0
 20
2084.999999999997
 30
0.0
 41
30.0
 42
30.0
 43
30.0
 50
270.0
  0
MTEXT
  5
132B1
330
132A9
100
AcDbEntity
  8
01注記寸法
 62
     0
100
AcDbMText
 10
604.9943728898338
 20
2234.999999999997
 30
0.0
 40
30.0
 41
0.0
 71
     5
 72
     1
  1
300
 11
0.0
 21
1.0
 31
0.0
 73
     1
 44
1.0
  0
POINT
  5
132B2
330
132A9
100
AcDbEntity
  8
Defpoints
 62
     0
100
AcDbPoint
 10
737.0
 20
2384.999999999997
 30
0.0
  0
POINT
  5
132B3
330
132A9
100
AcDbEntity
  8
Defpoints
 62
     0
100
AcDbPoint
 10
737.0
 20
2084.999999999997
 30
0.0
  0
POINT
  5
132B4
330
132A9
100
AcDbEntity
  8
Defpoints
 62
     0
100
AcDbPoint
 10
630.0
 20
2084.999999999997
 30
0.0
  0
ENDBLK
  5
132AB
330
132A9
100
AcDbEntity
  8
0
100
AcDbBlockEnd
  0
BLOCK
  5
132B6
330
132B5
100
AcDbEntity
  8
0
100
AcDbBlockBegin
  2
*D1782
 70
     1
 10
0.0
 20
0.0
 30
0.0
  3
*D1782
  1

  0
LINE
  5
132B8
330
132B5
100
AcDbEntity
  8
01注記寸法
 62
     0
370
    -2
100
AcDbLine
 10
722.0
 20
2084.999999999997
 30
0.0
 11
620.0
 21
2084.999999999997
 31
0.0
  0
LINE
  5
132B9
330
132B5
100
AcDbEntity
  8
01注記寸法
 62
     0
370
    -2
100
AcDbLine
 10
765.0
 20
1984.999999999997
 30
0.0
 11
620.0
 21
1984.999999999997
 31
0.0
  0
LINE
  5
132BA
330
132B5
100
AcDbEntity
  8
01注記寸法
 62
     0
370
    -2
100
AcDbLine
 10
630.0
 20
2054.999999999997
 30
0.0
 11
630.0
 21
2014.999999999997
 31
0.0
  0
INSERT
  5
132BB
330
132B5
100
AcDbEntity
  8
01注記寸法
 62
     0
370
    -2
100
AcDbBlockReference
  2
_Open
 10
630.0
 20
2084.999999999997
 30
0.0
 41
30.0
 42
30.0
 43
30.0
 50
90.0
  0
INSERT
  5
132BC
330
132B5
100
AcDbEntity
  8
01注記寸法
 62
     0
370
    -2
100
AcDbBlockReference
  2
_Open
 10
630.0
 20
1984.999999999997
 30
0.0
 41
30.0
 42
30.0
 43
30.0
 50
270.0
  0
MTEXT
  5
132BD
330
132B5
100
AcDbEntity
  8
01注記寸法
 62
     0
100
AcDbMText
 10
604.9943728898337
 20
2034.999999999997
 30
0.0
 40
30.0
 41
0.0
 71
     5
 72
     1
  1
100
 11
0.0
 21
1.0
 31
0.0
 73
     1
 44
1.0
  0
POINT
  5
132BE
330
132B5
100
AcDbEntity
  8
Defpoints
 62
     0
100
AcDbPoint
 10
737.0
 20
2084.999999999997
 30
0.0
  0
POINT
  5
132BF
330
132B5
100
AcDbEntity
  8
Defpoints
 62
     0
100
AcDbPoint
 10
780.0
 20
1984.999999999997
 30
0.0
  0
POINT
  5
132C0
330
132B5
100
AcDbEntity
  8
Defpoints
 62
     0
100
AcDbPoint
 10
630.0
 20
1984.999999999997
 30
0.0
  0
ENDBLK
  5
132B7
330
132B5
100
AcDbEntity
  8
0
100
AcDbBlockEnd
  0
BLOCK
  5
132C2
330
132C1
100
AcDbEntity
  8
0
100
AcDbBlockBegin
  2
*D1783
 70
     1
 10
0.0
 20
0.0
 30
0.0
  3
*D1783
  1

  0
LINE
  5
132C4
330
132C1
100
AcDbEntity
  8
01注記寸法
 62
     0
370
    -2
100
AcDbLine
 10
779.9999999999991
 20
2484.999999999998
 30
0.0
 11
779.9999999999991
 21
2579.999999999998
 31
0.0
  0
LINE
  5
132C5
330
132C1
100
AcDbEntity
  8
01注記寸法
 62
     0
370
    -2
100
AcDbLine
 10
757.0
 20
2419.999999999997
 30
0.0
 11
757.0
 21
2579.999999999998
 31
0.0
  0
LINE
  5
132C6
330
132C1
100
AcDbEntity
  8
01注記寸法
 62
     0
370
    -2
100
AcDbLine
 10
727.0
 20
2569.999999999998
 30
0.0
 11
642.1269225959736
 21
2569.999999999998
 31
0.0
  0
LINE
  5
132C7
330
132C1
100
AcDbEntity
  8
01注記寸法
 62
     0
370
    -2
100
AcDbLine
 10
779.9999999999991
 20
2569.999999999998
 30
0.0
 11
757.0
 21
2569.999999999998
 31
0.0
  0
LINE
  5
132C8
330
132C1
100
AcDbEntity
  8
01注記寸法
 62
     0
370
    -2
100
AcDbLine
 10
809.9999999999991
 20
2569.999999999998
 30
0.0
 11
839.9999999999991
 21
2569.999999999998
 31
0.0
  0
INSERT
  5
132C9
330
132C1
100
AcDbEntity
  8
01注記寸法
 62
     0
370
    -2
100
AcDbBlockReference
  2
_Open
 10
779.9999999999991
 20
2569.999999999998
 30
0.0
 41
30.0
 42
30.0
 43
30.0
 50
180.0
  0
INSERT
  5
132CA
330
132C1
100
AcDbEntity
  8
01注記寸法
 62
     0
370
    -2
100
AcDbBlockReference
  2
_Open
 10
757.0
 20
2569.999999999998
 30
0.0
 41
30.0
 42
30.0
 43
30.0
  0
MTEXT
  5
132CB
330
132C1
100
AcDbEntity
  8
01注記寸法
 62
     0
100
AcDbMText
 10
669.5634612979868
 20
2595.005627110164
 30
0.0
 40
30.0
 41
0.0
 71
     5
 72
     1
  1
23
 73
     1
 44
1.0
  0
POINT
  5
132CC
330
132C1
100
AcDbEntity
  8
Defpoints
 62
     0
100
AcDbPoint
 10
779.9999999999991
 20
2469.999999999998
 30
0.0
  0
POINT
  5
132CD
330
132C1
100
AcDbEntity
  8
Defpoints
 62
     0
100
AcDbPoint
 10
757.0
 20
2404.999999999997
 30
0.0
  0
POINT
  5
132CE
330
132C1
100
AcDbEntity
  8
Defpoints
 62
     0
100
AcDbPoint
 10
757.0
 20
2569.999999999998
 30
0.0
  0
ENDBLK
  5
132C3
330
132C1
100
AcDbEntity
  8
0
100
AcDbBlockEnd
  0
BLOCK
  5
132D0
330
132CF
100
AcDbEntity
  8
0
100
AcDbBlockBegin
  2
*D1784
 70
     1
 10
0.0
 20
0.0
 30
0.0
  3
*D1784
  1

  0
LINE
  5
132D2
330
132CF
100
AcDbEntity
  8
01注記寸法
 62
     0
370
    -2
100
AcDbLine
 10
779.9999999999991
 20
2484.999999999998
 30
0.0
 11
779.9999999999991
 21
2579.999999999999
 31
0.0
  0
LINE
  5
132D3
330
132CF
100
AcDbEntity
  8
01注記寸法
 62
     0
370
    -2
100
AcDbLine
 10
1760.0
 20
2485.0
 30
0.0
 11
1760.0
 21
2579.999999999999
 31
0.0
  0
LINE
  5
132D4
330
132CF
100
AcDbEntity
  8
01注記寸法
 62
     0
370
    -2
100
AcDbLine
 10
809.9999999999991
 20
2569.999999999999
 30
0.0
 11
1730.0
 21
2569.999999999999
 31
0.0
  0
INSERT
  5
132D5
330
132CF
100
AcDbEntity
  8
01注記寸法
 62
     0
370
    -2
100
AcDbBlockReference
  2
_Open
 10
779.9999999999991
 20
2569.999999999999
 30
0.0
 41
30.0
 42
30.0
 43
30.0
 50
180.0
  0
INSERT
  5
132D6
330
132CF
100
AcDbEntity
  8
01注記寸法
 62
     0
370
    -2
100
AcDbBlockReference
  2
_Open
 10
1760.0
 20
2569.999999999999
 30
0.0
 41
30.0
 42
30.0
 43
30.0
  0
MTEXT
  5
132D7
330
132CF
100
AcDbEntity
  8
01注記寸法
 62
     0
100
AcDbMText
 10
1270.0
 20
2594.999999999999
 30
0.0
 40
30.0
 41
0.0
 71
     5
 72
     1
  1
980
 73
     1
 44
1.0
  0
POINT
  5
132D8
330
132CF
100
AcDbEntity
  8
Defpoints
 62
     0
100
AcDbPoint
 10
779.9999999999991
 20
2469.999999999998
 30
0.0
  0
POINT
  5
132D9
330
132CF
100
AcDbEntity
  8
Defpoints
 62
     0
100
AcDbPoint
 10
1760.0
 20
2470.0
 30
0.0
  0
POINT
  5
132DA
330
132CF
100
AcDbEntity
  8
Defpoints
 62
     0
100
AcDbPoint
 10
1760.0
 20
2569.999999999999
 30
0.0
  0
ENDBLK
  5
132D1
330
132CF
100
AcDbEntity
  8
0
100
AcDbBlockEnd
  0
BLOCK
  5
132DC
330
132DB
100
AcDbEntity
  8
0
100
AcDbBlockBegin
  2
*D1785
 70
     1
 10
0.0
 20
0.0
 30
0.0
  3
*D1785
  1

  0
LINE
  5
132DE
330
132DB
100
AcDbEntity
  8
01注記寸法
 62
     0
370
    -2
100
AcDbLine
 10
1760.0
 20
2485.0
 30
0.0
 11
1760.0
 21
2579.999999999999
 31
0.0
  0
LINE
  5
132DF
330
132DB
100
AcDbEntity
  8
01注記寸法
 62
     0
370
    -2
100
AcDbLine
 10
1783.0
 20
2419.999999999997
 30
0.0
 11
1783.0
 21
2579.999999999999
 31
0.0
  0
LINE
  5
132E0
330
132DB
100
AcDbEntity
  8
01注記寸法
 62
     0
370
    -2
100
AcDbLine
 10
1813.0
 20
2569.999999999999
 30
0.0
 11
1897.873077404026
 21
2569.999999999999
 31
0.0
  0
LINE
  5
132E1
330
132DB
100
AcDbEntity
  8
01注記寸法
 62
     0
370
    -2
100
AcDbLine
 10
1760.0
 20
2569.999999999999
 30
0.0
 11
1783.0
 21
2569.999999999999
 31
0.0
  0
LINE
  5
132E2
330
132DB
100
AcDbEntity
  8
01注記寸法
 62
     0
370
    -2
100
AcDbLine
 10
1730.0
 20
2569.999999999999
 30
0.0
 11
1700.0
 21
2569.999999999999
 31
0.0
  0
INSERT
  5
132E3
330
132DB
100
AcDbEntity
  8
01注記寸法
 62
     0
370
    -2
100
AcDbBlockReference
  2
_Open
 10
1760.0
 20
2569.999999999999
 30
0.0
 41
30.0
 42
30.0
 43
30.0
  0
INSERT
  5
132E4
330
132DB
100
AcDbEntity
  8
01注記寸法
 62
     0
370
    -2
100
AcDbBlockReference
  2
_Open
 10
1783.0
 20
2569.999999999999
 30
0.0
 41
30.0
 42
30.0
 43
30.0
 50
180.0
  0
MTEXT
  5
132E5
330
132DB
100
AcDbEntity
  8
01注記寸法
 62
     0
100
AcDbMText
 10
1870.436538702013
 20
2595.005627110165
 30
0.0
 40
30.0
 41
0.0
 71
     5
 72
     1
  1
23
 73
     1
 44
1.0
  0
POINT
  5
132E6
330
132DB
100
AcDbEntity
  8
Defpoints
 62
     0
100
AcDbPoint
 10
1760.0
 20
2470.0
 30
0.0
  0
POINT
  5
132E7
330
132DB
100
AcDbEntity
  8
Defpoints
 62
     0
100
AcDbPoint
 10
1783.0
 20
2404.999999999997
 30
0.0
  0
POINT
  5
132E8
330
132DB
100
AcDbEntity
  8
Defpoints
 62
     0
100
AcDbPoint
 10
1783.0
 20
2569.999999999999
 30
0.0
  0
ENDBLK
  5
132DD
330
132DB
100
AcDbEntity
  8
0
100
AcDbBlockEnd
  0
BLOCK
  5
132EA
330
132E9
100
AcDbEntity
  8
0
100
AcDbBlockBegin
  2
*D1786
 70
     1
 10
0.0
 20
0.0
 30
0.0
  3
*D1786
  1

  0
LINE
  5
132EC
330
132E9
100
AcDbEntity
  8
01注記寸法
 62
     0
370
    -2
100
AcDbLine
 10
1818.0
 20
2084.999999999997
 30
0.0
 11
1920.0
 21
2084.999999999997
 31
0.0
  0
LINE
  5
132ED
330
132E9
100
AcDbEntity
  8
01注記寸法
 62
     0
370
    -2
100
AcDbLine
 10
1825.0
 20
2114.999999999997
 30
0.0
 11
1920.0
 21
2114.999999999997
 31
0.0
  0
LINE
  5
132EE
330
132E9
100
AcDbEntity
  8
01注記寸法
 62
     0
370
    -2
100
AcDbLine
 10
1910.0
 20
2144.999999999997
 30
0.0
 11
1910.0
 21
2230.796392397146
 31
0.0
  0
LINE
  5
132EF
330
132E9
100
AcDbEntity
  8
01注記寸法
 62
     0
370
    -2
100
AcDbLine
 10
1910.0
 20
2084.999999999997
 30
0.0
 11
1910.0
 21
2114.999999999997
 31
0.0
  0
LINE
  5
132F0
330
132E9
100
AcDbEntity
  8
01注記寸法
 62
     0
370
    -2
100
AcDbLine
 10
1910.0
 20
2054.999999999997
 30
0.0
 11
1910.0
 21
2024.999999999997
 31
0.0
  0
INSERT
  5
132F1
330
132E9
100
AcDbEntity
  8
01注記寸法
 62
     0
370
    -2
100
AcDbBlockReference
  2
_Open
 10
1910.0
 20
2084.999999999997
 30
0.0
 41
30.0
 42
30.0
 43
30.0
 50
90.0
  0
INSERT
  5
132F2
330
132E9
100
AcDbEntity
  8
01注記寸法
 62
     0
370
    -2
100
AcDbBlockReference
  2
_Open
 10
1910.0
 20
2114.999999999997
 30
0.0
 41
30.0
 42
30.0
 43
30.0
 50
270.0
  0
MTEXT
  5
132F3
330
132E9
100
AcDbEntity
  8
01注記寸法
 62
     0
100
AcDbMText
 10
1884.994372889834
 20
2202.898196198572
 30
0.0
 40
30.0
 41
0.0
 71
     5
 72
     1
  1
30
 11
0.0
 21
1.0
 31
0.0
 73
     1
 44
1.0
  0
POINT
  5
132F4
330
132E9
100
AcDbEntity
  8
Defpoints
 62
     0
100
AcDbPoint
 10
1803.0
 20
2084.999999999997
 30
0.0
  0
POINT
  5
132F5
330
132E9
100
AcDbEntity
  8
Defpoints
 62
     0
100
AcDbPoint
 10
1810.0
 20
2114.999999999997
 30
0.0
  0
POINT
  5
132F6
330
132E9
100
AcDbEntity
  8
Defpoints
 62
     0
100
AcDbPoint
 10
1910.0
 20
2114.999999999997
 30
0.0
  0
ENDBLK
  5
132EB
330
132E9
100
AcDbEntity
  8
0
100
AcDbBlockEnd
  0
BLOCK
  5
132F8
330
132F7
100
AcDbEntity
  8
0
100
AcDbBlockBegin
  2
*D1787
 70
     1
 10
0.0
 20
0.0
 30
0.0
  3
*D1787
  1

  0
LINE
  5
132FA
330
132F7
100
AcDbEntity
  8
01注記寸法
 62
     0
370
    -2
100
AcDbLine
 10
1820.0
 20
2054.999999999997
 30
0.0
 11
2020.0
 21
2054.999999999997
 31
0.0
  0
LINE
  5
132FB
330
132F7
100
AcDbEntity
  8
01注記寸法
 62
     0
370
    -2
100
AcDbLine
 10
1825.0
 20
2114.999999999997
 30
0.0
 11
2020.0
 21
2114.999999999997
 31
0.0
  0
LINE
  5
132FC
330
132F7
100
AcDbEntity
  8
01注記寸法
 62
     0
370
    -2
100
AcDbLine
 10
2010.0
 20
2054.999999999997
 30
0.0
 11
2010.0
 21
2114.999999999997
 31
0.0
  0
LINE
  5
132FD
330
132F7
100
AcDbEntity
  8
01注記寸法
 62
     0
370
    -2
100
AcDbLine
 10
2010.0
 20
2024.999999999997
 30
0.0
 11
2010.0
 21
1994.999999999997
 31
0.0
  0
LINE
  5
132FE
330
132F7
100
AcDbEntity
  8
01注記寸法
 62
     0
370
    -2
100
AcDbLine
 10
2010.0
 20
2144.999999999997
 30
0.0
 11
2010.0
 21
2174.999999999997
 31
0.0
  0
INSERT
  5
132FF
330
132F7
100
AcDbEntity
  8
01注記寸法
 62
     0
370
    -2
100
AcDbBlockReference
  2
_Open
 10
2010.0
 20
2054.999999999997
 30
0.0
 41
30.0
 42
30.0
 43
30.0
 50
90.0
  0
INSERT
  5
13300
330
132F7
100
AcDbEntity
  8
01注記寸法
 62
     0
370
    -2
100
AcDbBlockReference
  2
_Open
 10
2010.0
 20
2114.999999999997
 30
0.0
 41
30.0
 42
30.0
 43
30.0
 50
270.0
  0
MTEXT
  5
13301
330
132F7
100
AcDbEntity
  8
01注記寸法
 62
     0
100
AcDbMText
 10
1985.0
 20
2084.999999999997
 30
0.0
 40
30.0
 41
0.0
 71
     5
 72
     1
  1
60
 11
0.0
 21
1.0
 31
0.0
 73
     1
 44
1.0
  0
POINT
  5
13302
330
132F7
100
AcDbEntity
  8
Defpoints
 62
     0
100
AcDbPoint
 10
1805.0
 20
2054.999999999997
 30
0.0
  0
POINT
  5
13303
330
132F7
100
AcDbEntity
  8
Defpoints
 62
     0
100
AcDbPoint
 10
1810.0
 20
2114.999999999997
 30
0.0
  0
POINT
  5
13304
330
132F7
100
AcDbEntity
  8
Defpoints
 62
     0
100
AcDbPoint
 10
2010.0
 20
2114.999999999997
 30
0.0
  0
ENDBLK
  5
132F9
330
132F7
100
AcDbEntity
  8
0
100
AcDbBlockEnd
  0
BLOCK
  5
13306
330
13305
100
AcDbEntity
  8
0
100
AcDbBlockBegin
  2
*D1788
 70
     1
 10
0.0
 20
0.0
 30
0.0
  3
*D1788
  1

  0
LINE
  5
13308
330
13305
100
AcDbEntity
  8
01注記寸法
 62
     0
370
    -2
100
AcDbLine
 10
1810.0
 20
2044.999999999997
 30
0.0
 11
1810.0
 21
1874.999999999999
 31
0.0
  0
LINE
  5
13309
330
13305
100
AcDbEntity
  8
01注記寸法
 62
     0
370
    -2
100
AcDbLine
 10
1760.0
 20
1969.999999999997
 30
0.0
 11
1760.0
 21
1874.999999999999
 31
0.0
  0
LINE
  5
1330A
330
13305
100
AcDbEntity
  8
01注記寸法
 62
     0
370
    -2
100
AcDbLine
 10
1730.0
 20
1884.999999999999
 30
0.0
 11
1644.203607602851
 21
1884.999999999999
 31
0.0
  0
LINE
  5
1330B
330
13305
100
AcDbEntity
  8
01注記寸法
 62
     0
370
    -2
100
AcDbLine
 10
1810.0
 20
1884.999999999999
 30
0.0
 11
1760.0
 21
1884.999999999999
 31
0.0
  0
LINE
  5
1330C
330
13305
100
AcDbEntity
  8
01注記寸法
 62
     0
370
    -2
100
AcDbLine
 10
1840.0
 20
1884.999999999999
 30
0.0
 11
1870.0
 21
1884.999999999999
 31
0.0
  0
INSERT
  5
1330D
330
13305
100
AcDbEntity
  8
01注記寸法
 62
     0
370
    -2
100
AcDbBlockReference
  2
_Open
 10
1810.0
 20
1884.999999999999
 30
0.0
 41
30.0
 42
30.0
 43
30.0
 50
180.0
  0
INSERT
  5
1330E
330
13305
100
AcDbEntity
  8
01注記寸法
 62
     0
370
    -2
100
AcDbBlockReference
  2
_Open
 10
1760.0
 20
1884.999999999999
 30
0.0
 41
30.0
 42
30.0
 43
30.0
  0
MTEXT
  5
1330F
330
13305
100
AcDbEntity
  8
01注記寸法
 62
     0
100
AcDbMText
 10
1672.101803801426
 20
1910.005627110166
 30
0.0
 40
30.0
 41
0.0
 71
     5
 72
     1
  1
50
 73
     1
 44
1.0
  0
POINT
  5
13310
330
13305
100
AcDbEntity
  8
Defpoints
 62
     0
100
AcDbPoint
 10
1810.0
 20
2059.999999999997
 30
0.0
  0
POINT
  5
13311
330
13305
100
AcDbEntity
  8
Defpoints
 62
     0
100
AcDbPoint
 10
1760.0
 20
1984.999999999997
 30
0.0
  0
POINT
  5
13312
330
13305
100
AcDbEntity
  8
Defpoints
 62
     0
100
AcDbPoint
 10
1760.0
 20
1884.999999999999
 30
0.0
  0
ENDBLK
  5
13307
330
13305
100
AcDbEntity
  8
0
100
AcDbBlockEnd
  0
ENDSEC
  0
SECTION
  2
ENTITIES
  0
LWPOLYLINE
  5
1318B
330
1F
100
AcDbEntity
  8
03破線
100
AcDbPolyline
 90
        4
 70
     1
 43
0.0
 10
783.2000000000007
 20
1988.200000000002
 10
783.2000000000007
 20
2466.8
 10
1756.799999999999
 20
2466.800000000003
 10
1756.799999999999
 20
1988.200000000004
  0
LWPOLYLINE
  5
1318C
330
1F
100
AcDbEntity
  8
03破線
100
AcDbPolyline
 90
        4
 70
     1
 43
0.0
 10
783.2000000000007
 20
1203.199999999995
 10
783.2000000000007
 20
1296.8
 10
1756.799999999999
 20
1296.800000000003
 10
1756.799999999999
 20
1203.199999999997
  0
LWPOLYLINE
  5
1318D
330
1F
100
AcDbEntity
  8
03破線
100
AcDbPolyline
 90
        4
 70
     1
 43
0.0
 10
2388.200000000001
 20
1203.199999999997
 10
2388.200000000001
 20
1296.800000000003
 10
2866.799999999999
 20
1296.800000000003
 10
2866.799999999999
 20
1203.199999999997
  0
LINE
  5
1318E
330
1F
100
AcDbEntity
  8
03破線
100
AcDbLine
 10
2736.516620570558
 20
1200.0
 30
0.0
 11
2736.516620570558
 21
1203.200000000004
 31
0.0
  0
LINE
  5
1318F
330
1F
100
AcDbEntity
  8
03破線
100
AcDbLine
 10
2736.516620570558
 20
1300.0
 30
0.0
 11
2736.516620570558
 21
1296.800000000003
 31
0.0
  0
LINE
  5
13190
330
1F
100
AcDbEntity
  8
03破線
100
AcDbLine
 10
2820.0
 20
1200.0
 30
0.0
 11
2820.0
 21
1203.200000000004
 31
0.0
  0
LINE
  5
13191
330
1F
100
AcDbEntity
  8
03破線
100
AcDbLine
 10
2820.0
 20
1300.0
 30
0.0
 11
2820.0
 21
1296.800000000003
 31
0.0
  0
LINE
  5
13192
330
1F
100
AcDbEntity
  8
03破線
100
AcDbLine
 10
830.0
 20
1299.999999999997
 30
0.0
 11
830.0
 21
1296.8
 31
0.0
  0
LINE
  5
13193
330
1F
100
AcDbEntity
  8
03破線
100
AcDbLine
 10
830.0
 20
1199.999999999997
 30
0.0
 11
830.0
 21
1203.200000000002
 31
0.0
  0
LINE
  5
13194
330
1F
100
AcDbEntity
  8
03破線
100
AcDbLine
 10
1710.0
 20
1300.0
 30
0.0
 11
1710.0
 21
1296.800000000003
 31
0.0
  0
LINE
  5
13195
330
1F
100
AcDbEntity
  8
03破線
100
AcDbLine
 10
1710.0
 20
1200.0
 30
0.0
 11
1710.0
 21
1203.200000000004
 31
0.0
  0
LWPOLYLINE
  5
13196
330
1F
100
AcDbEntity
  8
02実線
100
AcDbPolyline
 90
        4
 70
     1
 43
0.0
 10
780.0
 20
1984.999999999997
 10
780.0
 20
2469.999999999997
 10
1760.0
 20
2470.0
 10
1760.0
 20
1985.0
  0
LWPOLYLINE
  5
13197
330
1F
100
AcDbEntity
  8
02実線
100
AcDbPolyline
 90
        4
 70
     1
 43
0.0
 10
830.0
 20
2034.999999999997
 10
830.0
 20
2419.999999999997
 10
1710.0
 20
2420.0
 10
1710.0
 20
2035.0
  0
LWPOLYLINE
  5
13198
330
1F
100
AcDbEntity
  8
02実線
100
AcDbPolyline
 90
        4
 70
     1
 43
0.0
 10
780.0
 20
1199.999999999997
 10
780.0
 20
1299.999999999997
 10
1760.0
 20
1300.0
 10
1760.0
 20
1200.0
  0
LWPOLYLINE
  5
13199
330
1F
100
AcDbEntity
  8
02実線
100
AcDbPolyline
 90
        4
 70
     1
 43
0.0
 10
2385.0
 20
1200.0
 10
2385.0
 20
1300.0
 10
2870.0
 20
1300.0
 10
2870.0
 20
1200.0
  0
LINE
  5
1319A
330
1F
100
AcDbEntity
  8
04一点鎖線
100
AcDbLine
 10
855.0
 20
1213.199999999995
 30
0.0
 11
855.0
 21
1189.999999999997
 31
0.0
  0
LINE
  5
1319B
330
1F
100
AcDbEntity
  8
04一点鎖線
100
AcDbLine
 10
1685.0
 20
1213.199999999997
 30
0.0
 11
1685.0
 21
1190.0
 31
0.0
  0
LINE
  5
1319C
330
1F
100
AcDbEntity
  8
04一点鎖線
100
AcDbLine
 10
2415.0
 20
1213.199999999997
 30
0.0
 11
2415.0
 21
1190.0
 31
0.0
  0
LINE
  5
1319D
330
1F
100
AcDbEntity
  8
04一点鎖線
100
AcDbLine
 10
2840.0
 20
1213.199999999997
 30
0.0
 11
2840.0
 21
1190.0
 31
0.0
  0
LWPOLYLINE
  5
1319E
102
{ACAD_REACTORS
330
1319F
102
}
330
1F
100
AcDbEntity
  8
02実線
100
AcDbPolyline
 90
        4
 70
     1
 43
0.0
 10
780.0
 20
1299.999999999997
 10
780.0
 20
1309.999999999997
 10
1760.0
 20
1310.0
 10
1760.0
 20
1300.0
  0
HATCH
  5
1319F
330
1F
100
AcDbEntity
  8
01注記寸法
100
AcDbHatch
 10
0.0
 20
0.0
 30
0.0
210
0.0
220
0.0
230
1.0
  2
ANSI31
 70
     0
 71
     1
 91
        1
 92
        1
 93
        4
 72
     1
 10
780.0
 20
1299.999999999997
 11
780.0
 21
1309.999999999997
 72
     1
 10
780.0
 20
1309.999999999997
 11
1760.0
 21
1310.0
 72
     1
 10
1760.0
 20
1310.0
 11
1760.0
 21
1300.0
 72
     1
 10
1760.0
 20
1300.0
 11
780.0
 21
1299.999999999997
 97
        1
330
1319E
 75
     0
 76
     1
 52
45.0
 41
5.000000000000009
 77
     0
 78
     1
 53
90.0
 43
12980.0
 44
-99.99999999999386
 45
-15.875
 46
0.000000000000001
 79
     0
 98
        1
 10
12980.0
 20
-10990.0
1001
ACAD
1010
0.0
1020
0.0
1030
0.0
  0
LWPOLYLINE
  5
131A0
102
{ACAD_REACTORS
330
131A1
102
}
330
1F
100
AcDbEntity
  8
02実線
100
AcDbPolyline
 90
        4
 70
     1
 43
0.0
 10
2385.0
 20
1300.0
 10
2385.0
 20
1310.0
 10
2870.0
 20
1310.0
 10
2870.0
 20
1300.0
  0
HATCH
  5
131A1
330
1F
100
AcDbEntity
  8
01注記寸法
100
AcDbHatch
 10
0.0
 20
0.0
 30
0.0
210
0.0
220
0.0
230
1.0
  2
ANSI31
 70
     0
 71
     1
 91
        1
 92
        1
 93
        4
 72
     1
 10
2385.0
 20
1300.0
 11
2385.0
 21
1310.0
 72
     1
 10
2385.0
 20
1310.0
 11
2870.0
 21
1310.0
 72
     1
 10
2870.0
 20
1310.0
 11
2870.0
 21
1300.0
 72
     1
 10
2870.0
 20
1300.0
 11
2385.0
 21
1300.0
 97
        1
330
131A0
 75
     0
 76
     1
 52
45.0
 41
5.00000000000001
 77
     0
 78
     1
 53
90.0
 43
13385.0
 44
-99.99999999999136
 45
-15.875
 46
0.000000000000001
 79
     0
 98
        1
 10
14585.0
 20
-10990.0
1001
ACAD
1010
0.0
1020
0.0
1030
0.0
  0
LWPOLYLINE
  5
131BA
330
1F
100
AcDbEntity
  8
03破線
100
AcDbPolyline
 90
        4
 70
     1
 43
0.0
 10
730.0
 20
2111.799999999997
 10
730.0
 20
2114.999999999997
 10
780.0
 20
2114.999999999997
 10
780.0
 20
2111.799999999997
  0
HATCH
  5
131BB
330
1F
100
AcDbEntity
  8
01注記寸法
100
AcDbHatch
 10
0.0
 20
0.0
 30
0.0
210
0.0
220
0.0
230
1.0
  2
ANSI31
 70
     0
 71
     1
 91
        2
 92
        1
 93
        5
 72
     1
 10
730.0
 20
2059.999999999997
 11
730.0
 21
2114.999999999997
 72
     1
 10
730.0
 20
2114.999999999997
 11
780.0
 21
2114.999999999997
 72
     1
 10
780.0
 20
2114.999999999997
 11
780.0
 21
2054.999999999997
 72
     1
 10
780.0
 20
2054.999999999997
 11
735.0
 21
2054.999999999997
 72
     1
 10
735.0
 20
2054.999999999997
 11
730.0
 21
2059.999999999997
 97
        1
330
131BC
 92
       16
 93
        1
 72
     2
 10
757.0
 20
2084.999999999997
 40
6.0
 50
0.0
 51
360.0
 73
     1
 97
        1
330
131BD
 75
     0
 76
     1
 52
135.0
 41
5.0
 77
     0
 78
     1
 53
180.0
 43
4684.765320007411
 44
-398.3594970125584
 45
-0.0000000000000019
 46
-15.875
 79
     0
 98
        1
 10
4684.765320007411
 20
-398.3594970125584
1001
ACAD
1010
0.0
1020
0.0
1030
0.0
1001
HATCHBACKGROUNDCOLOR
1071
-939524096
1000

1000

  0
LWPOLYLINE
  5
131BC
102
{ACAD_REACTORS
330
131BB
102
}
330
1F
100
AcDbEntity
  8
02実線
100
AcDbPolyline
 90
        5
 70
     1
 43
0.0
 10
730.0
 20
2059.999999999997
 10
730.0
 20
2114.999999999997
 10
780.0
 20
2114.999999999997
 10
780.0
 20
2054.999999999997
 10
735.0
 20
2054.999999999997
  0
INSERT
  5
131BD
102
{ACAD_REACTORS
330
131BB
102
}
330
1F
100
AcDbEntity
  8
02実線
100
AcDbBlockReference
  2
hole-φ12
 10
757.0
 20
2084.999999999997
 30
0.0
  0
LWPOLYLINE
  5
131BE
330
1F
100
AcDbEntity
  8
02実線
100
AcDbPolyline
 90
        4
 70
     1
 43
0.0
 10
730.0
 20
1296.799999999998
 10
730.0
 20
1299.999999999997
 10
780.0
 20
1299.999999999997
 10
780.0
 20
1296.799999999998
  0
LWPOLYLINE
  5
131BF
330
1F
100
AcDbEntity
  8
02実線
100
AcDbPolyline
 90
        5
 70
     1
 43
0.0
 10
730.0
 20
1254.999999999997
 10
730.0
 20
1299.999999999997
 10
780.0
 20
1299.999999999997
 10
780.0
 20
1249.999999999997
 10
735.0
 20
1249.999999999997
  0
LWPOLYLINE
  5
131C0
102
{ACAD_REACTORS
330
131C2
102
}
330
1F
100
AcDbEntity
  8
02実線
100
AcDbPolyline
 90
        4
 70
     1
 43
0.0
 10
730.0
 20
1299.999999999997
 10
730.0
 20
1309.999999999997
 10
780.0
 20
1309.999999999997
 10
780.0
 20
1299.999999999997
  0
LINE
  5
131C1
330
1F
100
AcDbEntity
  8
04一点鎖線
100
AcDbLine
 10
757.0
 20
1281.799999999998
 30
0.0
 11
757.0
 21
1324.999999999997
 31
0.0
  0
HATCH
  5
131C2
330
1F
100
AcDbEntity
  8
01注記寸法
100
AcDbHatch
 10
0.0
 20
0.0
 30
0.0
210
0.0
220
0.0
230
1.0
  2
ANSI31
 70
     0
 71
     1
 91
        1
 92
        1
 93
        4
 72
     1
 10
730.0
 20
1299.999999999997
 11
730.0
 21
1309.999999999997
 72
     1
 10
730.0
 20
1309.999999999997
 11
780.0
 21
1309.999999999997
 72
     1
 10
780.0
 20
1309.999999999997
 11
780.0
 21
1299.999999999997
 72
     1
 10
780.0
 20
1299.999999999997
 11
730.0
 21
1299.999999999997
 97
        1
330
131C0
 75
     0
 76
     1
 52
45.0
 41
5.000000000000008
 77
     0
 78
     1
 53
90.0
 43
4401.681869869737
 44
2326.698660858375
 45
-15.875
 46
0.000000000000001
 79
     0
 98
        1
 10
4401.681869869737
 20
2316.698660858375
1001
ACAD
1010
0.0
1020
0.0
1030
0.0
  0
LWPOLYLINE
  5
131C3
330
1F
100
AcDbEntity
  8
02実線
100
AcDbPolyline
 90
        9
 70
     0
 43
0.0
 10
2455.000000000001
 20
1299.999999999997
 10
2508.6
 20
1299.999999999997
 42
-0.4142135623730948
 10
2515.000000000001
 20
1293.599999999998
 10
2515.000000000001
 20
1249.999999999997
 10
2511.8
 20
1249.999999999997
 10
2511.8
 20
1293.599999999998
 42
0.4142135623730948
 10
2508.600000000001
 20
1296.799999999998
 10
2455.000000000001
 20
1296.799999999998
 10
2455.000000000001
 20
1299.999999999997
  0
LWPOLYLINE
  5
131C4
102
{ACAD_REACTORS
330
131C6
102
}
330
1F
100
AcDbEntity
  8
02実線
100
AcDbPolyline
 90
        4
 70
     1
 43
0.0
 10
2455.000000000001
 20
1299.999999999997
 10
2455.000000000001
 20
1309.999999999997
 10
2515.000000000001
 20
1309.999999999997
 10
2515.000000000001
 20
1299.999999999997
  0
LINE
  5
131C5
330
1F
100
AcDbEntity
  8
04一点鎖線
100
AcDbLine
 10
2485.000000000001
 20
1281.799999999998
 30
0.0
 11
2485.000000000001
 21
1324.999999999997
 31
0.0
  0
HATCH
  5
131C6
330
1F
100
AcDbEntity
  8
01注記寸法
100
AcDbHatch
 10
0.0
 20
0.0
 30
0.0
210
0.0
220
0.0
230
1.0
  2
ANSI31
 70
     0
 71
     1
 91
        1
 92
        1
 93
        4
 72
     1
 10
2455.000000000001
 20
1299.999999999997
 11
2455.000000000001
 21
1309.999999999997
 72
     1
 10
2455.000000000001
 20
1309.999999999997
 11
2515.000000000001
 21
1309.999999999997
 72
     1
 10
2515.000000000001
 20
1309.999999999997
 11
2515.000000000001
 21
1299.999999999997
 72
     1
 10
2515.000000000001
 20
1299.999999999997
 11
2455.000000000001
 21
1299.999999999997
 97
        1
330
131C4
 75
     0
 76
     1
 52
45.0
 41
5.000000000000012
 77
     0
 78
     1
 53
90.0
 43
6006.681869869737
 44
2326.698660858375
 45
-15.875
 46
0.000000000000001
 79
     0
 98
        1
 10
6006.681869869737
 20
2326.698660858375
1001
ACAD
1010
0.0
1020
0.0
1030
0.0
  0
LWPOLYLINE
  5
131C8
330
1F
100
AcDbEntity
  8
02実線
100
AcDbPolyline
 90
        4
 70
     1
 43
0.0
 10
1810.000000000001
 20
1296.799999999996
 10
1810.000000000001
 20
1299.999999999996
 10
1760.000000000001
 20
1299.999999999996
 10
1760.000000000001
 20
1296.799999999996
  0
LWPOLYLINE
  5
131C9
330
1F
100
AcDbEntity
  8
02実線
100
AcDbPolyline
 90
        5
 70
     1
 43
0.0
 10
1810.000000000001
 20
1254.999999999996
 10
1810.000000000001
 20
1299.999999999996
 10
1760.000000000001
 20
1299.999999999996
 10
1760.000000000001
 20
1249.999999999996
 10
1805.000000000001
 20
1249.999999999996
  0
LWPOLYLINE
  5
131CA
102
{ACAD_REACTORS
330
131CC
102
}
330
1F
100
AcDbEntity
  8
02実線
100
AcDbPolyline
 90
        4
 70
     1
 43
0.0
 10
1810.000000000001
 20
1299.999999999996
 10
1810.000000000001
 20
1309.999999999996
 10
1760.000000000001
 20
1309.999999999996
 10
1760.000000000001
 20
1299.999999999996
  0
LINE
  5
131CB
330
1F
100
AcDbEntity
  8
04一点鎖線
100
AcDbLine
 10
1783.000000000001
 20
1281.799999999996
 30
0.0
 11
1783.000000000001
 21
1324.999999999996
 31
0.0
  0
HATCH
  5
131CC
330
1F
100
AcDbEntity
  8
01注記寸法
100
AcDbHatch
 10
0.0
 20
0.0
 30
0.0
210
0.0
220
0.0
230
1.0
  2
ANSI31
 70
     0
 71
     1
 91
        1
 92
        1
 93
        4
 72
     1
 10
1810.000000000001
 20
1299.999999999996
 11
1810.000000000001
 21
1309.999999999996
 72
     1
 10
1810.000000000001
 20
1309.999999999996
 11
1760.000000000001
 21
1309.999999999996
 72
     1
 10
1760.000000000001
 20
1309.999999999996
 11
1760.000000000001
 21
1299.999999999996
 72
     1
 10
1760.000000000001
 20
1299.999999999996
 11
1810.000000000001
 21
1299.999999999996
 97
        1
330
131CA
 75
     0
 76
     1
 52
45.0
 41
5.000000000000009
 77
     0
 78
     1
 53
90.0
 43
3673.128929755295
 44
-99.99999999999159
 45
-15.87500000000001
 46
0.000000000000001
 79
     0
 98
        1
 10
-1861.681869869732
 20
2316.698660858387
1001
ACAD
1010
0.0
1020
0.0
1030
0.0
  0
HATCH
  5
131CD
330
1F
100
AcDbEntity
  8
01注記寸法
100
AcDbHatch
 10
0.0
 20
0.0
 30
0.0
210
0.0
220
0.0
230
1.0
  2
ANSI31
 70
     0
 71
     1
 91
        1
 92
        1
 93
        4
 72
     1
 10
780.0
 20
1984.999999999997
 11
780.0
 21
2034.999999999997
 72
     1
 10
780.0
 20
2034.999999999997
 11
1760.0
 21
2034.999999999997
 72
     1
 10
1760.0
 20
2034.999999999997
 11
1760.0
 21
1984.999999999997
 72
     1
 10
1760.0
 20
1984.999999999997
 11
780.0
 21
1984.999999999997
 97
        1
330
131CE
 75
     0
 76
     1
 52
45.0
 41
10.00000000000001
 77
     0
 78
     1
 53
90.0
 43
3673.128929755295
 44
0.0000000000084128
 45
-31.75
 46
0.0000000000000019
 79
     0
 98
        1
 10
3673.128929755295
 20
0.0000000000084128
1001
ACAD
1010
0.0
1020
0.0
1030
0.0
1001
HATCHBACKGROUNDCOLOR
1071
-939524096
1000

1000

  0
LWPOLYLINE
  5
131CE
102
{ACAD_REACTORS
330
131CD
102
}
330
1F
100
AcDbEntity
  8
01注記寸法
100
AcDbPolyline
 90
        4
 70
     1
 43
0.0
 10
780.0
 20
1984.999999999997
 10
780.0
 20
2034.999999999997
 10
1760.0
 20
2034.999999999997
 10
1760.0
 20
1984.999999999997
  0
HATCH
  5
131CF
330
1F
100
AcDbEntity
  8
01注記寸法
100
AcDbHatch
 10
0.0
 20
0.0
 30
0.0
210
0.0
220
0.0
230
1.0
  2
ANSI31
 70
     0
 71
     1
 91
        1
 92
        1
 93
        4
 72
     1
 10
780.0
 20
2034.999999999997
 11
780.0
 21
2419.999999999997
 72
     1
 10
780.0
 20
2419.999999999997
 11
830.0
 21
2419.999999999997
 72
     1
 10
830.0
 20
2419.999999999997
 11
830.0
 21
2034.999999999997
 72
     1
 10
830.0
 20
2034.999999999997
 11
780.0
 21
2034.999999999997
 97
        1
330
131D0
 75
     0
 76
     1
 52
135.0
 41
10.0
 77
     0
 78
     1
 53
180.0
 43
3673.128929755295
 44
0.0000000000084128
 45
-0.0000000000000039
 46
-31.75
 79
     0
 98
        1
 10
3673.128929755295
 20
0.0000000000084128
1001
ACAD
1010
0.0
1020
0.0
1030
0.0
1001
HATCHBACKGROUNDCOLOR
1071
-939524096
1000

1000

  0
LWPOLYLINE
  5
131D0
102
{ACAD_REACTORS
330
131CF
102
}
330
1F
100
AcDbEntity
  8
01注記寸法
100
AcDbPolyline
 90
        4
 70
     1
 43
0.0
 10
780.0
 20
2034.999999999997
 10
780.0
 20
2419.999999999997
 10
830.0
 20
2419.999999999997
 10
830.0
 20
2034.999999999997
  0
HATCH
  5
131D1
330
1F
100
AcDbEntity
  8
01注記寸法
100
AcDbHatch
 10
0.0
 20
0.0
 30
0.0
210
0.0
220
0.0
230
1.0
  2
ANSI31
 70
     0
 71
     1
 91
        1
 92
        1
 93
        4
 72
     1
 10
1710.0
 20
2034.999999999997
 11
1710.0
 21
2419.999999999997
 72
     1
 10
1710.0
 20
2419.999999999997
 11
1760.0
 21
2419.999999999997
 72
     1
 10
1760.0
 20
2419.999999999997
 11
1760.0
 21
2034.999999999997
 72
     1
 10
1760.0
 20
2034.999999999997
 11
1710.0
 21
2034.999999999997
 97
        1
330
131D2
 75
     0
 76
     1
 52
135.0
 41
10.0
 77
     0
 78
     1
 53
180.0
 43
4603.128929755295
 44
0.0000000000084128
 45
-0.0000000000000039
 46
-31.75
 79
     0
 98
        1
 10
4603.128929755295
 20
0.0000000000084128
1001
ACAD
1010
0.0
1020
0.0
1030
0.0
1001
HATCHBACKGROUNDCOLOR
1071
-939524096
1000

1000

  0
LWPOLYLINE
  5
131D2
102
{ACAD_REACTORS
330
131D1
102
}
330
1F
100
AcDbEntity
  8
01注記寸法
100
AcDbPolyline
 90
        4
 70
     1
 43
0.0
 10
1710.0
 20
2034.999999999997
 10
1710.0
 20
2419.999999999997
 10
1760.0
 20
2419.999999999997
 10
1760.0
 20
2034.999999999997
  0
HATCH
  5
131D3
330
1F
100
AcDbEntity
  8
01注記寸法
100
AcDbHatch
 10
0.0
 20
0.0
 30
0.0
210
0.0
220
0.0
230
1.0
  2
ANSI31
 70
     0
 71
     1
 91
        1
 92
        1
 93
        4
 72
     1
 10
779.9999999999991
 20
2419.999999999998
 11
779.9999999999991
 21
2469.999999999998
 72
     1
 10
779.9999999999991
 20
2469.999999999998
 11
1759.999999999999
 21
2469.999999999998
 72
     1
 10
1759.999999999999
 20
2469.999999999998
 11
1759.999999999999
 21
2419.999999999998
 72
     1
 10
1759.999999999999
 20
2419.999999999998
 11
779.9999999999991
 21
2419.999999999998
 97
        1
330
131D4
 75
     0
 76
     1
 52
45.0
 41
10.00000000000001
 77
     0
 78
     1
 53
90.0
 43
3673.128929755294
 44
435.0000000000089
 45
-31.75
 46
0.0000000000000019
 79
     0
 98
        1
 10
3673.128929755294
 20
435.0000000000089
1001
ACAD
1010
0.0
1020
0.0
1030
0.0
1001
HATCHBACKGROUNDCOLOR
1071
-939524096
1000

1000

  0
LWPOLYLINE
  5
131D4
102
{ACAD_REACTORS
330
131D3
102
}
330
1F
100
AcDbEntity
  8
01注記寸法
100
AcDbPolyline
 90
        4
 70
     1
 43
0.0
 10
779.9999999999991
 20
2419.999999999998
 10
779.9999999999991
 20
2469.999999999998
 10
1759.999999999999
 20
2469.999999999998
 10
1759.999999999999
 20
2419.999999999998
  0
LWPOLYLINE
  5
131D5
330
1F
100
AcDbEntity
  8
03破線
100
AcDbPolyline
 90
        4
 70
     1
 43
0.0
 10
730.0
 20
2358.199999999997
 10
730.0
 20
2354.999999999997
 10
780.0
 20
2354.999999999997
 10
780.0
 20
2358.199999999997
  0
HATCH
  5
131D6
330
1F
100
AcDbEntity
  8
01注記寸法
100
AcDbHatch
 10
0.0
 20
0.0
 30
0.0
210
0.0
220
0.0
230
1.0
  2
ANSI31
 70
     0
 71
     1
 91
        2
 92
        1
 93
        5
 72
     1
 10
730.0
 20
2409.999999999997
 11
730.0
 21
2354.999999999997
 72
     1
 10
730.0
 20
2354.999999999997
 11
780.0
 21
2354.999999999997
 72
     1
 10
780.0
 20
2354.999999999997
 11
780.0
 21
2414.999999999997
 72
     1
 10
780.0
 20
2414.999999999997
 11
735.0
 21
2414.999999999997
 72
     1
 10
735.0
 20
2414.999999999997
 11
730.0
 21
2409.999999999997
 97
        1
330
131D7
 92
       16
 93
        1
 72
     2
 10
757.0
 20
2384.999999999997
 40
6.0
 50
0.0
 51
360.0
 73
     1
 97
        1
330
131D8
 75
     0
 76
     1
 52
135.0
 41
5.0
 77
     0
 78
     1
 53
180.0
 43
3673.128929755295
 44
0.0000000000084128
 45
-0.0000000000000019
 46
-15.875
 79
     0
 98
        1
 10
4684.765320007411
 20
4868.359497012554
1001
ACAD
1010
0.0
1020
0.0
1030
0.0
1001
HATCHBACKGROUNDCOLOR
1071
-939524096
1000

1000

  0
LWPOLYLINE
  5
131D7
102
{ACAD_REACTORS
330
131D6
102
}
330
1F
100
AcDbEntity
  8
02実線
100
AcDbPolyline
 90
        5
 70
     1
 43
0.0
 10
730.0
 20
2409.999999999997
 10
730.0
 20
2354.999999999997
 10
780.0
 20
2354.999999999997
 10
780.0
 20
2414.999999999997
 10
735.0
 20
2414.999999999997
  0
INSERT
  5
131D8
102
{ACAD_REACTORS
330
131D6
102
}
330
1F
100
AcDbEntity
  8
02実線
100
AcDbBlockReference
  2
hole-φ12
 10
757.0
 20
2384.999999999997
 30
0.0
 41
-1.0
 50
180.0
  0
LWPOLYLINE
  5
131D9
330
1F
100
AcDbEntity
  8
03破線
100
AcDbPolyline
 90
        4
 70
     1
 43
0.0
 10
1810.0
 20
2111.799999999997
 10
1810.0
 20
2114.999999999997
 10
1760.0
 20
2114.999999999997
 10
1760.0
 20
2111.799999999997
  0
HATCH
  5
131DA
330
1F
100
AcDbEntity
  8
01注記寸法
100
AcDbHatch
 10
0.0
 20
0.0
 30
0.0
210
0.0
220
0.0
230
1.0
  2
ANSI31
 70
     0
 71
     1
 91
        2
 92
        1
 93
        5
 72
     1
 10
1810.0
 20
2059.999999999997
 11
1810.0
 21
2114.999999999997
 72
     1
 10
1810.0
 20
2114.999999999997
 11
1760.0
 21
2114.999999999997
 72
     1
 10
1760.0
 20
2114.999999999997
 11
1760.0
 21
2054.999999999997
 72
     1
 10
1760.0
 20
2054.999999999997
 11
1805.0
 21
2054.999999999997
 72
     1
 10
1805.0
 20
2054.999999999997
 11
1810.0
 21
2059.999999999997
 97
        1
330
131DB
 92
       16
 93
        1
 72
     2
 10
1783.0
 20
2084.999999999997
 40
6.0
 50
0.0
 51
360.0
 73
     1
 97
        1
330
131DC
 75
     0
 76
     1
 52
135.0
 41
5.0
 77
     0
 78
     1
 53
180.0
 43
3673.128929755295
 44
0.0000000000084128
 45
-0.0000000000000019
 46
-15.875
 79
     0
 98
        1
 10
-2144.765320007409
 20
-398.3594970125584
1001
ACAD
1010
0.0
1020
0.0
1030
0.0
1001
HATCHBACKGROUNDCOLOR
1071
-939524096
1000

1000

  0
LWPOLYLINE
  5
131DB
102
{ACAD_REACTORS
330
131DA
102
}
330
1F
100
AcDbEntity
  8
02実線
100
AcDbPolyline
 90
        5
 70
     1
 43
0.0
 10
1810.0
 20
2059.999999999997
 10
1810.0
 20
2114.999999999997
 10
1760.0
 20
2114.999999999997
 10
1760.0
 20
2054.999999999997
 10
1805.0
 20
2054.999999999997
  0
INSERT
  5
131DC
102
{ACAD_REACTORS
330
131DA
102
}
330
1F
100
AcDbEntity
  8
02実線
100
AcDbBlockReference
  2
hole-φ12
 10
1783.0
 20
2084.999999999997
 30
0.0
 41
-1.0
  0
LWPOLYLINE
  5
131DD
330
1F
100
AcDbEntity
  8
03破線
100
AcDbPolyline
 90
        4
 70
     1
 43
0.0
 10
1810.0
 20
2358.199999999997
 10
1810.0
 20
2354.999999999997
 10
1760.0
 20
2354.999999999997
 10
1760.0
 20
2358.199999999997
  0
HATCH
  5
131DE
330
1F
100
AcDbEntity
  8
01注記寸法
100
AcDbHatch
 10
0.0
 20
0.0
 30
0.0
210
0.0
220
0.0
230
1.0
  2
ANSI31
 70
     0
 71
     1
 91
        2
 92
        1
 93
        5
 72
     1
 10
1810.0
 20
2409.999999999997
 11
1810.0
 21
2354.999999999997
 72
     1
 10
1810.0
 20
2354.999999999997
 11
1760.0
 21
2354.999999999997
 72
     1
 10
1760.0
 20
2354.999999999997
 11
1760.0
 21
2414.999999999997
 72
     1
 10
1760.0
 20
2414.999999999997
 11
1805.0
 21
2414.999999999997
 72
     1
 10
1805.0
 20
2414.999999999997
 11
1810.0
 21
2409.999999999997
 97
        1
330
131DF
 92
       16
 93
        1
 72
     2
 10
1783.0
 20
2384.999999999997
 40
6.0
 50
0.0
 51
360.0
 73
     1
 97
        1
330
131E0
 75
     0
 76
     1
 52
135.0
 41
5.0
 77
     0
 78
     1
 53
180.0
 43
3673.128929755295
 44
0.0000000000084128
 45
-0.0000000000000019
 46
-15.875
 79
     0
 98
        1
 10
-2144.765320007409
 20
4868.359497012554
1001
ACAD
1010
0.0
1020
0.0
1030
0.0
1001
HATCHBACKGROUNDCOLOR
1071
-939524096
1000

1000

  0
LWPOLYLINE
  5
131DF
102
{ACAD_REACTORS
330
131DE
102
}
330
1F
100
AcDbEntity
  8
02実線
100
AcDbPolyline
 90
        5
 70
     1
 43
0.0
 10
1810.0
 20
2409.999999999997
 10
1810.0
 20
2354.999999999997
 10
1760.0
 20
2354.999999999997
 10
1760.0
 20
2414.999999999997
 10
1805.0
 20
2414.999999999997
  0
INSERT
  5
131E0
102
{ACAD_REACTORS
330
131DE
102
}
330
1F
100
AcDbEntity
  8
02実線
100
AcDbBlockReference
  2
hole-φ12
 10
1783.0
 20
2384.999999999997
 30
0.0
 50
180.0
  0
LWPOLYLINE
  5
131E7
330
1F
100
AcDbEntity
  8
02実線
100
AcDbPolyline
 90
        9
 70
     0
 43
0.0
 10
2815.0
 20
1299.999999999997
 10
2761.4
 20
1299.999999999997
 42
0.4142135623730948
 10
2755.0
 20
1293.599999999998
 10
2755.0
 20
1249.999999999997
 10
2758.2
 20
1249.999999999997
 10
2758.2
 20
1293.599999999998
 42
-0.4142135623730948
 10
2761.4
 20
1296.799999999998
 10
2815.0
 20
1296.799999999998
 10
2815.0
 20
1299.999999999997
  0
LWPOLYLINE
  5
131E8
102
{ACAD_REACTORS
330
131EA
102
}
330
1F
100
AcDbEntity
  8
02実線
100
AcDbPolyline
 90
        4
 70
     1
 43
0.0
 10
2815.0
 20
1299.999999999997
 10
2815.0
 20
1309.999999999997
 10
2755.0
 20
1309.999999999997
 10
2755.0
 20
1299.999999999997
  0
LINE
  5
131E9
330
1F
100
AcDbEntity
  8
04一点鎖線
100
AcDbLine
 10
2785.0
 20
1281.799999999998
 30
0.0
 11
2785.0
 21
1324.999999999997
 31
0.0
  0
HATCH
  5
131EA
330
1F
100
AcDbEntity
  8
01注記寸法
100
AcDbHatch
 10
0.0
 20
0.0
 30
0.0
210
0.0
220
0.0
230
1.0
  2
ANSI31
 70
     0
 71
     1
 91
        1
 92
        1
 93
        4
 72
     1
 10
2815.0
 20
1299.999999999997
 11
2815.0
 21
1309.999999999997
 72
     1
 10
2815.0
 20
1309.999999999997
 11
2755.0
 21
1309.999999999997
 72
     1
 10
2755.0
 20
1309.999999999997
 11
2755.0
 21
1299.999999999997
 72
     1
 10
2755.0
 20
1299.999999999997
 11
2815.0
 21
1299.999999999997
 97
        1
330
131E8
 75
     0
 76
     1
 52
45.0
 41
5.000000000000012
 77
     0
 78
     1
 53
90.0
 43
4199.645550325853
 44
-99.99999999999136
 45
-15.87500000000001
 46
0.000000000000001
 79
     0
 98
        1
 10
-736.681869869737
 20
2326.698660858375
1001
ACAD
1010
0.0
1020
0.0
1030
0.0
  0
VIEWPORT
  5
9F0D
330
1B
100
AcDbEntity
 67
     1
  8
0
100
AcDbViewport
 10
202.5
 20
128.5
 30
0.0
 40
486.0
 41
308.4
 68
     1
 69
     1
 12
202.5
 22
128.5
 13
0.0
 23
0.0
 14
0.5
 24
0.5
 15
0.0
 25
0.0
 16
0.0
 26
0.0
 36
1.0
 17
0.0
 27
0.0
 37
0.0
 42
50.0
 43
0.0
 44
0.0
 45
308.4
 50
0.0
 51
0.0
 72
   100
 90
   557152
  1

281
     0
 71
     1
 74
     0
110
0.0
120
0.0
130
0.0
111
1.0
121
0.0
131
0.0
112
0.0
122
1.0
132
0.0
 79
     0
146
0.0
  0
VIEWPORT
  5
9F0E
330
1B
100
AcDbEntity
 67
     1
  8
0
100
AcDbViewport
 10
202.5
 20
128.5
 30
0.0
 40
324.0
 41
205.6
 68
     2
 69
     2
 12
-3224.9849078482
 22
3553.815758143106
 13
0.0
 23
0.0
 14
0.5
 24
0.5
 15
0.0
 25
0.0
 16
0.0
 26
0.0
 36
1.0
 17
0.0
 27
0.0
 37
0.0
 42
50.0
 43
0.0
 44
0.0
 45
10712.16027781073
 50
0.0
 51
0.0
 72
   100
 90
   557152
  1

281
     0
 71
     1
 74
     0
110
0.0
120
0.0
130
0.0
111
1.0
121
0.0
131
0.0
112
0.0
122
1.0
132
0.0
 79
     0
146
0.0
  0
ENDSEC
  0
SECTION
  2
OBJECTS
  0
DICTIONARY
  5
C
330
0
100
AcDbDictionary
281
     1
  3
ACAD_DETAILVIEWSTYLE
350
12677
  3
ACAD_GROUP
350
D
  3
ACAD_IMAGE_VARS
350
6A88
  3
ACAD_LAYOUT
350
1A
  3
ACAD_MLINESTYLE
350
17
  3
ACAD_PLOTSETTINGS
350
19
  3
ACAD_PLOTSTYLENAME
350
E
  3
ACAD_SCALELIST
350
6A4E
  3
ACAD_SECTIONVIEWSTYLE
350
12678
  3
AcadDim
350
13181
  3
AcDbVariableDictionary
350
79E
  3
APPDATA
350
6A87
  3
DWGPROPS
350
1339D
  0
DICTIONARY
  5
7A6F
330
2
100
AcDbDictionary
280
     1
281
     1
  3
ACAD_LAYERSTATES
360
7A70
  3
ACLYDICTIONARY
360
F959
  0
DICTIONARY
  5
969E
330
1F
100
AcDbDictionary
280
     1
281
     1
  3
ACAD_SORTENTS
360
969F
  0
DICTIONARY
  5
12677
102
{ACAD_REACTORS
330
C
102
}
330
C
100
AcDbDictionary
281
     1
  0
DICTIONARY
  5
D
102
{ACAD_REACTORS
330
C
102
}
330
C
100
AcDbDictionary
281
     1
  3
*A1
350
1228F
  3
*A2
350
12290
  3
*A3
350
12291
  3
*A4
350
12292
  3
*A5
350
12293
  0
RASTERVARIABLES
  5
6A88
102
{ACAD_REACTORS
330
C
102
}
330
C
100
AcDbRasterVariables
 90
        0
 70
     1
 71
     1
 72
     1
  0
DICTIONARY
  5
1A
102
{ACAD_REACTORS
330
C
102
}
330
C
100
AcDbDictionary
281
     1
  3
Layout1
350
1E
  3
Model
350
22
  0
DICTIONARY
  5
17
102
{ACAD_REACTORS
330
C
102
}
330
C
100
AcDbDictionary
281
     1
  3
Standard
350
18
  0
DICTIONARY
  5
19
102
{ACAD_REACTORS
330
C
102
}
330
C
100
AcDbDictionary
281
     1
  0
ACDBDICTIONARYWDFLT
  5
E
102
{ACAD_REACTORS
330
C
102
}
330
C
100
AcDbDictionary
281
     1
  3
Normal
350
F
100
AcDbDictionaryWithDefault
340
F
  0
DICTIONARY
  5
6A4E
102
{ACAD_REACTORS
330
C
102
}
330
C
100
AcDbDictionary
281
     1
  3
A0
350
6A4F
  3
A1
350
6A50
  3
A2
350
6A51
  3
A3
350
6A52
  3
A4
350
6A53
  3
A5
350
6A54
  3
A6
350
6A55
  3
A7
350
6A56
  3
A8
350
6A57
  3
A9
350
6A58
  3
B0
350
6A59
  3
B1
350
6A5A
  3
B2
350
6A5B
  3
B3
350
6A5C
  3
B4
350
6A5D
  3
B5
350
6A5E
  3
B6
350
6A5F
  3
B7
350
6A60
  3
B8
350
6A61
  3
B9
350
6A62
  3
C0
350
6A63
  3
C1
350
6A64
  3
C2
350
6A65
  3
C3
350
6A66
  3
C4
350
6A67
  3
C5
350
6A68
  3
C6
350
6A69
  3
C7
350
6A6A
  3
C8
350
6A6B
  3
C9
350
6A6C
  3
D0
350
6A6D
  3
D1
350
6A6E
  3
D2
350
6A6F
  0
DICTIONARY
  5
12678
102
{ACAD_REACTORS
330
C
102
}
330
C
100
AcDbDictionary
281
     1
  0
XRECORD
  5
13181
102
{ACAD_REACTORS
330
C
102
}
330
C
100
AcDbXrecord
280
     1
340
0
 72
     0
 71
     0
 70
     0
 69
     0
 68
     1
 67
     3
 66
     0
 65
     0
 64
     0
 63
     3
 62
     1
 61
     0
 60
     0
 40
0.0
  0
DICTIONARY
  5
79E
102
{ACAD_REACTORS
330
C
102
}
330
C
100
AcDbDictionary
281
     1
  3
DIMASSOC
350
79F
  3
SORTENTS
350
264F
  0
DICTIONARY
  5
6A87
102
{ACAD_REACTORS
330
C
102
}
330
C
100
AcDbDictionary
281
     1
  0
XRECORD
  5
1339D
102
{ACAD_REACTORS
330
C
102
}
330
C
100
AcDbXrecord
280
     1
  1
DWGPROPS COOKIE
  2

  3

  4

  6

  7

  8
Sales
  9

300
=
301
=
302
=
303
=
304
=
305
=
306
=
307
=
308
=
309
=
 40
0.0
 41
2455859.030048461
 42
2459075.106756817
  1

 90
        0
  0
DICTIONARY
  5
7A70
102
{ACAD_REACTORS
330
7A6F
102
}
330
7A6F
100
AcDbDictionary
281
     1
  0
DICTIONARY
  5
F959
102
{ACAD_REACTORS
330
7A6F
102
}
330
7A6F
100
AcDbDictionary
281
     1
1001
ACAD
1000
<All
  0
SORTENTSTABLE
  5
969F
102
{ACAD_REACTORS
330
969E
102
}
330
969E
100
AcDbSortentsTable
330
1F
331
0
  5
EE46
331
0
  5
7E94
331
0
  5
12394
331
0
  5
122EF
331
0
  5
122EE
331
0
  5
122ED
331
0
  5
A78F
331
0
  5
7E95
331
0
  5
A790
331
0
  5
122EC
331
0
  5
A791
331
0
  5
A793
331
0
  5
A794
331
0
  5
122EB
331
0
  5
122EA
331
0
  5
A795
331
0
  5
A796
331
0
  5
122E9
331
0
  5
123E1
331
0
  5
A77F
331
0
  5
A780
331
0
  5
A781
331
0
  5
A782
331
0
  5
A783
331
0
  5
A784
331
0
  5
A785
331
0
  5
A786
331
0
  5
A797
331
0
  5
A798
331
0
  5
A799
331
0
  5
A79A
331
0
  5
A79B
331
0
  5
A79C
331
0
  5
A79D
331
0
  5
A79E
331
0
  5
A79F
331
0
  5
A7A0
331
0
  5
A7A1
331
0
  5
A7A2
331
0
  5
A7A3
331
0
  5
7E97
331
0
  5
7E98
331
0
  5
7EA4
331
0
  5
122E8
331
0
  5
A7A4
331
0
  5
A7A5
331
0
  5
A7A6
331
0
  5
A7A7
331
0
  5
A7A8
331
0
  5
7EA5
331
0
  5
7EA6
331
0
  5
A7A9
331
0
  5
A7AA
331
0
  5
A7AB
331
0
  5
A7B1
331
0
  5
A7B2
331
0
  5
7EA7
331
0
  5
7EA8
331
0
  5
A7B3
331
0
  5
A7B4
331
0
  5
A7B5
331
0
  5
A7B6
331
0
  5
A7B7
331
0
  5
7EA9
331
0
  5
7EAA
331
0
  5
A7B8
331
0
  5
A7B9
331
0
  5
A7BA
331
0
  5
A7BB
331
0
  5
A7BC
331
0
  5
7EB1
331
0
  5
7EB3
331
0
  5
A7BD
331
0
  5
A7BE
331
0
  5
A7BF
331
0
  5
A7C0
331
0
  5
A7C1
331
0
  5
A7C2
331
0
  5
A7C3
331
0
  5
A7C4
331
0
  5
A7C5
331
0
  5
A7C6
331
0
  5
A7C7
331
0
  5
A7C9
331
0
  5
A843
331
0
  5
A845
331
0
  5
A846
331
0
  5
A847
331
0
  5
A848
331
0
  5
A849
331
0
  5
A84A
331
0
  5
A84B
331
0
  5
A84C
331
0
  5
A84D
331
0
  5
A84E
331
0
  5
A859
331
0
  5
A85A
331
0
  5
A85B
331
0
  5
A85C
331
0
  5
A85D
331
0
  5
A85E
331
0
  5
A85F
331
0
  5
A865
331
0
  5
A867
331
0
  5
A868
331
0
  5
A8E7
331
0
  5
A8E8
331
0
  5
A8E9
331
0
  5
A8EA
331
0
  5
A916
331
0
  5
A917
331
0
  5
A919
331
0
  5
A91A
331
0
  5
A91B
331
0
  5
A91D
331
0
  5
7EB4
331
0
  5
7EB5
331
0
  5
7EB6
331
0
  5
7EB9
331
0
  5
7EBA
331
0
  5
7ED4
331
0
  5
A91E
331
0
  5
A91F
331
0
  5
A9BF
331
0
  5
7ED7
331
0
  5
7EDC
331
0
  5
7EDD
331
0
  5
7EDE
331
0
  5
7EDF
331
0
  5
7EE0
331
0
  5
7EE2
331
0
  5
7EE3
331
0
  5
7EE4
331
0
  5
A9C1
331
0
  5
A9C2
331
0
  5
AA34
331
0
  5
7EE8
331
0
  5
7EE9
331
0
  5
7EEA
331
0
  5
7EEB
331
0
  5
7EED
331
0
  5
7EEF
331
0
  5
AA35
331
0
  5
AA36
331
0
  5
AA5A
331
0
  5
7F17
331
0
  5
D2BC
331
0
  5
7E90
331
0
  5
7F4B
331
0
  5
7F4C
331
0
  5
7F4D
331
0
  5
7F91
331
0
  5
7F92
331
0
  5
7F93
331
0
  5
7F94
331
0
  5
7F95
331
0
  5
8083
331
0
  5
8084
331
0
  5
8192
331
0
  5
8193
331
0
  5
8194
331
0
  5
8195
331
0
  5
8196
331
0
  5
8197
331
0
  5
8198
331
0
  5
819A
331
0
  5
819C
331
0
  5
819D
331
0
  5
819F
331
0
  5
81A1
331
0
  5
81AB
331
0
  5
81B0
331
0
  5
81B1
331
0
  5
81B2
331
0
  5
81BA
331
0
  5
81BB
331
0
  5
81BD
331
0
  5
81BE
331
0
  5
81BF
331
0
  5
81C0
331
0
  5
81C4
331
0
  5
81C5
331
0
  5
81C6
331
0
  5
86B2
331
0
  5
86B3
331
0
  5
86B4
331
0
  5
86B5
331
0
  5
86B7
331
0
  5
86B8
331
0
  5
86B9
331
0
  5
86C4
331
0
  5
86C5
331
0
  5
86F1
331
0
  5
86F2
331
0
  5
86F3
331
0
  5
8ACA
331
0
  5
8F53
331
0
  5
D2BD
331
0
  5
D2BE
331
0
  5
D2BF
331
0
  5
D2C0
331
0
  5
EE43
331
0
  5
12299
331
0
  5
12110
331
0
  5
A787
331
0
  5
A788
331
0
  5
A789
331
0
  5
A78A
331
0
  5
A78B
331
0
  5
A78C
331
0
  5
A78D
331
0
  5
A78E
331
0
  5
EE44
331
0
  5
FE7A
331
0
  5
FE87
331
0
  5
9433
331
0
  5
9436
331
0
  5
9437
331
0
  5
9438
331
0
  5
9439
331
0
  5
9525
331
0
  5
9526
331
0
  5
FE88
331
0
  5
11A6E
331
0
  5
9757
331
0
  5
9771
331
0
  5
9772
331
0
  5
11A6F
331
0
  5
11A70
331
0
  5
11A71
331
0
  5
11D90
331
0
  5
9774
331
0
  5
9801
331
0
  5
11EA5
331
0
  5
1210C
331
0
  5
11EA7
331
0
  5
9802
331
0
  5
9803
331
0
  5
11EA8
331
0
  5
9806
331
0
  5
11EAA
331
0
  5
9A0E
331
0
  5
11EAD
331
0
  5
9AF2
331
0
  5
9A0F
331
0
  5
9A10
331
0
  5
11EB0
331
0
  5
11EB1
331
0
  5
9A59
331
0
  5
9A5A
331
0
  5
11EB3
331
0
  5
9AF1
331
0
  5
9AF3
331
0
  5
123E2
331
0
  5
123EE
331
0
  5
9AF4
331
0
  5
9B90
331
0
  5
9B91
331
0
  5
9BBB
331
0
  5
9BBC
331
0
  5
9BBD
331
0
  5
12434
331
0
  5
12435
331
0
  5
12436
331
0
  5
9BBE
331
0
  5
9BBF
331
0
  5
9BC0
331
0
  5
9BC1
331
0
  5
12437
331
0
  5
12438
331
0
  5
12463
331
0
  5
9BDC
331
0
  5
9BDD
331
0
  5
A564
331
0
  5
12464
331
0
  5
124B8
331
0
  5
124B9
331
0
  5
124FD
331
0
  5
12588
331
0
  5
12589
331
0
  5
1258A
331
0
  5
1258B
331
0
  5
1258C
331
0
  5
1258D
331
0
  5
1258E
331
0
  5
12590
331
0
  5
12591
331
0
  5
12592
331
0
  5
12593
331
0
  5
125B8
331
0
  5
125B9
331
0
  5
125BA
331
0
  5
126F8
331
0
  5
12916
331
0
  5
130B9
331
0
  5
13187
331
0
  5
13188
331
0
  5
13189
331
0
  5
1318A
331
0
  5
1318B
331
1318B
  5
1318C
331
1318C
  5
1318D
331
1318D
  5
1318E
331
1318E
  5
1318F
331
1318F
  5
13190
331
13190
  5
13191
331
13191
  5
13192
331
13192
  5
13193
331
13193
  5
13194
331
13194
  5
13195
331
13195
  5
13196
331
13196
  5
13197
331
13197
  5
13198
331
13198
  5
13199
331
13199
  5
1319A
331
1319A
  5
1319B
331
1319B
  5
1319C
331
1319C
  5
1319D
331
1319D
  5
1319E
331
1319E
  5
1319F
331
1319F
  5
131A0
331
131A0
  5
131A1
331
131A1
  5
131A2
331
0
  5
131A3
331
0
  5
131A4
331
0
  5
131A5
331
0
  5
131A6
331
0
  5
131A7
331
0
  5
131A8
331
0
  5
131A9
331
0
  5
131AA
331
0
  5
131AB
331
0
  5
131AC
331
0
  5
131AD
331
0
  5
131AE
331
0
  5
131AF
331
0
  5
131B0
331
0
  5
131B1
331
0
  5
131B2
331
0
  5
131B3
331
0
  5
131B4
331
0
  5
131B5
331
0
  5
131B6
331
0
  5
131B7
331
0
  5
131B8
331
0
  5
131B9
331
0
  5
131BA
331
131BA
  5
131BB
331
131BB
  5
131BC
331
131BC
  5
131BD
331
131BD
  5
131BE
331
131BE
  5
131BF
331
131BF
  5
131C0
331
131C0
  5
131C1
331
131C1
  5
131C2
331
131C2
  5
131C3
331
131C3
  5
131C4
331
131C4
  5
131C5
331
131C5
  5
131C6
331
131C6
  5
131C7
331
0
  5
131C8
331
131C8
  5
131C9
331
131C9
  5
131CA
331
131CA
  5
131CB
331
131CB
  5
131CC
331
131CC
  5
131CD
331
131CD
  5
131CE
331
131CE
  5
131CF
331
131CF
  5
131D0
331
131D0
  5
131D1
331
131D1
  5
131D2
331
131D2
  5
131D3
331
131D3
  5
131D4
331
131D4
  5
131D5
331
131D5
  5
131D6
331
131D6
  5
131D7
331
131D7
  5
131D8
331
131D8
  5
131D9
331
131D9
  5
131DA
331
131DA
  5
131DB
331
131DB
  5
131DC
331
131DC
  5
131DD
331
131DD
  5
131DE
331
131DE
  5
131DF
331
131DF
  5
131E0
331
131E0
  5
131E1
331
0
  5
131E2
331
0
  5
131E3
331
0
  5
131E4
331
0
  5
131E5
331
0
  5
131E6
331
0
  5
131E7
331
131E7
  5
131E8
331
131E8
  5
131E9
331
131E9
  5
131EA
331
131EA
  5
131EB
331
0
  5
131EC
331
0
  5
131ED
331
0
  5
131EE
331
0
  5
131EF
331
0
  5
131F0
331
0
  5
131F1
331
0
  5
131F2
331
0
  5
131F3
331
0
  5
131F4
331
0
  5
131F5
331
0
  5
131F6
331
0
  5
13313
331
0
  5
7E8F
  0
GROUP
  5
1228F
102
{ACAD_REACTORS
330
D
102
}
330
D
100
AcDbGroup
300

 70
     1
 71
     1
  0
GROUP
  5
12290
102
{ACAD_REACTORS
330
D
102
}
330
D
100
AcDbGroup
300

 70
     1
 71
     1
  0
GROUP
  5
12291
102
{ACAD_REACTORS
330
D
102
}
330
D
100
AcDbGroup
300

 70
     1
 71
     1
  0
GROUP
  5
12292
102
{ACAD_REACTORS
330
D
102
}
330
D
100
AcDbGroup
300

 70
     1
 71
     1
  0
GROUP
  5
12293
102
{ACAD_REACTORS
330
D
102
}
330
D
100
AcDbGroup
300

 70
     1
 71
     1
  0
LAYOUT
  5
1E
102
{ACAD_REACTORS
330
1A
102
}
330
1A
100
AcDbPlotSettings
  1

  2
none_device
  4
ISO_A3_(420.00_x_297.00_MM)
  6

 40
7.5
 41
20.0
 42
7.5
 43
20.0
 44
420.0
 45
297.0
 46
0.0
 47
0.0
 48
0.0
 49
0.0
140
0.0
141
0.0
142
1.0
143
1.0
 70
   688
 72
     1
 73
     0
 74
     5
  7

 75
    16
147
1.0
148
0.0
149
0.0
100
AcDbLayout
  1
Layout1
 70
     1
 71
     1
 10
0.0
 20
0.0
 11
412.5
 21
277.0
 12
0.0
 22
0.0
 32
0.0
 14
1.000000000000000E+20
 24
1.000000000000000E+20
 34
1.000000000000000E+20
 15
-1.000000000000000E+20
 25
-1.000000000000000E+20
 35
-1.000000000000000E+20
146
0.0
 13
0.0
 23
0.0
 33
0.0
 16
1.0
 26
0.0
 36
0.0
 17
0.0
 27
1.0
 37
0.0
 76
     0
330
1B
331
9F0D
  0
LAYOUT
  5
22
102
{ACAD_REACTORS
330
1A
102
}
330
1A
100
AcDbPlotSettings
  1

  2
none_device
  4
A3
  6

 40
3.174999952316284
 41
3.174999952316284
 42
3.17498779296875
 43
3.17498779296875
 44
297.0318298339844
 45
420.1583251953125
 46
-3.16
 47
-3.1
 48
-90.0
 49
-90.0
140
329.9999999999998
141
207.0
142
1.0
143
1.0
 70
 11940
 72
     1
 73
     1
 74
     4
  7
monochrome.ctb
 75
     0
147
1.0
148
90.0
149
90.0
100
AcDbLayout
  1
Model
 70
     1
 71
     0
 10
0.0
 20
0.0
 11
4200.0
 21
2970.0
 12
0.0
 22
0.0
 32
0.0
 14
730.0
 24
1189.999999999997
 34
0.0
 15
2870.0
 25
2470.0
 35
0.0
146
0.0
 13
0.0
 23
0.0
 33
0.0
 16
1.0
 26
0.0
 36
0.0
 17
0.0
 27
1.0
 37
0.0
 76
     0
330
1F
331
7A57
  0
MLINESTYLE
  5
18
102
{ACAD_REACTORS
330
17
102
}
330
17
100
AcDbMlineStyle
  2
STANDARD
 70
     0
  3

 62
   256
 51
90.0
 52
90.0
 71
     2
 49
0.5
 62
   256
  6
BYLAYER
 49
-0.5
 62
   256
  6
BYLAYER
  0
ACDBPLACEHOLDER
  5
F
102
{ACAD_REACTORS
330
E
102
}
330
E
  0
SCALE
  5
6A4F
102
{ACAD_REACTORS
330
6A4E
102
}
330
6A4E
100
AcDbScale
 70
     0
300
1:1
140
1.0
141
1.0
290
     1
  0
SCALE
  5
6A50
102
{ACAD_REACTORS
330
6A4E
102
}
330
6A4E
100
AcDbScale
 70
     0
300
1:2
140
1.0
141
2.0
290
     0
  0
SCALE
  5
6A51
102
{ACAD_REACTORS
330
6A4E
102
}
330
6A4E
100
AcDbScale
 70
     0
300
1:4
140
1.0
141
4.0
290
     0
  0
SCALE
  5
6A52
102
{ACAD_REACTORS
330
6A4E
102
}
330
6A4E
100
AcDbScale
 70
     0
300
1:5
140
1.0
141
5.0
290
     0
  0
SCALE
  5
6A53
102
{ACAD_REACTORS
330
6A4E
102
}
330
6A4E
100
AcDbScale
 70
     0
300
1:8
140
1.0
141
8.0
290
     0
  0
SCALE
  5
6A54
102
{ACAD_REACTORS
330
6A4E
102
}
330
6A4E
100
AcDbScale
 70
     0
300
1:10
140
1.0
141
10.0
290
     0
  0
SCALE
  5
6A55
102
{ACAD_REACTORS
330
6A4E
102
}
330
6A4E
100
AcDbScale
 70
     0
300
1:16
140
1.0
141
16.0
290
     0
  0
SCALE
  5
6A56
102
{ACAD_REACTORS
330
6A4E
102
}
330
6A4E
100
AcDbScale
 70
     0
300
1:20
140
1.0
141
20.0
290
     0
  0
SCALE
  5
6A57
102
{ACAD_REACTORS
330
6A4E
102
}
330
6A4E
100
AcDbScale
 70
     0
300
1:30
140
1.0
141
30.0
290
     0
  0
SCALE
  5
6A58
102
{ACAD_REACTORS
330
6A4E
102
}
330
6A4E
100
AcDbScale
 70
     0
300
1:40
140
1.0
141
40.0
290
     0
  0
SCALE
  5
6A59
102
{ACAD_REACTORS
330
6A4E
102
}
330
6A4E
100
AcDbScale
 70
     0
300
1:50
140
1.0
141
50.0
290
     0
  0
SCALE
  5
6A5A
102
{ACAD_REACTORS
330
6A4E
102
}
330
6A4E
100
AcDbScale
 70
     0
300
1:100
140
1.0
141
100.0
290
     0
  0
SCALE
  5
6A5B
102
{ACAD_REACTORS
330
6A4E
102
}
330
6A4E
100
AcDbScale
 70
     0
300
2:1
140
2.0
141
1.0
290
     0
  0
SCALE
  5
6A5C
102
{ACAD_REACTORS
330
6A4E
102
}
330
6A4E
100
AcDbScale
 70
     0
300
4:1
140
4.0
141
1.0
290
     0
  0
SCALE
  5
6A5D
102
{ACAD_REACTORS
330
6A4E
102
}
330
6A4E
100
AcDbScale
 70
     0
300
8:1
140
8.0
141
1.0
290
     0
  0
SCALE
  5
6A5E
102
{ACAD_REACTORS
330
6A4E
102
}
330
6A4E
100
AcDbScale
 70
     0
300
10:1
140
10.0
141
1.0
290
     0
  0
SCALE
  5
6A5F
102
{ACAD_REACTORS
330
6A4E
102
}
330
6A4E
100
AcDbScale
 70
     0
300
100:1
140
100.0
141
1.0
290
     0
  0
SCALE
  5
6A60
102
{ACAD_REACTORS
330
6A4E
102
}
330
6A4E
100
AcDbScale
 70
     0
300
1/128" = 1'-0"
140
0.0078125
141
12.0
290
     0
  0
SCALE
  5
6A61
102
{ACAD_REACTORS
330
6A4E
102
}
330
6A4E
100
AcDbScale
 70
     0
300
1/64" = 1'-0"
140
0.015625
141
12.0
290
     0
  0
SCALE
  5
6A62
102
{ACAD_REACTORS
330
6A4E
102
}
330
6A4E
100
AcDbScale
 70
     0
300
1/32" = 1'-0"
140
0.03125
141
12.0
290
     0
  0
SCALE
  5
6A63
102
{ACAD_REACTORS
330
6A4E
102
}
330
6A4E
100
AcDbScale
 70
     0
300
1/16" = 1'-0"
140
0.0625
141
12.0
290
     0
  0
SCALE
  5
6A64
102
{ACAD_REACTORS
330
6A4E
102
}
330
6A4E
100
AcDbScale
 70
     0
300
3/32" = 1'-0"
140
0.09375
141
12.0
290
     0
  0
SCALE
  5
6A65
102
{ACAD_REACTORS
330
6A4E
102
}
330
6A4E
100
AcDbScale
 70
     0
300
1/8" = 1'-0"
140
0.125
141
12.0
290
     0
  0
SCALE
  5
6A66
102
{ACAD_REACTORS
330
6A4E
102
}
330
6A4E
100
AcDbScale
 70
     0
300
3/16" = 1'-0"
140
0.1875
141
12.0
290
     0
  0
SCALE
  5
6A67
102
{ACAD_REACTORS
330
6A4E
102
}
330
6A4E
100
AcDbScale
 70
     0
300
1/4" = 1'-0"
140
0.25
141
12.0
290
     0
  0
SCALE
  5
6A68
102
{ACAD_REACTORS
330
6A4E
102
}
330
6A4E
100
AcDbScale
 70
     0
300
3/8" = 1'-0"
140
0.375
141
12.0
290
     0
  0
SCALE
  5
6A69
102
{ACAD_REACTORS
330
6A4E
102
}
330
6A4E
100
AcDbScale
 70
     0
300
1/2" = 1'-0"
140
0.5
141
12.0
290
     0
  0
SCALE
  5
6A6A
102
{ACAD_REACTORS
330
6A4E
102
}
330
6A4E
100
AcDbScale
 70
     0
300
3/4" = 1'-0"
140
0.75
141
12.0
290
     0
  0
SCALE
  5
6A6B
102
{ACAD_REACTORS
330
6A4E
102
}
330
6A4E
100
AcDbScale
 70
     0
300
1" = 1'-0"
140
1.0
141
12.0
290
     0
  0
SCALE
  5
6A6C
102
{ACAD_REACTORS
330
6A4E
102
}
330
6A4E
100
AcDbScale
 70
     0
300
1-1/2" = 1'-0"
140
1.5
141
12.0
290
     0
  0
SCALE
  5
6A6D
102
{ACAD_REACTORS
330
6A4E
102
}
330
6A4E
100
AcDbScale
 70
     0
300
3" = 1'-0"
140
3.0
141
12.0
290
     0
  0
SCALE
  5
6A6E
102
{ACAD_REACTORS
330
6A4E
102
}
330
6A4E
100
AcDbScale
 70
     0
300
6" = 1'-0"
140
6.0
141
12.0
290
     0
  0
SCALE
  5
6A6F
102
{ACAD_REACTORS
330
6A4E
102
}
330
6A4E
100
AcDbScale
 70
     0
300
1'-0" = 1'-0"
140
12.0
141
12.0
290
     0
  0
DICTIONARYVAR
  5
79F
102
{ACAD_REACTORS
330
79E
102
}
330
79E
100
DictionaryVariables
280
     0
  1
1
  0
DICTIONARYVAR
  5
264F
102
{ACAD_REACTORS
330
79E
102
}
330
79E
100
DictionaryVariables
280
     0
  1
96
  0
ENDSEC
  0
EOF
