  0
SECTION
  2
HEADER
  9
$ACADVER
  1
AC1015
  9
$ACADMAINTVER
 70
     6
  9
$DWGCODEPAGE
  3
ANSI_932
  9
$INSBASE
 10
0.0
 20
0.0
 30
0.0
  9
$EXTMIN
 10
620.0
 20
1190.0
 30
0.0
  9
$EXTMAX
 10
2980.0
 20
2470.0
 30
0.0
  9
$LIMMIN
 10
0.0
 20
0.0
  9
$LIMMAX
 10
4200.0
 20
2970.0
  9
$ORTHOMODE
 70
     1
  9
$REGENMODE
 70
     1
  9
$FILLMODE
 70
     1
  9
$QTEXTMODE
 70
     0
  9
$MIRRTEXT
 70
     0
  9
$LTSCALE
 40
3.0
  9
$ATTMODE
 70
     1
  9
$TEXTSIZE
 40
30.0
  9
$TRACEWID
 40
1.0
  9
$TEXTSTYLE
  7
Standard
  9
$CLAYER
  8
01注記寸法
  9
$CELTYPE
  6
ByLayer
  9
$CECOLOR
 62
   256
  9
$CELTSCALE
 40
1.0
  9
$DISPSILH
 70
     0
  9
$DIMSCALE
 40
10.0
  9
$DIMASZ
 40
3.0
  9
$DIMEXO
 40
1.5
  9
$DIMDLI
 40
10.0
  9
$DIMRND
 40
0.0
  9
$DIMDLE
 40
0.0
  9
$DIMEXE
 40
1.0
  9
$DIMTP
 40
0.0
  9
$DIMTM
 40
0.0
  9
$DIMTXT
 40
3.0
  9
$DIMCEN
 40
1.5
  9
$DIMTSZ
 40
0.0
  9
$DIMTOL
 70
     0
  9
$DIMLIM
 70
     0
  9
$DIMTIH
 70
     0
  9
$DIMTOH
 70
     0
  9
$DIMSE1
 70
     0
  9
$DIMSE2
 70
     0
  9
$DIMTAD
 70
     1
  9
$DIMZIN
 70
     8
  9
$DIMBLK
  1
Open
  9
$DIMASO
 70
     1
  9
$DIMSHO
 70
     1
  9
$DIMPOST
  1

  9
$DIMAPOST
  1

  9
$DIMALT
 70
     0
  9
$DIMALTD
 70
     3
  9
$DIMALTF
 40
0.03937007874016
  9
$DIMLFAC
 40
1.0
  9
$DIMTOFL
 70
     1
  9
$DIMTVP
 40
0.0
  9
$DIMTIX
 70
     0
  9
$DIMSOXD
 70
     0
  9
$DIMSAH
 70
     0
  9
$DIMBLK1
  1

  9
$DIMBLK2
  1

  9
$DIMSTYLE
  2
NEMY-10
  9
$DIMCLRD
 70
     0
  9
$DIMCLRE
 70
     0
  9
$DIMCLRT
 70
     0
  9
$DIMTFAC
 40
1.0
  9
$DIMGAP
 40
1.0
  9
$DIMJUST
 70
     0
  9
$DIMSD1
 70
     0
  9
$DIMSD2
 70
     0
  9
$DIMTOLJ
 70
     0
  9
$DIMTZIN
 70
     8
  9
$DIMALTZ
 70
     0
  9
$DIMALTTZ
 70
     0
  9
$DIMUPT
 70
     0
  9
$DIMDEC
 70
     1
  9
$DIMTDEC
 70
     1
  9
$DIMALTU
 70
     2
  9
$DIMALTTD
 70
     3
  9
$DIMTXSTY
  7
Standard
  9
$DIMAUNIT
 70
     0
  9
$DIMADEC
 70
     0
  9
$DIMALTRND
 40
0.0
  9
$DIMAZIN
 70
     0
  9
$DIMDSEP
 70
    46
  9
$DIMATFIT
 70
     3
  9
$DIMFRAC
 70
     0
  9
$DIMLDRBLK
  1
Open
  9
$DIMLUNIT
 70
     2
  9
$DIMLWD
 70
    -2
  9
$DIMLWE
 70
    -2
  9
$DIMTMOVE
 70
     0
  9
$LUNITS
 70
     2
  9
$LUPREC
 70
     4
  9
$SKETCHINC
 40
1.0
  9
$FILLETRAD
 40
5.0
  9
$AUNITS
 70
     0
  9
$AUPREC
 70
     0
  9
$MENU
  1
.
  9
$ELEVATION
 40
0.0
  9
$PELEVATION
 40
0.0
  9
$THICKNESS
 40
0.0
  9
$LIMCHECK
 70
     0
  9
$CHAMFERA
 40
5.0
  9
$CHAMFERB
 40
5.0
  9
$CHAMFERC
 40
20.0
  9
$CHAMFERD
 40
0.0
  9
$SKPOLY
 70
     0
  9
$TDCREATE
 40
2455859.405048461
  9
$TDUCREATE
 40
2455859.030048461
  9
$TDUPDATE
 40
2459075.484549433
  9
$TDUUPDATE
 40
2459075.109549433
  9
$TDINDWG
 40
1.4396853125
  9
$TDUSRTIMER
 40
0.0006527431
  9
$USRTIMER
 70
     1
  9
$ANGBASE
 50
0.0
  9
$ANGDIR
 70
     0
  9
$PDMODE
 70
     0
  9
$PDSIZE
 40
0.0
  9
$PLINEWID
 40
0.0
  9
$SPLFRAME
 70
     0
  9
$SPLINETYPE
 70
     6
  9
$SPLINESEGS
 70
     8
  9
$HANDSEED
  5
12C59
  9
$SURFTAB1
 70
     6
  9
$SURFTAB2
 70
     6
  9
$SURFTYPE
 70
     6
  9
$SURFU
 70
     6
  9
$SURFV
 70
     6
  9
$UCSBASE
  2

  9
$UCSNAME
  2

  9
$UCSORG
 10
0.0
 20
0.0
 30
0.0
  9
$UCSXDIR
 10
1.0
 20
0.0
 30
0.0
  9
$UCSYDIR
 10
0.0
 20
1.0
 30
0.0
  9
$UCSORTHOREF
  2

  9
$UCSORTHOVIEW
 70
     0
  9
$UCSORGTOP
 10
0.0
 20
0.0
 30
0.0
  9
$UCSORGBOTTOM
 10
0.0
 20
0.0
 30
0.0
  9
$UCSORGLEFT
 10
0.0
 20
0.0
 30
0.0
  9
$UCSORGRIGHT
 10
0.0
 20
0.0
 30
0.0
  9
$UCSORGFRONT
 10
0.0
 20
0.0
 30
0.0
  9
$UCSORGBACK
 10
0.0
 20
0.0
 30
0.0
  9
$PUCSBASE
  2

  9
$PUCSNAME
  2

  9
$PUCSORG
 10
0.0
 20
0.0
 30
0.0
  9
$PUCSXDIR
 10
1.0
 20
0.0
 30
0.0
  9
$PUCSYDIR
 10
0.0
 20
1.0
 30
0.0
  9
$PUCSORTHOREF
  2

  9
$PUCSORTHOVIEW
 70
     0
  9
$PUCSORGTOP
 10
0.0
 20
0.0
 30
0.0
  9
$PUCSORGBOTTOM
 10
0.0
 20
0.0
 30
0.0
  9
$PUCSORGLEFT
 10
0.0
 20
0.0
 30
0.0
  9
$PUCSORGRIGHT
 10
0.0
 20
0.0
 30
0.0
  9
$PUCSORGFRONT
 10
0.0
 20
0.0
 30
0.0
  9
$PUCSORGBACK
 10
0.0
 20
0.0
 30
0.0
  9
$USERI1
 70
     0
  9
$USERI2
 70
     0
  9
$USERI3
 70
     0
  9
$USERI4
 70
     0
  9
$USERI5
 70
     0
  9
$USERR1
 40
0.0
  9
$USERR2
 40
0.0
  9
$USERR3
 40
0.0
  9
$USERR4
 40
0.0
  9
$USERR5
 40
0.0
  9
$WORLDVIEW
 70
     1
  9
$SHADEDGE
 70
     3
  9
$SHADEDIF
 70
    70
  9
$TILEMODE
 70
     1
  9
$MAXACTVP
 70
    64
  9
$PINSBASE
 10
0.0
 20
0.0
 30
0.0
  9
$PLIMCHECK
 70
     0
  9
$PEXTMIN
 10
1.000000000000000E+20
 20
1.000000000000000E+20
 30
1.000000000000000E+20
  9
$PEXTMAX
 10
-1.000000000000000E+20
 20
-1.000000000000000E+20
 30
-1.000000000000000E+20
  9
$PLIMMIN
 10
-7.5
 20
-20.0
  9
$PLIMMAX
 10
412.5
 20
277.0
  9
$UNITMODE
 70
     0
  9
$VISRETAIN
 70
     1
  9
$PLINEGEN
 70
     0
  9
$PSLTSCALE
 70
     1
  9
$TREEDEPTH
 70
  3020
  9
$CMLSTYLE
  2
Standard
  9
$CMLJUST
 70
     0
  9
$CMLSCALE
 40
20.0
  9
$PROXYGRAPHICS
 70
     1
  9
$MEASUREMENT
 70
     1
  9
$CELWEIGHT
370
    -1
  9
$ENDCAPS
280
     0
  9
$JOINSTYLE
280
     0
  9
$LWDISPLAY
290
     0
  9
$INSUNITS
 70
     4
  9
$HYPERLINKBASE
  1

  9
$STYLESHEET
  1
monochrome.ctb
  9
$XEDIT
290
     1
  9
$CEPSNTYPE
380
     0
  9
$PSTYLEMODE
290
     1
  9
$FINGERPRINTGUID
  2
{FDEAD578-A652-11D2-9A35-0060089B3A3F}
  9
$VERSIONGUID
  2
{11DB8456-EC16-47A0-BA21-BBDA07550E8A}
  9
$EXTNAMES
290
     1
  9
$PSVPSCALE
 40
0.0
  9
$OLESTARTUP
290
     0
  0
ENDSEC
  0
SECTION
  2
CLASSES
  0
CLASS
  1
ACDBDICTIONARYWDFLT
  2
AcDbDictionaryWithDefault
  3
ObjectDBX Classes
 90
        0
280
     0
281
     0
  0
CLASS
  1
ACDBPLACEHOLDER
  2
AcDbPlaceHolder
  3
ObjectDBX Classes
 90
        0
280
     0
281
     0
  0
CLASS
  1
LAYOUT
  2
AcDbLayout
  3
ObjectDBX Classes
 90
        0
280
     0
281
     0
  0
CLASS
  1
DICTIONARYVAR
  2
AcDbDictionaryVar
  3
ObjectDBX Classes
 90
        0
280
     0
281
     0
  0
CLASS
  1
SCALE
  2
AcDbScale
  3
ObjectDBX Classes
 90
     1153
280
     0
281
     0
  0
CLASS
  1
MATERIAL
  2
AcDbMaterial
  3
ObjectDBX Classes
 90
     1153
280
     0
281
     0
  0
CLASS
  1
VISUALSTYLE
  2
AcDbVisualStyle
  3
ObjectDBX Classes
 90
     4095
280
     0
281
     0
  0
CLASS
  1
TABLESTYLE
  2
AcDbTableStyle
  3
ObjectDBX Classes
 90
     4095
280
     0
281
     0
  0
CLASS
  1
RASTERVARIABLES
  2
AcDbRasterVariables
  3
ISM
 90
        0
280
     0
281
     0
  0
CLASS
  1
SORTENTSTABLE
  2
AcDbSortentsTable
  3
ObjectDBX Classes
 90
        0
280
     0
281
     0
  0
CLASS
  1
SUN
  2
AcDbSun
  3
SCENEOE
 90
     1153
280
     0
281
     0
  0
CLASS
  1
MLEADERSTYLE
  2
AcDbMLeaderStyle
  3
ACDB_MLEADERSTYLE_CLASS
 90
     4095
280
     0
281
     0
  0
ENDSEC
  0
SECTION
  2
TABLES
  0
TABLE
  2
VPORT
  5
8
330
0
100
AcDbSymbolTable
 70
     1
  0
VPORT
  5
7A57
330
8
100
AcDbSymbolTableRecord
100
AcDbViewportTableRecord
  2
*Active
 70
     0
 10
0.0
 20
0.0
 11
1.0
 21
1.0
 12
1738.9269001053
 22
1764.166641488241
 13
0.0
 23
0.0
 14
10.0
 24
10.0
 15
10.0
 25
10.0
 16
0.0
 26
0.0
 36
1.0
 17
0.0
 27
0.0
 37
0.0
 40
2842.920246542646
 41
1.430340557275542
 42
50.0
 43
0.0
 44
0.0
 50
0.0
 51
0.0
 71
    16
 72
   100
 73
     1
 74
     2
 75
     0
 76
     0
 77
     0
 78
     0
281
     0
 65
     1
110
0.0
120
0.0
130
0.0
111
1.0
121
0.0
131
0.0
112
0.0
122
1.0
132
0.0
 79
     0
146
0.0
  0
ENDTAB
  0
TABLE
  2
LTYPE
  5
5
330
0
100
AcDbSymbolTable
 70
     5
  0
LTYPE
  5
14
330
5
100
AcDbSymbolTableRecord
100
AcDbLinetypeTableRecord
  2
ByBlock
 70
     0
  3

 72
    65
 73
     0
 40
0.0
  0
LTYPE
  5
15
330
5
100
AcDbSymbolTableRecord
100
AcDbLinetypeTableRecord
  2
ByLayer
 70
     0
  3

 72
    65
 73
     0
 40
0.0
  0
LTYPE
  5
16
330
5
100
AcDbSymbolTableRecord
100
AcDbLinetypeTableRecord
  2
Continuous
 70
     0
  3
Solid line
 72
    65
 73
     0
 40
0.0
  0
LTYPE
  5
BA
330
5
100
AcDbSymbolTableRecord
100
AcDbLinetypeTableRecord
  2
HIDDEN
 70
     0
  3
Hidden __ __ __ __ __ __ __ __ __ __ __ __ __ _
 72
    65
 73
     2
 40
9.524999999999999
 49
6.35
 74
     0
 49
-3.175
 74
     0
  0
LTYPE
  5
BB
330
5
100
AcDbSymbolTableRecord
100
AcDbLinetypeTableRecord
  2
PHANTOM
 70
     0
  3
Phantom ______  __  __  ______  __  __  ______
 72
    65
 73
     6
 40
63.5
 49
31.75
 74
     0
 49
-6.35
 74
     0
 49
6.35
 74
     0
 49
-6.35
 74
     0
 49
6.35
 74
     0
 49
-6.35
 74
     0
  0
LTYPE
  5
BC
330
5
100
AcDbSymbolTableRecord
100
AcDbLinetypeTableRecord
  2
CENTER
 70
     0
  3
Center ____ _ ____ _ ____ _ ____ _ ____ _ ____
 72
    65
 73
     4
 40
50.8
 49
31.75
 74
     0
 49
-6.35
 74
     0
 49
6.35
 74
     0
 49
-6.35
 74
     0
  0
LTYPE
  5
47C
330
5
100
AcDbSymbolTableRecord
100
AcDbLinetypeTableRecord
  2
DOT
 70
     0
  3
Dot . . . . . . . . . . . . . . . . . . . . . .
 72
    65
 73
     2
 40
6.35
 49
0.0
 74
     0
 49
-6.35
 74
     0
  0
ENDTAB
  0
TABLE
  2
LAYER
  5
2
102
{ACAD_XDICTIONARY
360
7A6F
102
}
330
0
100
AcDbSymbolTable
 70
    13
  0
LAYER
  5
10
330
2
100
AcDbSymbolTableRecord
100
AcDbLayerTableRecord
  2
0
 70
     0
 62
     7
  6
Continuous
370
    -3
390
F
  0
LAYER
  5
45
330
2
100
AcDbSymbolTableRecord
100
AcDbLayerTableRecord
  2
01注記寸法
 70
     0
 62
     7
  6
Continuous
370
     9
390
F
  0
LAYER
  5
46
330
2
100
AcDbSymbolTableRecord
100
AcDbLayerTableRecord
  2
02実線
 70
     0
 62
     2
  6
Continuous
370
    15
390
F
  0
LAYER
  5
5F
330
2
100
AcDbSymbolTableRecord
100
AcDbLayerTableRecord
  2
Defpoints
 70
     0
 62
     7
  6
Continuous
290
     0
370
    -3
390
F
  0
LAYER
  5
7E52
330
2
100
AcDbSymbolTableRecord
100
AcDbLayerTableRecord
  2
03破線
 70
     0
 62
     3
  6
HIDDEN
370
     9
390
F
  0
LAYER
  5
7E55
330
2
100
AcDbSymbolTableRecord
100
AcDbLayerTableRecord
  2
04一点鎖線
 70
     0
 62
    70
  6
CENTER
370
     9
390
F
  0
LAYER
  5
7E58
330
2
100
AcDbSymbolTableRecord
100
AcDbLayerTableRecord
  2
05二点鎖線
 70
     0
 62
   110
  6
PHANTOM
370
     9
390
F
  0
LAYER
  5
7E5B
330
2
100
AcDbSymbolTableRecord
100
AcDbLayerTableRecord
  2
06点線
 70
     0
 62
    96
  6
DOT
370
     9
390
F
  0
LAYER
  5
7E5E
330
2
100
AcDbSymbolTableRecord
100
AcDbLayerTableRecord
  2
07その他
 70
     0
 62
     6
  6
Continuous
370
    13
390
F
  0
LAYER
  5
7E60
330
2
100
AcDbSymbolTableRecord
100
AcDbLayerTableRecord
  2
08非表示
 70
     0
 62
     4
  6
Continuous
290
     0
370
     0
390
F
  0
LAYER
  5
7E62
330
2
100
AcDbSymbolTableRecord
100
AcDbLayerTableRecord
  2
09図枠
 70
     0
 62
     1
  6
Continuous
370
    30
390
F
  0
LAYER
  5
835A
330
2
100
AcDbSymbolTableRecord
100
AcDbLayerTableRecord
  2
10副資材
 70
     0
 62
    51
  6
Continuous
290
     0
370
    -3
390
F
1001
AcAecLayerStandard
1000

1000

  0
LAYER
  5
8CAC
330
2
100
AcDbSymbolTableRecord
100
AcDbLayerTableRecord
  2
11機器
 70
     0
 62
    11
  6
Continuous
290
     0
370
    -3
390
F
1001
AcAecLayerStandard
1000

1000

  0
ENDTAB
  0
TABLE
  2
STYLE
  5
3
330
0
100
AcDbSymbolTable
 70
     1
  0
STYLE
  5
11
330
3
100
AcDbSymbolTableRecord
100
AcDbTextStyleTableRecord
  2
Standard
 70
     0
 40
0.0
 41
1.0
 50
0.0
 71
     0
 42
30.0
  3
MSGOTHIC.TTC
  4

1001
ACAD
1000
MS Gothic
1071
    32817
  0
ENDTAB
  0
TABLE
  2
VIEW
  5
6
330
0
100
AcDbSymbolTable
 70
     0
  0
ENDTAB
  0
TABLE
  2
UCS
  5
7
330
0
100
AcDbSymbolTable
 70
     0
  0
ENDTAB
  0
TABLE
  2
APPID
  5
9
330
0
100
AcDbSymbolTable
 70
     9
  0
APPID
  5
12
330
9
100
AcDbSymbolTableRecord
100
AcDbRegAppTableRecord
  2
ACAD
 70
     0
  0
APPID
  5
6A9E
330
9
100
AcDbSymbolTableRecord
100
AcDbRegAppTableRecord
  2
ACAD_DSTYLE_DIMRADIAL_EXTENSION
 70
     0
  0
APPID
  5
742C
330
9
100
AcDbSymbolTableRecord
100
AcDbRegAppTableRecord
  2
ACAD_PSEXT
 70
     0
  0
APPID
  5
742D
330
9
100
AcDbSymbolTableRecord
100
AcDbRegAppTableRecord
  2
ACAD_DSTYLE_DIMJAG
 70
     0
  0
APPID
  5
742E
330
9
100
AcDbSymbolTableRecord
100
AcDbRegAppTableRecord
  2
ACAD_DSTYLE_DIMTALN
 70
     0
  0
APPID
  5
835C
330
9
100
AcDbSymbolTableRecord
100
AcDbRegAppTableRecord
  2
AcAecLayerStandard
 70
     0
  0
APPID
  5
1253F
330
9
100
AcDbSymbolTableRecord
100
AcDbRegAppTableRecord
  2
HATCHBACKGROUNDCOLOR
 70
     0
  0
APPID
  5
1262E
330
9
100
AcDbSymbolTableRecord
100
AcDbRegAppTableRecord
  2
PE_URL
 70
     0
  0
APPID
  5
12C35
330
9
100
AcDbSymbolTableRecord
100
AcDbRegAppTableRecord
  2
PLOTTRANSPARENCY
 70
     0
  0
ENDTAB
  0
TABLE
  2
DIMSTYLE
  5
A
330
0
100
AcDbSymbolTable
 70
    24
100
AcDbDimStyleTable
  0
DIMSTYLE
105
73
330
A
100
AcDbSymbolTableRecord
100
AcDbDimStyleTableRecord
  2
NEMY-1
 70
     0
 41
3.0
 42
1.5
 43
10.0
 44
1.0
 73
     0
 74
     0
 77
     1
 78
     8
140
3.0
141
1.5
143
0.03937007874016
147
1.0
171
     3
172
     1
178
     0
271
     1
272
     1
274
     3
283
     0
284
     8
340
11
341
8F
342
8F
  0
DIMSTYLE
105
4DCE
330
A
100
AcDbSymbolTableRecord
100
AcDbDimStyleTableRecord
  2
NEMY-2
 70
     0
 40
2.0
 41
3.0
 42
1.5
 43
10.0
 44
1.0
 73
     0
 74
     0
 77
     1
 78
     8
140
3.0
141
1.5
143
0.03937007874016
147
1.0
171
     3
172
     1
178
     0
271
     1
272
     1
274
     3
283
     0
284
     8
340
11
341
8F
342
8F
  0
DIMSTYLE
105
4DCF
330
A
100
AcDbSymbolTableRecord
100
AcDbDimStyleTableRecord
  2
NEMY-3
 70
     0
 40
3.0
 41
3.0
 42
1.5
 43
10.0
 44
1.0
 73
     0
 74
     0
 77
     1
 78
     8
140
3.0
141
1.5
143
0.03937007874016
147
1.0
171
     3
172
     1
178
     0
271
     1
272
     1
274
     3
283
     0
284
     8
340
11
341
8F
342
8F
  0
DIMSTYLE
105
4DD0
330
A
100
AcDbSymbolTableRecord
100
AcDbDimStyleTableRecord
  2
NEMY-5
 70
     0
 40
5.0
 41
3.0
 42
1.5
 43
10.0
 44
1.0
 73
     0
 74
     0
 77
     1
 78
     8
140
3.0
141
1.5
143
0.03937007874016
147
1.0
171
     3
172
     1
178
     0
271
     1
272
     1
274
     3
283
     0
284
     8
340
11
341
8F
342
8F
  0
DIMSTYLE
105
4DD1
330
A
100
AcDbSymbolTableRecord
100
AcDbDimStyleTableRecord
  2
NEMY-8
 70
     0
 40
8.0
 41
3.0
 42
1.5
 43
10.0
 44
1.0
 73
     0
 74
     0
 77
     1
 78
     8
140
3.0
141
1.5
143
0.03937007874016
147
1.0
171
     3
172
     1
178
     0
271
     1
272
     1
274
     3
283
     0
284
     8
340
11
341
8F
342
8F
  0
DIMSTYLE
105
4DD2
330
A
100
AcDbSymbolTableRecord
100
AcDbDimStyleTableRecord
  2
NEMY-15
 70
     0
 40
15.0
 41
3.0
 42
1.5
 43
10.0
 44
1.0
 73
     0
 74
     0
 77
     1
 78
     8
140
3.0
141
1.5
143
0.03937007874016
147
1.0
171
     3
172
     1
178
     0
271
     1
272
     1
274
     3
283
     0
284
     8
340
11
341
8F
342
8F
  0
DIMSTYLE
105
4DD3
102
{ACAD_REACTORS
102
}
330
A
100
AcDbSymbolTableRecord
100
AcDbDimStyleTableRecord
  2
NEMY-10
 70
     0
 40
10.0
 41
3.0
 42
1.5
 43
10.0
 44
1.0
 73
     0
 74
     0
 77
     1
 78
     8
140
3.0
141
1.5
143
0.03937007874016
147
1.0
171
     3
172
     1
178
     0
271
     1
272
     1
274
     3
283
     0
284
     8
340
11
341
8F
342
8F
  0
DIMSTYLE
105
4DD4
330
A
100
AcDbSymbolTableRecord
100
AcDbDimStyleTableRecord
  2
NEMY-25
 70
     0
 40
25.0
 41
3.0
 42
1.5
 43
10.0
 44
1.0
 73
     0
 74
     0
 77
     1
 78
     8
140
3.0
141
1.5
143
0.03937007874016
147
1.0
171
     3
172
     1
178
     0
271
     1
272
     1
274
     3
283
     0
284
     8
340
11
341
8F
342
8F
  0
DIMSTYLE
105
4DD5
330
A
100
AcDbSymbolTableRecord
100
AcDbDimStyleTableRecord
  2
NEMY-30
 70
     0
 40
30.0
 41
3.0
 42
1.5
 43
10.0
 44
1.0
 73
     0
 74
     0
 77
     1
 78
     8
140
3.0
141
1.5
143
0.03937007874016
147
1.0
171
     3
172
     1
178
     0
271
     1
272
     1
274
     3
283
     0
284
     8
340
11
341
8F
342
8F
  0
DIMSTYLE
105
4DD6
330
A
100
AcDbSymbolTableRecord
100
AcDbDimStyleTableRecord
  2
NEMY-50
 70
     0
 40
50.0
 41
3.0
 42
1.5
 43
10.0
 44
1.0
 73
     0
 74
     0
 77
     1
 78
     8
140
3.0
141
1.5
143
0.03937007874016
147
1.0
171
     3
172
     1
178
     0
271
     1
272
     1
274
     3
283
     0
284
     8
340
11
341
8F
342
8F
  0
DIMSTYLE
105
4E6F
330
A
100
AcDbSymbolTableRecord
100
AcDbDimStyleTableRecord
  2
NEMY-20
 70
     0
 40
20.0
 41
3.0
 42
1.5
 43
10.0
 44
1.0
 73
     0
 74
     0
 77
     1
 78
     8
140
3.0
141
1.5
143
0.03937007874016
147
1.0
171
     3
172
     1
178
     0
271
     1
272
     1
274
     3
283
     0
284
     8
340
11
341
8F
342
8F
  0
DIMSTYLE
105
4F44
330
A
100
AcDbSymbolTableRecord
100
AcDbDimStyleTableRecord
  2
NEMY-10$3
 70
     0
 40
10.0
 41
3.0
 42
1.5
 43
10.0
 44
1.0
 77
     1
 78
     8
140
3.0
141
1.5
143
0.03937007874016
147
1.0
171
     3
172
     1
178
     0
271
     1
272
     1
274
     3
283
     0
284
     8
340
11
341
8F
342
8F
  0
DIMSTYLE
105
4F45
330
A
100
AcDbSymbolTableRecord
100
AcDbDimStyleTableRecord
  2
NEMY-1$3
 70
     0
 41
3.0
 42
1.5
 43
10.0
 44
1.0
 77
     1
 78
     8
140
3.0
141
1.5
143
0.03937007874016
147
1.0
171
     3
172
     1
178
     0
271
     1
272
     1
274
     3
283
     0
284
     8
340
11
341
8F
342
8F
  0
DIMSTYLE
105
4F46
330
A
100
AcDbSymbolTableRecord
100
AcDbDimStyleTableRecord
  2
NEMY-12
 70
     0
 40
12.0
 41
3.0
 42
1.5
 43
10.0
 44
1.0
 73
     0
 74
     0
 77
     1
 78
     8
140
3.0
141
1.5
143
0.03937007874016
147
1.0
171
     3
172
     1
178
     0
271
     1
272
     1
274
     3
283
     0
284
     8
340
11
341
8F
342
8F
  0
DIMSTYLE
105
4F47
330
A
100
AcDbSymbolTableRecord
100
AcDbDimStyleTableRecord
  2
NEMY-12$3
 70
     0
 40
12.0
 41
3.0
 42
1.5
 43
10.0
 44
1.0
 77
     1
 78
     8
140
3.0
141
1.5
143
0.03937007874016
147
1.0
171
     3
172
     1
178
     0
271
     1
272
     1
274
     3
283
     0
284
     8
340
11
341
8F
342
8F
  0
DIMSTYLE
105
5E6E
330
A
100
AcDbSymbolTableRecord
100
AcDbDimStyleTableRecord
  2
NEMY-8$3
 70
     0
 40
8.0
 41
3.0
 42
1.5
 43
10.0
 44
1.0
 77
     1
 78
     8
140
3.0
141
1.5
143
0.03937007874016
147
1.0
171
     3
172
     1
178
     0
271
     1
272
     1
274
     3
283
     0
284
     8
340
11
341
8F
342
8F
  0
DIMSTYLE
105
5E6F
330
A
100
AcDbSymbolTableRecord
100
AcDbDimStyleTableRecord
  2
NEMY-50$3
 70
     0
 40
50.0
 41
3.0
 42
1.5
 43
10.0
 44
1.0
 77
     1
 78
     8
140
3.0
141
1.5
143
0.03937007874016
147
1.0
171
     3
172
     1
178
     0
271
     1
272
     1
274
     3
283
     0
284
     8
340
11
341
8F
342
8F
  0
DIMSTYLE
105
5E70
330
A
100
AcDbSymbolTableRecord
100
AcDbDimStyleTableRecord
  2
NEMY-5$3
 70
     0
 40
5.0
 41
3.0
 42
1.5
 43
10.0
 44
1.0
 77
     1
 78
     8
140
3.0
141
1.5
143
0.03937007874016
147
1.0
171
     3
172
     1
178
     0
271
     1
272
     1
274
     3
283
     0
284
     8
340
11
341
8F
342
8F
  0
DIMSTYLE
105
5E71
330
A
100
AcDbSymbolTableRecord
100
AcDbDimStyleTableRecord
  2
NEMY-30$3
 70
     0
 40
30.0
 41
3.0
 42
1.5
 43
10.0
 44
1.0
 77
     1
 78
     8
140
3.0
141
1.5
143
0.03937007874016
147
1.0
171
     3
172
     1
178
     0
271
     1
272
     1
274
     3
283
     0
284
     8
340
11
341
8F
342
8F
  0
DIMSTYLE
105
5E72
330
A
100
AcDbSymbolTableRecord
100
AcDbDimStyleTableRecord
  2
NEMY-3$3
 70
     0
 40
3.0
 41
3.0
 42
1.5
 43
10.0
 44
1.0
 77
     1
 78
     8
140
3.0
141
1.5
143
0.03937007874016
147
1.0
171
     3
172
     1
178
     0
271
     1
272
     1
274
     3
283
     0
284
     8
340
11
341
8F
342
8F
  0
DIMSTYLE
105
5E73
330
A
100
AcDbSymbolTableRecord
100
AcDbDimStyleTableRecord
  2
NEMY-25$3
 70
     0
 40
25.0
 41
3.0
 42
1.5
 43
10.0
 44
1.0
 77
     1
 78
     8
140
3.0
141
1.5
143
0.03937007874016
147
1.0
171
     3
172
     1
178
     0
271
     1
272
     1
274
     3
283
     0
284
     8
340
11
341
8F
342
8F
  0
DIMSTYLE
105
5E74
330
A
100
AcDbSymbolTableRecord
100
AcDbDimStyleTableRecord
  2
NEMY-20$3
 70
     0
 40
20.0
 41
3.0
 42
1.5
 43
10.0
 44
1.0
 77
     1
 78
     8
140
3.0
141
1.5
143
0.03937007874016
147
1.0
171
     3
172
     1
178
     0
271
     1
272
     1
274
     3
283
     0
284
     8
340
11
341
8F
342
8F
  0
DIMSTYLE
105
5E75
330
A
100
AcDbSymbolTableRecord
100
AcDbDimStyleTableRecord
  2
NEMY-2$3
 70
     0
 40
2.0
 41
3.0
 42
1.5
 43
10.0
 44
1.0
 77
     1
 78
     8
140
3.0
141
1.5
143
0.03937007874016
147
1.0
171
     3
172
     1
178
     0
271
     1
272
     1
274
     3
283
     0
284
     8
340
11
341
8F
342
8F
  0
DIMSTYLE
105
5E76
330
A
100
AcDbSymbolTableRecord
100
AcDbDimStyleTableRecord
  2
NEMY-15$3
 70
     0
 40
15.0
 41
3.0
 42
1.5
 43
10.0
 44
1.0
 77
     1
 78
     8
140
3.0
141
1.5
143
0.03937007874016
147
1.0
171
     3
172
     1
178
     0
271
     1
272
     1
274
     3
283
     0
284
     8
340
11
341
8F
342
8F
  0
ENDTAB
  0
TABLE
  2
BLOCK_RECORD
  5
1
330
0
100
AcDbSymbolTable
 70
    29
  0
BLOCK_RECORD
  5
1F
102
{ACAD_XDICTIONARY
360
969E
102
}
330
1
100
AcDbSymbolTableRecord
100
AcDbBlockTableRecord
  2
*Model_Space
340
22
  0
BLOCK_RECORD
  5
1B
330
1
100
AcDbSymbolTableRecord
100
AcDbBlockTableRecord
  2
*Paper_Space
340
1E
  0
BLOCK_RECORD
  5
8F
330
1
100
AcDbSymbolTableRecord
100
AcDbBlockTableRecord
  2
_Open
340
0
102
{BLKREFS
331
EE6C
331
EE86
331
EE92
331
EE9E
331
1259A
331
125A6
331
12B2A
331
12B46
331
12B53
331
12B60
331
12BD1
331
12BFC
331
EE6D
331
EE87
331
EE93
331
EE9F
331
1259B
331
125A7
331
12B2B
331
12B47
331
12B54
331
12B61
331
12BD2
331
12BFD
331
EE7A
331
125B4
331
12B1D
331
12B39
331
12B72
331
12B81
331
12B90
331
12BE0
331
12BEF
331
12C0B
331
EE7B
331
125B5
331
12B1E
331
12B3A
331
12B73
331
12B82
331
12B91
331
12BE1
331
12BF0
331
12C0C
331
12BC6
331
12BC7
102
}
  0
BLOCK_RECORD
  5
82E2
330
1
100
AcDbSymbolTableRecord
100
AcDbBlockTableRecord
  2
hole-φ12
340
0
102
{BLKREFS
331
124FF
331
12AE9
331
12AED
331
12AF1
102
}
  0
BLOCK_RECORD
  5
82EB
330
1
100
AcDbSymbolTableRecord
100
AcDbBlockTableRecord
  2
hole-φ14
340
0
102
{BLKREFS
331
0
331
0
331
0
331
0
331
0
102
}
  0
BLOCK_RECORD
  5
EE66
330
1
100
AcDbSymbolTableRecord
100
AcDbBlockTableRecord
  2
*D1102
340
0
  0
BLOCK_RECORD
  5
EE72
330
1
100
AcDbSymbolTableRecord
100
AcDbBlockTableRecord
  2
*D1103
340
0
  0
BLOCK_RECORD
  5
EE80
330
1
100
AcDbSymbolTableRecord
100
AcDbBlockTableRecord
  2
*D1104
340
0
  0
BLOCK_RECORD
  5
EE8C
330
1
100
AcDbSymbolTableRecord
100
AcDbBlockTableRecord
  2
*D1105
340
0
  0
BLOCK_RECORD
  5
EE98
330
1
100
AcDbSymbolTableRecord
100
AcDbBlockTableRecord
  2
*D1106
340
0
  0
BLOCK_RECORD
  5
11E63
330
1
100
AcDbSymbolTableRecord
100
AcDbBlockTableRecord
  2
シール(検査済)
340
0
102
{BLKREFS
331
0
102
}
  0
BLOCK_RECORD
  5
11E69
330
1
100
AcDbSymbolTableRecord
100
AcDbBlockTableRecord
  2
シール(型式)
340
0
102
{BLKREFS
331
0
102
}
  0
BLOCK_RECORD
  5
12594
330
1
100
AcDbSymbolTableRecord
100
AcDbBlockTableRecord
  2
*D1732
340
0
  0
BLOCK_RECORD
  5
125A0
330
1
100
AcDbSymbolTableRecord
100
AcDbBlockTableRecord
  2
*D1733
340
0
  0
BLOCK_RECORD
  5
125AC
330
1
100
AcDbSymbolTableRecord
100
AcDbBlockTableRecord
  2
*D1734
340
0
  0
BLOCK_RECORD
  5
1296E
330
1
100
AcDbSymbolTableRecord
100
AcDbBlockTableRecord
  2
PFAV-P450DMJ1
340
0
102
{BLKREFS
331
0
102
}
  0
BLOCK_RECORD
  5
12B15
330
1
100
AcDbSymbolTableRecord
100
AcDbBlockTableRecord
  2
*D1749
340
0
  0
BLOCK_RECORD
  5
12B24
330
1
100
AcDbSymbolTableRecord
100
AcDbBlockTableRecord
  2
*D1750
340
0
  0
BLOCK_RECORD
  5
12B31
330
1
100
AcDbSymbolTableRecord
100
AcDbBlockTableRecord
  2
*D1751
340
0
  0
BLOCK_RECORD
  5
12B40
330
1
100
AcDbSymbolTableRecord
100
AcDbBlockTableRecord
  2
*D1752
340
0
  0
BLOCK_RECORD
  5
12B4D
330
1
100
AcDbSymbolTableRecord
100
AcDbBlockTableRecord
  2
*D1753
340
0
  0
BLOCK_RECORD
  5
12B5A
330
1
100
AcDbSymbolTableRecord
100
AcDbBlockTableRecord
  2
*D1754
340
0
  0
BLOCK_RECORD
  5
12B6A
330
1
100
AcDbSymbolTableRecord
100
AcDbBlockTableRecord
  2
*D1755
340
0
  0
BLOCK_RECORD
  5
12B79
330
1
100
AcDbSymbolTableRecord
100
AcDbBlockTableRecord
  2
*D1756
340
0
  0
BLOCK_RECORD
  5
12B88
330
1
100
AcDbSymbolTableRecord
100
AcDbBlockTableRecord
  2
*D1757
340
0
  0
BLOCK_RECORD
  5
12BBC
330
1
100
AcDbSymbolTableRecord
100
AcDbBlockTableRecord
  2
*D1760
340
0
  0
BLOCK_RECORD
  5
12BCB
330
1
100
AcDbSymbolTableRecord
100
AcDbBlockTableRecord
  2
*D1761
340
0
  0
BLOCK_RECORD
  5
12BD8
330
1
100
AcDbSymbolTableRecord
100
AcDbBlockTableRecord
  2
*D1762
340
0
  0
BLOCK_RECORD
  5
12BE7
330
1
100
AcDbSymbolTableRecord
100
AcDbBlockTableRecord
  2
*D1763
340
0
  0
BLOCK_RECORD
  5
12BF6
330
1
100
AcDbSymbolTableRecord
100
AcDbBlockTableRecord
  2
*D1764
340
0
  0
BLOCK_RECORD
  5
12C03
330
1
100
AcDbSymbolTableRecord
100
AcDbBlockTableRecord
  2
*D1765
340
0
  0
ENDTAB
  0
ENDSEC
  0
SECTION
  2
BLOCKS
  0
BLOCK
  5
20
330
1F
100
AcDbEntity
  8
0
100
AcDbBlockBegin
  2
*Model_Space
 70
     0
 10
0.0
 20
0.0
 30
0.0
  3
*Model_Space
  1

  0
ENDBLK
  5
21
330
1F
100
AcDbEntity
  8
0
100
AcDbBlockEnd
  0
BLOCK
  5
1C
330
1B
100
AcDbEntity
 67
     1
  8
0
100
AcDbBlockBegin
  2
*Paper_Space
 70
     0
 10
0.0
 20
0.0
 30
0.0
  3
*Paper_Space
  1

  0
ENDBLK
  5
1D
330
1B
100
AcDbEntity
 67
     1
  8
0
100
AcDbBlockEnd
  0
BLOCK
  5
93
330
8F
100
AcDbEntity
  8
0
100
AcDbBlockBegin
  2
_Open
 70
     0
 10
0.0
 20
0.0
 30
0.0
  3
_Open
  1

  0
LINE
  5
90
330
8F
100
AcDbEntity
  8
01注記寸法
 62
     0
370
    -2
100
AcDbLine
 10
-1.0
 20
0.1666666666666667
 30
0.0
 11
0.0
 21
0.0
 31
0.0
  0
LINE
  5
91
330
8F
100
AcDbEntity
  8
01注記寸法
 62
     0
370
    -2
100
AcDbLine
 10
-1.0
 20
-0.1666666666666667
 30
0.0
 11
0.0
 21
0.0
 31
0.0
  0
LINE
  5
92
330
8F
100
AcDbEntity
  8
01注記寸法
 62
     0
370
    -2
100
AcDbLine
 10
0.0
 20
0.0
 30
0.0
 11
-1.0
 21
0.0
 31
0.0
  0
ENDBLK
  5
94
330
8F
100
AcDbEntity
  8
0
100
AcDbBlockEnd
  0
BLOCK
  5
82E3
330
82E2
100
AcDbEntity
  8
0
100
AcDbBlockBegin
  2
hole-φ12
 70
     0
 10
0.0
 20
0.0
 30
0.0
  3
hole-φ12
  1

  0
CIRCLE
  5
82E4
330
82E2
100
AcDbEntity
  8
02実線
100
AcDbCircle
 10
0.0
 20
0.0
 30
0.0
 40
6.0
  0
LINE
  5
82E5
330
82E2
100
AcDbEntity
  8
04一点鎖線
  6
CENTER
 48
0.2
100
AcDbLine
 10
0.0
 20
-20.0
 30
0.0
 11
0.0
 21
20.0
 31
0.0
  0
LINE
  5
82E8
330
82E2
100
AcDbEntity
  8
04一点鎖線
  6
CENTER
 48
0.2
100
AcDbLine
 10
-20.0
 20
0.0
 30
0.0
 11
20.0
 21
0.0
 31
0.0
  0
ENDBLK
  5
82E9
330
82E2
100
AcDbEntity
  8
0
100
AcDbBlockEnd
  0
BLOCK
  5
82EC
330
82EB
100
AcDbEntity
  8
0
100
AcDbBlockBegin
  2
hole-φ14
 70
     0
 10
0.0
 20
0.0
 30
0.0
  3
hole-φ14
  1

  0
CIRCLE
  5
82ED
330
82EB
100
AcDbEntity
  8
02実線
100
AcDbCircle
 10
0.0
 20
0.0
 30
0.0
 40
7.0
  0
LINE
  5
82EE
330
82EB
100
AcDbEntity
  8
04一点鎖線
  6
CENTER
 48
0.2
100
AcDbLine
 10
0.0
 20
-20.0
 30
0.0
 11
0.0
 21
20.0
 31
0.0
  0
LINE
  5
82EF
330
82EB
100
AcDbEntity
  8
04一点鎖線
  6
CENTER
 48
0.2
100
AcDbLine
 10
-20.0
 20
0.0
 30
0.0
 11
20.0
 21
0.0
 31
0.0
  0
ENDBLK
  5
82F0
330
82EB
100
AcDbEntity
  8
0
100
AcDbBlockEnd
  0
BLOCK
  5
EE67
330
EE66
100
AcDbEntity
  8
0
100
AcDbBlockBegin
  2
*D1102
 70
     1
 10
0.0
 20
0.0
 30
0.0
  3
*D1102
  1

  0
LINE
  5
EE69
330
EE66
100
AcDbEntity
  8
01注記寸法
 62
     0
370
    -2
100
AcDbLine
 10
655.0
 20
1200.0
 30
0.0
 11
510.0
 21
1200.0
 31
0.0
  0
LINE
  5
EE6A
330
EE66
100
AcDbEntity
  8
01注記寸法
 62
     0
370
    -2
100
AcDbLine
 10
605.0
 20
1400.0
 30
0.0
 11
510.0
 21
1400.0
 31
0.0
  0
LINE
  5
EE6B
330
EE66
100
AcDbEntity
  8
01注記寸法
 62
     0
370
    -2
100
AcDbLine
 10
520.0
 20
1230.0
 30
0.0
 11
520.0
 21
1370.0
 31
0.0
  0
INSERT
  5
EE6C
330
EE66
100
AcDbEntity
  8
01注記寸法
 62
     0
370
    -2
100
AcDbBlockReference
  2
_Open
 10
520.0
 20
1200.0
 30
0.0
 41
30.0
 42
30.0
 43
30.0
 50
270.0
  0
INSERT
  5
EE6D
330
EE66
100
AcDbEntity
  8
01注記寸法
 62
     0
370
    -2
100
AcDbBlockReference
  2
_Open
 10
520.0
 20
1400.0
 30
0.0
 41
30.0
 42
30.0
 43
30.0
 50
90.0
  0
MTEXT
  5
EE6E
330
EE66
100
AcDbEntity
  8
01注記寸法
 62
     0
100
AcDbMText
 10
494.9943728898336
 20
1300.0
 30
0.0
 40
30.0
 41
0.0
 71
     5
 72
     1
  1
200
 11
0.0
 21
1.0
 31
0.0
 73
     1
 44
1.0
  0
POINT
  5
EE6F
330
EE66
100
AcDbEntity
  8
Defpoints
 62
     0
100
AcDbPoint
 10
670.0
 20
1200.0
 30
0.0
  0
POINT
  5
EE70
330
EE66
100
AcDbEntity
  8
Defpoints
 62
     0
100
AcDbPoint
 10
620.0
 20
1400.0
 30
0.0
  0
POINT
  5
EE71
330
EE66
100
AcDbEntity
  8
Defpoints
 62
     0
100
AcDbPoint
 10
520.0
 20
1400.0
 30
0.0
  0
ENDBLK
  5
EE68
330
EE66
100
AcDbEntity
  8
0
100
AcDbBlockEnd
  0
BLOCK
  5
EE73
330
EE72
100
AcDbEntity
  8
0
100
AcDbBlockBegin
  2
*D1103
 70
     1
 10
0.0
 20
0.0
 30
0.0
  3
*D1103
  1

  0
LINE
  5
EE75
330
EE72
100
AcDbEntity
  8
01注記寸法
 62
     0
370
    -2
100
AcDbLine
 10
605.0
 20
1400.0
 30
0.0
 11
510.0
 21
1400.0
 31
0.0
  0
LINE
  5
EE76
330
EE72
100
AcDbEntity
  8
01注記寸法
 62
     0
370
    -2
100
AcDbLine
 10
605.0
 20
1410.0
 30
0.0
 11
510.0
 21
1410.0
 31
0.0
  0
LINE
  5
EE77
330
EE72
100
AcDbEntity
  8
01注記寸法
 62
     0
370
    -2
100
AcDbLine
 10
520.0
 20
1440.0
 30
0.0
 11
520.0
 21
1545.453763911467
 31
0.0
  0
LINE
  5
EE78
330
EE72
100
AcDbEntity
  8
01注記寸法
 62
     0
370
    -2
100
AcDbLine
 10
520.0
 20
1400.0
 30
0.0
 11
520.0
 21
1410.0
 31
0.0
  0
LINE
  5
EE79
330
EE72
100
AcDbEntity
  8
01注記寸法
 62
     0
370
    -2
100
AcDbLine
 10
520.0
 20
1370.0
 30
0.0
 11
520.0
 21
1340.0
 31
0.0
  0
INSERT
  5
EE7A
330
EE72
100
AcDbEntity
  8
01注記寸法
 62
     0
370
    -2
100
AcDbBlockReference
  2
_Open
 10
520.0
 20
1400.0
 30
0.0
 41
30.0
 42
30.0
 43
30.0
 50
90.0
  0
INSERT
  5
EE7B
330
EE72
100
AcDbEntity
  8
01注記寸法
 62
     0
370
    -2
100
AcDbBlockReference
  2
_Open
 10
520.0
 20
1410.0
 30
0.0
 41
30.0
 42
30.0
 43
30.0
 50
270.0
  0
MTEXT
  5
EE7C
330
EE72
100
AcDbEntity
  8
01注記寸法
 62
     0
100
AcDbMText
 10
494.9943728898336
 20
1507.726881955733
 30
0.0
 40
30.0
 41
0.0
 71
     5
 72
     1
  1
t10
 11
0.0
 21
1.0
 31
0.0
 73
     1
 44
1.0
  0
POINT
  5
EE7D
330
EE72
100
AcDbEntity
  8
Defpoints
 62
     0
100
AcDbPoint
 10
620.0
 20
1400.0
 30
0.0
  0
POINT
  5
EE7E
330
EE72
100
AcDbEntity
  8
Defpoints
 62
     0
100
AcDbPoint
 10
620.0
 20
1410.0
 30
0.0
  0
POINT
  5
EE7F
330
EE72
100
AcDbEntity
  8
Defpoints
 62
     0
100
AcDbPoint
 10
520.0
 20
1410.0
 30
0.0
  0
ENDBLK
  5
EE74
330
EE72
100
AcDbEntity
  8
0
100
AcDbBlockEnd
  0
BLOCK
  5
EE81
330
EE80
100
AcDbEntity
  8
0
100
AcDbBlockBegin
  2
*D1104
 70
     1
 10
0.0
 20
0.0
 30
0.0
  3
*D1104
  1

  0
LINE
  5
EE83
330
EE80
100
AcDbEntity
  8
08非表示
 62
     0
370
    -2
100
AcDbLine
 10
2350.0
 20
1425.0
 30
0.0
 11
2350.0
 21
1510.0
 31
0.0
  0
LINE
  5
EE84
330
EE80
100
AcDbEntity
  8
08非表示
 62
     0
370
    -2
100
AcDbLine
 10
2980.0
 20
1425.0
 30
0.0
 11
2980.0
 21
1510.0
 31
0.0
  0
LINE
  5
EE85
330
EE80
100
AcDbEntity
  8
08非表示
 62
     0
370
    -2
100
AcDbLine
 10
2380.0
 20
1500.0
 30
0.0
 11
2950.0
 21
1500.0
 31
0.0
  0
INSERT
  5
EE86
330
EE80
100
AcDbEntity
  8
08非表示
 62
     0
370
    -2
100
AcDbBlockReference
  2
_Open
 10
2350.0
 20
1500.0
 30
0.0
 41
30.0
 42
30.0
 43
30.0
 50
180.0
  0
INSERT
  5
EE87
330
EE80
100
AcDbEntity
  8
08非表示
 62
     0
370
    -2
100
AcDbBlockReference
  2
_Open
 10
2980.0
 20
1500.0
 30
0.0
 41
30.0
 42
30.0
 43
30.0
  0
MTEXT
  5
EE88
330
EE80
100
AcDbEntity
  8
08非表示
 62
     0
100
AcDbMText
 10
2665.0
 20
1525.005627110166
 30
0.0
 40
30.0
 41
0.0
 71
     5
 72
     1
  1
630
 73
     1
 44
1.0
  0
POINT
  5
EE89
330
EE80
100
AcDbEntity
  8
Defpoints
 62
     0
100
AcDbPoint
 10
2350.0
 20
1410.0
 30
0.0
  0
POINT
  5
EE8A
330
EE80
100
AcDbEntity
  8
Defpoints
 62
     0
100
AcDbPoint
 10
2980.0
 20
1410.0
 30
0.0
  0
POINT
  5
EE8B
330
EE80
100
AcDbEntity
  8
Defpoints
 62
     0
100
AcDbPoint
 10
2980.0
 20
1500.0
 30
0.0
  0
ENDBLK
  5
EE82
330
EE80
100
AcDbEntity
  8
0
100
AcDbBlockEnd
  0
BLOCK
  5
EE8D
330
EE8C
100
AcDbEntity
  8
0
100
AcDbBlockBegin
  2
*D1105
 70
     1
 10
0.0
 20
0.0
 30
0.0
  3
*D1105
  1

  0
LINE
  5
EE8F
330
EE8C
100
AcDbEntity
  8
01注記寸法
 62
     0
370
    -2
100
AcDbLine
 10
655.0
 20
1840.0
 30
0.0
 11
409.9999999999999
 21
1840.0
 31
0.0
  0
LINE
  5
EE90
330
EE8C
100
AcDbEntity
  8
01注記寸法
 62
     0
370
    -2
100
AcDbLine
 10
655.0
 20
2470.0
 30
0.0
 11
410.0
 21
2470.0
 31
0.0
  0
LINE
  5
EE91
330
EE8C
100
AcDbEntity
  8
01注記寸法
 62
     0
370
    -2
100
AcDbLine
 10
419.9999999999999
 20
1870.0
 30
0.0
 11
420.0
 21
2440.0
 31
0.0
  0
INSERT
  5
EE92
330
EE8C
100
AcDbEntity
  8
01注記寸法
 62
     0
370
    -2
100
AcDbBlockReference
  2
_Open
 10
419.9999999999999
 20
1840.0
 30
0.0
 41
30.0
 42
30.0
 43
30.0
 50
270.0
  0
INSERT
  5
EE93
330
EE8C
100
AcDbEntity
  8
01注記寸法
 62
     0
370
    -2
100
AcDbBlockReference
  2
_Open
 10
420.0
 20
2470.0
 30
0.0
 41
30.0
 42
30.0
 43
30.0
 50
90.0
  0
MTEXT
  5
EE94
330
EE8C
100
AcDbEntity
  8
01注記寸法
 62
     0
100
AcDbMText
 10
394.9943728898338
 20
2155.0
 30
0.0
 40
30.0
 41
0.0
 71
     5
 72
     1
  1
630
 11
9.022764898540955E-17
 21
1.0
 31
0.0
 73
     1
 44
1.0
  0
POINT
  5
EE95
330
EE8C
100
AcDbEntity
  8
Defpoints
 62
     0
100
AcDbPoint
 10
670.0
 20
1840.0
 30
0.0
  0
POINT
  5
EE96
330
EE8C
100
AcDbEntity
  8
Defpoints
 62
     0
100
AcDbPoint
 10
670.0
 20
2470.0
 30
0.0
  0
POINT
  5
EE97
330
EE8C
100
AcDbEntity
  8
Defpoints
 62
     0
100
AcDbPoint
 10
420.0
 20
2470.0
 30
0.0
  0
ENDBLK
  5
EE8E
330
EE8C
100
AcDbEntity
  8
0
100
AcDbBlockEnd
  0
BLOCK
  5
EE99
330
EE98
100
AcDbEntity
  8
0
100
AcDbBlockBegin
  2
*D1106
 70
     1
 10
0.0
 20
0.0
 30
0.0
  3
*D1106
  1

  0
LINE
  5
EE9B
330
EE98
100
AcDbEntity
  8
01注記寸法
 62
     0
370
    -2
100
AcDbLine
 10
647.0
 20
2415.0
 30
0.0
 11
647.0
 21
2680.0
 31
0.0
  0
LINE
  5
EE9C
330
EE98
100
AcDbEntity
  8
01注記寸法
 62
     0
370
    -2
100
AcDbLine
 10
1893.0
 20
2415.0
 30
0.0
 11
1893.0
 21
2680.0
 31
0.0
  0
LINE
  5
EE9D
330
EE98
100
AcDbEntity
  8
01注記寸法
 62
     0
370
    -2
100
AcDbLine
 10
677.0
 20
2670.0
 30
0.0
 11
1863.0
 21
2670.0
 31
0.0
  0
INSERT
  5
EE9E
330
EE98
100
AcDbEntity
  8
01注記寸法
 62
     0
370
    -2
100
AcDbBlockReference
  2
_Open
 10
647.0
 20
2670.0
 30
0.0
 41
30.0
 42
30.0
 43
30.0
 50
180.0
  0
INSERT
  5
EE9F
330
EE98
100
AcDbEntity
  8
01注記寸法
 62
     0
370
    -2
100
AcDbBlockReference
  2
_Open
 10
1893.0
 20
2670.0
 30
0.0
 41
30.0
 42
30.0
 43
30.0
  0
MTEXT
  5
EEA0
330
EE98
100
AcDbEntity
  8
01注記寸法
 62
     0
100
AcDbMText
 10
1270.0
 20
2695.005627110166
 30
0.0
 40
30.0
 41
0.0
 71
     5
 72
     1
  1
1246
 73
     1
 44
1.0
  0
POINT
  5
EEA1
330
EE98
100
AcDbEntity
  8
Defpoints
 62
     0
100
AcDbPoint
 10
647.0
 20
2400.0
 30
0.0
  0
POINT
  5
EEA2
330
EE98
100
AcDbEntity
  8
Defpoints
 62
     0
100
AcDbPoint
 10
1893.0
 20
2400.0
 30
0.0
  0
POINT
  5
EEA3
330
EE98
100
AcDbEntity
  8
Defpoints
 62
     0
100
AcDbPoint
 10
1893.0
 20
2670.0
 30
0.0
  0
ENDBLK
  5
EE9A
330
EE98
100
AcDbEntity
  8
0
100
AcDbBlockEnd
  0
BLOCK
  5
11E66
330
11E63
100
AcDbEntity
  8
0
100
AcDbBlockBegin
  2
シール(検査済)
 70
     0
 10
0.0
 20
0.0
 30
0.0
  3
シール(検査済)
  1

  0
LWPOLYLINE
  5
11E64
330
11E63
100
AcDbEntity
  8
07その他
100
AcDbPolyline
 90
        4
 70
     1
 43
0.0
 10
0.0
 20
0.0
 10
0.0
 20
25.0
 10
75.0
 20
25.0
 10
75.0
 20
0.0
  0
TEXT
  5
11E65
330
11E63
100
AcDbEntity
  8
08非表示
100
AcDbText
 10
8.239027135175693
 20
5.0
 30
0.0
 40
15.0
  1
検査済
 72
     1
 11
37.5
 21
12.5
 31
0.0
100
AcDbText
 73
     2
  0
ENDBLK
  5
11E67
330
11E63
100
AcDbEntity
  8
0
100
AcDbBlockEnd
  0
BLOCK
  5
11E6C
330
11E69
100
AcDbEntity
  8
0
100
AcDbBlockBegin
  2
シール(型式)
 70
     0
 10
0.0
 20
0.0
 30
0.0
  3
シール(型式)
  1

  0
LWPOLYLINE
  5
11E6A
330
11E69
100
AcDbEntity
  8
07その他
100
AcDbPolyline
 90
        4
 70
     1
 43
0.0
 10
0.0
 20
0.0
 10
0.0
 20
24.0
 10
94.0
 20
24.0
 10
94.0
 20
0.0
  0
TEXT
  5
11E6B
330
11E69
100
AcDbEntity
  8
08非表示
100
AcDbText
 10
27.4926847567838
 20
5.0
 30
0.0
 40
15.0
  1
型式
 72
     1
 11
47.0
 21
12.5
 31
0.0
100
AcDbText
 73
     2
  0
ENDBLK
  5
11E6D
330
11E69
100
AcDbEntity
  8
0
100
AcDbBlockEnd
  0
BLOCK
  5
12595
330
12594
100
AcDbEntity
  8
0
100
AcDbBlockBegin
  2
*D1732
 70
     1
 10
0.0
 20
0.0
 30
0.0
  3
*D1732
  1

  0
LINE
  5
12597
330
12594
100
AcDbEntity
  8
01注記寸法
 62
     0
370
    -2
100
AcDbLine
 10
2750.000000000001
 20
550.0000000000009
 30
0.0
 11
2750.000000000001
 21
645.0000000000009
 31
0.0
  0
LINE
  5
12598
330
12594
100
AcDbEntity
  8
01注記寸法
 62
     0
370
    -2
100
AcDbLine
 10
2975.000000000001
 20
520.0000000000005
 30
0.0
 11
2975.000000000001
 21
645.0000000000009
 31
0.0
  0
LINE
  5
12599
330
12594
100
AcDbEntity
  8
01注記寸法
 62
     0
370
    -2
100
AcDbLine
 10
2780.000000000001
 20
635.0000000000009
 30
0.0
 11
2945.000000000001
 21
635.0000000000009
 31
0.0
  0
INSERT
  5
1259A
330
12594
100
AcDbEntity
  8
01注記寸法
 62
     0
370
    -2
100
AcDbBlockReference
  2
_Open
 10
2750.000000000001
 20
635.0000000000009
 30
0.0
 41
30.0
 42
30.0
 43
30.0
 50
180.0
  0
INSERT
  5
1259B
330
12594
100
AcDbEntity
  8
01注記寸法
 62
     0
370
    -2
100
AcDbBlockReference
  2
_Open
 10
2975.000000000001
 20
635.0000000000009
 30
0.0
 41
30.0
 42
30.0
 43
30.0
  0
MTEXT
  5
1259C
330
12594
100
AcDbEntity
  8
01注記寸法
 62
     0
100
AcDbMText
 10
2862.500000000001
 20
660.0056271101672
 30
0.0
 40
30.0
 41
0.0
 71
     5
 72
     1
  1
75
 73
     1
 44
1.0
  0
POINT
  5
1259D
330
12594
100
AcDbEntity
  8
Defpoints
 62
     0
100
AcDbPoint
 10
2750.000000000001
 20
535.0000000000009
 30
0.0
  0
POINT
  5
1259E
330
12594
100
AcDbEntity
  8
Defpoints
 62
     0
100
AcDbPoint
 10
2975.000000000001
 20
505.0000000000005
 30
0.0
  0
POINT
  5
1259F
330
12594
100
AcDbEntity
  8
Defpoints
 62
     0
100
AcDbPoint
 10
2975.000000000001
 20
635.0000000000009
 30
0.0
  0
ENDBLK
  5
12596
330
12594
100
AcDbEntity
  8
0
100
AcDbBlockEnd
  0
BLOCK
  5
125A1
330
125A0
100
AcDbEntity
  8
0
100
AcDbBlockBegin
  2
*D1733
 70
     1
 10
0.0
 20
0.0
 30
0.0
  3
*D1733
  1

  0
LINE
  5
125A3
330
125A0
100
AcDbEntity
  8
01注記寸法
 62
     0
370
    -2
100
AcDbLine
 10
2900.000000000001
 20
445.0000000000005
 30
0.0
 11
2640.000000000001
 21
445.0000000000005
 31
0.0
  0
LINE
  5
125A4
330
125A0
100
AcDbEntity
  8
01注記寸法
 62
     0
370
    -2
100
AcDbLine
 10
2735.000000000001
 20
535.0000000000009
 30
0.0
 11
2640.000000000001
 21
535.0000000000009
 31
0.0
  0
LINE
  5
125A5
330
125A0
100
AcDbEntity
  8
01注記寸法
 62
     0
370
    -2
100
AcDbLine
 10
2650.000000000001
 20
475.0000000000005
 30
0.0
 11
2650.000000000001
 21
505.0000000000009
 31
0.0
  0
INSERT
  5
125A6
330
125A0
100
AcDbEntity
  8
01注記寸法
 62
     0
370
    -2
100
AcDbBlockReference
  2
_Open
 10
2650.000000000001
 20
445.0000000000005
 30
0.0
 41
30.0
 42
30.0
 43
30.0
 50
270.0
  0
INSERT
  5
125A7
330
125A0
100
AcDbEntity
  8
01注記寸法
 62
     0
370
    -2
100
AcDbBlockReference
  2
_Open
 10
2650.000000000001
 20
535.0000000000009
 30
0.0
 41
30.0
 42
30.0
 43
30.0
 50
90.0
  0
MTEXT
  5
125A8
330
125A0
100
AcDbEntity
  8
01注記寸法
 62
     0
100
AcDbMText
 10
2624.994372889835
 20
490.0000000000007
 30
0.0
 40
30.0
 41
0.0
 71
     5
 72
     1
  1
30
 11
0.0
 21
1.0
 31
0.0
 73
     1
 44
1.0
  0
POINT
  5
125A9
330
125A0
100
AcDbEntity
  8
Defpoints
 62
     0
100
AcDbPoint
 10
2915.000000000001
 20
445.0000000000005
 30
0.0
  0
POINT
  5
125AA
330
125A0
100
AcDbEntity
  8
Defpoints
 62
     0
100
AcDbPoint
 10
2750.000000000001
 20
535.0000000000009
 30
0.0
  0
POINT
  5
125AB
330
125A0
100
AcDbEntity
  8
Defpoints
 62
     0
100
AcDbPoint
 10
2650.000000000001
 20
535.0000000000009
 30
0.0
  0
ENDBLK
  5
125A2
330
125A0
100
AcDbEntity
  8
0
100
AcDbBlockEnd
  0
BLOCK
  5
125AD
330
125AC
100
AcDbEntity
  8
0
100
AcDbBlockBegin
  2
*D1734
 70
     1
 10
0.0
 20
0.0
 30
0.0
  3
*D1734
  1

  0
LINE
  5
125AF
330
125AC
100
AcDbEntity
  8
01注記寸法
 62
     0
370
    -2
100
AcDbLine
 10
2821.275165687132
 20
225.0
 30
0.0
 11
2900.0
 21
225.0
 31
0.0
  0
LINE
  5
125B0
330
125AC
100
AcDbEntity
  8
01注記寸法
 62
     0
370
    -2
100
AcDbLine
 10
2900.0
 20
225.0
 30
0.0
 11
2958.543629682806
 21
396.727980402895
 31
0.0
  0
LINE
  5
125B1
330
125AC
100
AcDbEntity
  8
01注記寸法
 62
     0
370
    -2
100
AcDbLine
 10
2991.456370317196
 20
493.2720195971061
 30
0.0
 11
3001.13658815084
 21
521.6673252424623
 31
0.0
  0
MTEXT
  5
125B2
330
125AC
100
AcDbEntity
  8
01注記寸法
 62
     0
100
AcDbMText
 10
2855.637582843566
 20
252.4421658121796
 30
0.0
 40
30.0
 41
0.0
 71
     5
 72
     1
  1
φ14
 73
     1
 44
1.0
  0
LINE
  5
125B3
330
125AC
100
AcDbEntity
  8
01注記寸法
 62
     0
370
    -2
100
AcDbLine
 10
2981.776152483552
 20
464.8767139517499
 30
0.0
 11
2968.22384751645
 21
425.1232860482512
 31
0.0
  0
INSERT
  5
125B4
330
125AC
100
AcDbEntity
  8
01注記寸法
 62
     0
370
    -2
100
AcDbBlockReference
  2
_Open
 10
2981.776152483552
 20
464.8767139517499
 30
0.0
 41
30.0
 42
30.0
 43
30.0
 50
251.1752899817598
  0
INSERT
  5
125B5
330
125AC
100
AcDbEntity
  8
01注記寸法
 62
     0
370
    -2
100
AcDbBlockReference
  2
_Open
 10
2968.22384751645
 20
425.1232860482512
 30
0.0
 41
30.0
 42
30.0
 43
30.0
 50
71.17528998175983
  0
POINT
  5
125B6
330
125AC
100
AcDbEntity
  8
Defpoints
 62
     0
100
AcDbPoint
 10
2968.22384751645
 20
425.1232860482512
 30
0.0
  0
POINT
  5
125B7
330
125AC
100
AcDbEntity
  8
Defpoints
 62
     0
100
AcDbPoint
 10
2981.776152483552
 20
464.8767139517499
 30
0.0
  0
ENDBLK
  5
125AE
330
125AC
100
AcDbEntity
  8
0
100
AcDbBlockEnd
  0
BLOCK
  5
12A8F
330
1296E
100
AcDbEntity
  8
0
100
AcDbBlockBegin
  2
PFAV-P450DMJ1
 70
     0
 10
0.0
 20
0.0
 30
0.0
  3
PFAV-P450DMJ1
  1

  0
LINE
  5
1296F
330
1296E
100
AcDbEntity
  8
11機器
100
AcDbLine
 10
-14.00000000000182
 20
464.9999999999995
 30
0.0
 11
-9.000000000001819
 21
469.9999999999995
 31
0.0
  0
LINE
  5
12970
330
1296E
100
AcDbEntity
  8
11機器
100
AcDbLine
 10
-14.00000000000182
 20
-25.0
 30
0.0
 11
-14.00000000000182
 21
25.0
 31
0.0
  0
LINE
  5
12971
330
1296E
100
AcDbEntity
  8
11機器
100
AcDbLine
 10
-14.00000000000182
 20
415.0
 30
0.0
 11
-14.00000000000182
 21
464.9999999999995
 31
0.0
  0
LINE
  5
12972
330
1296E
100
AcDbEntity
  8
11機器
100
AcDbLine
 10
18.69999999999709
 20
-80.68626842799858
 30
0.0
 11
18.69999999999709
 21
-89.38626842799931
 31
0.0
  0
LINE
  5
12973
330
1296E
100
AcDbEntity
  8
11機器
100
AcDbLine
 10
22.29999999999927
 20
-100.0999999999985
 30
0.0
 11
22.29999999999927
 21
-89.38626842799931
 31
0.0
  0
LINE
  5
12974
330
1296E
100
AcDbEntity
  8
11機器
100
AcDbLine
 10
22.29999999999927
 20
-80.68626842799858
 30
0.0
 11
22.29999999999927
 21
-30.0
 31
0.0
  0
LINE
  5
12975
330
1296E
100
AcDbEntity
  8
11機器
100
AcDbLine
 10
22.29999999999927
 20
30.0
 30
0.0
 11
22.29999999999927
 21
410.0
 31
0.0
  0
LINE
  5
12976
330
1296E
100
AcDbEntity
  8
11機器
100
AcDbLine
 10
22.29999999999927
 20
469.9999999999995
 30
0.0
 11
22.29999999999927
 21
530.7000000000003
 31
0.0
  0
LINE
  5
12977
330
1296E
100
AcDbEntity
  8
11機器
100
AcDbLine
 10
22.56119619999845
 20
-100.0999999999985
 30
0.0
 11
22.56119619999845
 21
-89.38626842799931
 31
0.0
  0
LINE
  5
12978
330
1296E
100
AcDbEntity
  8
11機器
100
AcDbLine
 10
22.56119619999845
 20
-80.68626842799858
 30
0.0
 11
22.56119619999845
 21
-30.0
 31
0.0
  0
LINE
  5
12979
330
1296E
100
AcDbEntity
  8
11機器
100
AcDbLine
 10
22.56119619999845
 20
30.0
 30
0.0
 11
22.56119619999845
 21
410.0
 31
0.0
  0
LINE
  5
1297A
330
1296E
100
AcDbEntity
  8
11機器
100
AcDbLine
 10
22.56119619999845
 20
469.9999999999995
 30
0.0
 11
22.56119619999845
 21
530.7000000000003
 31
0.0
  0
LINE
  5
1297B
330
1296E
100
AcDbEntity
  8
11機器
100
AcDbLine
 10
22.79999999999927
 20
507.6814834739994
 30
0.0
 11
22.79999999999927
 21
469.9999999999995
 31
0.0
  0
LINE
  5
1297C
330
1296E
100
AcDbEntity
  8
11機器
100
AcDbLine
 10
22.79999999999927
 20
-31.68148347399983
 30
0.0
 11
22.79999999999927
 21
-76.4814834739991
 31
0.0
  0
LINE
  5
1297D
330
1296E
100
AcDbEntity
  8
11機器
100
AcDbLine
 10
23.19999999999891
 20
-78.80206671999986
 30
0.0
 11
23.19999999999891
 21
-90.79793327999869
 31
0.0
  0
LINE
  5
1297E
330
1296E
100
AcDbEntity
  8
11機器
100
AcDbLine
 10
23.49999999999818
 20
530.900000000001
 30
0.0
 11
23.49999999999818
 21
530.7000000000003
 31
0.0
  0
LINE
  5
1297F
330
1296E
100
AcDbEntity
  8
11機器
100
AcDbLine
 10
23.49999999799911
 20
-100.0999999999985
 30
0.0
 11
23.49999999799911
 21
-100.2999999999993
 31
0.0
  0
LINE
  5
12980
330
1296E
100
AcDbEntity
  8
11機器
100
AcDbLine
 10
23.69999999999709
 20
531.9126706720012
 30
0.0
 11
23.69999999999709
 21
532.0999999999981
 31
0.0
  0
LINE
  5
12981
330
1296E
100
AcDbEntity
  8
11機器
100
AcDbLine
 10
23.69999999999709
 20
531.8388038000007
 30
0.0
 11
23.69999999999709
 21
530.7517638099994
 31
0.0
  0
LINE
  5
12982
330
1296E
100
AcDbEntity
  8
11機器
100
AcDbLine
 10
23.69999999999709
 20
-100.1517638080004
 30
0.0
 11
23.69999999999709
 21
-101.2388037979981
 31
0.0
  0
LINE
  5
12983
330
1296E
100
AcDbEntity
  8
11機器
100
AcDbLine
 10
23.69999999999709
 20
-101.2388037979981
 30
0.0
 11
23.69999999999709
 21
-101.5
 31
0.0
  0
LINE
  5
12984
330
1296E
100
AcDbEntity
  8
11機器
100
AcDbLine
 10
24.19999999999891
 20
-76.70000000000073
 30
0.0
 11
24.19999999999891
 21
-97.0
 31
0.0
  0
LINE
  5
12985
330
1296E
100
AcDbEntity
  8
11機器
100
AcDbLine
 10
25.79999999999927
 20
-97.0
 30
0.0
 11
25.79999999999927
 21
-76.70000000000073
 31
0.0
  0
LINE
  5
12986
330
1296E
100
AcDbEntity
  8
11機器
100
AcDbLine
 10
25.99999999999818
 20
-96.5
 30
0.0
 11
25.99999999999818
 21
527.4999999999995
 31
0.0
  0
LINE
  5
12987
330
1296E
100
AcDbEntity
  8
11機器
100
AcDbLine
 10
25.99999999999818
 20
-98.79999999999927
 30
0.0
 11
25.99999999999818
 21
-100.381980514001
 31
0.0
  0
LINE
  5
12988
330
1296E
100
AcDbEntity
  8
11機器
100
AcDbLine
 10
28.29999999999927
 20
-96.5
 30
0.0
 11
28.29999999999927
 21
-97.19999999999709
 31
0.0
  0
LINE
  5
12989
330
1296E
100
AcDbEntity
  8
11機器
100
AcDbLine
 10
29.33999999999833
 20
527.7000000000003
 30
0.0
 11
29.33999999999833
 21
527.4999999999995
 31
0.0
  0
LINE
  5
1298A
330
1296E
100
AcDbEntity
  8
11機器
100
AcDbLine
 10
30.99999999999818
 20
-98.79999999999927
 30
0.0
 11
30.99999999999818
 21
-96.31415926399859
 31
0.0
  0
LINE
  5
1298B
330
1296E
100
AcDbEntity
  8
11機器
100
AcDbLine
 10
32.29999999999927
 20
532.0999999999981
 30
0.0
 11
32.29999999999927
 21
533.0999999999981
 31
0.0
  0
LINE
  5
1298C
330
1296E
100
AcDbEntity
  8
11機器
100
AcDbLine
 10
32.29999999999927
 20
533.0999999999981
 30
0.0
 11
32.29999999999927
 21
543.0999999999981
 31
0.0
  0
LINE
  5
1298D
330
1296E
100
AcDbEntity
  8
11機器
100
AcDbLine
 10
37.29999999999927
 20
532.0999999999981
 30
0.0
 11
37.29999999999927
 21
533.0999999999981
 31
0.0
  0
LINE
  5
1298E
330
1296E
100
AcDbEntity
  8
11機器
100
AcDbLine
 10
41.99999999999818
 20
527.4999999999995
 30
0.0
 11
41.99999999999818
 21
-82.79999999999927
 31
0.0
  0
LINE
  5
1298F
330
1296E
100
AcDbEntity
  8
11機器
100
AcDbLine
 10
44.0
 20
513.9999999999995
 30
0.0
 11
44.0
 21
529.9999999999995
 31
0.0
  0
LINE
  5
12990
330
1296E
100
AcDbEntity
  8
11機器
100
AcDbLine
 10
48.31851652399928
 20
529.9999999999995
 30
0.0
 11
48.31851652399928
 21
533.2000000000003
 31
0.0
  0
LINE
  5
12991
330
1296E
100
AcDbEntity
  8
11機器
100
AcDbLine
 10
48.31851652399928
 20
-100.381980514001
 30
0.0
 11
48.31851652399928
 21
-102.0
 31
0.0
  0
LINE
  5
12992
330
1296E
100
AcDbEntity
  8
11機器
100
AcDbLine
 10
53.31851652399928
 20
529.9999999999995
 30
0.0
 11
53.31851652399928
 21
533.2000000000003
 31
0.0
  0
LINE
  5
12993
330
1296E
100
AcDbEntity
  8
11機器
100
AcDbLine
 10
53.31851652399928
 20
-100.381980514001
 30
0.0
 11
53.31851652399928
 21
-102.0
 31
0.0
  0
LINE
  5
12994
330
1296E
100
AcDbEntity
  8
11機器
100
AcDbLine
 10
70.29999999999927
 20
533.2000000000003
 30
0.0
 11
70.29999999999927
 21
534.0682888840015
 31
0.0
  0
LINE
  5
12995
330
1296E
100
AcDbEntity
  8
11機器
100
AcDbLine
 10
74.49999999999818
 20
-102.0529142699997
 30
0.0
 11
74.49999999999818
 21
-102.0
 31
0.0
  0
LINE
  5
12996
330
1296E
100
AcDbEntity
  8
11機器
100
AcDbLine
 10
87.11851652399855
 20
529.9999999999995
 30
0.0
 11
87.11851652399855
 21
532.9999999999995
 31
0.0
  0
LINE
  5
12997
330
1296E
100
AcDbEntity
  8
11機器
100
AcDbLine
 10
88.11851652399855
 20
529.9999999999995
 30
0.0
 11
88.11851652399855
 21
533.2000000000003
 31
0.0
  0
LINE
  5
12998
330
1296E
100
AcDbEntity
  8
11機器
100
AcDbLine
 10
88.11851652399855
 20
-100.381980514001
 30
0.0
 11
88.11851652399855
 21
-102.0
 31
0.0
  0
LINE
  5
12999
330
1296E
100
AcDbEntity
  8
11機器
100
AcDbLine
 10
93.11851652399855
 20
529.9999999999995
 30
0.0
 11
93.11851652399855
 21
533.2000000000003
 31
0.0
  0
LINE
  5
1299A
330
1296E
100
AcDbEntity
  8
11機器
100
AcDbLine
 10
93.11851652399855
 20
-100.381980514001
 30
0.0
 11
93.11851652399855
 21
-102.0
 31
0.0
  0
LINE
  5
1299B
330
1296E
100
AcDbEntity
  8
11機器
100
AcDbLine
 10
-9.000000000001819
 20
-30.0
 30
0.0
 11
-14.00000000000182
 21
-25.0
 31
0.0
  0
LINE
  5
1299C
330
1296E
100
AcDbEntity
  8
11機器
100
AcDbLine
 10
32.29999999999927
 20
543.0999999999981
 30
0.0
 11
1212.299999999999
 21
543.0999999999981
 31
0.0
  0
LINE
  5
1299D
330
1296E
100
AcDbEntity
  8
11機器
100
AcDbLine
 10
70.29999999999927
 20
534.0682888840015
 30
0.0
 11
1174.299999999999
 21
534.0682888840015
 31
0.0
  0
LINE
  5
1299E
330
1296E
100
AcDbEntity
  8
11機器
100
AcDbLine
 10
1197.281483473998
 20
533.2000000000003
 30
0.0
 11
1152.481483473999
 21
533.2000000000003
 31
0.0
  0
LINE
  5
1299F
330
1296E
100
AcDbEntity
  8
11機器
100
AcDbLine
 10
93.11851652399855
 20
533.2000000000003
 30
0.0
 11
48.31851652399928
 21
533.2000000000003
 31
0.0
  0
LINE
  5
129A0
330
1296E
100
AcDbEntity
  8
11機器
100
AcDbLine
 10
1212.299999999999
 20
533.0999999999981
 30
0.0
 11
1197.281483473998
 21
533.0999999999981
 31
0.0
  0
LINE
  5
129A1
330
1296E
100
AcDbEntity
  8
11機器
100
AcDbLine
 10
48.31851652399928
 20
533.0999999999981
 30
0.0
 11
32.29999999999927
 21
533.0999999999981
 31
0.0
  0
LINE
  5
129A2
330
1296E
100
AcDbEntity
  8
11機器
100
AcDbLine
 10
1197.281483473998
 20
532.9999999999995
 30
0.0
 11
1152.481483473999
 21
532.9999999999995
 31
0.0
  0
LINE
  5
129A3
330
1296E
100
AcDbEntity
  8
11機器
100
AcDbLine
 10
93.11851652399855
 20
532.9999999999995
 30
0.0
 11
48.31851652399928
 21
532.9999999999995
 31
0.0
  0
LINE
  5
129A4
330
1296E
100
AcDbEntity
  8
11機器
100
AcDbLine
 10
32.29999999999927
 20
532.2999999999988
 30
0.0
 11
48.31851652399928
 21
532.2999999999988
 31
0.0
  0
LINE
  5
129A5
330
1296E
100
AcDbEntity
  8
11機器
100
AcDbLine
 10
1197.281483473998
 20
532.2999999999988
 30
0.0
 11
1212.299999999999
 21
532.2999999999988
 31
0.0
  0
LINE
  5
129A6
330
1296E
100
AcDbEntity
  8
11機器
100
AcDbLine
 10
1197.281483473998
 20
532.1698966180006
 30
0.0
 11
1220.899999999998
 21
532.1698966180006
 31
0.0
  0
LINE
  5
129A7
330
1296E
100
AcDbEntity
  8
11機器
100
AcDbLine
 10
23.69999999999709
 20
532.0999999999981
 30
0.0
 11
48.31851652399928
 21
532.0999999999981
 31
0.0
  0
LINE
  5
129A8
330
1296E
100
AcDbEntity
  8
11機器
100
AcDbLine
 10
23.69999999999709
 20
531.8388038000007
 30
0.0
 11
48.31851652399928
 21
531.8388038000007
 31
0.0
  0
LINE
  5
129A9
330
1296E
100
AcDbEntity
  8
11機器
100
AcDbLine
 10
1221.572929515998
 20
531.3167597839997
 30
0.0
 11
1222.349386651998
 21
531.3167597839997
 31
0.0
  0
LINE
  5
129AA
330
1296E
100
AcDbEntity
  8
11機器
100
AcDbLine
 10
23.49999999999818
 20
530.900000000001
 30
0.0
 11
23.69999999999709
 21
530.900000000001
 31
0.0
  0
LINE
  5
129AB
330
1296E
100
AcDbEntity
  8
11機器
100
AcDbLine
 10
1220.899999999998
 20
530.900000000001
 30
0.0
 11
1221.099999999999
 21
530.900000000001
 31
0.0
  0
LINE
  5
129AC
330
1296E
100
AcDbEntity
  8
11機器
100
AcDbLine
 10
1220.977185311998
 20
530.7000000000003
 30
0.0
 11
1220.951763808
 21
530.7000000000003
 31
0.0
  0
LINE
  5
129AD
330
1296E
100
AcDbEntity
  8
11機器
100
AcDbLine
 10
22.56119619999845
 20
530.7000000000003
 30
0.0
 11
22.29999999999927
 21
530.7000000000003
 31
0.0
  0
LINE
  5
129AE
330
1296E
100
AcDbEntity
  8
11機器
100
AcDbLine
 10
22.56119619999845
 20
530.7000000000003
 30
0.0
 11
23.64823618999799
 21
530.7000000000003
 31
0.0
  0
LINE
  5
129AF
330
1296E
100
AcDbEntity
  8
11機器
100
AcDbLine
 10
28.49999999999818
 20
529.9999999999995
 30
0.0
 11
1217.1
 21
529.9999999999995
 31
0.0
  0
LINE
  5
129B0
330
1296E
100
AcDbEntity
  8
11機器
100
AcDbLine
 10
1217.1
 20
527.7000000000003
 30
0.0
 11
1201.599999999999
 21
527.7000000000003
 31
0.0
  0
LINE
  5
129B1
330
1296E
100
AcDbEntity
  8
11機器
100
AcDbLine
 10
44.0
 20
527.7000000000003
 30
0.0
 11
28.49999999999818
 21
527.7000000000003
 31
0.0
  0
LINE
  5
129B2
330
1296E
100
AcDbEntity
  8
11機器
100
AcDbLine
 10
1203.599999999999
 20
527.4999999999995
 30
0.0
 11
1201.599999999999
 21
527.4999999999995
 31
0.0
  0
LINE
  5
129B3
330
1296E
100
AcDbEntity
  8
11機器
100
AcDbLine
 10
44.0
 20
527.4999999999995
 30
0.0
 11
41.99999999999818
 21
527.4999999999995
 31
0.0
  0
LINE
  5
129B4
330
1296E
100
AcDbEntity
  8
11機器
100
AcDbLine
 10
25.99999999999818
 20
527.4999999999995
 30
0.0
 11
41.99999999999818
 21
527.4999999999995
 31
0.0
  0
LINE
  5
129B5
330
1296E
100
AcDbEntity
  8
11機器
100
AcDbLine
 10
1203.599999999999
 20
527.4999999999995
 30
0.0
 11
1219.6
 21
527.4999999999995
 31
0.0
  0
LINE
  5
129B6
330
1296E
100
AcDbEntity
  8
11機器
100
AcDbLine
 10
1201.599999999999
 20
513.9999999999995
 30
0.0
 11
44.0
 21
513.9999999999995
 31
0.0
  0
LINE
  5
129B7
330
1296E
100
AcDbEntity
  8
11機器
100
AcDbLine
 10
25.99999999999818
 20
507.6814834739994
 30
0.0
 11
22.79999999999927
 21
507.6814834739994
 31
0.0
  0
LINE
  5
129B8
330
1296E
100
AcDbEntity
  8
11機器
100
AcDbLine
 10
1219.6
 20
507.6814834739994
 30
0.0
 11
1222.799999999999
 21
507.6814834739994
 31
0.0
  0
LINE
  5
129B9
330
1296E
100
AcDbEntity
  8
11機器
100
AcDbLine
 10
263.8999999999978
 20
-104.5
 30
0.0
 11
263.8999999999978
 21
-112.5
 31
0.0
  0
LINE
  5
129BA
330
1296E
100
AcDbEntity
  8
11機器
100
AcDbLine
 10
266.3999999999978
 20
-102.5
 30
0.0
 11
266.3999999999978
 21
-104.5
 31
0.0
  0
LINE
  5
129BB
330
1296E
100
AcDbEntity
  8
11機器
100
AcDbLine
 10
269.4999999999982
 20
-102.0529142699997
 30
0.0
 11
269.4999999999982
 21
-102.5
 31
0.0
  0
LINE
  5
129BC
330
1296E
100
AcDbEntity
  8
11機器
100
AcDbLine
 10
273.2999999999993
 20
-102.0529142699997
 30
0.0
 11
273.2999999999993
 21
-102.5
 31
0.0
  0
LINE
  5
129BD
330
1296E
100
AcDbEntity
  8
11機器
100
AcDbLine
 10
276.3999999999978
 20
-102.5
 30
0.0
 11
276.3999999999978
 21
-104.5
 31
0.0
  0
LINE
  5
129BE
330
1296E
100
AcDbEntity
  8
11機器
100
AcDbLine
 10
278.8999999999978
 20
-104.5
 30
0.0
 11
278.8999999999978
 21
-112.5
 31
0.0
  0
LINE
  5
129BF
330
1296E
100
AcDbEntity
  8
11機器
100
AcDbLine
 10
-9.000000000001819
 20
410.0
 30
0.0
 11
-14.00000000000182
 21
415.0
 31
0.0
  0
LINE
  5
129C0
330
1296E
100
AcDbEntity
  8
11機器
100
AcDbLine
 10
25.99999999999818
 20
502.6814834739994
 30
0.0
 11
22.79999999999927
 21
502.6814834739994
 31
0.0
  0
LINE
  5
129C1
330
1296E
100
AcDbEntity
  8
11機器
100
AcDbLine
 10
1219.6
 20
502.6814834739994
 30
0.0
 11
1222.799999999999
 21
502.6814834739994
 31
0.0
  0
LINE
  5
129C2
330
1296E
100
AcDbEntity
  8
11機器
100
AcDbLine
 10
25.99999999999818
 20
502.4814834739987
 30
0.0
 11
22.79999999999927
 21
502.4814834739987
 31
0.0
  0
LINE
  5
129C3
330
1296E
100
AcDbEntity
  8
11機器
100
AcDbLine
 10
1219.6
 20
502.4814834739987
 30
0.0
 11
1222.799999999999
 21
502.4814834739987
 31
0.0
  0
LINE
  5
129C4
330
1296E
100
AcDbEntity
  8
11機器
100
AcDbLine
 10
-9.000000000001819
 20
469.9999999999995
 30
0.0
 11
25.99999999999818
 21
469.9999999999995
 31
0.0
  0
LINE
  5
129C5
330
1296E
100
AcDbEntity
  8
11機器
100
AcDbLine
 10
1219.6
 20
469.9999999999995
 30
0.0
 11
1254.6
 21
469.9999999999995
 31
0.0
  0
LINE
  5
129C6
330
1296E
100
AcDbEntity
  8
11機器
100
AcDbLine
 10
-9.000000000001819
 20
410.0
 30
0.0
 11
25.99999999999818
 21
410.0
 31
0.0
  0
LINE
  5
129C7
330
1296E
100
AcDbEntity
  8
11機器
100
AcDbLine
 10
1219.6
 20
410.0
 30
0.0
 11
1254.6
 21
410.0
 31
0.0
  0
LINE
  5
129C8
330
1296E
100
AcDbEntity
  8
11機器
100
AcDbLine
 10
-14.00000000000182
 20
25.0
 30
0.0
 11
-9.000000000001819
 21
30.0
 31
0.0
  0
LINE
  5
129C9
330
1296E
100
AcDbEntity
  8
11機器
100
AcDbLine
 10
22.56119619999845
 20
530.7000000000003
 30
0.0
 11
25.99999999999818
 21
527.1398883399993
 31
0.0
  0
LINE
  5
129CA
330
1296E
100
AcDbEntity
  8
11機器
100
AcDbLine
 10
26.03704453999853
 20
527.9053845840021
 30
0.0
 11
23.33765333599877
 21
530.7000000000003
 31
0.0
  0
LINE
  5
129CB
330
1296E
100
AcDbEntity
  8
11機器
100
AcDbLine
 10
23.33765333599877
 20
530.7000000000003
 30
0.0
 11
26.03704453999853
 21
527.9053845840021
 31
0.0
  0
LINE
  5
129CC
330
1296E
100
AcDbEntity
  8
11機器
100
AcDbLine
 10
26.09464576799837
 20
528.1672904360016
 30
0.0
 11
23.64823618999799
 21
530.7000000000003
 31
0.0
  0
LINE
  5
129CD
330
1296E
100
AcDbEntity
  8
11機器
100
AcDbLine
 10
23.69999999999709
 20
530.7517638099994
 30
0.0
 11
26.16069009199782
 21
528.3749196979984
 31
0.0
  0
LINE
  5
129CE
330
1296E
100
AcDbEntity
  8
11機器
100
AcDbLine
 10
26.2536482079995
 20
528.5957119080008
 30
0.0
 11
23.69999999999709
 21
531.0623466639986
 31
0.0
  0
LINE
  5
129CF
330
1296E
100
AcDbEntity
  8
11機器
100
AcDbLine
 10
23.69999999999709
 20
531.0623466639986
 30
0.0
 11
26.2536482079995
 21
528.5957119080008
 31
0.0
  0
LINE
  5
129D0
330
1296E
100
AcDbEntity
  8
11機器
100
AcDbLine
 10
26.56058167999799
 20
529.0756940759998
 30
0.0
 11
23.69999999999709
 21
531.8388038000007
 31
0.0
  0
LINE
  5
129D1
330
1296E
100
AcDbEntity
  8
11機器
100
AcDbLine
 10
27.48058408799807
 20
-96.5
 30
0.0
 11
26.7558907599996
 21
-97.19999999999709
 31
0.0
  0
LINE
  5
129D2
330
1296E
100
AcDbEntity
  8
11機器
100
AcDbLine
 10
25.26330722199782
 20
-98.64172498799962
 30
0.0
 11
23.69999999999709
 21
-100.1517638080004
 31
0.0
  0
LINE
  5
129D3
330
1296E
100
AcDbEntity
  8
11機器
100
AcDbLine
 10
27.80212311799914
 20
-96.5
 30
0.0
 11
27.07742979199975
 21
-97.19999999999709
 31
0.0
  0
LINE
  5
129D4
330
1296E
100
AcDbEntity
  8
11機器
100
AcDbLine
 10
25.49688266599878
 20
-98.72669128800044
 30
0.0
 11
23.69999999999709
 21
-100.4623466619996
 31
0.0
  0
LINE
  5
129D5
330
1296E
100
AcDbEntity
  8
11機器
100
AcDbLine
 10
23.69999999999709
 20
-100.4623466619996
 30
0.0
 11
25.49688266599878
 21
-98.72669128800044
 31
0.0
  0
LINE
  5
129D6
330
1296E
100
AcDbEntity
  8
11機器
100
AcDbLine
 10
27.07742979199975
 20
-97.19999999999709
 30
0.0
 11
27.80212311799914
 21
-96.5
 31
0.0
  0
LINE
  5
129D7
330
1296E
100
AcDbEntity
  8
11機器
100
AcDbLine
 10
23.69999999999709
 20
-101.2388037979981
 30
0.0
 11
25.99999999999818
 21
-99.01717439799904
 31
0.0
  0
LINE
  5
129D8
330
1296E
100
AcDbEntity
  8
11機器
100
AcDbLine
 10
27.88127736800016
 20
-97.19999999999709
 30
0.0
 11
28.29999999999927
 21
-96.79554499599908
 31
0.0
  0
LINE
  5
129D9
330
1296E
100
AcDbEntity
  8
11機器
100
AcDbLine
 10
41.99999999999818
 20
-82.79999999999927
 30
0.0
 11
28.29999999999927
 21
-96.5
 31
0.0
  0
LINE
  5
129DA
330
1296E
100
AcDbEntity
  8
11機器
100
AcDbLine
 10
30.99999999999818
 20
-96.31415926399859
 30
0.0
 11
44.51415926399932
 21
-82.79999999999927
 31
0.0
  0
LINE
  5
129DB
330
1296E
100
AcDbEntity
  8
11機器
100
AcDbLine
 10
26.03852917599943
 20
-96.5
 30
0.0
 11
25.79999999999927
 21
-96.74694357399858
 31
0.0
  0
LINE
  5
129DC
330
1296E
100
AcDbEntity
  8
11機器
100
AcDbLine
 10
24.54049373999806
 20
-98.05088040199917
 30
0.0
 11
22.56119619999845
 21
-100.0999999999985
 31
0.0
  0
LINE
  5
129DD
330
1296E
100
AcDbEntity
  8
11機器
100
AcDbLine
 10
26.81498630999886
 20
-96.5
 30
0.0
 11
26.13883823200013
 21
-97.19999999999709
 31
0.0
  0
LINE
  5
129DE
330
1296E
100
AcDbEntity
  8
11機器
100
AcDbLine
 10
24.93321595599809
 20
-98.44815202400059
 30
0.0
 11
23.33765333599877
 21
-100.0999999999985
 31
0.0
  0
LINE
  5
129DF
330
1296E
100
AcDbEntity
  8
11機器
100
AcDbLine
 10
23.33765333599877
 20
-100.0999999999985
 30
0.0
 11
24.93321595599809
 21
-98.44815202400059
 31
0.0
  0
LINE
  5
129E0
330
1296E
100
AcDbEntity
  8
11機器
100
AcDbLine
 10
26.13883823200013
 20
-97.19999999999709
 30
0.0
 11
26.81498630999886
 21
-96.5
 31
0.0
  0
LINE
  5
129E1
330
1296E
100
AcDbEntity
  8
11機器
100
AcDbLine
 10
23.64823618999799
 20
-100.0999999999985
 30
0.0
 11
25.12437779399988
 21
-98.57178575799844
 31
0.0
  0
LINE
  5
129E2
330
1296E
100
AcDbEntity
  8
11機器
100
AcDbLine
 10
26.44942108599935
 20
-97.19999999999709
 30
0.0
 11
27.1255691639999
 21
-96.5
 31
0.0
  0
LINE
  5
129E3
330
1296E
100
AcDbEntity
  8
11機器
100
AcDbLine
 10
616.7999999999993
 20
-100.381980514001
 30
0.0
 11
616.7999999999993
 21
-101.381980514001
 31
0.0
  0
LINE
  5
129E4
330
1296E
100
AcDbEntity
  8
11機器
100
AcDbLine
 10
618.7999999999975
 20
-101.381980514001
 30
0.0
 11
618.7999999999975
 21
-105.881980514001
 31
0.0
  0
LINE
  5
129E5
330
1296E
100
AcDbEntity
  8
11機器
100
AcDbLine
 10
622.7999999999993
 20
-101.381980514001
 30
0.0
 11
622.7999999999993
 21
-105.881980514001
 31
0.0
  0
LINE
  5
129E6
330
1296E
100
AcDbEntity
  8
11機器
100
AcDbLine
 10
626.7999999999993
 20
-101.381980514001
 30
0.0
 11
626.7999999999993
 21
-105.881980514001
 31
0.0
  0
LINE
  5
129E7
330
1296E
100
AcDbEntity
  8
11機器
100
AcDbLine
 10
628.7999999999975
 20
-100.381980514001
 30
0.0
 11
628.7999999999975
 21
-101.381980514001
 31
0.0
  0
LINE
  5
129E8
330
1296E
100
AcDbEntity
  8
11機器
100
AcDbLine
 10
-9.000000000001819
 20
30.0
 30
0.0
 11
25.99999999999818
 21
30.0
 31
0.0
  0
LINE
  5
129E9
330
1296E
100
AcDbEntity
  8
11機器
100
AcDbLine
 10
1219.6
 20
30.0
 30
0.0
 11
1254.6
 21
30.0
 31
0.0
  0
LINE
  5
129EA
330
1296E
100
AcDbEntity
  8
11機器
100
AcDbLine
 10
-9.000000000001819
 20
-30.0
 30
0.0
 11
25.99999999999818
 21
-30.0
 31
0.0
  0
LINE
  5
129EB
330
1296E
100
AcDbEntity
  8
11機器
100
AcDbLine
 10
1219.6
 20
-30.0
 30
0.0
 11
1254.6
 21
-30.0
 31
0.0
  0
LINE
  5
129EC
330
1296E
100
AcDbEntity
  8
11機器
100
AcDbLine
 10
25.99999999999818
 20
-31.68148347399983
 30
0.0
 11
22.79999999999927
 21
-31.68148347399983
 31
0.0
  0
LINE
  5
129ED
330
1296E
100
AcDbEntity
  8
11機器
100
AcDbLine
 10
1219.6
 20
-31.68148347399983
 30
0.0
 11
1222.799999999999
 21
-31.68148347399983
 31
0.0
  0
LINE
  5
129EE
330
1296E
100
AcDbEntity
  8
11機器
100
AcDbLine
 10
25.99999999999818
 20
-36.68148347399983
 30
0.0
 11
22.79999999999927
 21
-36.68148347399983
 31
0.0
  0
LINE
  5
129EF
330
1296E
100
AcDbEntity
  8
11機器
100
AcDbLine
 10
1219.6
 20
-36.68148347399983
 30
0.0
 11
1222.799999999999
 21
-36.68148347399983
 31
0.0
  0
LINE
  5
129F0
330
1296E
100
AcDbEntity
  8
11機器
100
AcDbLine
 10
25.99999999999818
 20
-71.4814834739991
 30
0.0
 11
22.79999999999927
 21
-71.4814834739991
 31
0.0
  0
LINE
  5
129F1
330
1296E
100
AcDbEntity
  8
11機器
100
AcDbLine
 10
1219.6
 20
-71.4814834739991
 30
0.0
 11
1222.799999999999
 21
-71.4814834739991
 31
0.0
  0
LINE
  5
129F2
330
1296E
100
AcDbEntity
  8
11機器
100
AcDbLine
 10
25.99999999999818
 20
-76.4814834739991
 30
0.0
 11
22.79999999999927
 21
-76.4814834739991
 31
0.0
  0
LINE
  5
129F3
330
1296E
100
AcDbEntity
  8
11機器
100
AcDbLine
 10
1219.6
 20
-76.4814834739991
 30
0.0
 11
1222.799999999999
 21
-76.4814834739991
 31
0.0
  0
LINE
  5
129F4
330
1296E
100
AcDbEntity
  8
11機器
100
AcDbLine
 10
25.79999999999927
 20
-76.70000000000073
 30
0.0
 11
24.19999999999891
 21
-76.70000000000073
 31
0.0
  0
LINE
  5
129F5
330
1296E
100
AcDbEntity
  8
11機器
100
AcDbLine
 10
1219.799999999999
 20
-76.70000000000073
 30
0.0
 11
1221.4
 21
-76.70000000000073
 31
0.0
  0
LINE
  5
129F6
330
1296E
100
AcDbEntity
  8
11機器
100
AcDbLine
 10
1221.4
 20
-78.5
 30
0.0
 11
1222.4
 21
-78.5
 31
0.0
  0
LINE
  5
129F7
330
1296E
100
AcDbEntity
  8
11機器
100
AcDbLine
 10
24.19999999999891
 20
-78.79999999999927
 30
0.0
 11
23.19999999999891
 21
-78.79999999999927
 31
0.0
  0
LINE
  5
129F8
330
1296E
100
AcDbEntity
  8
11機器
100
AcDbLine
 10
1222.4
 20
-80.38626842799931
 30
0.0
 11
1226.9
 21
-80.38626842799931
 31
0.0
  0
LINE
  5
129F9
330
1296E
100
AcDbEntity
  8
11機器
100
AcDbLine
 10
23.19999999999891
 20
-80.68626842799858
 30
0.0
 11
18.69999999999709
 21
-80.68626842799858
 31
0.0
  0
LINE
  5
129FA
330
1296E
100
AcDbEntity
  8
11機器
100
AcDbLine
 10
25.79999999999927
 20
-81.70000000000073
 30
0.0
 11
24.19999999999891
 21
-81.70000000000073
 31
0.0
  0
LINE
  5
129FB
330
1296E
100
AcDbEntity
  8
11機器
100
AcDbLine
 10
1219.799999999999
 20
-81.70000000000073
 30
0.0
 11
1221.4
 21
-81.70000000000073
 31
0.0
  0
LINE
  5
129FC
330
1296E
100
AcDbEntity
  8
11機器
100
AcDbLine
 10
1219.6
 20
-82.25
 30
0.0
 11
1219.799999999999
 21
-82.25
 31
0.0
  0
LINE
  5
129FD
330
1296E
100
AcDbEntity
  8
11機器
100
AcDbLine
 10
25.99999999999818
 20
-82.54999999999927
 30
0.0
 11
25.79999999999927
 21
-82.54999999999927
 31
0.0
  0
LINE
  5
129FE
330
1296E
100
AcDbEntity
  8
11機器
100
AcDbLine
 10
1222.4
 20
-82.66313577799883
 30
0.0
 11
1226.9
 21
-82.66313577799883
 31
0.0
  0
LINE
  5
129FF
330
1296E
100
AcDbEntity
  8
11機器
100
AcDbLine
 10
44.51415926399932
 20
-82.79999999999927
 30
0.0
 11
1201.085840733998
 21
-82.79999999999927
 31
0.0
  0
LINE
  5
12A00
330
1296E
100
AcDbEntity
  8
11機器
100
AcDbLine
 10
23.19999999999891
 20
-82.99566950399822
 30
0.0
 11
18.69999999999709
 21
-82.99566950399822
 31
0.0
  0
LINE
  5
12A01
330
1296E
100
AcDbEntity
  8
11機器
100
AcDbLine
 10
1219.6
 20
-86.75
 30
0.0
 11
1219.799999999999
 21
-86.75
 31
0.0
  0
LINE
  5
12A02
330
1296E
100
AcDbEntity
  8
11機器
100
AcDbLine
 10
1222.4
 20
-86.77686734999952
 30
0.0
 11
1226.9
 21
-86.77686734999952
 31
0.0
  0
LINE
  5
12A03
330
1296E
100
AcDbEntity
  8
11機器
100
AcDbLine
 10
25.99999999999818
 20
-87.04999999999927
 30
0.0
 11
25.79999999999927
 21
-87.04999999999927
 31
0.0
  0
LINE
  5
12A04
330
1296E
100
AcDbEntity
  8
11機器
100
AcDbLine
 10
1219.6
 20
-87.04999999999927
 30
0.0
 11
1219.799999999999
 21
-87.04999999999927
 31
0.0
  0
LINE
  5
12A05
330
1296E
100
AcDbEntity
  8
11機器
100
AcDbLine
 10
23.19999999999891
 20
-87.1094010759989
 30
0.0
 11
18.69999999999709
 21
-87.1094010759989
 31
0.0
  0
LINE
  5
12A06
330
1296E
100
AcDbEntity
  8
11機器
100
AcDbLine
 10
1222.4
 20
-89.08626842800004
 30
0.0
 11
1226.9
 21
-89.08626842800004
 31
0.0
  0
LINE
  5
12A07
330
1296E
100
AcDbEntity
  8
11機器
100
AcDbLine
 10
23.19999999999891
 20
-89.38626842799931
 30
0.0
 11
18.69999999999709
 21
-89.38626842799931
 31
0.0
  0
LINE
  5
12A08
330
1296E
100
AcDbEntity
  8
11機器
100
AcDbLine
 10
1222.4
 20
-89.38626842799931
 30
0.0
 11
1226.9
 21
-89.38626842799931
 31
0.0
  0
LINE
  5
12A09
330
1296E
100
AcDbEntity
  8
11機器
100
AcDbLine
 10
1221.4
 20
-90.5
 30
0.0
 11
1222.4
 21
-90.5
 31
0.0
  0
LINE
  5
12A0A
330
1296E
100
AcDbEntity
  8
11機器
100
AcDbLine
 10
24.19999999999891
 20
-90.79999999999927
 30
0.0
 11
23.19999999999891
 21
-90.79999999999927
 31
0.0
  0
LINE
  5
12A0B
330
1296E
100
AcDbEntity
  8
11機器
100
AcDbLine
 10
1221.4
 20
-90.79999999999927
 30
0.0
 11
1222.4
 21
-90.79999999999927
 31
0.0
  0
LINE
  5
12A0C
330
1296E
100
AcDbEntity
  8
11機器
100
AcDbLine
 10
28.29999999999927
 20
-96.5
 30
0.0
 11
25.99999999999818
 21
-96.5
 31
0.0
  0
LINE
  5
12A0D
330
1296E
100
AcDbEntity
  8
11機器
100
AcDbLine
 10
1217.299999999999
 20
-96.5
 30
0.0
 11
1219.6
 21
-96.5
 31
0.0
  0
LINE
  5
12A0E
330
1296E
100
AcDbEntity
  8
11機器
100
AcDbLine
 10
1219.6
 20
-97.19999999999709
 30
0.0
 11
1214.6
 21
-97.19999999999709
 31
0.0
  0
LINE
  5
12A0F
330
1296E
100
AcDbEntity
  8
11機器
100
AcDbLine
 10
25.99999999999818
 20
-97.19999999999709
 30
0.0
 11
30.99999999999818
 21
-97.19999999999709
 31
0.0
  0
LINE
  5
12A10
330
1296E
100
AcDbEntity
  8
11機器
100
AcDbLine
 10
25.99999999999818
 20
-98.79999999999927
 30
0.0
 11
1219.6
 21
-98.79999999999927
 31
0.0
  0
LINE
  5
12A11
330
1296E
100
AcDbEntity
  8
11機器
100
AcDbLine
 10
1221.572929515998
 20
-99.4832402159991
 30
0.0
 11
1222.349386651998
 21
-99.4832402159991
 31
0.0
  0
LINE
  5
12A12
330
1296E
100
AcDbEntity
  8
11機器
100
AcDbLine
 10
1221.262346661999
 20
-100.0999999999985
 30
0.0
 11
1220.951763808
 21
-100.0999999999985
 31
0.0
  0
LINE
  5
12A13
330
1296E
100
AcDbEntity
  8
11機器
100
AcDbLine
 10
22.48732932799976
 20
-100.0999999999985
 30
0.0
 11
22.29999999999927
 21
-100.0999999999985
 31
0.0
  0
LINE
  5
12A14
330
1296E
100
AcDbEntity
  8
11機器
100
AcDbLine
 10
22.56119619999845
 20
-100.0999999999985
 30
0.0
 11
23.64823618999799
 21
-100.0999999999985
 31
0.0
  0
LINE
  5
12A15
330
1296E
100
AcDbEntity
  8
11機器
100
AcDbLine
 10
1221.262346661999
 20
-100.0999999999985
 30
0.0
 11
1222.299999999999
 21
-100.0999999999985
 31
0.0
  0
LINE
  5
12A16
330
1296E
100
AcDbEntity
  8
11機器
100
AcDbLine
 10
23.49999999799911
 20
-100.2999999999993
 30
0.0
 11
23.69999999999709
 21
-100.2999999999993
 31
0.0
  0
LINE
  5
12A17
330
1296E
100
AcDbEntity
  8
11機器
100
AcDbLine
 10
1220.899999999998
 20
-100.2999999999993
 30
0.0
 11
1221.099999999999
 21
-100.2999999999993
 31
0.0
  0
LINE
  5
12A18
330
1296E
100
AcDbEntity
  8
11機器
100
AcDbLine
 10
25.99999999999818
 20
-100.381980514001
 30
0.0
 11
1219.6
 21
-100.381980514001
 31
0.0
  0
LINE
  5
12A19
330
1296E
100
AcDbEntity
  8
11機器
100
AcDbLine
 10
48.31851652399928
 20
-101.2388037979981
 30
0.0
 11
23.69999999999709
 21
-101.2388037979981
 31
0.0
  0
LINE
  5
12A1A
330
1296E
100
AcDbEntity
  8
11機器
100
AcDbLine
 10
616.7999999999993
 20
-101.381980514001
 30
0.0
 11
628.7999999999975
 21
-101.381980514001
 31
0.0
  0
LINE
  5
12A1B
330
1296E
100
AcDbEntity
  8
11機器
100
AcDbLine
 10
48.31851652399928
 20
-101.5
 30
0.0
 11
23.69999999999709
 21
-101.5
 31
0.0
  0
LINE
  5
12A1C
330
1296E
100
AcDbEntity
  8
11機器
100
AcDbLine
 10
1220.899999999998
 20
-101.5493866519973
 30
0.0
 11
1197.281483473998
 21
-101.5493866519973
 31
0.0
  0
LINE
  5
12A1D
330
1296E
100
AcDbEntity
  8
11機器
100
AcDbLine
 10
48.31851652399928
 20
-102.0
 30
0.0
 11
93.11851652399855
 21
-102.0
 31
0.0
  0
LINE
  5
12A1E
330
1296E
100
AcDbEntity
  8
11機器
100
AcDbLine
 10
1152.481483473999
 20
-102.0
 30
0.0
 11
1197.281483473998
 21
-102.0
 31
0.0
  0
LINE
  5
12A1F
330
1296E
100
AcDbEntity
  8
11機器
100
AcDbLine
 10
1170.099999999999
 20
-102.0529142699997
 30
0.0
 11
626.7999999999993
 21
-102.0529142699997
 31
0.0
  0
LINE
  5
12A20
330
1296E
100
AcDbEntity
  8
11機器
100
AcDbLine
 10
618.7999999999975
 20
-102.0529142699997
 30
0.0
 11
74.49999999999818
 21
-102.0529142699997
 31
0.0
  0
LINE
  5
12A21
330
1296E
100
AcDbEntity
  8
11機器
100
AcDbLine
 10
266.3999999999978
 20
-102.5
 30
0.0
 11
276.3999999999978
 21
-102.5
 31
0.0
  0
LINE
  5
12A22
330
1296E
100
AcDbEntity
  8
11機器
100
AcDbLine
 10
968.1999999999989
 20
-102.5
 30
0.0
 11
978.1999999999989
 21
-102.5
 31
0.0
  0
LINE
  5
12A23
330
1296E
100
AcDbEntity
  8
11機器
100
AcDbLine
 10
263.8999999999978
 20
-104.5
 30
0.0
 11
278.8999999999978
 21
-104.5
 31
0.0
  0
LINE
  5
12A24
330
1296E
100
AcDbEntity
  8
11機器
100
AcDbLine
 10
965.6999999999989
 20
-104.5
 30
0.0
 11
980.6999999999989
 21
-104.5
 31
0.0
  0
LINE
  5
12A25
330
1296E
100
AcDbEntity
  8
11機器
100
AcDbLine
 10
1220.899999999998
 20
531.0623466639986
 30
0.0
 11
1218.874185113998
 21
529.2605852180018
 31
0.0
  0
LINE
  5
12A26
330
1296E
100
AcDbEntity
  8
11機器
100
AcDbLine
 10
1217.10862891
 20
527.6902980619993
 30
0.0
 11
1216.894666819999
 21
527.4999999999995
 31
0.0
  0
LINE
  5
12A27
330
1296E
100
AcDbEntity
  8
11機器
100
AcDbLine
 10
1220.899999999998
 20
530.7517638099994
 30
0.0
 11
1219.028829223998
 21
529.0875429639996
 31
0.0
  0
LINE
  5
12A28
330
1296E
100
AcDbEntity
  8
11機器
100
AcDbLine
 10
1217.294726255999
 20
527.545230342002
 30
0.0
 11
1217.243871409999
 21
527.4999999999995
 31
0.0
  0
LINE
  5
12A29
330
1296E
100
AcDbEntity
  8
11機器
100
AcDbLine
 10
1220.899999999998
 20
532.1698966180006
 30
0.0
 11
1218.319902667999
 21
529.6777139719993
 31
0.0
  0
LINE
  5
12A2A
330
1296E
100
AcDbEntity
  8
11機器
100
AcDbLine
 10
1220.899999999998
 20
531.3934394839994
 30
0.0
 11
1218.780282663998
 21
529.3459497639992
 31
0.0
  0
LINE
  5
12A2B
330
1296E
100
AcDbEntity
  8
11機器
100
AcDbLine
 10
1217.076270079999
 20
527.7000000000003
 30
0.0
 11
1216.869214842
 21
527.4999999999995
 31
0.0
  0
LINE
  5
12A2C
330
1296E
100
AcDbEntity
  8
11機器
100
AcDbLine
 10
1219.160605441999
 20
528.9092812080012
 30
0.0
 11
1220.951763808
 21
530.7000000000003
 31
0.0
  0
LINE
  5
12A2D
330
1296E
100
AcDbEntity
  8
11機器
100
AcDbLine
 10
1219.197396447998
 20
528.8574269820015
 30
0.0
 11
1221.572929515998
 21
531.3167597839997
 31
0.0
  0
LINE
  5
12A2E
330
1296E
100
AcDbEntity
  8
11機器
100
AcDbLine
 10
1219.459838425999
 20
528.3252793339993
 30
0.0
 11
1222.349386651998
 21
531.3167597839997
 31
0.0
  0
LINE
  5
12A2F
330
1296E
100
AcDbEntity
  8
11機器
100
AcDbLine
 10
1221.572929515998
 20
-99.4832402159991
 30
0.0
 11
1220.611343547998
 21
-98.48773316599909
 31
0.0
  0
LINE
  5
12A30
330
1296E
100
AcDbEntity
  8
11機器
100
AcDbLine
 10
1219.367488824
 20
-97.19999999999709
 30
0.0
 11
1218.691340746
 21
-96.5
 31
0.0
  0
LINE
  5
12A31
330
1296E
100
AcDbEntity
  8
11機器
100
AcDbLine
 10
1222.349386651998
 20
-99.4832402159991
 30
0.0
 11
1221.019621303998
 21
-98.10656582400043
 31
0.0
  0
LINE
  5
12A32
330
1296E
100
AcDbEntity
  8
11機器
100
AcDbLine
 10
1219.799999999999
 20
-96.8439209399985
 30
0.0
 11
1219.467797882
 21
-96.5
 31
0.0
  0
LINE
  5
12A33
330
1296E
100
AcDbEntity
  8
11機器
100
AcDbLine
 10
1201.085840733998
 20
-82.79999999999927
 30
0.0
 11
1214.6
 21
-96.31415926399859
 31
0.0
  0
LINE
  5
12A34
330
1296E
100
AcDbEntity
  8
11機器
100
AcDbLine
 10
1220.899999999998
 20
-100.4623466619996
 30
0.0
 11
1219.6
 21
-99.1620275460009
 31
0.0
  0
LINE
  5
12A35
330
1296E
100
AcDbEntity
  8
11機器
100
AcDbLine
 10
1217.638453959999
 20
-97.19999999999709
 30
0.0
 11
1217.299999999999
 21
-96.86146295599974
 31
0.0
  0
LINE
  5
12A36
330
1296E
100
AcDbEntity
  8
11機器
100
AcDbLine
 10
1217.299999999999
 20
-96.5
 30
0.0
 11
1203.599999999999
 21
-82.79999999999927
 31
0.0
  0
LINE
  5
12A37
330
1296E
100
AcDbEntity
  8
11機器
100
AcDbLine
 10
1220.899999999998
 20
-100.1517638080004
 30
0.0
 11
1219.6
 21
-98.85144469199804
 31
0.0
  0
LINE
  5
12A38
330
1296E
100
AcDbEntity
  8
11機器
100
AcDbLine
 10
1217.948960593998
 20
-97.19999999999709
 30
0.0
 11
1217.299999999999
 21
-96.55088010200052
 31
0.0
  0
LINE
  5
12A39
330
1296E
100
AcDbEntity
  8
11機器
100
AcDbLine
 10
1220.951763808
 20
-100.0999999999985
 30
0.0
 11
1219.649402374
 21
-98.79795818399725
 31
0.0
  0
LINE
  5
12A3A
330
1296E
100
AcDbEntity
  8
11機器
100
AcDbLine
 10
1218.051051933999
 20
-97.19999999999709
 30
0.0
 11
1217.350880101998
 21
-96.5
 31
0.0
  0
LINE
  5
12A3B
330
1296E
100
AcDbEntity
  8
11機器
100
AcDbLine
 10
1221.262346661999
 20
-100.0999999999985
 30
0.0
 11
1219.930330517998
 21
-98.76831074999791
 31
0.0
  0
LINE
  5
12A3C
330
1296E
100
AcDbEntity
  8
11機器
100
AcDbLine
 10
1218.361634788
 20
-97.19999999999709
 30
0.0
 11
1217.661462955999
 21
-96.5
 31
0.0
  0
LINE
  5
12A3D
330
1296E
100
AcDbEntity
  8
11機器
100
AcDbLine
 10
1219.6
 20
-100.2936830779981
 30
0.0
 11
1220.899999999998
 21
-101.5493866519973
 31
0.0
  0
LINE
  5
12A3E
330
1296E
100
AcDbEntity
  8
11機器
100
AcDbLine
 10
1219.6
 20
-99.51722594199964
 30
0.0
 11
1220.899999999998
 21
-100.7729295159988
 31
0.0
  0
LINE
  5
12A3F
330
1296E
100
AcDbEntity
  8
11機器
100
AcDbLine
 10
618.7999999999975
 20
-105.881980514001
 30
0.0
 11
626.7999999999993
 21
-105.881980514001
 31
0.0
  0
LINE
  5
12A40
330
1296E
100
AcDbEntity
  8
11機器
100
AcDbLine
 10
263.8999999999978
 20
-112.5
 30
0.0
 11
278.8999999999978
 21
-112.5
 31
0.0
  0
LINE
  5
12A41
330
1296E
100
AcDbEntity
  8
11機器
100
AcDbLine
 10
965.6999999999989
 20
-112.5
 30
0.0
 11
980.6999999999989
 21
-112.5
 31
0.0
  0
LINE
  5
12A42
330
1296E
100
AcDbEntity
  8
11機器
100
AcDbLine
 10
1259.6
 20
415.0
 30
0.0
 11
1254.6
 21
410.0
 31
0.0
  0
LINE
  5
12A43
330
1296E
100
AcDbEntity
  8
11機器
100
AcDbLine
 10
965.6999999999989
 20
-104.5
 30
0.0
 11
965.6999999999989
 21
-112.5
 31
0.0
  0
LINE
  5
12A44
330
1296E
100
AcDbEntity
  8
11機器
100
AcDbLine
 10
968.1999999999989
 20
-102.5
 30
0.0
 11
968.1999999999989
 21
-104.5
 31
0.0
  0
LINE
  5
12A45
330
1296E
100
AcDbEntity
  8
11機器
100
AcDbLine
 10
971.2999999999993
 20
-102.0529142699997
 30
0.0
 11
971.2999999999993
 21
-102.5
 31
0.0
  0
LINE
  5
12A46
330
1296E
100
AcDbEntity
  8
11機器
100
AcDbLine
 10
975.0999999999985
 20
-102.0529142699997
 30
0.0
 11
975.0999999999985
 21
-102.5
 31
0.0
  0
LINE
  5
12A47
330
1296E
100
AcDbEntity
  8
11機器
100
AcDbLine
 10
978.1999999999989
 20
-102.5
 30
0.0
 11
978.1999999999989
 21
-104.5
 31
0.0
  0
LINE
  5
12A48
330
1296E
100
AcDbEntity
  8
11機器
100
AcDbLine
 10
980.6999999999989
 20
-104.5
 30
0.0
 11
980.6999999999989
 21
-112.5
 31
0.0
  0
LINE
  5
12A49
330
1296E
100
AcDbEntity
  8
11機器
100
AcDbLine
 10
1254.6
 20
30.0
 30
0.0
 11
1259.6
 21
25.0
 31
0.0
  0
LINE
  5
12A4A
330
1296E
100
AcDbEntity
  8
11機器
100
AcDbLine
 10
1152.481483473999
 20
529.9999999999995
 30
0.0
 11
1152.481483473999
 21
533.2000000000003
 31
0.0
  0
LINE
  5
12A4B
330
1296E
100
AcDbEntity
  8
11機器
100
AcDbLine
 10
1152.481483473999
 20
-100.381980514001
 30
0.0
 11
1152.481483473999
 21
-102.0
 31
0.0
  0
LINE
  5
12A4C
330
1296E
100
AcDbEntity
  8
11機器
100
AcDbLine
 10
1157.481483473999
 20
529.9999999999995
 30
0.0
 11
1157.481483473999
 21
533.2000000000003
 31
0.0
  0
LINE
  5
12A4D
330
1296E
100
AcDbEntity
  8
11機器
100
AcDbLine
 10
1157.481483473999
 20
-100.381980514001
 30
0.0
 11
1157.481483473999
 21
-102.0
 31
0.0
  0
LINE
  5
12A4E
330
1296E
100
AcDbEntity
  8
11機器
100
AcDbLine
 10
1158.481483473999
 20
529.9999999999995
 30
0.0
 11
1158.481483473999
 21
532.9999999999995
 31
0.0
  0
LINE
  5
12A4F
330
1296E
100
AcDbEntity
  8
11機器
100
AcDbLine
 10
1170.099999999999
 20
-102.0
 30
0.0
 11
1170.099999999999
 21
-102.0529142699997
 31
0.0
  0
LINE
  5
12A50
330
1296E
100
AcDbEntity
  8
11機器
100
AcDbLine
 10
1174.299999999999
 20
534.0682888840015
 30
0.0
 11
1174.299999999999
 21
533.2000000000003
 31
0.0
  0
LINE
  5
12A51
330
1296E
100
AcDbEntity
  8
11機器
100
AcDbLine
 10
1192.281483473998
 20
529.9999999999995
 30
0.0
 11
1192.281483473998
 21
533.2000000000003
 31
0.0
  0
LINE
  5
12A52
330
1296E
100
AcDbEntity
  8
11機器
100
AcDbLine
 10
1192.281483473998
 20
-100.381980514001
 30
0.0
 11
1192.281483473998
 21
-102.0
 31
0.0
  0
LINE
  5
12A53
330
1296E
100
AcDbEntity
  8
11機器
100
AcDbLine
 10
1197.281483473998
 20
529.9999999999995
 30
0.0
 11
1197.281483473998
 21
533.2000000000003
 31
0.0
  0
LINE
  5
12A54
330
1296E
100
AcDbEntity
  8
11機器
100
AcDbLine
 10
1197.281483473998
 20
-100.381980514001
 30
0.0
 11
1197.281483473998
 21
-102.0
 31
0.0
  0
LINE
  5
12A55
330
1296E
100
AcDbEntity
  8
11機器
100
AcDbLine
 10
1259.6
 20
-25.0
 30
0.0
 11
1254.6
 21
-30.0
 31
0.0
  0
LINE
  5
12A56
330
1296E
100
AcDbEntity
  8
11機器
100
AcDbLine
 10
1201.599999999999
 20
529.9999999999995
 30
0.0
 11
1201.599999999999
 21
513.9999999999995
 31
0.0
  0
LINE
  5
12A57
330
1296E
100
AcDbEntity
  8
11機器
100
AcDbLine
 10
1203.599999999999
 20
-82.79999999999927
 30
0.0
 11
1203.599999999999
 21
527.4999999999995
 31
0.0
  0
LINE
  5
12A58
330
1296E
100
AcDbEntity
  8
11機器
100
AcDbLine
 10
1207.299999999999
 20
532.1698966180006
 30
0.0
 11
1207.299999999999
 21
533.0999999999981
 31
0.0
  0
LINE
  5
12A59
330
1296E
100
AcDbEntity
  8
11機器
100
AcDbLine
 10
1212.299999999999
 20
532.1698966180006
 30
0.0
 11
1212.299999999999
 21
533.0999999999981
 31
0.0
  0
LINE
  5
12A5A
330
1296E
100
AcDbEntity
  8
11機器
100
AcDbLine
 10
1212.299999999999
 20
533.0999999999981
 30
0.0
 11
1212.299999999999
 21
543.0999999999981
 31
0.0
  0
LINE
  5
12A5B
330
1296E
100
AcDbEntity
  8
11機器
100
AcDbLine
 10
1214.6
 20
-98.79999999999927
 30
0.0
 11
1214.6
 21
-96.31415926399859
 31
0.0
  0
LINE
  5
12A5C
330
1296E
100
AcDbEntity
  8
11機器
100
AcDbLine
 10
1216.259999999998
 20
527.7000000000003
 30
0.0
 11
1216.259999999998
 21
527.4999999999995
 31
0.0
  0
LINE
  5
12A5D
330
1296E
100
AcDbEntity
  8
11機器
100
AcDbLine
 10
1217.299999999999
 20
-97.19999999999709
 30
0.0
 11
1217.299999999999
 21
-96.5
 31
0.0
  0
LINE
  5
12A5E
330
1296E
100
AcDbEntity
  8
11機器
100
AcDbLine
 10
1219.6
 20
-100.381980514001
 30
0.0
 11
1219.6
 21
-98.79999999999927
 31
0.0
  0
LINE
  5
12A5F
330
1296E
100
AcDbEntity
  8
11機器
100
AcDbLine
 10
1219.6
 20
527.4999999999995
 30
0.0
 11
1219.6
 21
-96.5
 31
0.0
  0
LINE
  5
12A60
330
1296E
100
AcDbEntity
  8
11機器
100
AcDbLine
 10
1219.799999999999
 20
-76.70000000000073
 30
0.0
 11
1219.799999999999
 21
-97.0
 31
0.0
  0
LINE
  5
12A61
330
1296E
100
AcDbEntity
  8
11機器
100
AcDbLine
 10
1220.899999999998
 20
-100.4623466619996
 30
0.0
 11
1220.899999999998
 21
-100.1517638080004
 31
0.0
  0
LINE
  5
12A62
330
1296E
100
AcDbEntity
  8
11機器
100
AcDbLine
 10
1220.899999999998
 20
531.0623466639986
 30
0.0
 11
1220.899999999998
 21
531.3934394839994
 31
0.0
  0
LINE
  5
12A63
330
1296E
100
AcDbEntity
  8
11機器
100
AcDbLine
 10
1220.899999999998
 20
531.3934394839994
 30
0.0
 11
1220.899999999998
 21
532.1698966180006
 31
0.0
  0
LINE
  5
12A64
330
1296E
100
AcDbEntity
  8
11機器
100
AcDbLine
 10
1220.899999999998
 20
531.0623466639986
 30
0.0
 11
1220.899999999998
 21
530.7517638099994
 31
0.0
  0
LINE
  5
12A65
330
1296E
100
AcDbEntity
  8
11機器
100
AcDbLine
 10
1220.899999999998
 20
-100.7729295159988
 30
0.0
 11
1220.899999999998
 21
-101.5493866519973
 31
0.0
  0
LINE
  5
12A66
330
1296E
100
AcDbEntity
  8
11機器
100
AcDbLine
 10
1220.899999999998
 20
-100.4623466619996
 30
0.0
 11
1220.899999999998
 21
-100.6353749859991
 31
0.0
  0
LINE
  5
12A67
330
1296E
100
AcDbEntity
  8
11機器
100
AcDbLine
 10
1221.099999999999
 20
530.900000000001
 30
0.0
 11
1221.099999999999
 21
530.8271471200019
 31
0.0
  0
LINE
  5
12A68
330
1296E
100
AcDbEntity
  8
11機器
100
AcDbLine
 10
1221.099999999999
 20
-100.0999999999985
 30
0.0
 11
1221.099999999999
 21
-100.2999999999993
 31
0.0
  0
LINE
  5
12A69
330
1296E
100
AcDbEntity
  8
11機器
100
AcDbLine
 10
1221.4
 20
-97.0
 30
0.0
 11
1221.4
 21
-76.70000000000073
 31
0.0
  0
LINE
  5
12A6A
330
1296E
100
AcDbEntity
  8
11機器
100
AcDbLine
 10
1222.299999999999
 20
-99.4832402159991
 30
0.0
 11
1222.299999999999
 21
-100.0999999999985
 31
0.0
  0
LINE
  5
12A6B
330
1296E
100
AcDbEntity
  8
11機器
100
AcDbLine
 10
1222.349386651998
 20
531.3167597839997
 30
0.0
 11
1222.349386651998
 21
507.6814834739994
 31
0.0
  0
LINE
  5
12A6C
330
1296E
100
AcDbEntity
  8
11機器
100
AcDbLine
 10
1222.349386651998
 20
410.0
 30
0.0
 11
1222.349386651998
 21
30.0
 31
0.0
  0
LINE
  5
12A6D
330
1296E
100
AcDbEntity
  8
11機器
100
AcDbLine
 10
1222.349386651998
 20
-30.0
 30
0.0
 11
1222.349386651998
 21
-31.68148347399983
 31
0.0
  0
LINE
  5
12A6E
330
1296E
100
AcDbEntity
  8
11機器
100
AcDbLine
 10
1222.349386651998
 20
-76.4814834739991
 30
0.0
 11
1222.349386651998
 21
-78.50206672000058
 31
0.0
  0
LINE
  5
12A6F
330
1296E
100
AcDbEntity
  8
11機器
100
AcDbLine
 10
1222.349386651998
 20
-90.79793327999869
 30
0.0
 11
1222.349386651998
 21
-99.4832402159991
 31
0.0
  0
LINE
  5
12A70
330
1296E
100
AcDbEntity
  8
11機器
100
AcDbLine
 10
1222.4
 20
-78.50206672000058
 30
0.0
 11
1222.4
 21
-90.79793327999869
 31
0.0
  0
LINE
  5
12A71
330
1296E
100
AcDbEntity
  8
11機器
100
AcDbLine
 10
1222.799999999999
 20
-76.4814834739991
 30
0.0
 11
1222.799999999999
 21
-31.68148347399983
 31
0.0
  0
LINE
  5
12A72
330
1296E
100
AcDbEntity
  8
11機器
100
AcDbLine
 10
1222.799999999999
 20
469.9999999999995
 30
0.0
 11
1222.799999999999
 21
507.6814834739994
 31
0.0
  0
LINE
  5
12A73
330
1296E
100
AcDbEntity
  8
11機器
100
AcDbLine
 10
1226.9
 20
-89.38626842799931
 30
0.0
 11
1226.9
 21
-80.38626842799931
 31
0.0
  0
LINE
  5
12A74
330
1296E
100
AcDbEntity
  8
11機器
100
AcDbLine
 10
1259.6
 20
464.9999999999995
 30
0.0
 11
1259.6
 21
415.0
 31
0.0
  0
LINE
  5
12A75
330
1296E
100
AcDbEntity
  8
11機器
100
AcDbLine
 10
1259.6
 20
25.0
 30
0.0
 11
1259.6
 21
-25.0
 31
0.0
  0
LINE
  5
12A76
330
1296E
100
AcDbEntity
  8
11機器
100
AcDbLine
 10
1254.6
 20
469.9999999999995
 30
0.0
 11
1259.6
 21
464.9999999999995
 31
0.0
  0
CIRCLE
  5
12A77
330
1296E
100
AcDbEntity
  8
11機器
100
AcDbCircle
 10
0.0
 20
0.0
 30
0.0
 40
6.0
  0
CIRCLE
  5
12A78
330
1296E
100
AcDbEntity
  8
11機器
100
AcDbCircle
 10
0.0
 20
440.0
 30
0.0
 40
6.0
  0
CIRCLE
  5
12A79
330
1296E
100
AcDbEntity
  8
11機器
100
AcDbCircle
 10
1245.599999999999
 20
0.0
 30
0.0
 40
6.0
  0
CIRCLE
  5
12A7A
330
1296E
100
AcDbEntity
  8
11機器
100
AcDbCircle
 10
1245.599999999999
 20
440.0
 30
0.0
 40
6.0
  0
ARC
  5
12A7B
330
1296E
100
AcDbEntity
  8
11機器
100
AcDbCircle
 10
28.49999999999818
 20
527.4999999999995
 30
0.0
 40
2.5
100
AcDbArc
 50
90.0
 51
180.0
  0
ARC
  5
12A7C
330
1296E
100
AcDbEntity
  8
11機器
100
AcDbCircle
 10
1217.1
 20
527.4999999999995
 30
0.0
 40
2.5
100
AcDbArc
 50
0.0
 51
90.0
  0
ARC
  5
12A7D
330
1296E
100
AcDbEntity
  8
11機器
100
AcDbCircle
 10
1219.6
 20
-97.0
 30
0.0
 40
1.799999999999999
100
AcDbArc
 50
270.0
 51
0.0
  0
ARC
  5
12A7E
330
1296E
100
AcDbEntity
  8
11機器
100
AcDbCircle
 10
25.99999999999818
 20
-97.0
 30
0.0
 40
1.799999999999999
100
AcDbArc
 50
180.0
 51
270.0
  0
ARC
  5
12A7F
330
1296E
100
AcDbEntity
  8
11機器
100
AcDbCircle
 10
23.69999999999709
 20
-100.0999999999985
 30
0.0
 40
1.4
100
AcDbArc
 50
180.0
 51
270.0
  0
ARC
  5
12A80
330
1296E
100
AcDbEntity
  8
11機器
100
AcDbCircle
 10
23.69999999999709
 20
530.7000000000003
 30
0.0
 40
1.4
100
AcDbArc
 50
90.0
 51
180.0
  0
ARC
  5
12A81
330
1296E
100
AcDbEntity
  8
11機器
100
AcDbCircle
 10
1220.899999999998
 20
-100.0999999999985
 30
0.0
 40
1.4
100
AcDbArc
 50
270.0
 51
0.0
  0
ARC
  5
12A82
330
1296E
100
AcDbEntity
  8
11機器
100
AcDbCircle
 10
1220.899999999998
 20
530.7000000000003
 30
0.0
 40
1.4
100
AcDbArc
 50
26.20239760905063
 51
90.0
  0
ARC
  5
12A83
330
1296E
100
AcDbEntity
  8
11機器
100
AcDbCircle
 10
25.99999999999818
 20
-97.0
 30
0.0
 40
0.2
100
AcDbArc
 50
180.0
 51
270.0
  0
ARC
  5
12A84
330
1296E
100
AcDbEntity
  8
11機器
100
AcDbCircle
 10
1219.6
 20
-97.0
 30
0.0
 40
0.2
100
AcDbArc
 50
270.0
 51
0.0
  0
ARC
  5
12A85
330
1296E
100
AcDbEntity
  8
11機器
100
AcDbCircle
 10
23.69999999999709
 20
-100.0999999999985
 30
0.0
 40
0.2
100
AcDbArc
 50
180.0
 51
270.0
  0
ARC
  5
12A86
330
1296E
100
AcDbEntity
  8
11機器
100
AcDbCircle
 10
23.69999999999709
 20
530.7000000000003
 30
0.0
 40
0.2
100
AcDbArc
 50
90.0
 51
180.0
  0
ARC
  5
12A87
330
1296E
100
AcDbEntity
  8
11機器
100
AcDbCircle
 10
1217.1
 20
527.4999999999995
 30
0.0
 40
0.2
100
AcDbArc
 50
0.0
 51
90.0
  0
ARC
  5
12A88
330
1296E
100
AcDbEntity
  8
11機器
100
AcDbCircle
 10
28.49999999999818
 20
527.4999999999995
 30
0.0
 40
0.2
100
AcDbArc
 50
90.0
 51
180.0
  0
LINE
  5
12A89
330
1296E
100
AcDbEntity
  8
11機器
100
AcDbLine
 10
1203.599999999999
 20
527.4999999999995
 30
0.0
 11
1219.6
 21
527.4999999999995
 31
0.0
  0
LINE
  5
12A8A
330
1296E
100
AcDbEntity
  8
11機器
100
AcDbLine
 10
1217.299999999999
 20
-96.5
 30
0.0
 11
1219.6
 21
-96.5
 31
0.0
  0
LINE
  5
12A8B
330
1296E
100
AcDbEntity
  8
11機器
100
AcDbLine
 10
1217.299999999999
 20
-96.5
 30
0.0
 11
1203.599999999999
 21
-82.79999999999927
 31
0.0
  0
LINE
  5
12A8C
330
1296E
100
AcDbEntity
  8
11機器
100
AcDbLine
 10
1203.599999999999
 20
-82.79999999999927
 30
0.0
 11
1203.599999999999
 21
527.4999999999995
 31
0.0
  0
LINE
  5
12A8D
330
1296E
100
AcDbEntity
  8
11機器
100
AcDbLine
 10
1219.6
 20
527.4999999999995
 30
0.0
 11
1219.6
 21
-96.5
 31
0.0
  0
LINE
  5
12A8E
330
1296E
100
AcDbEntity
  8
11機器
100
AcDbLine
 10
32.30005912719935
 20
532.100000001748
 30
0.0
 11
32.29999999999927
 21
533.0999999999981
 31
0.0
  0
ENDBLK
  5
12A90
330
1296E
100
AcDbEntity
  8
0
100
AcDbBlockEnd
  0
BLOCK
  5
12B16
330
12B15
100
AcDbEntity
  8
0
100
AcDbBlockBegin
  2
*D1749
 70
     1
 10
0.0
 20
0.0
 30
0.0
  3
*D1749
  1

  0
LINE
  5
12B18
330
12B15
100
AcDbEntity
  8
01注記寸法
 62
     0
370
    -2
100
AcDbLine
 10
670.0
 20
2485.0
 30
0.0
 11
670.0
 21
2580.0
 31
0.0
  0
LINE
  5
12B19
330
12B15
100
AcDbEntity
  8
01注記寸法
 62
     0
370
    -2
100
AcDbLine
 10
647.0
 20
2415.0
 30
0.0
 11
647.0
 21
2580.0
 31
0.0
  0
LINE
  5
12B1A
330
12B15
100
AcDbEntity
  8
01注記寸法
 62
     0
370
    -2
100
AcDbLine
 10
617.0
 20
2570.0
 30
0.0
 11
532.1269225959736
 21
2570.0
 31
0.0
  0
LINE
  5
12B1B
330
12B15
100
AcDbEntity
  8
01注記寸法
 62
     0
370
    -2
100
AcDbLine
 10
670.0
 20
2570.0
 30
0.0
 11
647.0
 21
2570.0
 31
0.0
  0
LINE
  5
12B1C
330
12B15
100
AcDbEntity
  8
01注記寸法
 62
     0
370
    -2
100
AcDbLine
 10
700.0
 20
2570.0
 30
0.0
 11
730.0
 21
2570.0
 31
0.0
  0
INSERT
  5
12B1D
330
12B15
100
AcDbEntity
  8
01注記寸法
 62
     0
370
    -2
100
AcDbBlockReference
  2
_Open
 10
670.0
 20
2570.0
 30
0.0
 41
30.0
 42
30.0
 43
30.0
 50
180.0
  0
INSERT
  5
12B1E
330
12B15
100
AcDbEntity
  8
01注記寸法
 62
     0
370
    -2
100
AcDbBlockReference
  2
_Open
 10
647.0
 20
2570.0
 30
0.0
 41
30.0
 42
30.0
 43
30.0
  0
MTEXT
  5
12B1F
330
12B15
100
AcDbEntity
  8
01注記寸法
 62
     0
100
AcDbMText
 10
559.5634612979868
 20
2595.005627110166
 30
0.0
 40
30.0
 41
0.0
 71
     5
 72
     1
  1
23
 73
     1
 44
1.0
  0
POINT
  5
12B20
330
12B15
100
AcDbEntity
  8
Defpoints
 62
     0
100
AcDbPoint
 10
670.0
 20
2470.0
 30
0.0
  0
POINT
  5
12B21
330
12B15
100
AcDbEntity
  8
Defpoints
 62
     0
100
AcDbPoint
 10
647.0
 20
2400.0
 30
0.0
  0
POINT
  5
12B22
330
12B15
100
AcDbEntity
  8
Defpoints
 62
     0
100
AcDbPoint
 10
647.0
 20
2570.0
 30
0.0
  0
ENDBLK
  5
12B17
330
12B15
100
AcDbEntity
  8
0
100
AcDbBlockEnd
  0
BLOCK
  5
12B25
330
12B24
100
AcDbEntity
  8
0
100
AcDbBlockBegin
  2
*D1750
 70
     1
 10
0.0
 20
0.0
 30
0.0
  3
*D1750
  1

  0
LINE
  5
12B27
330
12B24
100
AcDbEntity
  8
01注記寸法
 62
     0
370
    -2
100
AcDbLine
 10
670.0
 20
2485.0
 30
0.0
 11
670.0
 21
2580.0
 31
0.0
  0
LINE
  5
12B28
330
12B24
100
AcDbEntity
  8
01注記寸法
 62
     0
370
    -2
100
AcDbLine
 10
1870.0
 20
2485.0
 30
0.0
 11
1870.0
 21
2580.0
 31
0.0
  0
LINE
  5
12B29
330
12B24
100
AcDbEntity
  8
01注記寸法
 62
     0
370
    -2
100
AcDbLine
 10
700.0
 20
2570.0
 30
0.0
 11
1840.0
 21
2570.0
 31
0.0
  0
INSERT
  5
12B2A
330
12B24
100
AcDbEntity
  8
01注記寸法
 62
     0
370
    -2
100
AcDbBlockReference
  2
_Open
 10
670.0
 20
2570.0
 30
0.0
 41
30.0
 42
30.0
 43
30.0
 50
180.0
  0
INSERT
  5
12B2B
330
12B24
100
AcDbEntity
  8
01注記寸法
 62
     0
370
    -2
100
AcDbBlockReference
  2
_Open
 10
1870.0
 20
2570.0
 30
0.0
 41
30.0
 42
30.0
 43
30.0
  0
MTEXT
  5
12B2C
330
12B24
100
AcDbEntity
  8
01注記寸法
 62
     0
100
AcDbMText
 10
1270.0
 20
2595.005627110166
 30
0.0
 40
30.0
 41
0.0
 71
     5
 72
     1
  1
1200
 73
     1
 44
1.0
  0
POINT
  5
12B2D
330
12B24
100
AcDbEntity
  8
Defpoints
 62
     0
100
AcDbPoint
 10
670.0
 20
2470.0
 30
0.0
  0
POINT
  5
12B2E
330
12B24
100
AcDbEntity
  8
Defpoints
 62
     0
100
AcDbPoint
 10
1870.0
 20
2470.0
 30
0.0
  0
POINT
  5
12B2F
330
12B24
100
AcDbEntity
  8
Defpoints
 62
     0
100
AcDbPoint
 10
1870.0
 20
2570.0
 30
0.0
  0
ENDBLK
  5
12B26
330
12B24
100
AcDbEntity
  8
0
100
AcDbBlockEnd
  0
BLOCK
  5
12B32
330
12B31
100
AcDbEntity
  8
0
100
AcDbBlockBegin
  2
*D1751
 70
     1
 10
0.0
 20
0.0
 30
0.0
  3
*D1751
  1

  0
LINE
  5
12B34
330
12B31
100
AcDbEntity
  8
01注記寸法
 62
     0
370
    -2
100
AcDbLine
 10
1870.0
 20
2485.0
 30
0.0
 11
1870.0
 21
2580.0
 31
0.0
  0
LINE
  5
12B35
330
12B31
100
AcDbEntity
  8
01注記寸法
 62
     0
370
    -2
100
AcDbLine
 10
1893.0
 20
2415.0
 30
0.0
 11
1893.0
 21
2580.0
 31
0.0
  0
LINE
  5
12B36
330
12B31
100
AcDbEntity
  8
01注記寸法
 62
     0
370
    -2
100
AcDbLine
 10
1923.0
 20
2570.0
 30
0.0
 11
2007.873077404026
 21
2570.0
 31
0.0
  0
LINE
  5
12B37
330
12B31
100
AcDbEntity
  8
01注記寸法
 62
     0
370
    -2
100
AcDbLine
 10
1870.0
 20
2570.0
 30
0.0
 11
1893.0
 21
2570.0
 31
0.0
  0
LINE
  5
12B38
330
12B31
100
AcDbEntity
  8
01注記寸法
 62
     0
370
    -2
100
AcDbLine
 10
1840.0
 20
2570.0
 30
0.0
 11
1810.0
 21
2570.0
 31
0.0
  0
INSERT
  5
12B39
330
12B31
100
AcDbEntity
  8
01注記寸法
 62
     0
370
    -2
100
AcDbBlockReference
  2
_Open
 10
1870.0
 20
2570.0
 30
0.0
 41
30.0
 42
30.0
 43
30.0
  0
INSERT
  5
12B3A
330
12B31
100
AcDbEntity
  8
01注記寸法
 62
     0
370
    -2
100
AcDbBlockReference
  2
_Open
 10
1893.0
 20
2570.0
 30
0.0
 41
30.0
 42
30.0
 43
30.0
 50
180.0
  0
MTEXT
  5
12B3B
330
12B31
100
AcDbEntity
  8
01注記寸法
 62
     0
100
AcDbMText
 10
1980.436538702013
 20
2595.005627110166
 30
0.0
 40
30.0
 41
0.0
 71
     5
 72
     1
  1
23
 73
     1
 44
1.0
  0
POINT
  5
12B3C
330
12B31
100
AcDbEntity
  8
Defpoints
 62
     0
100
AcDbPoint
 10
1870.0
 20
2470.0
 30
0.0
  0
POINT
  5
12B3D
330
12B31
100
AcDbEntity
  8
Defpoints
 62
     0
100
AcDbPoint
 10
1893.0
 20
2400.0
 30
0.0
  0
POINT
  5
12B3E
330
12B31
100
AcDbEntity
  8
Defpoints
 62
     0
100
AcDbPoint
 10
1893.0
 20
2570.0
 30
0.0
  0
ENDBLK
  5
12B33
330
12B31
100
AcDbEntity
  8
0
100
AcDbBlockEnd
  0
BLOCK
  5
12B41
330
12B40
100
AcDbEntity
  8
0
100
AcDbBlockBegin
  2
*D1752
 70
     1
 10
0.0
 20
0.0
 30
0.0
  3
*D1752
  1

  0
LINE
  5
12B43
330
12B40
100
AcDbEntity
  8
01注記寸法
 62
     0
370
    -2
100
AcDbLine
 10
655.0
 20
2470.0
 30
0.0
 11
510.0
 21
2470.0
 31
0.0
  0
LINE
  5
12B44
330
12B40
100
AcDbEntity
  8
01注記寸法
 62
     0
370
    -2
100
AcDbLine
 10
612.0
 20
2380.0
 30
0.0
 11
510.0
 21
2380.0
 31
0.0
  0
LINE
  5
12B45
330
12B40
100
AcDbEntity
  8
01注記寸法
 62
     0
370
    -2
100
AcDbLine
 10
520.0
 20
2440.0
 30
0.0
 11
520.0
 21
2410.0
 31
0.0
  0
INSERT
  5
12B46
330
12B40
100
AcDbEntity
  8
01注記寸法
 62
     0
370
    -2
100
AcDbBlockReference
  2
_Open
 10
520.0
 20
2470.0
 30
0.0
 41
30.0
 42
30.0
 43
30.0
 50
90.0
  0
INSERT
  5
12B47
330
12B40
100
AcDbEntity
  8
01注記寸法
 62
     0
370
    -2
100
AcDbBlockReference
  2
_Open
 10
520.0
 20
2380.0
 30
0.0
 41
30.0
 42
30.0
 43
30.0
 50
270.0
  0
MTEXT
  5
12B48
330
12B40
100
AcDbEntity
  8
01注記寸法
 62
     0
100
AcDbMText
 10
495.0
 20
2425.0
 30
0.0
 40
30.0
 41
0.0
 71
     5
 72
     1
  1
90
 11
0.0
 21
1.0
 31
0.0
 73
     1
 44
1.0
  0
POINT
  5
12B49
330
12B40
100
AcDbEntity
  8
Defpoints
 62
     0
100
AcDbPoint
 10
670.0
 20
2470.0
 30
0.0
  0
POINT
  5
12B4A
330
12B40
100
AcDbEntity
  8
Defpoints
 62
     0
100
AcDbPoint
 10
627.0
 20
2380.0
 30
0.0
  0
POINT
  5
12B4B
330
12B40
100
AcDbEntity
  8
Defpoints
 62
     0
100
AcDbPoint
 10
520.0
 20
2380.0
 30
0.0
  0
ENDBLK
  5
12B42
330
12B40
100
AcDbEntity
  8
0
100
AcDbBlockEnd
  0
BLOCK
  5
12B4E
330
12B4D
100
AcDbEntity
  8
0
100
AcDbBlockBegin
  2
*D1753
 70
     1
 10
0.0
 20
0.0
 30
0.0
  3
*D1753
  1

  0
LINE
  5
12B50
330
12B4D
100
AcDbEntity
  8
01注記寸法
 62
     0
370
    -2
100
AcDbLine
 10
612.0
 20
2380.0
 30
0.0
 11
510.0
 21
2380.0
 31
0.0
  0
LINE
  5
12B51
330
12B4D
100
AcDbEntity
  8
01注記寸法
 62
     0
370
    -2
100
AcDbLine
 10
612.0
 20
1940.0
 30
0.0
 11
510.0
 21
1940.0
 31
0.0
  0
LINE
  5
12B52
330
12B4D
100
AcDbEntity
  8
01注記寸法
 62
     0
370
    -2
100
AcDbLine
 10
520.0
 20
2350.0
 30
0.0
 11
520.0
 21
1970.0
 31
0.0
  0
INSERT
  5
12B53
330
12B4D
100
AcDbEntity
  8
01注記寸法
 62
     0
370
    -2
100
AcDbBlockReference
  2
_Open
 10
520.0
 20
2380.0
 30
0.0
 41
30.0
 42
30.0
 43
30.0
 50
90.0
  0
INSERT
  5
12B54
330
12B4D
100
AcDbEntity
  8
01注記寸法
 62
     0
370
    -2
100
AcDbBlockReference
  2
_Open
 10
520.0
 20
1940.0
 30
0.0
 41
30.0
 42
30.0
 43
30.0
 50
270.0
  0
MTEXT
  5
12B55
330
12B4D
100
AcDbEntity
  8
01注記寸法
 62
     0
100
AcDbMText
 10
495.0
 20
2160.0
 30
0.0
 40
30.0
 41
0.0
 71
     5
 72
     1
  1
440
 11
0.0
 21
1.0
 31
0.0
 73
     1
 44
1.0
  0
POINT
  5
12B56
330
12B4D
100
AcDbEntity
  8
Defpoints
 62
     0
100
AcDbPoint
 10
627.0
 20
2380.0
 30
0.0
  0
POINT
  5
12B57
330
12B4D
100
AcDbEntity
  8
Defpoints
 62
     0
100
AcDbPoint
 10
627.0
 20
1940.0
 30
0.0
  0
POINT
  5
12B58
330
12B4D
100
AcDbEntity
  8
Defpoints
 62
     0
100
AcDbPoint
 10
520.0
 20
1940.0
 30
0.0
  0
ENDBLK
  5
12B4F
330
12B4D
100
AcDbEntity
  8
0
100
AcDbBlockEnd
  0
BLOCK
  5
12B5B
330
12B5A
100
AcDbEntity
  8
0
100
AcDbBlockBegin
  2
*D1754
 70
     1
 10
0.0
 20
0.0
 30
0.0
  3
*D1754
  1

  0
LINE
  5
12B5D
330
12B5A
100
AcDbEntity
  8
01注記寸法
 62
     0
370
    -2
100
AcDbLine
 10
612.0
 20
1940.0
 30
0.0
 11
510.0
 21
1940.0
 31
0.0
  0
LINE
  5
12B5E
330
12B5A
100
AcDbEntity
  8
01注記寸法
 62
     0
370
    -2
100
AcDbLine
 10
655.0
 20
1840.0
 30
0.0
 11
510.0
 21
1840.0
 31
0.0
  0
LINE
  5
12B5F
330
12B5A
100
AcDbEntity
  8
01注記寸法
 62
     0
370
    -2
100
AcDbLine
 10
520.0
 20
1910.0
 30
0.0
 11
520.0
 21
1870.0
 31
0.0
  0
INSERT
  5
12B60
330
12B5A
100
AcDbEntity
  8
01注記寸法
 62
     0
370
    -2
100
AcDbBlockReference
  2
_Open
 10
520.0
 20
1940.0
 30
0.0
 41
30.0
 42
30.0
 43
30.0
 50
90.0
  0
INSERT
  5
12B61
330
12B5A
100
AcDbEntity
  8
01注記寸法
 62
     0
370
    -2
100
AcDbBlockReference
  2
_Open
 10
520.0
 20
1840.0
 30
0.0
 41
30.0
 42
30.0
 43
30.0
 50
270.0
  0
MTEXT
  5
12B62
330
12B5A
100
AcDbEntity
  8
01注記寸法
 62
     0
100
AcDbMText
 10
494.9943728898336
 20
1890.0
 30
0.0
 40
30.0
 41
0.0
 71
     5
 72
     1
  1
100
 11
0.0
 21
1.0
 31
0.0
 73
     1
 44
1.0
  0
POINT
  5
12B63
330
12B5A
100
AcDbEntity
  8
Defpoints
 62
     0
100
AcDbPoint
 10
627.0
 20
1940.0
 30
0.0
  0
POINT
  5
12B64
330
12B5A
100
AcDbEntity
  8
Defpoints
 62
     0
100
AcDbPoint
 10
670.0
 20
1840.0
 30
0.0
  0
POINT
  5
12B65
330
12B5A
100
AcDbEntity
  8
Defpoints
 62
     0
100
AcDbPoint
 10
520.0
 20
1840.0
 30
0.0
  0
ENDBLK
  5
12B5C
330
12B5A
100
AcDbEntity
  8
0
100
AcDbBlockEnd
  0
BLOCK
  5
12B6B
330
12B6A
100
AcDbEntity
  8
0
100
AcDbBlockBegin
  2
*D1755
 70
     1
 10
0.0
 20
0.0
 30
0.0
  3
*D1755
  1

  0
LINE
  5
12B6D
330
12B6A
100
AcDbEntity
  8
01注記寸法
 62
     0
370
    -2
100
AcDbLine
 10
1920.0
 20
1900.0
 30
0.0
 11
1920.0
 21
1730.0
 31
0.0
  0
LINE
  5
12B6E
330
12B6A
100
AcDbEntity
  8
01注記寸法
 62
     0
370
    -2
100
AcDbLine
 10
1870.0
 20
1825.0
 30
0.0
 11
1870.0
 21
1730.0
 31
0.0
  0
LINE
  5
12B6F
330
12B6A
100
AcDbEntity
  8
01注記寸法
 62
     0
370
    -2
100
AcDbLine
 10
1840.0
 20
1740.0
 30
0.0
 11
1754.203607602851
 21
1740.0
 31
0.0
  0
LINE
  5
12B70
330
12B6A
100
AcDbEntity
  8
01注記寸法
 62
     0
370
    -2
100
AcDbLine
 10
1920.0
 20
1740.0
 30
0.0
 11
1870.0
 21
1740.0
 31
0.0
  0
LINE
  5
12B71
330
12B6A
100
AcDbEntity
  8
01注記寸法
 62
     0
370
    -2
100
AcDbLine
 10
1950.0
 20
1740.0
 30
0.0
 11
1980.0
 21
1740.0
 31
0.0
  0
INSERT
  5
12B72
330
12B6A
100
AcDbEntity
  8
01注記寸法
 62
     0
370
    -2
100
AcDbBlockReference
  2
_Open
 10
1920.0
 20
1740.0
 30
0.0
 41
30.0
 42
30.0
 43
30.0
 50
180.0
  0
INSERT
  5
12B73
330
12B6A
100
AcDbEntity
  8
01注記寸法
 62
     0
370
    -2
100
AcDbBlockReference
  2
_Open
 10
1870.0
 20
1740.0
 30
0.0
 41
30.0
 42
30.0
 43
30.0
  0
MTEXT
  5
12B74
330
12B6A
100
AcDbEntity
  8
01注記寸法
 62
     0
100
AcDbMText
 10
1782.101803801426
 20
1765.005627110166
 30
0.0
 40
30.0
 41
0.0
 71
     5
 72
     1
  1
50
 73
     1
 44
1.0
  0
POINT
  5
12B75
330
12B6A
100
AcDbEntity
  8
Defpoints
 62
     0
100
AcDbPoint
 10
1920.0
 20
1915.0
 30
0.0
  0
POINT
  5
12B76
330
12B6A
100
AcDbEntity
  8
Defpoints
 62
     0
100
AcDbPoint
 10
1870.0
 20
1840.0
 30
0.0
  0
POINT
  5
12B77
330
12B6A
100
AcDbEntity
  8
Defpoints
 62
     0
100
AcDbPoint
 10
1870.0
 20
1740.0
 30
0.0
  0
ENDBLK
  5
12B6C
330
12B6A
100
AcDbEntity
  8
0
100
AcDbBlockEnd
  0
BLOCK
  5
12B7A
330
12B79
100
AcDbEntity
  8
0
100
AcDbBlockBegin
  2
*D1756
 70
     1
 10
0.0
 20
0.0
 30
0.0
  3
*D1756
  1

  0
LINE
  5
12B7C
330
12B79
100
AcDbEntity
  8
01注記寸法
 62
     0
370
    -2
100
AcDbLine
 10
1928.0
 20
1940.0
 30
0.0
 11
2030.0
 21
1940.0
 31
0.0
  0
LINE
  5
12B7D
330
12B79
100
AcDbEntity
  8
01注記寸法
 62
     0
370
    -2
100
AcDbLine
 10
1935.0
 20
1970.0
 30
0.0
 11
2030.0
 21
1970.0
 31
0.0
  0
LINE
  5
12B7E
330
12B79
100
AcDbEntity
  8
01注記寸法
 62
     0
370
    -2
100
AcDbLine
 10
2020.0
 20
2000.0
 30
0.0
 11
2020.0
 21
2085.796392397149
 31
0.0
  0
LINE
  5
12B7F
330
12B79
100
AcDbEntity
  8
01注記寸法
 62
     0
370
    -2
100
AcDbLine
 10
2020.0
 20
1940.0
 30
0.0
 11
2020.0
 21
1970.0
 31
0.0
  0
LINE
  5
12B80
330
12B79
100
AcDbEntity
  8
01注記寸法
 62
     0
370
    -2
100
AcDbLine
 10
2020.0
 20
1910.0
 30
0.0
 11
2020.0
 21
1880.0
 31
0.0
  0
INSERT
  5
12B81
330
12B79
100
AcDbEntity
  8
01注記寸法
 62
     0
370
    -2
100
AcDbBlockReference
  2
_Open
 10
2020.0
 20
1940.0
 30
0.0
 41
30.0
 42
30.0
 43
30.0
 50
90.0
  0
INSERT
  5
12B82
330
12B79
100
AcDbEntity
  8
01注記寸法
 62
     0
370
    -2
100
AcDbBlockReference
  2
_Open
 10
2020.0
 20
1970.0
 30
0.0
 41
30.0
 42
30.0
 43
30.0
 50
270.0
  0
MTEXT
  5
12B83
330
12B79
100
AcDbEntity
  8
01注記寸法
 62
     0
100
AcDbMText
 10
1994.994372889834
 20
2057.898196198575
 30
0.0
 40
30.0
 41
0.0
 71
     5
 72
     1
  1
30
 11
0.0
 21
1.0
 31
0.0
 73
     1
 44
1.0
  0
POINT
  5
12B84
330
12B79
100
AcDbEntity
  8
Defpoints
 62
     0
100
AcDbPoint
 10
1913.0
 20
1940.0
 30
0.0
  0
POINT
  5
12B85
330
12B79
100
AcDbEntity
  8
Defpoints
 62
     0
100
AcDbPoint
 10
1920.0
 20
1970.0
 30
0.0
  0
POINT
  5
12B86
330
12B79
100
AcDbEntity
  8
Defpoints
 62
     0
100
AcDbPoint
 10
2020.0
 20
1970.0
 30
0.0
  0
ENDBLK
  5
12B7B
330
12B79
100
AcDbEntity
  8
0
100
AcDbBlockEnd
  0
BLOCK
  5
12B89
330
12B88
100
AcDbEntity
  8
0
100
AcDbBlockBegin
  2
*D1757
 70
     1
 10
0.0
 20
0.0
 30
0.0
  3
*D1757
  1

  0
LINE
  5
12B8B
330
12B88
100
AcDbEntity
  8
01注記寸法
 62
     0
370
    -2
100
AcDbLine
 10
1930.0
 20
1910.0
 30
0.0
 11
2130.0
 21
1910.0
 31
0.0
  0
LINE
  5
12B8C
330
12B88
100
AcDbEntity
  8
01注記寸法
 62
     0
370
    -2
100
AcDbLine
 10
1935.0
 20
1970.0
 30
0.0
 11
2130.0
 21
1970.0
 31
0.0
  0
LINE
  5
12B8D
330
12B88
100
AcDbEntity
  8
01注記寸法
 62
     0
370
    -2
100
AcDbLine
 10
2120.0
 20
1910.0
 30
0.0
 11
2120.0
 21
1970.0
 31
0.0
  0
LINE
  5
12B8E
330
12B88
100
AcDbEntity
  8
01注記寸法
 62
     0
370
    -2
100
AcDbLine
 10
2120.0
 20
1880.0
 30
0.0
 11
2120.0
 21
1850.0
 31
0.0
  0
LINE
  5
12B8F
330
12B88
100
AcDbEntity
  8
01注記寸法
 62
     0
370
    -2
100
AcDbLine
 10
2120.0
 20
2000.0
 30
0.0
 11
2120.0
 21
2030.0
 31
0.0
  0
INSERT
  5
12B90
330
12B88
100
AcDbEntity
  8
01注記寸法
 62
     0
370
    -2
100
AcDbBlockReference
  2
_Open
 10
2120.0
 20
1910.0
 30
0.0
 41
30.0
 42
30.0
 43
30.0
 50
90.0
  0
INSERT
  5
12B91
330
12B88
100
AcDbEntity
  8
01注記寸法
 62
     0
370
    -2
100
AcDbBlockReference
  2
_Open
 10
2120.0
 20
1970.0
 30
0.0
 41
30.0
 42
30.0
 43
30.0
 50
270.0
  0
MTEXT
  5
12B92
330
12B88
100
AcDbEntity
  8
01注記寸法
 62
     0
100
AcDbMText
 10
2095.0
 20
1940.0
 30
0.0
 40
30.0
 41
0.0
 71
     5
 72
     1
  1
60
 11
0.0
 21
1.0
 31
0.0
 73
     1
 44
1.0
  0
POINT
  5
12B93
330
12B88
100
AcDbEntity
  8
Defpoints
 62
     0
100
AcDbPoint
 10
1915.0
 20
1910.0
 30
0.0
  0
POINT
  5
12B94
330
12B88
100
AcDbEntity
  8
Defpoints
 62
     0
100
AcDbPoint
 10
1920.0
 20
1970.0
 30
0.0
  0
POINT
  5
12B95
330
12B88
100
AcDbEntity
  8
Defpoints
 62
     0
100
AcDbPoint
 10
2120.0
 20
1970.0
 30
0.0
  0
ENDBLK
  5
12B8A
330
12B88
100
AcDbEntity
  8
0
100
AcDbBlockEnd
  0
BLOCK
  5
12BBD
330
12BBC
100
AcDbEntity
  8
0
100
AcDbBlockBegin
  2
*D1760
 70
     1
 10
0.0
 20
0.0
 30
0.0
  3
*D1760
  1

  0
LINE
  5
12BBF
330
12BBC
100
AcDbEntity
  8
01注記寸法
 62
     0
370
    -2
100
AcDbLine
 10
991.2745494146959
 20
860.0056271101652
 30
0.0
 11
937.001697095076
 21
860.0056271101652
 31
0.0
  0
LINE
  5
12BC0
330
12BBC
100
AcDbEntity
  8
01注記寸法
 62
     0
370
    -2
100
AcDbLine
 10
937.001697095076
 20
860.0056271101652
 30
0.0
 11
925.0
 21
819.9999999999989
 31
0.0
  0
LINE
  5
12BC1
330
12BBC
100
AcDbEntity
  8
01注記寸法
 62
     0
370
    -2
100
AcDbLine
 10
950.0
 20
728.3333333333322
 30
0.0
 11
950.0
 21
829.9999999999989
 31
0.0
  0
LINE
  5
12BC2
330
12BBC
100
AcDbEntity
  8
01注記寸法
 62
     0
370
    -2
100
AcDbLine
 10
900.0
 20
734.9999999999989
 30
0.0
 11
900.0
 21
829.9999999999989
 31
0.0
  0
LINE
  5
12BC3
330
12BBC
100
AcDbEntity
  8
01注記寸法
 62
     0
370
    -2
100
AcDbLine
 10
950.0
 20
819.9999999999989
 30
0.0
 11
900.0
 21
819.9999999999989
 31
0.0
  0
LINE
  5
12BC4
330
12BBC
100
AcDbEntity
  8
01注記寸法
 62
     0
370
    -2
100
AcDbLine
 10
980.0
 20
819.9999999999989
 30
0.0
 11
1010.0
 21
819.9999999999989
 31
0.0
  0
LINE
  5
12BC5
330
12BBC
100
AcDbEntity
  8
01注記寸法
 62
     0
370
    -2
100
AcDbLine
 10
870.0
 20
819.9999999999989
 30
0.0
 11
840.0
 21
819.9999999999989
 31
0.0
  0
INSERT
  5
12BC6
330
12BBC
100
AcDbEntity
  8
01注記寸法
 62
     0
370
    -2
100
AcDbBlockReference
  2
_Open
 10
950.0
 20
819.9999999999989
 30
0.0
 41
30.0
 42
30.0
 43
30.0
 50
180.0
  0
INSERT
  5
12BC7
330
12BBC
100
AcDbEntity
  8
01注記寸法
 62
     0
370
    -2
100
AcDbBlockReference
  2
_Open
 10
900.0
 20
819.9999999999989
 30
0.0
 41
30.0
 42
30.0
 43
30.0
  0
MTEXT
  5
12BC8
330
12BBC
100
AcDbEntity
  8
01注記寸法
 62
     0
100
AcDbMText
 10
964.138123254886
 20
885.0112542203315
 30
0.0
 40
30.0
 41
0.0
 71
     5
 72
     1
  1
75
 73
     1
 44
1.0
  0
POINT
  5
12BC9
330
12BBC
100
AcDbEntity
  8
Defpoints
 62
     0
100
AcDbPoint
 10
950.0
 20
713.3333333333322
 30
0.0
  0
POINT
  5
12C11
330
12BBC
100
AcDbEntity
  8
Defpoints
 62
     0
100
AcDbPoint
 10
900.0
 20
719.9999999999989
 30
0.0
  0
POINT
  5
12C12
330
12BBC
100
AcDbEntity
  8
Defpoints
 62
     0
100
AcDbPoint
 10
900.0
 20
819.9999999999989
 30
0.0
  0
ENDBLK
  5
12BBE
330
12BBC
100
AcDbEntity
  8
0
100
AcDbBlockEnd
  0
BLOCK
  5
12BCC
330
12BCB
100
AcDbEntity
  8
0
100
AcDbBlockBegin
  2
*D1761
 70
     1
 10
0.0
 20
0.0
 30
0.0
  3
*D1761
  1

  0
LINE
  5
12BCE
330
12BCB
100
AcDbEntity
  8
01注記寸法
 62
     0
370
    -2
100
AcDbLine
 10
950.0
 20
728.3333333333322
 30
0.0
 11
950.0
 21
829.9999999999989
 31
0.0
  0
LINE
  5
12BCF
330
12BCB
100
AcDbEntity
  8
01注記寸法
 62
     0
370
    -2
100
AcDbLine
 10
1650.0
 20
728.3333333333322
 30
0.0
 11
1650.0
 21
829.9999999999989
 31
0.0
  0
LINE
  5
12BD0
330
12BCB
100
AcDbEntity
  8
01注記寸法
 62
     0
370
    -2
100
AcDbLine
 10
980.0
 20
819.9999999999989
 30
0.0
 11
1620.0
 21
819.9999999999989
 31
0.0
  0
INSERT
  5
12BD1
330
12BCB
100
AcDbEntity
  8
01注記寸法
 62
     0
370
    -2
100
AcDbBlockReference
  2
_Open
 10
950.0
 20
819.9999999999989
 30
0.0
 41
30.0
 42
30.0
 43
30.0
 50
180.0
  0
INSERT
  5
12BD2
330
12BCB
100
AcDbEntity
  8
01注記寸法
 62
     0
370
    -2
100
AcDbBlockReference
  2
_Open
 10
1650.0
 20
819.9999999999989
 30
0.0
 41
30.0
 42
30.0
 43
30.0
  0
MTEXT
  5
12BD3
330
12BCB
100
AcDbEntity
  8
01注記寸法
 62
     0
100
AcDbMText
 10
1300.0
 20
845.0056271101652
 30
0.0
 40
30.0
 41
0.0
 71
     5
 72
     1
  1
1050
 73
     1
 44
1.0
  0
POINT
  5
12BD4
330
12BCB
100
AcDbEntity
  8
Defpoints
 62
     0
100
AcDbPoint
 10
950.0
 20
713.3333333333322
 30
0.0
  0
POINT
  5
12BD5
330
12BCB
100
AcDbEntity
  8
Defpoints
 62
     0
100
AcDbPoint
 10
1650.0
 20
713.3333333333322
 30
0.0
  0
POINT
  5
12BD6
330
12BCB
100
AcDbEntity
  8
Defpoints
 62
     0
100
AcDbPoint
 10
1650.0
 20
819.9999999999989
 30
0.0
  0
ENDBLK
  5
12BCD
330
12BCB
100
AcDbEntity
  8
0
100
AcDbBlockEnd
  0
BLOCK
  5
12BD9
330
12BD8
100
AcDbEntity
  8
0
100
AcDbBlockBegin
  2
*D1762
 70
     1
 10
0.0
 20
0.0
 30
0.0
  3
*D1762
  1

  0
LINE
  5
12BDB
330
12BD8
100
AcDbEntity
  8
01注記寸法
 62
     0
370
    -2
100
AcDbLine
 10
1650.0
 20
728.3333333333322
 30
0.0
 11
1650.0
 21
829.9999999999989
 31
0.0
  0
LINE
  5
12BDC
330
12BD8
100
AcDbEntity
  8
01注記寸法
 62
     0
370
    -2
100
AcDbLine
 10
1700.0
 20
734.9999999999989
 30
0.0
 11
1700.0
 21
829.9999999999989
 31
0.0
  0
LINE
  5
12BDD
330
12BD8
100
AcDbEntity
  8
01注記寸法
 62
     0
370
    -2
100
AcDbLine
 10
1730.0
 20
819.9999999999989
 30
0.0
 11
1814.27285231962
 21
819.9999999999989
 31
0.0
  0
LINE
  5
12BDE
330
12BD8
100
AcDbEntity
  8
01注記寸法
 62
     0
370
    -2
100
AcDbLine
 10
1650.0
 20
819.9999999999989
 30
0.0
 11
1700.0
 21
819.9999999999989
 31
0.0
  0
LINE
  5
12BDF
330
12BD8
100
AcDbEntity
  8
01注記寸法
 62
     0
370
    -2
100
AcDbLine
 10
1620.0
 20
819.9999999999989
 30
0.0
 11
1590.0
 21
819.9999999999989
 31
0.0
  0
INSERT
  5
12BE0
330
12BD8
100
AcDbEntity
  8
01注記寸法
 62
     0
370
    -2
100
AcDbBlockReference
  2
_Open
 10
1650.0
 20
819.9999999999989
 30
0.0
 41
30.0
 42
30.0
 43
30.0
  0
INSERT
  5
12BE1
330
12BD8
100
AcDbEntity
  8
01注記寸法
 62
     0
370
    -2
100
AcDbBlockReference
  2
_Open
 10
1700.0
 20
819.9999999999989
 30
0.0
 41
30.0
 42
30.0
 43
30.0
 50
180.0
  0
MTEXT
  5
12BE2
330
12BD8
100
AcDbEntity
  8
01注記寸法
 62
     0
100
AcDbMText
 10
1787.13642615981
 20
845.0056271101652
 30
0.0
 40
30.0
 41
0.0
 71
     5
 72
     1
  1
75
 73
     1
 44
1.0
  0
POINT
  5
12BE3
330
12BD8
100
AcDbEntity
  8
Defpoints
 62
     0
100
AcDbPoint
 10
1650.0
 20
713.3333333333322
 30
0.0
  0
POINT
  5
12BE4
330
12BD8
100
AcDbEntity
  8
Defpoints
 62
     0
100
AcDbPoint
 10
1700.0
 20
719.9999999999989
 30
0.0
  0
POINT
  5
12BE5
330
12BD8
100
AcDbEntity
  8
Defpoints
 62
     0
100
AcDbPoint
 10
1700.0
 20
819.9999999999989
 30
0.0
  0
ENDBLK
  5
12BDA
330
12BD8
100
AcDbEntity
  8
0
100
AcDbBlockEnd
  0
BLOCK
  5
12BE8
330
12BE7
100
AcDbEntity
  8
0
100
AcDbBlockBegin
  2
*D1763
 70
     1
 10
0.0
 20
0.0
 30
0.0
  3
*D1763
  1

  0
LINE
  5
12BEA
330
12BE7
100
AcDbEntity
  8
01注記寸法
 62
     0
370
    -2
100
AcDbLine
 10
921.6666666666666
 20
699.9999999999989
 30
0.0
 11
790.0
 21
699.9999999999989
 31
0.0
  0
LINE
  5
12BEB
330
12BE7
100
AcDbEntity
  8
01注記寸法
 62
     0
370
    -2
100
AcDbLine
 10
885.0
 20
719.9999999999989
 30
0.0
 11
790.0
 21
719.9999999999989
 31
0.0
  0
LINE
  5
12BEC
330
12BE7
100
AcDbEntity
  8
01注記寸法
 62
     0
370
    -2
100
AcDbLine
 10
800.0
 20
749.9999999999989
 30
0.0
 11
800.0
 21
835.7963923971479
 31
0.0
  0
LINE
  5
12BED
330
12BE7
100
AcDbEntity
  8
01注記寸法
 62
     0
370
    -2
100
AcDbLine
 10
800.0
 20
699.9999999999989
 30
0.0
 11
800.0
 21
719.9999999999989
 31
0.0
  0
LINE
  5
12BEE
330
12BE7
100
AcDbEntity
  8
01注記寸法
 62
     0
370
    -2
100
AcDbLine
 10
800.0
 20
669.9999999999989
 30
0.0
 11
800.0
 21
639.9999999999989
 31
0.0
  0
INSERT
  5
12BEF
330
12BE7
100
AcDbEntity
  8
01注記寸法
 62
     0
370
    -2
100
AcDbBlockReference
  2
_Open
 10
800.0
 20
699.9999999999989
 30
0.0
 41
30.0
 42
30.0
 43
30.0
 50
90.0
  0
INSERT
  5
12BF0
330
12BE7
100
AcDbEntity
  8
01注記寸法
 62
     0
370
    -2
100
AcDbBlockReference
  2
_Open
 10
800.0
 20
719.9999999999989
 30
0.0
 41
30.0
 42
30.0
 43
30.0
 50
270.0
  0
MTEXT
  5
12BF1
330
12BE7
100
AcDbEntity
  8
01注記寸法
 62
     0
100
AcDbMText
 10
774.9943728898337
 20
807.8981961985734
 30
0.0
 40
30.0
 41
0.0
 71
     5
 72
     1
  1
30
 11
0.0
 21
1.0
 31
0.0
 73
     1
 44
1.0
  0
POINT
  5
12BF2
330
12BE7
100
AcDbEntity
  8
Defpoints
 62
     0
100
AcDbPoint
 10
936.6666666666666
 20
699.9999999999989
 30
0.0
  0
POINT
  5
12BF3
330
12BE7
100
AcDbEntity
  8
Defpoints
 62
     0
100
AcDbPoint
 10
900.0
 20
719.9999999999989
 30
0.0
  0
POINT
  5
12BF4
330
12BE7
100
AcDbEntity
  8
Defpoints
 62
     0
100
AcDbPoint
 10
800.0
 20
719.9999999999989
 30
0.0
  0
ENDBLK
  5
12BE9
330
12BE7
100
AcDbEntity
  8
0
100
AcDbBlockEnd
  0
BLOCK
  5
12BF7
330
12BF6
100
AcDbEntity
  8
0
100
AcDbBlockBegin
  2
*D1764
 70
     1
 10
0.0
 20
0.0
 30
0.0
  3
*D1764
  1

  0
LINE
  5
12BF9
330
12BF6
100
AcDbEntity
  8
01注記寸法
 62
     0
370
    -2
100
AcDbLine
 10
921.6666666666666
 20
699.9999999999989
 30
0.0
 11
790.0
 21
699.9999999999989
 31
0.0
  0
LINE
  5
12BFA
330
12BF6
100
AcDbEntity
  8
01注記寸法
 62
     0
370
    -2
100
AcDbLine
 10
921.6666666666666
 20
319.999999999999
 30
0.0
 11
790.0
 21
319.999999999999
 31
0.0
  0
LINE
  5
12BFB
330
12BF6
100
AcDbEntity
  8
01注記寸法
 62
     0
370
    -2
100
AcDbLine
 10
800.0
 20
669.9999999999989
 30
0.0
 11
800.0
 21
349.999999999999
 31
0.0
  0
INSERT
  5
12BFC
330
12BF6
100
AcDbEntity
  8
01注記寸法
 62
     0
370
    -2
100
AcDbBlockReference
  2
_Open
 10
800.0
 20
699.9999999999989
 30
0.0
 41
30.0
 42
30.0
 43
30.0
 50
90.0
  0
INSERT
  5
12BFD
330
12BF6
100
AcDbEntity
  8
01注記寸法
 62
     0
370
    -2
100
AcDbBlockReference
  2
_Open
 10
800.0
 20
319.999999999999
 30
0.0
 41
30.0
 42
30.0
 43
30.0
 50
270.0
  0
MTEXT
  5
12BFE
330
12BF6
100
AcDbEntity
  8
01注記寸法
 62
     0
100
AcDbMText
 10
774.9943728898337
 20
509.9999999999989
 30
0.0
 40
30.0
 41
0.0
 71
     5
 72
     1
  1
570
 11
0.0
 21
1.0
 31
0.0
 73
     1
 44
1.0
  0
POINT
  5
12BFF
330
12BF6
100
AcDbEntity
  8
Defpoints
 62
     0
100
AcDbPoint
 10
936.6666666666666
 20
699.9999999999989
 30
0.0
  0
POINT
  5
12C00
330
12BF6
100
AcDbEntity
  8
Defpoints
 62
     0
100
AcDbPoint
 10
936.6666666666666
 20
319.999999999999
 30
0.0
  0
POINT
  5
12C01
330
12BF6
100
AcDbEntity
  8
Defpoints
 62
     0
100
AcDbPoint
 10
800.0
 20
319.999999999999
 30
0.0
  0
ENDBLK
  5
12BF8
330
12BF6
100
AcDbEntity
  8
0
100
AcDbBlockEnd
  0
BLOCK
  5
12C04
330
12C03
100
AcDbEntity
  8
0
100
AcDbBlockBegin
  2
*D1765
 70
     1
 10
0.0
 20
0.0
 30
0.0
  3
*D1765
  1

  0
LINE
  5
12C06
330
12C03
100
AcDbEntity
  8
01注記寸法
 62
     0
370
    -2
100
AcDbLine
 10
921.6666666666666
 20
319.999999999999
 30
0.0
 11
790.0
 21
319.999999999999
 31
0.0
  0
LINE
  5
12C07
330
12C03
100
AcDbEntity
  8
01注記寸法
 62
     0
370
    -2
100
AcDbLine
 10
885.0
 20
299.999999999999
 30
0.0
 11
790.0
 21
299.999999999999
 31
0.0
  0
LINE
  5
12C08
330
12C03
100
AcDbEntity
  8
01注記寸法
 62
     0
370
    -2
100
AcDbLine
 10
800.0
 20
269.999999999999
 30
0.0
 11
800.0
 21
184.20360760285
 31
0.0
  0
LINE
  5
12C09
330
12C03
100
AcDbEntity
  8
01注記寸法
 62
     0
370
    -2
100
AcDbLine
 10
800.0
 20
319.999999999999
 30
0.0
 11
800.0
 21
299.999999999999
 31
0.0
  0
LINE
  5
12C0A
330
12C03
100
AcDbEntity
  8
01注記寸法
 62
     0
370
    -2
100
AcDbLine
 10
800.0
 20
349.999999999999
 30
0.0
 11
800.0
 21
379.999999999999
 31
0.0
  0
INSERT
  5
12C0B
330
12C03
100
AcDbEntity
  8
01注記寸法
 62
     0
370
    -2
100
AcDbBlockReference
  2
_Open
 10
800.0
 20
319.999999999999
 30
0.0
 41
30.0
 42
30.0
 43
30.0
 50
270.0
  0
INSERT
  5
12C0C
330
12C03
100
AcDbEntity
  8
01注記寸法
 62
     0
370
    -2
100
AcDbBlockReference
  2
_Open
 10
800.0
 20
299.999999999999
 30
0.0
 41
30.0
 42
30.0
 43
30.0
 50
90.0
  0
MTEXT
  5
12C0D
330
12C03
100
AcDbEntity
  8
01注記寸法
 62
     0
100
AcDbMText
 10
774.9943728898337
 20
212.1018038014245
 30
0.0
 40
30.0
 41
0.0
 71
     5
 72
     1
  1
30
 11
0.0
 21
1.0
 31
0.0
 73
     1
 44
1.0
  0
POINT
  5
12C0E
330
12C03
100
AcDbEntity
  8
Defpoints
 62
     0
100
AcDbPoint
 10
936.6666666666666
 20
319.999999999999
 30
0.0
  0
POINT
  5
12C0F
330
12C03
100
AcDbEntity
  8
Defpoints
 62
     0
100
AcDbPoint
 10
900.0
 20
299.999999999999
 30
0.0
  0
POINT
  5
12C10
330
12C03
100
AcDbEntity
  8
Defpoints
 62
     0
100
AcDbPoint
 10
800.0
 20
299.999999999999
 30
0.0
  0
ENDBLK
  5
12C05
330
12C03
100
AcDbEntity
  8
0
100
AcDbBlockEnd
  0
ENDSEC
  0
SECTION
  2
ENTITIES
  0
LWPOLYLINE
  5
ECC5
330
1F
100
AcDbEntity
  8
02実線
100
AcDbPolyline
 90
        4
 70
     1
 43
0.0
 10
670.0
 20
1840.0
 10
670.0
 20
2470.0
 10
1870.0
 20
2470.0
 10
1870.0
 20
1840.0
  0
LWPOLYLINE
  5
ECC6
330
1F
100
AcDbEntity
  8
02実線
100
AcDbPolyline
 90
        4
 70
     1
 43
0.0
 10
720.0
 20
1890.0
 10
720.0
 20
2420.0
 10
1820.0
 20
2420.0
 10
1820.0
 20
1890.0
  0
LWPOLYLINE
  5
ECC7
330
1F
100
AcDbEntity
  8
03破線
100
AcDbPolyline
 90
        4
 70
     1
 43
0.0
 10
673.2000000000007
 20
1843.200000000004
 10
673.2000000000007
 20
2466.800000000003
 10
1866.799999999999
 20
2466.800000000003
 10
1866.799999999999
 20
1843.200000000004
  0
LWPOLYLINE
  5
ECC8
330
1F
100
AcDbEntity
  8
03破線
100
AcDbPolyline
 90
        4
 70
     1
 43
0.0
 10
1268.4
 20
2420.0
 10
1268.4
 20
2466.800000000003
 10
1271.6
 20
2466.800000000003
 10
1271.6
 20
2420.0
  0
LWPOLYLINE
  5
ECC9
330
1F
100
AcDbEntity
  8
03破線
100
AcDbPolyline
 90
        4
 70
     1
 43
0.0
 10
1268.4
 20
1890.0
 10
1268.4
 20
1843.200000000004
 10
1271.6
 20
1843.200000000004
 10
1271.6
 20
1890.0
  0
LWPOLYLINE
  5
ECCA
330
1F
100
AcDbEntity
  8
02実線
100
AcDbPolyline
 90
        4
 70
     1
 43
0.0
 10
670.0
 20
1200.0
 10
670.0
 20
1400.0
 10
1870.0
 20
1400.0
 10
1870.0
 20
1200.0
  0
LWPOLYLINE
  5
ECCB
330
1F
100
AcDbEntity
  8
03破線
100
AcDbPolyline
 90
        4
 70
     1
 43
0.0
 10
673.2000000000007
 20
1203.199999999997
 10
673.2000000000007
 20
1396.800000000003
 10
1866.799999999999
 20
1396.800000000003
 10
1866.799999999999
 20
1203.199999999997
  0
LWPOLYLINE
  5
ECCC
330
1F
100
AcDbEntity
  8
03破線
100
AcDbPolyline
 90
        4
 70
     1
 43
0.0
 10
1268.4
 20
1396.800000000003
 10
1268.4
 20
1203.199999999997
 10
1271.6
 20
1203.199999999997
 10
1271.6
 20
1396.800000000003
  0
LWPOLYLINE
  5
ECCD
330
1F
100
AcDbEntity
  8
02実線
100
AcDbPolyline
 90
        4
 70
     1
 43
0.0
 10
2350.0
 20
1200.0
 10
2350.0
 20
1400.0
 10
2980.0
 20
1400.0
 10
2980.0
 20
1200.0
  0
LWPOLYLINE
  5
ECCE
330
1F
100
AcDbEntity
  8
03破線
100
AcDbPolyline
 90
        4
 70
     1
 43
0.0
 10
2353.200000000001
 20
1203.199999999997
 10
2353.200000000001
 20
1396.800000000003
 10
2976.799999999999
 20
1396.800000000003
 10
2976.799999999999
 20
1203.199999999997
  0
LINE
  5
ECCF
330
1F
100
AcDbEntity
  8
04一点鎖線
100
AcDbLine
 10
745.0
 20
1213.199999999997
 30
0.0
 11
745.0
 21
1190.0
 31
0.0
  0
LINE
  5
ECD0
330
1F
100
AcDbEntity
  8
04一点鎖線
100
AcDbLine
 10
1795.0
 20
1213.199999999997
 30
0.0
 11
1795.0
 21
1190.0
 31
0.0
  0
LINE
  5
ECD1
330
1F
100
AcDbEntity
  8
04一点鎖線
100
AcDbLine
 10
2380.0
 20
1213.199999999997
 30
0.0
 11
2380.0
 21
1190.0
 31
0.0
  0
LINE
  5
ECD2
330
1F
100
AcDbEntity
  8
04一点鎖線
100
AcDbLine
 10
2950.0
 20
1213.199999999997
 30
0.0
 11
2950.0
 21
1190.0
 31
0.0
  0
LINE
  5
ECED
330
1F
100
AcDbEntity
  8
03破線
100
AcDbLine
 10
2400.0
 20
1200.0
 30
0.0
 11
2400.0
 21
1203.200000000004
 31
0.0
  0
LINE
  5
ECEF
330
1F
100
AcDbEntity
  8
03破線
100
AcDbLine
 10
2400.0
 20
1400.0
 30
0.0
 11
2400.0
 21
1396.800000000003
 31
0.0
  0
LINE
  5
ECF0
330
1F
100
AcDbEntity
  8
03破線
100
AcDbLine
 10
2930.0
 20
1200.0
 30
0.0
 11
2930.0
 21
1203.200000000004
 31
0.0
  0
LINE
  5
ECF1
330
1F
100
AcDbEntity
  8
03破線
100
AcDbLine
 10
2930.0
 20
1400.0
 30
0.0
 11
2930.0
 21
1396.800000000003
 31
0.0
  0
LINE
  5
ECF3
330
1F
100
AcDbEntity
  8
03破線
100
AcDbLine
 10
720.0
 20
1400.0
 30
0.0
 11
720.0
 21
1396.800000000003
 31
0.0
  0
LINE
  5
ECF4
330
1F
100
AcDbEntity
  8
03破線
100
AcDbLine
 10
720.0
 20
1200.0
 30
0.0
 11
720.0
 21
1203.200000000004
 31
0.0
  0
LINE
  5
ECF6
330
1F
100
AcDbEntity
  8
03破線
100
AcDbLine
 10
1820.0
 20
1400.0
 30
0.0
 11
1820.0
 21
1396.800000000003
 31
0.0
  0
LINE
  5
ECF7
330
1F
100
AcDbEntity
  8
03破線
100
AcDbLine
 10
1820.0
 20
1200.0
 30
0.0
 11
1820.0
 21
1203.200000000004
 31
0.0
  0
LINE
  5
ECFB
330
1F
100
AcDbEntity
  8
03破線
100
AcDbLine
 10
2400.0
 20
1396.800000000003
 30
0.0
 11
2400.0
 21
1203.200000000004
 31
0.0
  0
LINE
  5
ECFC
330
1F
100
AcDbEntity
  8
03破線
100
AcDbLine
 10
2930.0
 20
1396.800000000003
 30
0.0
 11
2930.0
 21
1203.200000000004
 31
0.0
  0
LWPOLYLINE
  5
ED10
102
{ACAD_REACTORS
330
ED11
102
}
330
1F
100
AcDbEntity
  8
02実線
100
AcDbPolyline
 90
        4
 70
     1
 43
0.0
 10
670.0
 20
1400.0
 10
670.0
 20
1410.0
 10
1870.0
 20
1410.0
 10
1870.0
 20
1400.0
  0
HATCH
  5
ED11
330
1F
100
AcDbEntity
  8
01注記寸法
100
AcDbHatch
 10
0.0
 20
0.0
 30
0.0
210
0.0
220
0.0
230
1.0
  2
ANSI31
 70
     0
 71
     1
 91
        1
 92
        1
 93
        4
 72
     1
 10
670.0
 20
1400.0
 11
670.0
 21
1410.0
 72
     1
 10
670.0
 20
1410.0
 11
1870.0
 21
1410.0
 72
     1
 10
1870.0
 20
1410.0
 11
1870.0
 21
1400.0
 72
     1
 10
1870.0
 20
1400.0
 11
670.0
 21
1400.0
 97
        1
330
ED10
 75
     0
 76
     1
 52
45.0
 41
5.000000000000007
 77
     0
 78
     1
 53
90.0
 43
12870.0
 44
0.0000000000086402
 45
-15.875
 46
0.000000000000001
 79
     0
 98
        1
 10
12870.0
 20
-10890.0
1001
ACAD
1010
0.0
1020
0.0
1030
0.0
  0
LWPOLYLINE
  5
ED12
102
{ACAD_REACTORS
330
ED13
102
}
330
1F
100
AcDbEntity
  8
02実線
100
AcDbPolyline
 90
        4
 70
     1
 43
0.0
 10
2350.0
 20
1400.0
 10
2350.0
 20
1410.0
 10
2980.0
 20
1410.0
 10
2980.0
 20
1400.0
  0
HATCH
  5
ED13
330
1F
100
AcDbEntity
  8
01注記寸法
100
AcDbHatch
 10
0.0
 20
0.0
 30
0.0
210
0.0
220
0.0
230
1.0
  2
ANSI31
 70
     0
 71
     1
 91
        1
 92
        1
 93
        4
 72
     1
 10
2350.0
 20
1400.0
 11
2350.0
 21
1410.0
 72
     1
 10
2350.0
 20
1410.0
 11
2980.0
 21
1410.0
 72
     1
 10
2980.0
 20
1410.0
 11
2980.0
 21
1400.0
 72
     1
 10
2980.0
 20
1400.0
 11
2350.0
 21
1400.0
 97
        1
330
ED12
 75
     0
 76
     1
 52
45.0
 41
5.000000000000008
 77
     0
 78
     1
 53
90.0
 43
13350.0
 44
0.0000000000084128
 45
-15.875
 46
0.000000000000001
 79
     0
 98
        1
 10
14550.0
 20
-10890.0
1001
ACAD
1010
0.0
1020
0.0
1030
0.0
  0
LWPOLYLINE
  5
124FD
102
{ACAD_REACTORS
330
12A95
102
}
330
1F
100
AcDbEntity
  8
02実線
100
AcDbPolyline
 90
        5
 70
     1
 43
0.0
 10
620.0
 20
1915.0
 10
620.0
 20
1970.0
 10
670.0
 20
1970.0
 10
670.0
 20
1910.0
 10
625.0
 20
1910.0
  0
LWPOLYLINE
  5
124FE
330
1F
100
AcDbEntity
  8
03破線
100
AcDbPolyline
 90
        4
 70
     1
 43
0.0
 10
620.0
 20
1966.8
 10
620.0
 20
1970.0
 10
670.0
 20
1970.0
 10
670.0
 20
1966.8
  0
INSERT
  5
124FF
102
{ACAD_REACTORS
330
12A95
102
}
330
1F
100
AcDbEntity
  8
02実線
100
AcDbBlockReference
  2
hole-φ12
 10
647.0
 20
1940.0
 30
0.0
  0
LWPOLYLINE
  5
12502
330
1F
100
AcDbEntity
  8
02実線
100
AcDbPolyline
 90
        4
 70
     1
 43
0.0
 10
620.0
 20
1396.8
 10
620.0
 20
1400.0
 10
670.0
 20
1400.0
 10
670.0
 20
1396.8
  0
LWPOLYLINE
  5
12503
330
1F
100
AcDbEntity
  8
02実線
100
AcDbPolyline
 90
        5
 70
     1
 43
0.0
 10
620.0
 20
1355.0
 10
620.0
 20
1400.0
 10
670.0
 20
1400.0
 10
670.0
 20
1350.0
 10
625.0
 20
1350.0
  0
LWPOLYLINE
  5
12504
102
{ACAD_REACTORS
330
12506
102
}
330
1F
100
AcDbEntity
  8
02実線
100
AcDbPolyline
 90
        4
 70
     1
 43
0.0
 10
620.0
 20
1400.0
 10
620.0
 20
1410.0
 10
670.0
 20
1410.0
 10
670.0
 20
1400.0
  0
LINE
  5
12505
330
1F
100
AcDbEntity
  8
04一点鎖線
100
AcDbLine
 10
647.0
 20
1381.8
 30
0.0
 11
647.0
 21
1425.0
 31
0.0
  0
HATCH
  5
12506
330
1F
100
AcDbEntity
  8
01注記寸法
100
AcDbHatch
 10
0.0
 20
0.0
 30
0.0
210
0.0
220
0.0
230
1.0
  2
ANSI31
 70
     0
 71
     1
 91
        1
 92
        1
 93
        4
 72
     1
 10
620.0
 20
1400.0
 11
620.0
 21
1410.0
 72
     1
 10
620.0
 20
1410.0
 11
670.0
 21
1410.0
 72
     1
 10
670.0
 20
1410.0
 11
670.0
 21
1400.0
 72
     1
 10
670.0
 20
1400.0
 11
620.0
 21
1400.0
 97
        1
330
12504
 75
     0
 76
     1
 52
45.0
 41
5.000000000000006
 77
     0
 78
     1
 53
90.0
 43
4291.681869869737
 44
2426.698660858377
 45
-15.875
 46
0.000000000000001
 79
     0
 98
        1
 10
4291.681869869737
 20
2416.698660858377
1001
ACAD
1010
0.0
1020
0.0
1030
0.0
  0
LWPOLYLINE
  5
12507
330
1F
100
AcDbEntity
  8
02実線
100
AcDbPolyline
 90
        9
 70
     0
 43
0.0
 10
2420.0
 20
1400.000000000001
 10
2473.6
 20
1400.000000000001
 42
-0.4142135623730948
 10
2480.0
 20
1393.600000000001
 10
2480.0
 20
1350.000000000001
 10
2476.8
 20
1350.000000000001
 10
2476.8
 20
1393.600000000001
 42
0.4142135623730948
 10
2473.6
 20
1396.800000000001
 10
2420.0
 20
1396.800000000001
 10
2420.0
 20
1400.000000000001
  0
LWPOLYLINE
  5
12508
102
{ACAD_REACTORS
330
1250A
102
}
330
1F
100
AcDbEntity
  8
02実線
100
AcDbPolyline
 90
        4
 70
     1
 43
0.0
 10
2420.0
 20
1400.000000000001
 10
2420.0
 20
1410.000000000001
 10
2480.0
 20
1410.000000000001
 10
2480.0
 20
1400.000000000001
  0
LINE
  5
12509
330
1F
100
AcDbEntity
  8
04一点鎖線
100
AcDbLine
 10
2450.0
 20
1381.800000000001
 30
0.0
 11
2450.0
 21
1425.000000000001
 31
0.0
  0
HATCH
  5
1250A
330
1F
100
AcDbEntity
  8
01注記寸法
100
AcDbHatch
 10
0.0
 20
0.0
 30
0.0
210
0.0
220
0.0
230
1.0
  2
ANSI31
 70
     0
 71
     1
 91
        1
 92
        1
 93
        4
 72
     1
 10
2420.0
 20
1400.000000000001
 11
2420.0
 21
1410.000000000001
 72
     1
 10
2420.0
 20
1410.000000000001
 11
2480.0
 21
1410.000000000001
 72
     1
 10
2480.0
 20
1410.000000000001
 11
2480.0
 21
1400.000000000001
 72
     1
 10
2480.0
 20
1400.000000000001
 11
2420.0
 21
1400.000000000001
 97
        1
330
12508
 75
     0
 76
     1
 52
45.0
 41
5.000000000000009
 77
     0
 78
     1
 53
90.0
 43
5971.681869869737
 44
2426.698660858378
 45
-15.875
 46
0.000000000000001
 79
     0
 98
        1
 10
5971.681869869737
 20
2426.698660858378
1001
ACAD
1010
0.0
1020
0.0
1030
0.0
  0
HATCH
  5
12A95
330
1F
100
AcDbEntity
  8
01注記寸法
100
AcDbHatch
 10
0.0
 20
0.0
 30
0.0
210
0.0
220
0.0
230
1.0
  2
ANSI31
 70
     0
 71
     1
 91
        2
 92
        1
 93
        5
 72
     1
 10
620.0
 20
1915.0
 11
620.0
 21
1970.0
 72
     1
 10
620.0
 20
1970.0
 11
670.0
 21
1970.0
 72
     1
 10
670.0
 20
1970.0
 11
670.0
 21
1910.0
 72
     1
 10
670.0
 20
1910.0
 11
625.0
 21
1910.0
 72
     1
 10
625.0
 20
1910.0
 11
620.0
 21
1915.0
 97
        1
330
124FD
 92
       16
 93
        1
 72
     2
 10
647.0
 20
1940.0
 40
6.0
 50
0.0
 51
360.0
 73
     1
 97
        1
330
124FF
 75
     0
 76
     1
 52
135.0
 41
5.0
 77
     0
 78
     1
 53
180.0
 43
4438.891326567392
 44
-447.0363873714523
 45
-0.0000000000000019
 46
-15.875
 79
     0
 98
        1
 10
4438.891326567392
 20
-447.0363873714523
1001
ACAD
1010
0.0
1020
0.0
1030
0.0
1001
HATCHBACKGROUNDCOLOR
1071
-939524096
1000

1000

  0
LWPOLYLINE
  5
12AE6
330
1F
100
AcDbEntity
  8
03破線
100
AcDbPolyline
 90
        4
 70
     1
 43
0.0
 10
620.0
 20
2353.2
 10
620.0
 20
2350.0
 10
670.0
 20
2350.0
 10
670.0
 20
2353.2
  0
HATCH
  5
12AE7
330
1F
100
AcDbEntity
  8
01注記寸法
100
AcDbHatch
 10
0.0
 20
0.0
 30
0.0
210
0.0
220
0.0
230
1.0
  2
ANSI31
 70
     0
 71
     1
 91
        2
 92
        1
 93
        5
 72
     1
 10
620.0
 20
2405.0
 11
620.0
 21
2350.0
 72
     1
 10
620.0
 20
2350.0
 11
670.0
 21
2350.0
 72
     1
 10
670.0
 20
2350.0
 11
670.0
 21
2410.0
 72
     1
 10
670.0
 20
2410.0
 11
625.0
 21
2410.0
 72
     1
 10
625.0
 20
2410.0
 11
620.0
 21
2405.0
 97
        1
330
12AE8
 92
       16
 93
        1
 72
     2
 10
647.0
 20
2380.0
 40
6.0
 50
0.0
 51
360.0
 73
     1
 97
        1
330
12AE9
 75
     0
 76
     1
 52
135.0
 41
5.0
 77
     0
 78
     1
 53
180.0
 43
3638.856387387367
 44
0.0000000000095497
 45
-0.0000000000000019
 46
-15.875
 79
     0
 98
        1
 10
4438.891326567392
 20
4767.036387371452
1001
ACAD
1010
0.0
1020
0.0
1030
0.0
1001
HATCHBACKGROUNDCOLOR
1071
-939524096
1000

1000

  0
LWPOLYLINE
  5
12AE8
102
{ACAD_REACTORS
330
12AE7
102
}
330
1F
100
AcDbEntity
  8
02実線
100
AcDbPolyline
 90
        5
 70
     1
 43
0.0
 10
620.0
 20
2405.0
 10
620.0
 20
2350.0
 10
670.0
 20
2350.0
 10
670.0
 20
2410.0
 10
625.0
 20
2410.0
  0
INSERT
  5
12AE9
102
{ACAD_REACTORS
330
12AE7
102
}
330
1F
100
AcDbEntity
  8
02実線
100
AcDbBlockReference
  2
hole-φ12
 10
647.0
 20
2380.0
 30
0.0
 41
-1.0
 50
180.0
  0
LWPOLYLINE
  5
12AEA
330
1F
100
AcDbEntity
  8
03破線
100
AcDbPolyline
 90
        4
 70
     1
 43
0.0
 10
1920.0
 20
1966.8
 10
1920.0
 20
1970.0
 10
1870.0
 20
1970.0
 10
1870.0
 20
1966.8
  0
HATCH
  5
12AEB
330
1F
100
AcDbEntity
  8
01注記寸法
100
AcDbHatch
 10
0.0
 20
0.0
 30
0.0
210
0.0
220
0.0
230
1.0
  2
ANSI31
 70
     0
 71
     1
 91
        2
 92
        1
 93
        5
 72
     1
 10
1920.0
 20
1915.0
 11
1920.0
 21
1970.0
 72
     1
 10
1920.0
 20
1970.0
 11
1870.0
 21
1970.0
 72
     1
 10
1870.0
 20
1970.0
 11
1870.0
 21
1910.0
 72
     1
 10
1870.0
 20
1910.0
 11
1915.0
 21
1910.0
 72
     1
 10
1915.0
 20
1910.0
 11
1920.0
 21
1915.0
 97
        1
330
12AEC
 92
       16
 93
        1
 72
     2
 10
1893.0
 20
1940.0
 40
6.0
 50
0.0
 51
360.0
 73
     1
 97
        1
330
12AED
 75
     0
 76
     1
 52
135.0
 41
5.0
 77
     0
 78
     1
 53
180.0
 43
3638.856387387367
 44
0.0000000000095497
 45
-0.0000000000000019
 46
-15.875
 79
     0
 98
        1
 10
-1898.891326567392
 20
-447.0363873714523
1001
ACAD
1010
0.0
1020
0.0
1030
0.0
1001
HATCHBACKGROUNDCOLOR
1071
-939524096
1000

1000

  0
LWPOLYLINE
  5
12AEC
102
{ACAD_REACTORS
330
12AEB
102
}
330
1F
100
AcDbEntity
  8
02実線
100
AcDbPolyline
 90
        5
 70
     1
 43
0.0
 10
1920.0
 20
1915.0
 10
1920.0
 20
1970.0
 10
1870.0
 20
1970.0
 10
1870.0
 20
1910.0
 10
1915.0
 20
1910.0
  0
INSERT
  5
12AED
102
{ACAD_REACTORS
330
12AEB
102
}
330
1F
100
AcDbEntity
  8
02実線
100
AcDbBlockReference
  2
hole-φ12
 10
1893.0
 20
1940.0
 30
0.0
 41
-1.0
  0
LWPOLYLINE
  5
12AEE
330
1F
100
AcDbEntity
  8
03破線
100
AcDbPolyline
 90
        4
 70
     1
 43
0.0
 10
1920.0
 20
2353.2
 10
1920.0
 20
2350.0
 10
1870.0
 20
2350.0
 10
1870.0
 20
2353.2
  0
HATCH
  5
12AEF
330
1F
100
AcDbEntity
  8
01注記寸法
100
AcDbHatch
 10
0.0
 20
0.0
 30
0.0
210
0.0
220
0.0
230
1.0
  2
ANSI31
 70
     0
 71
     1
 91
        2
 92
        1
 93
        5
 72
     1
 10
1920.0
 20
2405.0
 11
1920.0
 21
2350.0
 72
     1
 10
1920.0
 20
2350.0
 11
1870.0
 21
2350.0
 72
     1
 10
1870.0
 20
2350.0
 11
1870.0
 21
2410.0
 72
     1
 10
1870.0
 20
2410.0
 11
1915.0
 21
2410.0
 72
     1
 10
1915.0
 20
2410.0
 11
1920.0
 21
2405.0
 97
        1
330
12AF0
 92
       16
 93
        1
 72
     2
 10
1893.0
 20
2380.0
 40
6.0
 50
0.0
 51
360.0
 73
     1
 97
        1
330
12AF1
 75
     0
 76
     1
 52
135.0
 41
5.0
 77
     0
 78
     1
 53
180.0
 43
3638.856387387367
 44
0.0000000000095497
 45
-0.0000000000000019
 46
-15.875
 79
     0
 98
        1
 10
-1898.891326567392
 20
4767.036387371452
1001
ACAD
1010
0.0
1020
0.0
1030
0.0
1001
HATCHBACKGROUNDCOLOR
1071
-939524096
1000

1000

  0
LWPOLYLINE
  5
12AF0
102
{ACAD_REACTORS
330
12AEF
102
}
330
1F
100
AcDbEntity
  8
02実線
100
AcDbPolyline
 90
        5
 70
     1
 43
0.0
 10
1920.0
 20
2405.0
 10
1920.0
 20
2350.0
 10
1870.0
 20
2350.0
 10
1870.0
 20
2410.0
 10
1915.0
 20
2410.0
  0
INSERT
  5
12AF1
102
{ACAD_REACTORS
330
12AEF
102
}
330
1F
100
AcDbEntity
  8
02実線
100
AcDbBlockReference
  2
hole-φ12
 10
1893.0
 20
2380.0
 30
0.0
 50
180.0
  0
LWPOLYLINE
  5
12B0A
102
{ACAD_REACTORS
330
12B0D
102
}
330
1F
100
AcDbEntity
  8
01注記寸法
100
AcDbPolyline
 90
        4
 70
     1
 43
0.0
 10
670.0
 20
1840.0
 10
670.0
 20
1890.0
 10
1870.0
 20
1890.0
 10
1870.0
 20
1840.0
  0
LWPOLYLINE
  5
12B0B
102
{ACAD_REACTORS
330
12B0F
102
}
330
1F
100
AcDbEntity
  8
01注記寸法
100
AcDbPolyline
 90
        4
 70
     1
 43
0.0
 10
670.0
 20
1890.0
 10
670.0
 20
2420.0
 10
720.0
 20
2420.0
 10
720.0
 20
1890.0
  0
HATCH
  5
12B0D
330
1F
100
AcDbEntity
  8
01注記寸法
100
AcDbHatch
 10
0.0
 20
0.0
 30
0.0
210
0.0
220
0.0
230
1.0
  2
ANSI31
 70
     0
 71
     1
 91
        1
 92
        1
 93
        4
 72
     1
 10
670.0
 20
1840.0
 11
670.0
 21
1890.0
 72
     1
 10
670.0
 20
1890.0
 11
1870.0
 21
1890.0
 72
     1
 10
1870.0
 20
1890.0
 11
1870.0
 21
1840.0
 72
     1
 10
1870.0
 20
1840.0
 11
670.0
 21
1840.0
 97
        1
330
12B0A
 75
     0
 76
     1
 52
45.0
 41
10.00000000000001
 77
     0
 78
     1
 53
90.0
 43
3638.856387387367
 44
0.0000000000095497
 45
-31.75
 46
0.0000000000000019
 79
     0
 98
        1
 10
3638.856387387367
 20
0.0000000000095497
1001
ACAD
1010
0.0
1020
0.0
1030
0.0
1001
HATCHBACKGROUNDCOLOR
1071
-939524096
1000

1000

  0
HATCH
  5
12B0F
330
1F
100
AcDbEntity
  8
01注記寸法
100
AcDbHatch
 10
0.0
 20
0.0
 30
0.0
210
0.0
220
0.0
230
1.0
  2
ANSI31
 70
     0
 71
     1
 91
        1
 92
        1
 93
        4
 72
     1
 10
670.0
 20
1890.0
 11
670.0
 21
2420.0
 72
     1
 10
670.0
 20
2420.0
 11
720.0
 21
2420.0
 72
     1
 10
720.0
 20
2420.0
 11
720.0
 21
1890.0
 72
     1
 10
720.0
 20
1890.0
 11
670.0
 21
1890.0
 97
        1
330
12B0B
 75
     0
 76
     1
 52
135.0
 41
10.0
 77
     0
 78
     1
 53
180.0
 43
3638.856387387367
 44
0.0000000000095497
 45
-0.0000000000000039
 46
-31.75
 79
     0
 98
        1
 10
3638.856387387367
 20
0.0000000000095497
1001
ACAD
1010
0.0
1020
0.0
1030
0.0
1001
HATCHBACKGROUNDCOLOR
1071
-939524096
1000

1000

  0
HATCH
  5
12B10
330
1F
100
AcDbEntity
  8
01注記寸法
100
AcDbHatch
 10
0.0
 20
0.0
 30
0.0
210
0.0
220
0.0
230
1.0
  2
ANSI31
 70
     0
 71
     1
 91
        1
 92
        1
 93
        4
 72
     1
 10
1820.0
 20
1890.0
 11
1820.0
 21
2420.0
 72
     1
 10
1820.0
 20
2420.0
 11
1870.0
 21
2420.0
 72
     1
 10
1870.0
 20
2420.0
 11
1870.0
 21
1890.0
 72
     1
 10
1870.0
 20
1890.0
 11
1820.0
 21
1890.0
 97
        1
330
12B11
 75
     0
 76
     1
 52
135.0
 41
10.0
 77
     0
 78
     1
 53
180.0
 43
4788.856387387367
 44
0.0000000000095497
 45
-0.0000000000000039
 46
-31.75
 79
     0
 98
        1
 10
4788.856387387367
 20
0.0000000000095497
1001
ACAD
1010
0.0
1020
0.0
1030
0.0
1001
HATCHBACKGROUNDCOLOR
1071
-939524096
1000

1000

  0
LWPOLYLINE
  5
12B11
102
{ACAD_REACTORS
330
12B10
102
}
330
1F
100
AcDbEntity
  8
01注記寸法
100
AcDbPolyline
 90
        4
 70
     1
 43
0.0
 10
1820.0
 20
1890.0
 10
1820.0
 20
2420.0
 10
1870.0
 20
2420.0
 10
1870.0
 20
1890.0
  0
HATCH
  5
12B12
330
1F
100
AcDbEntity
  8
01注記寸法
100
AcDbHatch
 10
0.0
 20
0.0
 30
0.0
210
0.0
220
0.0
230
1.0
  2
ANSI31
 70
     0
 71
     1
 91
        1
 92
        1
 93
        4
 72
     1
 10
670.0
 20
2420.0
 11
670.0
 21
2470.0
 72
     1
 10
670.0
 20
2470.0
 11
1870.0
 21
2470.0
 72
     1
 10
1870.0
 20
2470.0
 11
1870.0
 21
2420.0
 72
     1
 10
1870.0
 20
2420.0
 11
670.0
 21
2420.0
 97
        1
330
12B13
 75
     0
 76
     1
 52
45.0
 41
10.00000000000001
 77
     0
 78
     1
 53
90.0
 43
3638.856387387367
 44
580.0000000000095
 45
-31.75
 46
0.0000000000000019
 79
     0
 98
        1
 10
3638.856387387367
 20
580.0000000000095
1001
ACAD
1010
0.0
1020
0.0
1030
0.0
1001
HATCHBACKGROUNDCOLOR
1071
-939524096
1000

1000

  0
LWPOLYLINE
  5
12B13
102
{ACAD_REACTORS
330
12B12
102
}
330
1F
100
AcDbEntity
  8
01注記寸法
100
AcDbPolyline
 90
        4
 70
     1
 43
0.0
 10
670.0
 20
2420.0
 10
670.0
 20
2470.0
 10
1870.0
 20
2470.0
 10
1870.0
 20
2420.0
  0
LWPOLYLINE
  5
12B96
330
1F
100
AcDbEntity
  8
02実線
100
AcDbPolyline
 90
        4
 70
     1
 43
0.0
 10
1920.0
 20
1396.8
 10
1920.0
 20
1400.0
 10
1870.0
 20
1400.0
 10
1870.0
 20
1396.8
  0
LWPOLYLINE
  5
12B97
330
1F
100
AcDbEntity
  8
02実線
100
AcDbPolyline
 90
        5
 70
     1
 43
0.0
 10
1920.0
 20
1355.0
 10
1920.0
 20
1400.0
 10
1870.0
 20
1400.0
 10
1870.0
 20
1350.0
 10
1915.0
 20
1350.0
  0
LWPOLYLINE
  5
12B98
102
{ACAD_REACTORS
330
12B9A
102
}
330
1F
100
AcDbEntity
  8
02実線
100
AcDbPolyline
 90
        4
 70
     1
 43
0.0
 10
1920.0
 20
1400.0
 10
1920.0
 20
1410.0
 10
1870.0
 20
1410.0
 10
1870.0
 20
1400.0
  0
LINE
  5
12B99
330
1F
100
AcDbEntity
  8
04一点鎖線
100
AcDbLine
 10
1893.0
 20
1381.8
 30
0.0
 11
1893.0
 21
1425.0
 31
0.0
  0
HATCH
  5
12B9A
330
1F
100
AcDbEntity
  8
01注記寸法
100
AcDbHatch
 10
0.0
 20
0.0
 30
0.0
210
0.0
220
0.0
230
1.0
  2
ANSI31
 70
     0
 71
     1
 91
        1
 92
        1
 93
        4
 72
     1
 10
1920.0
 20
1400.0
 11
1920.0
 21
1410.0
 72
     1
 10
1920.0
 20
1410.0
 11
1870.0
 21
1410.0
 72
     1
 10
1870.0
 20
1410.0
 11
1870.0
 21
1400.0
 72
     1
 10
1870.0
 20
1400.0
 11
1920.0
 21
1400.0
 97
        1
330
12B98
 75
     0
 76
     1
 52
45.0
 41
5.000000000000007
 77
     0
 78
     1
 53
90.0
 43
3638.856387387367
 44
0.0000000000095497
 45
-15.87500000000001
 46
0.000000000000001
 79
     0
 98
        1
 10
-1751.681869869737
 20
2416.698660858377
1001
ACAD
1010
0.0
1020
0.0
1030
0.0
  0
LWPOLYLINE
  5
12B9C
330
1F
100
AcDbEntity
  8
02実線
100
AcDbPolyline
 90
        9
 70
     0
 43
0.0
 10
2920.0
 20
1400.000000000001
 10
2866.4
 20
1400.000000000001
 42
0.4142135623730948
 10
2860.0
 20
1393.600000000001
 10
2860.0
 20
1350.000000000001
 10
2863.2
 20
1350.000000000001
 10
2863.2
 20
1393.600000000001
 42
-0.4142135623730948
 10
2866.4
 20
1396.800000000001
 10
2920.0
 20
1396.800000000001
 10
2920.0
 20
1400.000000000001
  0
LWPOLYLINE
  5
12B9D
102
{ACAD_REACTORS
330
12B9F
102
}
330
1F
100
AcDbEntity
  8
02実線
100
AcDbPolyline
 90
        4
 70
     1
 43
0.0
 10
2920.0
 20
1400.000000000001
 10
2920.0
 20
1410.000000000001
 10
2860.0
 20
1410.000000000001
 10
2860.0
 20
1400.000000000001
  0
LINE
  5
12B9E
330
1F
100
AcDbEntity
  8
04一点鎖線
100
AcDbLine
 10
2890.0
 20
1381.800000000001
 30
0.0
 11
2890.0
 21
1425.000000000001
 31
0.0
  0
HATCH
  5
12B9F
330
1F
100
AcDbEntity
  8
01注記寸法
100
AcDbHatch
 10
0.0
 20
0.0
 30
0.0
210
0.0
220
0.0
230
1.0
  2
ANSI31
 70
     0
 71
     1
 91
        1
 92
        1
 93
        4
 72
     1
 10
2920.0
 20
1400.000000000001
 11
2920.0
 21
1410.000000000001
 72
     1
 10
2920.0
 20
1410.000000000001
 11
2860.0
 21
1410.000000000001
 72
     1
 10
2860.0
 20
1410.000000000001
 11
2860.0
 21
1400.000000000001
 72
     1
 10
2860.0
 20
1400.000000000001
 11
2920.0
 21
1400.000000000001
 97
        1
330
12B9D
 75
     0
 76
     1
 52
45.0
 41
5.00000000000001
 77
     0
 78
     1
 53
90.0
 43
3718.856387387367
 44
0.0000000000093223
 45
-15.87500000000001
 46
0.000000000000001
 79
     0
 98
        1
 10
-631.681869869737
 20
2426.698660858378
1001
ACAD
1010
0.0
1020
0.0
1030
0.0
  0
VIEWPORT
  5
9F0D
330
1B
100
AcDbEntity
 67
     1
  8
0
100
AcDbViewport
 10
202.5
 20
128.5
 30
0.0
 40
486.0
 41
308.4
 68
     1
 69
     1
 12
202.5
 22
128.5
 13
0.0
 23
0.0
 14
0.5
 24
0.5
 15
0.0
 25
0.0
 16
0.0
 26
0.0
 36
1.0
 17
0.0
 27
0.0
 37
0.0
 42
50.0
 43
0.0
 44
0.0
 45
308.4
 50
0.0
 51
0.0
 72
   100
 90
   557152
  1

281
     0
 71
     1
 74
     0
110
0.0
120
0.0
130
0.0
111
1.0
121
0.0
131
0.0
112
0.0
122
1.0
132
0.0
 79
     0
146
0.0
  0
VIEWPORT
  5
9F0E
330
1B
100
AcDbEntity
 67
     1
  8
0
100
AcDbViewport
 10
202.5
 20
128.5
 30
0.0
 40
324.0
 41
205.6
 68
     2
 69
     2
 12
-3224.9849078482
 22
3553.815758143106
 13
0.0
 23
0.0
 14
0.5
 24
0.5
 15
0.0
 25
0.0
 16
0.0
 26
0.0
 36
1.0
 17
0.0
 27
0.0
 37
0.0
 42
50.0
 43
0.0
 44
0.0
 45
10712.16027781073
 50
0.0
 51
0.0
 72
   100
 90
   557152
  1

281
     0
 71
     1
 74
     0
110
0.0
120
0.0
130
0.0
111
1.0
121
0.0
131
0.0
112
0.0
122
1.0
132
0.0
 79
     0
146
0.0
  0
ENDSEC
  0
SECTION
  2
OBJECTS
  0
DICTIONARY
  5
C
330
0
100
AcDbDictionary
281
     1
  3
ACAD_DETAILVIEWSTYLE
350
12677
  3
ACAD_GROUP
350
D
  3
ACAD_IMAGE_VARS
350
6A88
  3
ACAD_LAYOUT
350
1A
  3
ACAD_MLINESTYLE
350
17
  3
ACAD_PLOTSETTINGS
350
19
  3
ACAD_PLOTSTYLENAME
350
E
  3
ACAD_SCALELIST
350
6A4E
  3
ACAD_SECTIONVIEWSTYLE
350
12678
  3
AcadDim
350
FB97
  3
AcDbVariableDictionary
350
79E
  3
APPDATA
350
6A87
  3
DWGPROPS
350
12C58
  0
DICTIONARY
  5
7A6F
330
2
100
AcDbDictionary
280
     1
281
     1
  3
ACAD_LAYERSTATES
360
7A70
  3
ACLYDICTIONARY
360
F959
  0
DICTIONARY
  5
969E
330
1F
100
AcDbDictionary
280
     1
281
     1
  3
ACAD_SORTENTS
360
969F
  0
DICTIONARY
  5
12677
102
{ACAD_REACTORS
330
C
102
}
330
C
100
AcDbDictionary
281
     1
  0
DICTIONARY
  5
D
102
{ACAD_REACTORS
330
C
102
}
330
C
100
AcDbDictionary
281
     1
  3
*A1
350
1228F
  3
*A2
350
12290
  3
*A3
350
12291
  3
*A4
350
12292
  3
*A5
350
12293
  0
RASTERVARIABLES
  5
6A88
102
{ACAD_REACTORS
330
C
102
}
330
C
100
AcDbRasterVariables
 90
        0
 70
     1
 71
     1
 72
     1
  0
DICTIONARY
  5
1A
102
{ACAD_REACTORS
330
C
102
}
330
C
100
AcDbDictionary
281
     1
  3
Layout1
350
1E
  3
Model
350
22
  0
DICTIONARY
  5
17
102
{ACAD_REACTORS
330
C
102
}
330
C
100
AcDbDictionary
281
     1
  3
Standard
350
18
  0
DICTIONARY
  5
19
102
{ACAD_REACTORS
330
C
102
}
330
C
100
AcDbDictionary
281
     1
  0
ACDBDICTIONARYWDFLT
  5
E
102
{ACAD_REACTORS
330
C
102
}
330
C
100
AcDbDictionary
281
     1
  3
Normal
350
F
100
AcDbDictionaryWithDefault
340
F
  0
DICTIONARY
  5
6A4E
102
{ACAD_REACTORS
330
C
102
}
330
C
100
AcDbDictionary
281
     1
  3
A0
350
6A4F
  3
A1
350
6A50
  3
A2
350
6A51
  3
A3
350
6A52
  3
A4
350
6A53
  3
A5
350
6A54
  3
A6
350
6A55
  3
A7
350
6A56
  3
A8
350
6A57
  3
A9
350
6A58
  3
B0
350
6A59
  3
B1
350
6A5A
  3
B2
350
6A5B
  3
B3
350
6A5C
  3
B4
350
6A5D
  3
B5
350
6A5E
  3
B6
350
6A5F
  3
B7
350
6A60
  3
B8
350
6A61
  3
B9
350
6A62
  3
C0
350
6A63
  3
C1
350
6A64
  3
C2
350
6A65
  3
C3
350
6A66
  3
C4
350
6A67
  3
C5
350
6A68
  3
C6
350
6A69
  3
C7
350
6A6A
  3
C8
350
6A6B
  3
C9
350
6A6C
  3
D0
350
6A6D
  3
D1
350
6A6E
  3
D2
350
6A6F
  0
DICTIONARY
  5
12678
102
{ACAD_REACTORS
330
C
102
}
330
C
100
AcDbDictionary
281
     1
  0
XRECORD
  5
FB97
102
{ACAD_REACTORS
330
C
102
}
330
C
100
AcDbXrecord
280
     1
340
0
 72
     0
 71
     0
 70
     0
 69
     0
 68
     1
 67
     3
 66
     0
 65
     0
 64
     0
 63
     3
 62
     1
 61
     0
 60
     0
 40
0.0
  0
DICTIONARY
  5
79E
102
{ACAD_REACTORS
330
C
102
}
330
C
100
AcDbDictionary
281
     1
  3
DIMASSOC
350
79F
  3
SORTENTS
350
264F
  0
DICTIONARY
  5
6A87
102
{ACAD_REACTORS
330
C
102
}
330
C
100
AcDbDictionary
281
     1
  0
XRECORD
  5
12C58
102
{ACAD_REACTORS
330
C
102
}
330
C
100
AcDbXrecord
280
     1
  1
DWGPROPS COOKIE
  2

  3

  4

  6

  7

  8
Sales
  9

300
=
301
=
302
=
303
=
304
=
305
=
306
=
307
=
308
=
309
=
 40
0.0
 41
2455859.030048461
 42
2459075.109549433
  1

 90
        0
  0
DICTIONARY
  5
7A70
102
{ACAD_REACTORS
330
7A6F
102
}
330
7A6F
100
AcDbDictionary
281
     1
  0
DICTIONARY
  5
F959
102
{ACAD_REACTORS
330
7A6F
102
}
330
7A6F
100
AcDbDictionary
281
     1
1001
ACAD
1000
<All
  0
SORTENTSTABLE
  5
969F
102
{ACAD_REACTORS
330
969E
102
}
330
969E
100
AcDbSortentsTable
330
1F
331
0
  5
1210F
331
0
  5
7E94
331
0
  5
12394
331
0
  5
122EF
331
0
  5
122EE
331
0
  5
122ED
331
0
  5
A78F
331
0
  5
7E95
331
0
  5
A790
331
0
  5
122EC
331
0
  5
A791
331
0
  5
A793
331
0
  5
A794
331
0
  5
122EB
331
0
  5
122EA
331
0
  5
A795
331
0
  5
A796
331
0
  5
122E9
331
0
  5
123E1
331
0
  5
A77F
331
0
  5
A780
331
0
  5
A781
331
0
  5
A782
331
0
  5
A783
331
0
  5
A784
331
0
  5
A785
331
0
  5
A786
331
0
  5
A797
331
0
  5
A798
331
0
  5
A799
331
0
  5
A79A
331
0
  5
A79B
331
0
  5
A79C
331
0
  5
A79D
331
0
  5
A79E
331
0
  5
A79F
331
0
  5
A7A0
331
0
  5
A7A1
331
0
  5
A7A2
331
0
  5
A7A3
331
0
  5
7E97
331
0
  5
7E98
331
0
  5
7EA4
331
0
  5
122E8
331
0
  5
A7A4
331
0
  5
A7A5
331
0
  5
A7A6
331
0
  5
A7A7
331
0
  5
A7A8
331
0
  5
7EA5
331
0
  5
7EA6
331
0
  5
A7A9
331
0
  5
A7AA
331
0
  5
A7AB
331
0
  5
A7B1
331
0
  5
A7B2
331
0
  5
7EA7
331
0
  5
7EA8
331
0
  5
A7B3
331
0
  5
A7B4
331
0
  5
A7B5
331
0
  5
A7B6
331
0
  5
A7B7
331
0
  5
7EA9
331
0
  5
7EAA
331
0
  5
A7B8
331
0
  5
A7B9
331
0
  5
A7BA
331
0
  5
A7BB
331
0
  5
A7BC
331
0
  5
7EB1
331
0
  5
7EB3
331
0
  5
A7BD
331
0
  5
A7BE
331
0
  5
A7BF
331
0
  5
A7C0
331
0
  5
A7C1
331
0
  5
A7C2
331
0
  5
A7C3
331
0
  5
A7C4
331
0
  5
A7C5
331
0
  5
A7C6
331
0
  5
A7C7
331
0
  5
A7C9
331
0
  5
A843
331
0
  5
A845
331
0
  5
A846
331
0
  5
A847
331
0
  5
A848
331
0
  5
A849
331
0
  5
A84A
331
0
  5
A84B
331
0
  5
A84C
331
0
  5
A84D
331
0
  5
A84E
331
0
  5
A859
331
0
  5
A85A
331
0
  5
A85B
331
0
  5
A85C
331
0
  5
A85D
331
0
  5
A85E
331
0
  5
A85F
331
0
  5
A865
331
0
  5
A867
331
0
  5
A868
331
0
  5
A8E7
331
0
  5
A8E8
331
0
  5
A8E9
331
0
  5
A8EA
331
0
  5
A916
331
0
  5
A917
331
0
  5
A919
331
0
  5
A91A
331
0
  5
A91B
331
0
  5
A91D
331
0
  5
7EB4
331
0
  5
7EB5
331
0
  5
7EB6
331
0
  5
7EB9
331
0
  5
7EBA
331
0
  5
7ED4
331
0
  5
A91E
331
0
  5
A91F
331
0
  5
A9BF
331
0
  5
7ED7
331
0
  5
7EDC
331
0
  5
7EDD
331
0
  5
7EDE
331
0
  5
7EDF
331
0
  5
7EE0
331
0
  5
7EE2
331
0
  5
7EE3
331
0
  5
7EE4
331
0
  5
A9C1
331
0
  5
A9C2
331
0
  5
AA34
331
0
  5
7EE8
331
0
  5
7EE9
331
0
  5
7EEA
331
0
  5
7EEB
331
0
  5
7EED
331
0
  5
7EEF
331
0
  5
AA35
331
0
  5
AA36
331
0
  5
AA5A
331
0
  5
7F17
331
0
  5
D2BC
331
0
  5
7E90
331
0
  5
7F4B
331
0
  5
7F4C
331
0
  5
7F4D
331
0
  5
7F91
331
0
  5
7F92
331
0
  5
7F93
331
0
  5
7F94
331
0
  5
7F95
331
0
  5
8083
331
0
  5
8084
331
0
  5
8192
331
0
  5
8193
331
0
  5
8194
331
0
  5
8195
331
0
  5
8196
331
0
  5
8197
331
0
  5
8198
331
0
  5
819A
331
0
  5
819C
331
0
  5
819D
331
0
  5
819F
331
0
  5
81A1
331
0
  5
81AB
331
0
  5
81B0
331
0
  5
81B1
331
0
  5
81B2
331
0
  5
81BA
331
0
  5
81BB
331
0
  5
81BD
331
0
  5
81BE
331
0
  5
81BF
331
0
  5
81C0
331
0
  5
81C4
331
0
  5
81C5
331
0
  5
81C6
331
0
  5
86B2
331
0
  5
86B3
331
0
  5
86B4
331
0
  5
86B5
331
0
  5
86B7
331
0
  5
86B8
331
0
  5
86B9
331
0
  5
86C4
331
0
  5
86C5
331
0
  5
86F1
331
0
  5
86F2
331
0
  5
86F3
331
0
  5
8ACA
331
0
  5
8F4B
331
0
  5
D2BD
331
0
  5
D2BE
331
0
  5
D2BF
331
0
  5
D2C0
331
0
  5
EE43
331
0
  5
12299
331
0
  5
12110
331
0
  5
A787
331
0
  5
A788
331
0
  5
A789
331
0
  5
A78A
331
0
  5
A78B
331
0
  5
A78C
331
0
  5
A78D
331
0
  5
A78E
331
0
  5
EE44
331
ECC5
  5
EE46
331
ECC6
  5
EE47
331
ECC7
  5
A570
331
ECC8
  5
A571
331
ECC9
  5
A572
331
ECCA
  5
EE48
331
ECCB
  5
A573
331
ECCC
  5
A574
331
ECCD
  5
EE49
331
ECCE
  5
A57F
331
ECCF
  5
EE4B
331
ECD0
  5
EE4C
331
ECD1
  5
EE4E
331
ECD2
  5
F114
331
ECED
  5
A581
331
ECEF
  5
A582
331
ECF0
  5
A583
331
ECF1
  5
A585
331
ECF3
  5
A586
331
ECF4
  5
A588
331
ECF6
  5
A589
331
ECF7
  5
A58B
331
ECFB
  5
A58C
331
ECFC
  5
A77D
331
0
  5
8F4C
331
0
  5
8F4D
331
0
  5
8F53
331
ED10
  5
F115
331
ED11
  5
F118
331
ED12
  5
F119
331
ED13
  5
F11A
331
0
  5
F11B
331
0
  5
F11D
331
0
  5
8FAD
331
0
  5
F11E
331
0
  5
F11F
331
0
  5
F120
331
0
  5
F121
331
0
  5
F122
331
0
  5
F124
331
0
  5
F125
331
0
  5
F126
331
0
  5
F12B
331
0
  5
F12D
331
0
  5
F12E
331
0
  5
F1B8
331
0
  5
F1C0
331
0
  5
F1C1
331
0
  5
F7E3
331
0
  5
F7E4
331
0
  5
FC03
331
0
  5
92A3
331
0
  5
92C1
331
0
  5
FC04
331
0
  5
FC07
331
0
  5
FC0C
331
0
  5
FC0F
331
0
  5
FE7A
331
0
  5
FE87
331
0
  5
9433
331
0
  5
9436
331
0
  5
9437
331
0
  5
9438
331
0
  5
9439
331
0
  5
9525
331
0
  5
9526
331
0
  5
FE88
331
0
  5
11A6E
331
0
  5
9757
331
0
  5
9771
331
0
  5
9772
331
0
  5
11A6F
331
0
  5
11A70
331
0
  5
11A71
331
0
  5
11D90
331
0
  5
9774
331
0
  5
11D91
331
0
  5
11E79
331
0
  5
9801
331
0
  5
11EA5
331
0
  5
1210C
331
0
  5
11EA7
331
0
  5
9802
331
0
  5
9803
331
0
  5
11EA8
331
0
  5
9806
331
0
  5
11EAA
331
0
  5
9A0E
331
0
  5
11EAD
331
0
  5
9AF2
331
0
  5
9A0F
331
0
  5
9A10
331
0
  5
11EB0
331
0
  5
11EB1
331
0
  5
9A59
331
0
  5
9A5A
331
0
  5
11EB3
331
0
  5
9AF1
331
0
  5
9AF3
331
0
  5
123E2
331
0
  5
123EE
331
0
  5
9AF4
331
0
  5
9B90
331
0
  5
9B91
331
0
  5
9BBB
331
0
  5
9BBC
331
0
  5
9BBD
331
0
  5
12434
331
0
  5
12435
331
0
  5
12436
331
0
  5
9BBE
331
0
  5
9BBF
331
0
  5
9BC0
331
0
  5
9BC1
331
0
  5
12437
331
0
  5
12438
331
0
  5
12463
331
0
  5
9BDC
331
0
  5
9BDD
331
0
  5
A564
331
0
  5
12464
331
0
  5
124B8
331
0
  5
124B9
331
0
  5
124FD
331
124FD
  5
12501
331
124FE
  5
124FF
331
124FF
  5
12504
331
12502
  5
12505
331
12503
  5
12506
331
12504
  5
12507
331
12505
  5
12508
331
12506
  5
12509
331
12507
  5
1250A
331
12508
  5
12584
331
12509
  5
12585
331
1250A
  5
12586
331
0
  5
12587
331
0
  5
12588
331
0
  5
12589
331
0
  5
1258A
331
0
  5
1258B
331
0
  5
1258C
331
0
  5
1258D
331
0
  5
1258F
331
0
  5
12590
331
0
  5
12591
331
0
  5
12592
331
0
  5
12593
331
0
  5
125B8
331
0
  5
125B9
331
0
  5
12664
331
0
  5
126F8
331
0
  5
12AB3
331
12A95
  5
12500
331
0
  5
12AB4
331
0
  5
12AB5
331
0
  5
12AB6
331
0
  5
12AB7
331
0
  5
12AB8
331
0
  5
12ADC
331
12AE6
  5
12AE7
331
12AE7
  5
12AE8
331
12AE8
  5
12AE9
331
12AE9
  5
12AEA
331
12AEA
  5
12AEB
331
12AEB
  5
12AEC
331
12AEC
  5
12AED
331
12AED
  5
12AEE
331
12AEE
  5
12AEF
331
12AEF
  5
12AF0
331
12AF0
  5
12AF1
331
12AF1
  5
12B08
331
0
  5
12B0A
331
12B0A
  5
12B0D
331
12B0B
  5
12B10
331
12B0D
  5
12B0C
331
12B10
  5
12B11
331
12B11
  5
12B12
331
12B12
  5
12B13
331
12B13
  5
12B14
331
0
  5
12B23
331
0
  5
12B30
331
0
  5
12B3F
331
0
  5
12B4C
331
0
  5
12B59
331
0
  5
12B66
331
0
  5
12B67
331
0
  5
12B68
331
0
  5
12B69
331
0
  5
12B78
331
0
  5
12B87
331
0
  5
12B96
331
12B96
  5
12B97
331
12B97
  5
12B98
331
12B98
  5
12B99
331
12B99
  5
12B9A
331
12B9A
  5
12B9B
331
12B9C
  5
12B9D
331
12B9D
  5
12B9E
331
12B9E
  5
12B9F
331
12B9F
  5
12BA0
331
0
  5
7E8F
  0
GROUP
  5
1228F
102
{ACAD_REACTORS
330
D
102
}
330
D
100
AcDbGroup
300

 70
     1
 71
     1
  0
GROUP
  5
12290
102
{ACAD_REACTORS
330
D
102
}
330
D
100
AcDbGroup
300

 70
     1
 71
     1
  0
GROUP
  5
12291
102
{ACAD_REACTORS
330
D
102
}
330
D
100
AcDbGroup
300

 70
     1
 71
     1
  0
GROUP
  5
12292
102
{ACAD_REACTORS
330
D
102
}
330
D
100
AcDbGroup
300

 70
     1
 71
     1
  0
GROUP
  5
12293
102
{ACAD_REACTORS
330
D
102
}
330
D
100
AcDbGroup
300

 70
     1
 71
     1
  0
LAYOUT
  5
1E
102
{ACAD_REACTORS
330
1A
102
}
330
1A
100
AcDbPlotSettings
  1

  2
none_device
  4
ISO_A3_(420.00_x_297.00_MM)
  6

 40
7.5
 41
20.0
 42
7.5
 43
20.0
 44
420.0
 45
297.0
 46
0.0
 47
0.0
 48
0.0
 49
0.0
140
0.0
141
0.0
142
1.0
143
1.0
 70
   688
 72
     1
 73
     0
 74
     5
  7

 75
    16
147
1.0
148
0.0
149
0.0
100
AcDbLayout
  1
Layout1
 70
     1
 71
     1
 10
0.0
 20
0.0
 11
412.5
 21
277.0
 12
0.0
 22
0.0
 32
0.0
 14
1.000000000000000E+20
 24
1.000000000000000E+20
 34
1.000000000000000E+20
 15
-1.000000000000000E+20
 25
-1.000000000000000E+20
 35
-1.000000000000000E+20
146
0.0
 13
0.0
 23
0.0
 33
0.0
 16
1.0
 26
0.0
 36
0.0
 17
0.0
 27
1.0
 37
0.0
 76
     0
330
1B
331
9F0D
  0
LAYOUT
  5
22
102
{ACAD_REACTORS
330
1A
102
}
330
1A
100
AcDbPlotSettings
  1

  2
none_device
  4
A3
  6

 40
3.174999952316284
 41
3.174999952316284
 42
3.17498779296875
 43
3.17498779296875
 44
297.0318298339844
 45
420.1583251953125
 46
-3.16
 47
-3.1
 48
-90.0
 49
-90.0
140
329.9999999999998
141
207.0
142
1.0
143
1.0
 70
 11940
 72
     1
 73
     1
 74
     4
  7
monochrome.ctb
 75
     0
147
1.0
148
90.0
149
90.0
100
AcDbLayout
  1
Model
 70
     1
 71
     0
 10
0.0
 20
0.0
 11
4200.0
 21
2970.0
 12
0.0
 22
0.0
 32
0.0
 14
620.0
 24
1190.0
 34
0.0
 15
2980.0
 25
2470.0
 35
0.0
146
0.0
 13
0.0
 23
0.0
 33
0.0
 16
1.0
 26
0.0
 36
0.0
 17
0.0
 27
1.0
 37
0.0
 76
     0
330
1F
331
7A57
  0
MLINESTYLE
  5
18
102
{ACAD_REACTORS
330
17
102
}
330
17
100
AcDbMlineStyle
  2
STANDARD
 70
     0
  3

 62
   256
 51
90.0
 52
90.0
 71
     2
 49
0.5
 62
   256
  6
BYLAYER
 49
-0.5
 62
   256
  6
BYLAYER
  0
ACDBPLACEHOLDER
  5
F
102
{ACAD_REACTORS
330
E
102
}
330
E
  0
SCALE
  5
6A4F
102
{ACAD_REACTORS
330
6A4E
102
}
330
6A4E
100
AcDbScale
 70
     0
300
1:1
140
1.0
141
1.0
290
     1
  0
SCALE
  5
6A50
102
{ACAD_REACTORS
330
6A4E
102
}
330
6A4E
100
AcDbScale
 70
     0
300
1:2
140
1.0
141
2.0
290
     0
  0
SCALE
  5
6A51
102
{ACAD_REACTORS
330
6A4E
102
}
330
6A4E
100
AcDbScale
 70
     0
300
1:4
140
1.0
141
4.0
290
     0
  0
SCALE
  5
6A52
102
{ACAD_REACTORS
330
6A4E
102
}
330
6A4E
100
AcDbScale
 70
     0
300
1:5
140
1.0
141
5.0
290
     0
  0
SCALE
  5
6A53
102
{ACAD_REACTORS
330
6A4E
102
}
330
6A4E
100
AcDbScale
 70
     0
300
1:8
140
1.0
141
8.0
290
     0
  0
SCALE
  5
6A54
102
{ACAD_REACTORS
330
6A4E
102
}
330
6A4E
100
AcDbScale
 70
     0
300
1:10
140
1.0
141
10.0
290
     0
  0
SCALE
  5
6A55
102
{ACAD_REACTORS
330
6A4E
102
}
330
6A4E
100
AcDbScale
 70
     0
300
1:16
140
1.0
141
16.0
290
     0
  0
SCALE
  5
6A56
102
{ACAD_REACTORS
330
6A4E
102
}
330
6A4E
100
AcDbScale
 70
     0
300
1:20
140
1.0
141
20.0
290
     0
  0
SCALE
  5
6A57
102
{ACAD_REACTORS
330
6A4E
102
}
330
6A4E
100
AcDbScale
 70
     0
300
1:30
140
1.0
141
30.0
290
     0
  0
SCALE
  5
6A58
102
{ACAD_REACTORS
330
6A4E
102
}
330
6A4E
100
AcDbScale
 70
     0
300
1:40
140
1.0
141
40.0
290
     0
  0
SCALE
  5
6A59
102
{ACAD_REACTORS
330
6A4E
102
}
330
6A4E
100
AcDbScale
 70
     0
300
1:50
140
1.0
141
50.0
290
     0
  0
SCALE
  5
6A5A
102
{ACAD_REACTORS
330
6A4E
102
}
330
6A4E
100
AcDbScale
 70
     0
300
1:100
140
1.0
141
100.0
290
     0
  0
SCALE
  5
6A5B
102
{ACAD_REACTORS
330
6A4E
102
}
330
6A4E
100
AcDbScale
 70
     0
300
2:1
140
2.0
141
1.0
290
     0
  0
SCALE
  5
6A5C
102
{ACAD_REACTORS
330
6A4E
102
}
330
6A4E
100
AcDbScale
 70
     0
300
4:1
140
4.0
141
1.0
290
     0
  0
SCALE
  5
6A5D
102
{ACAD_REACTORS
330
6A4E
102
}
330
6A4E
100
AcDbScale
 70
     0
300
8:1
140
8.0
141
1.0
290
     0
  0
SCALE
  5
6A5E
102
{ACAD_REACTORS
330
6A4E
102
}
330
6A4E
100
AcDbScale
 70
     0
300
10:1
140
10.0
141
1.0
290
     0
  0
SCALE
  5
6A5F
102
{ACAD_REACTORS
330
6A4E
102
}
330
6A4E
100
AcDbScale
 70
     0
300
100:1
140
100.0
141
1.0
290
     0
  0
SCALE
  5
6A60
102
{ACAD_REACTORS
330
6A4E
102
}
330
6A4E
100
AcDbScale
 70
     0
300
1/128" = 1'-0"
140
0.0078125
141
12.0
290
     0
  0
SCALE
  5
6A61
102
{ACAD_REACTORS
330
6A4E
102
}
330
6A4E
100
AcDbScale
 70
     0
300
1/64" = 1'-0"
140
0.015625
141
12.0
290
     0
  0
SCALE
  5
6A62
102
{ACAD_REACTORS
330
6A4E
102
}
330
6A4E
100
AcDbScale
 70
     0
300
1/32" = 1'-0"
140
0.03125
141
12.0
290
     0
  0
SCALE
  5
6A63
102
{ACAD_REACTORS
330
6A4E
102
}
330
6A4E
100
AcDbScale
 70
     0
300
1/16" = 1'-0"
140
0.0625
141
12.0
290
     0
  0
SCALE
  5
6A64
102
{ACAD_REACTORS
330
6A4E
102
}
330
6A4E
100
AcDbScale
 70
     0
300
3/32" = 1'-0"
140
0.09375
141
12.0
290
     0
  0
SCALE
  5
6A65
102
{ACAD_REACTORS
330
6A4E
102
}
330
6A4E
100
AcDbScale
 70
     0
300
1/8" = 1'-0"
140
0.125
141
12.0
290
     0
  0
SCALE
  5
6A66
102
{ACAD_REACTORS
330
6A4E
102
}
330
6A4E
100
AcDbScale
 70
     0
300
3/16" = 1'-0"
140
0.1875
141
12.0
290
     0
  0
SCALE
  5
6A67
102
{ACAD_REACTORS
330
6A4E
102
}
330
6A4E
100
AcDbScale
 70
     0
300
1/4" = 1'-0"
140
0.25
141
12.0
290
     0
  0
SCALE
  5
6A68
102
{ACAD_REACTORS
330
6A4E
102
}
330
6A4E
100
AcDbScale
 70
     0
300
3/8" = 1'-0"
140
0.375
141
12.0
290
     0
  0
SCALE
  5
6A69
102
{ACAD_REACTORS
330
6A4E
102
}
330
6A4E
100
AcDbScale
 70
     0
300
1/2" = 1'-0"
140
0.5
141
12.0
290
     0
  0
SCALE
  5
6A6A
102
{ACAD_REACTORS
330
6A4E
102
}
330
6A4E
100
AcDbScale
 70
     0
300
3/4" = 1'-0"
140
0.75
141
12.0
290
     0
  0
SCALE
  5
6A6B
102
{ACAD_REACTORS
330
6A4E
102
}
330
6A4E
100
AcDbScale
 70
     0
300
1" = 1'-0"
140
1.0
141
12.0
290
     0
  0
SCALE
  5
6A6C
102
{ACAD_REACTORS
330
6A4E
102
}
330
6A4E
100
AcDbScale
 70
     0
300
1-1/2" = 1'-0"
140
1.5
141
12.0
290
     0
  0
SCALE
  5
6A6D
102
{ACAD_REACTORS
330
6A4E
102
}
330
6A4E
100
AcDbScale
 70
     0
300
3" = 1'-0"
140
3.0
141
12.0
290
     0
  0
SCALE
  5
6A6E
102
{ACAD_REACTORS
330
6A4E
102
}
330
6A4E
100
AcDbScale
 70
     0
300
6" = 1'-0"
140
6.0
141
12.0
290
     0
  0
SCALE
  5
6A6F
102
{ACAD_REACTORS
330
6A4E
102
}
330
6A4E
100
AcDbScale
 70
     0
300
1'-0" = 1'-0"
140
12.0
141
12.0
290
     0
  0
DICTIONARYVAR
  5
79F
102
{ACAD_REACTORS
330
79E
102
}
330
79E
100
DictionaryVariables
280
     0
  1
1
  0
DICTIONARYVAR
  5
264F
102
{ACAD_REACTORS
330
79E
102
}
330
79E
100
DictionaryVariables
280
     0
  1
96
  0
ENDSEC
  0
EOF
