  0
SECTION
  2
HEADER
  9
$ACADVER
  1
AC1015
  9
$ACADMAINTVER
 70
     6
  9
$DWGCODEPAGE
  3
ANSI_932
  9
$INSBASE
 10
0.0
 20
0.0
 30
0.0
  9
$EXTMIN
 10
500.0
 20
1189.999999999993
 30
0.0
  9
$EXTMAX
 10
3110.000000000001
 20
2470.0
 30
0.0
  9
$LIMMIN
 10
0.0
 20
0.0
  9
$LIMMAX
 10
4200.0
 20
2970.0
  9
$ORTHOMODE
 70
     1
  9
$REGENMODE
 70
     1
  9
$FILLMODE
 70
     1
  9
$QTEXTMODE
 70
     0
  9
$MIRRTEXT
 70
     0
  9
$LTSCALE
 40
3.0
  9
$ATTMODE
 70
     1
  9
$TEXTSIZE
 40
30.0
  9
$TRACEWID
 40
1.0
  9
$TEXTSTYLE
  7
Standard
  9
$CLAYER
  8
01注記寸法
  9
$CELTYPE
  6
ByLayer
  9
$CECOLOR
 62
   256
  9
$CELTSCALE
 40
1.0
  9
$DISPSILH
 70
     0
  9
$DIMSCALE
 40
10.0
  9
$DIMASZ
 40
3.0
  9
$DIMEXO
 40
1.5
  9
$DIMDLI
 40
10.0
  9
$DIMRND
 40
0.0
  9
$DIMDLE
 40
0.0
  9
$DIMEXE
 40
1.0
  9
$DIMTP
 40
0.0
  9
$DIMTM
 40
0.0
  9
$DIMTXT
 40
3.0
  9
$DIMCEN
 40
1.5
  9
$DIMTSZ
 40
0.0
  9
$DIMTOL
 70
     0
  9
$DIMLIM
 70
     0
  9
$DIMTIH
 70
     0
  9
$DIMTOH
 70
     0
  9
$DIMSE1
 70
     0
  9
$DIMSE2
 70
     0
  9
$DIMTAD
 70
     1
  9
$DIMZIN
 70
     8
  9
$DIMBLK
  1
Open
  9
$DIMASO
 70
     1
  9
$DIMSHO
 70
     1
  9
$DIMPOST
  1

  9
$DIMAPOST
  1

  9
$DIMALT
 70
     0
  9
$DIMALTD
 70
     3
  9
$DIMALTF
 40
0.03937007874016
  9
$DIMLFAC
 40
1.0
  9
$DIMTOFL
 70
     1
  9
$DIMTVP
 40
0.0
  9
$DIMTIX
 70
     0
  9
$DIMSOXD
 70
     0
  9
$DIMSAH
 70
     0
  9
$DIMBLK1
  1

  9
$DIMBLK2
  1

  9
$DIMSTYLE
  2
NEMY-10
  9
$DIMCLRD
 70
     0
  9
$DIMCLRE
 70
     0
  9
$DIMCLRT
 70
     0
  9
$DIMTFAC
 40
1.0
  9
$DIMGAP
 40
1.0
  9
$DIMJUST
 70
     0
  9
$DIMSD1
 70
     0
  9
$DIMSD2
 70
     0
  9
$DIMTOLJ
 70
     0
  9
$DIMTZIN
 70
     8
  9
$DIMALTZ
 70
     0
  9
$DIMALTTZ
 70
     0
  9
$DIMUPT
 70
     0
  9
$DIMDEC
 70
     1
  9
$DIMTDEC
 70
     1
  9
$DIMALTU
 70
     2
  9
$DIMALTTD
 70
     3
  9
$DIMTXSTY
  7
Standard
  9
$DIMAUNIT
 70
     0
  9
$DIMADEC
 70
     0
  9
$DIMALTRND
 40
0.0
  9
$DIMAZIN
 70
     0
  9
$DIMDSEP
 70
    46
  9
$DIMATFIT
 70
     3
  9
$DIMFRAC
 70
     0
  9
$DIMLDRBLK
  1
Open
  9
$DIMLUNIT
 70
     2
  9
$DIMLWD
 70
    -2
  9
$DIMLWE
 70
    -2
  9
$DIMTMOVE
 70
     0
  9
$LUNITS
 70
     2
  9
$LUPREC
 70
     4
  9
$SKETCHINC
 40
1.0
  9
$FILLETRAD
 40
2.0
  9
$AUNITS
 70
     0
  9
$AUPREC
 70
     0
  9
$MENU
  1
.
  9
$ELEVATION
 40
0.0
  9
$PELEVATION
 40
0.0
  9
$THICKNESS
 40
0.0
  9
$LIMCHECK
 70
     0
  9
$CHAMFERA
 40
5.0
  9
$CHAMFERB
 40
5.0
  9
$CHAMFERC
 40
20.0
  9
$CHAMFERD
 40
0.0
  9
$SKPOLY
 70
     0
  9
$TDCREATE
 40
2455859.405048461
  9
$TDUCREATE
 40
2455859.030048461
  9
$TDUPDATE
 40
2459075.490182836
  9
$TDUUPDATE
 40
2459075.115182836
  9
$TDINDWG
 40
1.4132384722
  9
$TDUSRTIMER
 40
0.0006258102
  9
$USRTIMER
 70
     1
  9
$ANGBASE
 50
0.0
  9
$ANGDIR
 70
     0
  9
$PDMODE
 70
     0
  9
$PDSIZE
 40
0.0
  9
$PLINEWID
 40
0.0
  9
$SPLFRAME
 70
     0
  9
$SPLINETYPE
 70
     6
  9
$SPLINESEGS
 70
     8
  9
$HANDSEED
  5
12891
  9
$SURFTAB1
 70
     6
  9
$SURFTAB2
 70
     6
  9
$SURFTYPE
 70
     6
  9
$SURFU
 70
     6
  9
$SURFV
 70
     6
  9
$UCSBASE
  2

  9
$UCSNAME
  2

  9
$UCSORG
 10
0.0
 20
0.0
 30
0.0
  9
$UCSXDIR
 10
1.0
 20
0.0
 30
0.0
  9
$UCSYDIR
 10
0.0
 20
1.0
 30
0.0
  9
$UCSORTHOREF
  2

  9
$UCSORTHOVIEW
 70
     0
  9
$UCSORGTOP
 10
0.0
 20
0.0
 30
0.0
  9
$UCSORGBOTTOM
 10
0.0
 20
0.0
 30
0.0
  9
$UCSORGLEFT
 10
0.0
 20
0.0
 30
0.0
  9
$UCSORGRIGHT
 10
0.0
 20
0.0
 30
0.0
  9
$UCSORGFRONT
 10
0.0
 20
0.0
 30
0.0
  9
$UCSORGBACK
 10
0.0
 20
0.0
 30
0.0
  9
$PUCSBASE
  2

  9
$PUCSNAME
  2

  9
$PUCSORG
 10
0.0
 20
0.0
 30
0.0
  9
$PUCSXDIR
 10
1.0
 20
0.0
 30
0.0
  9
$PUCSYDIR
 10
0.0
 20
1.0
 30
0.0
  9
$PUCSORTHOREF
  2

  9
$PUCSORTHOVIEW
 70
     0
  9
$PUCSORGTOP
 10
0.0
 20
0.0
 30
0.0
  9
$PUCSORGBOTTOM
 10
0.0
 20
0.0
 30
0.0
  9
$PUCSORGLEFT
 10
0.0
 20
0.0
 30
0.0
  9
$PUCSORGRIGHT
 10
0.0
 20
0.0
 30
0.0
  9
$PUCSORGFRONT
 10
0.0
 20
0.0
 30
0.0
  9
$PUCSORGBACK
 10
0.0
 20
0.0
 30
0.0
  9
$USERI1
 70
     0
  9
$USERI2
 70
     0
  9
$USERI3
 70
     0
  9
$USERI4
 70
     0
  9
$USERI5
 70
     0
  9
$USERR1
 40
0.0
  9
$USERR2
 40
0.0
  9
$USERR3
 40
0.0
  9
$USERR4
 40
0.0
  9
$USERR5
 40
0.0
  9
$WORLDVIEW
 70
     1
  9
$SHADEDGE
 70
     3
  9
$SHADEDIF
 70
    70
  9
$TILEMODE
 70
     1
  9
$MAXACTVP
 70
    64
  9
$PINSBASE
 10
0.0
 20
0.0
 30
0.0
  9
$PLIMCHECK
 70
     0
  9
$PEXTMIN
 10
1.000000000000000E+20
 20
1.000000000000000E+20
 30
1.000000000000000E+20
  9
$PEXTMAX
 10
-1.000000000000000E+20
 20
-1.000000000000000E+20
 30
-1.000000000000000E+20
  9
$PLIMMIN
 10
-7.5
 20
-20.0
  9
$PLIMMAX
 10
412.5
 20
277.0
  9
$UNITMODE
 70
     0
  9
$VISRETAIN
 70
     1
  9
$PLINEGEN
 70
     0
  9
$PSLTSCALE
 70
     1
  9
$TREEDEPTH
 70
  3020
  9
$CMLSTYLE
  2
Standard
  9
$CMLJUST
 70
     0
  9
$CMLSCALE
 40
20.0
  9
$PROXYGRAPHICS
 70
     1
  9
$MEASUREMENT
 70
     1
  9
$CELWEIGHT
370
    -1
  9
$ENDCAPS
280
     0
  9
$JOINSTYLE
280
     0
  9
$LWDISPLAY
290
     0
  9
$INSUNITS
 70
     4
  9
$HYPERLINKBASE
  1

  9
$STYLESHEET
  1
monochrome.ctb
  9
$XEDIT
290
     1
  9
$CEPSNTYPE
380
     0
  9
$PSTYLEMODE
290
     1
  9
$FINGERPRINTGUID
  2
{FDEAD578-A652-11D2-9A35-0060089B3A3F}
  9
$VERSIONGUID
  2
{11DB8456-EC16-47A0-BA21-BBDA07550E8A}
  9
$EXTNAMES
290
     1
  9
$PSVPSCALE
 40
0.0
  9
$OLESTARTUP
290
     0
  0
ENDSEC
  0
SECTION
  2
CLASSES
  0
CLASS
  1
ACDBDICTIONARYWDFLT
  2
AcDbDictionaryWithDefault
  3
ObjectDBX Classes
 90
        0
280
     0
281
     0
  0
CLASS
  1
ACDBPLACEHOLDER
  2
AcDbPlaceHolder
  3
ObjectDBX Classes
 90
        0
280
     0
281
     0
  0
CLASS
  1
LAYOUT
  2
AcDbLayout
  3
ObjectDBX Classes
 90
        0
280
     0
281
     0
  0
CLASS
  1
DICTIONARYVAR
  2
AcDbDictionaryVar
  3
ObjectDBX Classes
 90
        0
280
     0
281
     0
  0
CLASS
  1
SCALE
  2
AcDbScale
  3
ObjectDBX Classes
 90
     1153
280
     0
281
     0
  0
CLASS
  1
MATERIAL
  2
AcDbMaterial
  3
ObjectDBX Classes
 90
     1153
280
     0
281
     0
  0
CLASS
  1
VISUALSTYLE
  2
AcDbVisualStyle
  3
ObjectDBX Classes
 90
     4095
280
     0
281
     0
  0
CLASS
  1
TABLESTYLE
  2
AcDbTableStyle
  3
ObjectDBX Classes
 90
     4095
280
     0
281
     0
  0
CLASS
  1
RASTERVARIABLES
  2
AcDbRasterVariables
  3
ISM
 90
        0
280
     0
281
     0
  0
CLASS
  1
SORTENTSTABLE
  2
AcDbSortentsTable
  3
ObjectDBX Classes
 90
        0
280
     0
281
     0
  0
CLASS
  1
SUN
  2
AcDbSun
  3
SCENEOE
 90
     1153
280
     0
281
     0
  0
CLASS
  1
MLEADERSTYLE
  2
AcDbMLeaderStyle
  3
ACDB_MLEADERSTYLE_CLASS
 90
     4095
280
     0
281
     0
  0
ENDSEC
  0
SECTION
  2
TABLES
  0
TABLE
  2
VPORT
  5
8
330
0
100
AcDbSymbolTable
 70
     1
  0
VPORT
  5
7A57
330
8
100
AcDbSymbolTableRecord
100
AcDbViewportTableRecord
  2
*Active
 70
     0
 10
0.0
 20
0.0
 11
1.0
 21
1.0
 12
1753.387066275719
 22
1703.597037418209
 13
0.0
 23
0.0
 14
10.0
 24
10.0
 15
10.0
 25
10.0
 16
0.0
 26
0.0
 36
1.0
 17
0.0
 27
0.0
 37
0.0
 40
2842.920246542646
 41
1.430340557275542
 42
50.0
 43
0.0
 44
0.0
 50
0.0
 51
0.0
 71
    16
 72
   100
 73
     1
 74
     2
 75
     0
 76
     0
 77
     0
 78
     0
281
     0
 65
     1
110
0.0
120
0.0
130
0.0
111
1.0
121
0.0
131
0.0
112
0.0
122
1.0
132
0.0
 79
     0
146
0.0
  0
ENDTAB
  0
TABLE
  2
LTYPE
  5
5
330
0
100
AcDbSymbolTable
 70
     5
  0
LTYPE
  5
14
330
5
100
AcDbSymbolTableRecord
100
AcDbLinetypeTableRecord
  2
ByBlock
 70
     0
  3

 72
    65
 73
     0
 40
0.0
  0
LTYPE
  5
15
330
5
100
AcDbSymbolTableRecord
100
AcDbLinetypeTableRecord
  2
ByLayer
 70
     0
  3

 72
    65
 73
     0
 40
0.0
  0
LTYPE
  5
16
330
5
100
AcDbSymbolTableRecord
100
AcDbLinetypeTableRecord
  2
Continuous
 70
     0
  3
Solid line
 72
    65
 73
     0
 40
0.0
  0
LTYPE
  5
BA
330
5
100
AcDbSymbolTableRecord
100
AcDbLinetypeTableRecord
  2
HIDDEN
 70
     0
  3
Hidden __ __ __ __ __ __ __ __ __ __ __ __ __ _
 72
    65
 73
     2
 40
9.524999999999999
 49
6.35
 74
     0
 49
-3.175
 74
     0
  0
LTYPE
  5
BB
330
5
100
AcDbSymbolTableRecord
100
AcDbLinetypeTableRecord
  2
PHANTOM
 70
     0
  3
Phantom ______  __  __  ______  __  __  ______
 72
    65
 73
     6
 40
63.5
 49
31.75
 74
     0
 49
-6.35
 74
     0
 49
6.35
 74
     0
 49
-6.35
 74
     0
 49
6.35
 74
     0
 49
-6.35
 74
     0
  0
LTYPE
  5
BC
330
5
100
AcDbSymbolTableRecord
100
AcDbLinetypeTableRecord
  2
CENTER
 70
     0
  3
Center ____ _ ____ _ ____ _ ____ _ ____ _ ____
 72
    65
 73
     4
 40
50.8
 49
31.75
 74
     0
 49
-6.35
 74
     0
 49
6.35
 74
     0
 49
-6.35
 74
     0
  0
LTYPE
  5
47C
330
5
100
AcDbSymbolTableRecord
100
AcDbLinetypeTableRecord
  2
DOT
 70
     0
  3
Dot . . . . . . . . . . . . . . . . . . . . . .
 72
    65
 73
     2
 40
6.35
 49
0.0
 74
     0
 49
-6.35
 74
     0
  0
ENDTAB
  0
TABLE
  2
LAYER
  5
2
102
{ACAD_XDICTIONARY
360
7A6F
102
}
330
0
100
AcDbSymbolTable
 70
    13
  0
LAYER
  5
10
330
2
100
AcDbSymbolTableRecord
100
AcDbLayerTableRecord
  2
0
 70
     0
 62
     7
  6
Continuous
370
    -3
390
F
  0
LAYER
  5
45
330
2
100
AcDbSymbolTableRecord
100
AcDbLayerTableRecord
  2
01注記寸法
 70
     0
 62
     7
  6
Continuous
370
     9
390
F
  0
LAYER
  5
46
330
2
100
AcDbSymbolTableRecord
100
AcDbLayerTableRecord
  2
02実線
 70
     0
 62
     2
  6
Continuous
370
    15
390
F
  0
LAYER
  5
5F
330
2
100
AcDbSymbolTableRecord
100
AcDbLayerTableRecord
  2
Defpoints
 70
     0
 62
     7
  6
Continuous
290
     0
370
    -3
390
F
  0
LAYER
  5
7E52
330
2
100
AcDbSymbolTableRecord
100
AcDbLayerTableRecord
  2
03破線
 70
     0
 62
     3
  6
HIDDEN
370
     9
390
F
  0
LAYER
  5
7E55
330
2
100
AcDbSymbolTableRecord
100
AcDbLayerTableRecord
  2
04一点鎖線
 70
     0
 62
    70
  6
CENTER
370
     9
390
F
  0
LAYER
  5
7E58
330
2
100
AcDbSymbolTableRecord
100
AcDbLayerTableRecord
  2
05二点鎖線
 70
     0
 62
   110
  6
PHANTOM
370
     9
390
F
  0
LAYER
  5
7E5B
330
2
100
AcDbSymbolTableRecord
100
AcDbLayerTableRecord
  2
06点線
 70
     0
 62
    96
  6
DOT
370
     9
390
F
  0
LAYER
  5
7E5E
330
2
100
AcDbSymbolTableRecord
100
AcDbLayerTableRecord
  2
07その他
 70
     0
 62
     6
  6
Continuous
370
    13
390
F
  0
LAYER
  5
7E60
330
2
100
AcDbSymbolTableRecord
100
AcDbLayerTableRecord
  2
08非表示
 70
     0
 62
     4
  6
Continuous
290
     0
370
     0
390
F
  0
LAYER
  5
7E62
330
2
100
AcDbSymbolTableRecord
100
AcDbLayerTableRecord
  2
09図枠
 70
     0
 62
     1
  6
Continuous
370
    30
390
F
  0
LAYER
  5
835A
330
2
100
AcDbSymbolTableRecord
100
AcDbLayerTableRecord
  2
10副資材
 70
     0
 62
    51
  6
Continuous
290
     0
370
    -3
390
F
1001
AcAecLayerStandard
1000

1000

  0
LAYER
  5
8CAC
330
2
100
AcDbSymbolTableRecord
100
AcDbLayerTableRecord
  2
11機器
 70
     0
 62
    11
  6
Continuous
290
     0
370
    -3
390
F
1001
AcAecLayerStandard
1000

1000

  0
ENDTAB
  0
TABLE
  2
STYLE
  5
3
330
0
100
AcDbSymbolTable
 70
     1
  0
STYLE
  5
11
330
3
100
AcDbSymbolTableRecord
100
AcDbTextStyleTableRecord
  2
Standard
 70
     0
 40
0.0
 41
1.0
 50
0.0
 71
     0
 42
30.0
  3
MSGOTHIC.TTC
  4

1001
ACAD
1000
MS Gothic
1071
    32817
  0
ENDTAB
  0
TABLE
  2
VIEW
  5
6
330
0
100
AcDbSymbolTable
 70
     0
  0
ENDTAB
  0
TABLE
  2
UCS
  5
7
330
0
100
AcDbSymbolTable
 70
     0
  0
ENDTAB
  0
TABLE
  2
APPID
  5
9
330
0
100
AcDbSymbolTable
 70
     9
  0
APPID
  5
12
330
9
100
AcDbSymbolTableRecord
100
AcDbRegAppTableRecord
  2
ACAD
 70
     0
  0
APPID
  5
6A9E
330
9
100
AcDbSymbolTableRecord
100
AcDbRegAppTableRecord
  2
ACAD_DSTYLE_DIMRADIAL_EXTENSION
 70
     0
  0
APPID
  5
742C
330
9
100
AcDbSymbolTableRecord
100
AcDbRegAppTableRecord
  2
ACAD_PSEXT
 70
     0
  0
APPID
  5
742D
330
9
100
AcDbSymbolTableRecord
100
AcDbRegAppTableRecord
  2
ACAD_DSTYLE_DIMJAG
 70
     0
  0
APPID
  5
742E
330
9
100
AcDbSymbolTableRecord
100
AcDbRegAppTableRecord
  2
ACAD_DSTYLE_DIMTALN
 70
     0
  0
APPID
  5
835C
330
9
100
AcDbSymbolTableRecord
100
AcDbRegAppTableRecord
  2
AcAecLayerStandard
 70
     0
  0
APPID
  5
125F4
330
9
100
AcDbSymbolTableRecord
100
AcDbRegAppTableRecord
  2
HATCHBACKGROUNDCOLOR
 70
     0
  0
APPID
  5
125F5
330
9
100
AcDbSymbolTableRecord
100
AcDbRegAppTableRecord
  2
PE_URL
 70
     0
  0
APPID
  5
12805
330
9
100
AcDbSymbolTableRecord
100
AcDbRegAppTableRecord
  2
PLOTTRANSPARENCY
 70
     0
  0
ENDTAB
  0
TABLE
  2
DIMSTYLE
  5
A
330
0
100
AcDbSymbolTable
 70
    24
100
AcDbDimStyleTable
  0
DIMSTYLE
105
73
330
A
100
AcDbSymbolTableRecord
100
AcDbDimStyleTableRecord
  2
NEMY-1
 70
     0
 41
3.0
 42
1.5
 43
10.0
 44
1.0
 73
     0
 74
     0
 77
     1
 78
     8
140
3.0
141
1.5
143
0.03937007874016
147
1.0
171
     3
172
     1
178
     0
271
     1
272
     1
274
     3
283
     0
284
     8
340
11
341
8F
342
8F
  0
DIMSTYLE
105
4DCE
330
A
100
AcDbSymbolTableRecord
100
AcDbDimStyleTableRecord
  2
NEMY-2
 70
     0
 40
2.0
 41
3.0
 42
1.5
 43
10.0
 44
1.0
 73
     0
 74
     0
 77
     1
 78
     8
140
3.0
141
1.5
143
0.03937007874016
147
1.0
171
     3
172
     1
178
     0
271
     1
272
     1
274
     3
283
     0
284
     8
340
11
341
8F
342
8F
  0
DIMSTYLE
105
4DCF
330
A
100
AcDbSymbolTableRecord
100
AcDbDimStyleTableRecord
  2
NEMY-3
 70
     0
 40
3.0
 41
3.0
 42
1.5
 43
10.0
 44
1.0
 73
     0
 74
     0
 77
     1
 78
     8
140
3.0
141
1.5
143
0.03937007874016
147
1.0
171
     3
172
     1
178
     0
271
     1
272
     1
274
     3
283
     0
284
     8
340
11
341
8F
342
8F
  0
DIMSTYLE
105
4DD0
330
A
100
AcDbSymbolTableRecord
100
AcDbDimStyleTableRecord
  2
NEMY-5
 70
     0
 40
5.0
 41
3.0
 42
1.5
 43
10.0
 44
1.0
 73
     0
 74
     0
 77
     1
 78
     8
140
3.0
141
1.5
143
0.03937007874016
147
1.0
171
     3
172
     1
178
     0
271
     1
272
     1
274
     3
283
     0
284
     8
340
11
341
8F
342
8F
  0
DIMSTYLE
105
4DD1
330
A
100
AcDbSymbolTableRecord
100
AcDbDimStyleTableRecord
  2
NEMY-8
 70
     0
 40
8.0
 41
3.0
 42
1.5
 43
10.0
 44
1.0
 73
     0
 74
     0
 77
     1
 78
     8
140
3.0
141
1.5
143
0.03937007874016
147
1.0
171
     3
172
     1
178
     0
271
     1
272
     1
274
     3
283
     0
284
     8
340
11
341
8F
342
8F
  0
DIMSTYLE
105
4DD2
330
A
100
AcDbSymbolTableRecord
100
AcDbDimStyleTableRecord
  2
NEMY-15
 70
     0
 40
15.0
 41
3.0
 42
1.5
 43
10.0
 44
1.0
 73
     0
 74
     0
 77
     1
 78
     8
140
3.0
141
1.5
143
0.03937007874016
147
1.0
171
     3
172
     1
178
     0
271
     1
272
     1
274
     3
283
     0
284
     8
340
11
341
8F
342
8F
  0
DIMSTYLE
105
4DD3
102
{ACAD_REACTORS
102
}
330
A
100
AcDbSymbolTableRecord
100
AcDbDimStyleTableRecord
  2
NEMY-10
 70
     0
 40
10.0
 41
3.0
 42
1.5
 43
10.0
 44
1.0
 73
     0
 74
     0
 77
     1
 78
     8
140
3.0
141
1.5
143
0.03937007874016
147
1.0
171
     3
172
     1
178
     0
271
     1
272
     1
274
     3
283
     0
284
     8
340
11
341
8F
342
8F
  0
DIMSTYLE
105
4DD4
330
A
100
AcDbSymbolTableRecord
100
AcDbDimStyleTableRecord
  2
NEMY-25
 70
     0
 40
25.0
 41
3.0
 42
1.5
 43
10.0
 44
1.0
 73
     0
 74
     0
 77
     1
 78
     8
140
3.0
141
1.5
143
0.03937007874016
147
1.0
171
     3
172
     1
178
     0
271
     1
272
     1
274
     3
283
     0
284
     8
340
11
341
8F
342
8F
  0
DIMSTYLE
105
4DD5
330
A
100
AcDbSymbolTableRecord
100
AcDbDimStyleTableRecord
  2
NEMY-30
 70
     0
 40
30.0
 41
3.0
 42
1.5
 43
10.0
 44
1.0
 73
     0
 74
     0
 77
     1
 78
     8
140
3.0
141
1.5
143
0.03937007874016
147
1.0
171
     3
172
     1
178
     0
271
     1
272
     1
274
     3
283
     0
284
     8
340
11
341
8F
342
8F
  0
DIMSTYLE
105
4DD6
330
A
100
AcDbSymbolTableRecord
100
AcDbDimStyleTableRecord
  2
NEMY-50
 70
     0
 40
50.0
 41
3.0
 42
1.5
 43
10.0
 44
1.0
 73
     0
 74
     0
 77
     1
 78
     8
140
3.0
141
1.5
143
0.03937007874016
147
1.0
171
     3
172
     1
178
     0
271
     1
272
     1
274
     3
283
     0
284
     8
340
11
341
8F
342
8F
  0
DIMSTYLE
105
4E6F
330
A
100
AcDbSymbolTableRecord
100
AcDbDimStyleTableRecord
  2
NEMY-20
 70
     0
 40
20.0
 41
3.0
 42
1.5
 43
10.0
 44
1.0
 73
     0
 74
     0
 77
     1
 78
     8
140
3.0
141
1.5
143
0.03937007874016
147
1.0
171
     3
172
     1
178
     0
271
     1
272
     1
274
     3
283
     0
284
     8
340
11
341
8F
342
8F
  0
DIMSTYLE
105
4F44
330
A
100
AcDbSymbolTableRecord
100
AcDbDimStyleTableRecord
  2
NEMY-10$3
 70
     0
 40
10.0
 41
3.0
 42
1.5
 43
10.0
 44
1.0
 77
     1
 78
     8
140
3.0
141
1.5
143
0.03937007874016
147
1.0
171
     3
172
     1
178
     0
271
     1
272
     1
274
     3
283
     0
284
     8
340
11
341
8F
342
8F
  0
DIMSTYLE
105
4F45
330
A
100
AcDbSymbolTableRecord
100
AcDbDimStyleTableRecord
  2
NEMY-1$3
 70
     0
 41
3.0
 42
1.5
 43
10.0
 44
1.0
 77
     1
 78
     8
140
3.0
141
1.5
143
0.03937007874016
147
1.0
171
     3
172
     1
178
     0
271
     1
272
     1
274
     3
283
     0
284
     8
340
11
341
8F
342
8F
  0
DIMSTYLE
105
4F46
330
A
100
AcDbSymbolTableRecord
100
AcDbDimStyleTableRecord
  2
NEMY-12
 70
     0
 40
12.0
 41
3.0
 42
1.5
 43
10.0
 44
1.0
 73
     0
 74
     0
 77
     1
 78
     8
140
3.0
141
1.5
143
0.03937007874016
147
1.0
171
     3
172
     1
178
     0
271
     1
272
     1
274
     3
283
     0
284
     8
340
11
341
8F
342
8F
  0
DIMSTYLE
105
4F47
330
A
100
AcDbSymbolTableRecord
100
AcDbDimStyleTableRecord
  2
NEMY-12$3
 70
     0
 40
12.0
 41
3.0
 42
1.5
 43
10.0
 44
1.0
 77
     1
 78
     8
140
3.0
141
1.5
143
0.03937007874016
147
1.0
171
     3
172
     1
178
     0
271
     1
272
     1
274
     3
283
     0
284
     8
340
11
341
8F
342
8F
  0
DIMSTYLE
105
5E6E
330
A
100
AcDbSymbolTableRecord
100
AcDbDimStyleTableRecord
  2
NEMY-8$3
 70
     0
 40
8.0
 41
3.0
 42
1.5
 43
10.0
 44
1.0
 77
     1
 78
     8
140
3.0
141
1.5
143
0.03937007874016
147
1.0
171
     3
172
     1
178
     0
271
     1
272
     1
274
     3
283
     0
284
     8
340
11
341
8F
342
8F
  0
DIMSTYLE
105
5E6F
330
A
100
AcDbSymbolTableRecord
100
AcDbDimStyleTableRecord
  2
NEMY-50$3
 70
     0
 40
50.0
 41
3.0
 42
1.5
 43
10.0
 44
1.0
 77
     1
 78
     8
140
3.0
141
1.5
143
0.03937007874016
147
1.0
171
     3
172
     1
178
     0
271
     1
272
     1
274
     3
283
     0
284
     8
340
11
341
8F
342
8F
  0
DIMSTYLE
105
5E70
330
A
100
AcDbSymbolTableRecord
100
AcDbDimStyleTableRecord
  2
NEMY-5$3
 70
     0
 40
5.0
 41
3.0
 42
1.5
 43
10.0
 44
1.0
 77
     1
 78
     8
140
3.0
141
1.5
143
0.03937007874016
147
1.0
171
     3
172
     1
178
     0
271
     1
272
     1
274
     3
283
     0
284
     8
340
11
341
8F
342
8F
  0
DIMSTYLE
105
5E71
330
A
100
AcDbSymbolTableRecord
100
AcDbDimStyleTableRecord
  2
NEMY-30$3
 70
     0
 40
30.0
 41
3.0
 42
1.5
 43
10.0
 44
1.0
 77
     1
 78
     8
140
3.0
141
1.5
143
0.03937007874016
147
1.0
171
     3
172
     1
178
     0
271
     1
272
     1
274
     3
283
     0
284
     8
340
11
341
8F
342
8F
  0
DIMSTYLE
105
5E72
330
A
100
AcDbSymbolTableRecord
100
AcDbDimStyleTableRecord
  2
NEMY-3$3
 70
     0
 40
3.0
 41
3.0
 42
1.5
 43
10.0
 44
1.0
 77
     1
 78
     8
140
3.0
141
1.5
143
0.03937007874016
147
1.0
171
     3
172
     1
178
     0
271
     1
272
     1
274
     3
283
     0
284
     8
340
11
341
8F
342
8F
  0
DIMSTYLE
105
5E73
330
A
100
AcDbSymbolTableRecord
100
AcDbDimStyleTableRecord
  2
NEMY-25$3
 70
     0
 40
25.0
 41
3.0
 42
1.5
 43
10.0
 44
1.0
 77
     1
 78
     8
140
3.0
141
1.5
143
0.03937007874016
147
1.0
171
     3
172
     1
178
     0
271
     1
272
     1
274
     3
283
     0
284
     8
340
11
341
8F
342
8F
  0
DIMSTYLE
105
5E74
330
A
100
AcDbSymbolTableRecord
100
AcDbDimStyleTableRecord
  2
NEMY-20$3
 70
     0
 40
20.0
 41
3.0
 42
1.5
 43
10.0
 44
1.0
 77
     1
 78
     8
140
3.0
141
1.5
143
0.03937007874016
147
1.0
171
     3
172
     1
178
     0
271
     1
272
     1
274
     3
283
     0
284
     8
340
11
341
8F
342
8F
  0
DIMSTYLE
105
5E75
330
A
100
AcDbSymbolTableRecord
100
AcDbDimStyleTableRecord
  2
NEMY-2$3
 70
     0
 40
2.0
 41
3.0
 42
1.5
 43
10.0
 44
1.0
 77
     1
 78
     8
140
3.0
141
1.5
143
0.03937007874016
147
1.0
171
     3
172
     1
178
     0
271
     1
272
     1
274
     3
283
     0
284
     8
340
11
341
8F
342
8F
  0
DIMSTYLE
105
5E76
330
A
100
AcDbSymbolTableRecord
100
AcDbDimStyleTableRecord
  2
NEMY-15$3
 70
     0
 40
15.0
 41
3.0
 42
1.5
 43
10.0
 44
1.0
 77
     1
 78
     8
140
3.0
141
1.5
143
0.03937007874016
147
1.0
171
     3
172
     1
178
     0
271
     1
272
     1
274
     3
283
     0
284
     8
340
11
341
8F
342
8F
  0
ENDTAB
  0
TABLE
  2
BLOCK_RECORD
  5
1
330
0
100
AcDbSymbolTable
 70
    29
  0
BLOCK_RECORD
  5
1F
102
{ACAD_XDICTIONARY
360
969E
102
}
330
1
100
AcDbSymbolTableRecord
100
AcDbBlockTableRecord
  2
*Model_Space
340
22
  0
BLOCK_RECORD
  5
1B
330
1
100
AcDbSymbolTableRecord
100
AcDbBlockTableRecord
  2
*Paper_Space
340
1E
  0
BLOCK_RECORD
  5
8F
330
1
100
AcDbSymbolTableRecord
100
AcDbBlockTableRecord
  2
_Open
340
0
102
{BLKREFS
331
EE6C
331
EE86
331
EE92
331
1243C
331
12449
331
12456
331
12472
331
1248E
331
124B9
331
1255D
331
12588
331
12650
331
1265C
331
EE6D
331
EE87
331
EE93
331
1243D
331
1244A
331
12457
331
12473
331
1248F
331
124BA
331
1255E
331
12589
331
12651
331
1265D
331
EE7A
331
12465
331
12481
331
1249D
331
124AC
331
1256C
331
1257B
331
12597
331
1266A
331
127FF
331
EE7B
331
12466
331
12482
331
1249E
331
124AD
331
1256D
331
1257C
331
12598
331
1266B
331
12800
102
}
  0
BLOCK_RECORD
  5
82EB
330
1
100
AcDbSymbolTableRecord
100
AcDbBlockTableRecord
  2
hole-φ14
340
0
102
{BLKREFS
331
12431
331
12432
331
12433
331
12434
102
}
  0
BLOCK_RECORD
  5
82F2
330
1
100
AcDbSymbolTableRecord
100
AcDbBlockTableRecord
  2
hole-φ16
340
0
102
{BLKREFS
331
0
331
0
331
0
331
0
331
0
102
}
  0
BLOCK_RECORD
  5
EE66
330
1
100
AcDbSymbolTableRecord
100
AcDbBlockTableRecord
  2
*D1102
340
0
  0
BLOCK_RECORD
  5
EE72
330
1
100
AcDbSymbolTableRecord
100
AcDbBlockTableRecord
  2
*D1103
340
0
  0
BLOCK_RECORD
  5
EE80
330
1
100
AcDbSymbolTableRecord
100
AcDbBlockTableRecord
  2
*D1104
340
0
  0
BLOCK_RECORD
  5
EE8C
330
1
100
AcDbSymbolTableRecord
100
AcDbBlockTableRecord
  2
*D1105
340
0
  0
BLOCK_RECORD
  5
11E63
330
1
100
AcDbSymbolTableRecord
100
AcDbBlockTableRecord
  2
シール(検査済)
340
0
102
{BLKREFS
331
0
102
}
  0
BLOCK_RECORD
  5
11E69
330
1
100
AcDbSymbolTableRecord
100
AcDbBlockTableRecord
  2
シール(型式)
340
0
102
{BLKREFS
331
0
102
}
  0
BLOCK_RECORD
  5
12436
330
1
100
AcDbSymbolTableRecord
100
AcDbBlockTableRecord
  2
*D1733
340
0
  0
BLOCK_RECORD
  5
12443
330
1
100
AcDbSymbolTableRecord
100
AcDbBlockTableRecord
  2
*D1734
340
0
  0
BLOCK_RECORD
  5
12450
330
1
100
AcDbSymbolTableRecord
100
AcDbBlockTableRecord
  2
*D1735
340
0
  0
BLOCK_RECORD
  5
1245D
330
1
100
AcDbSymbolTableRecord
100
AcDbBlockTableRecord
  2
*D1736
340
0
  0
BLOCK_RECORD
  5
1246C
330
1
100
AcDbSymbolTableRecord
100
AcDbBlockTableRecord
  2
*D1737
340
0
  0
BLOCK_RECORD
  5
12479
330
1
100
AcDbSymbolTableRecord
100
AcDbBlockTableRecord
  2
*D1738
340
0
  0
BLOCK_RECORD
  5
12488
330
1
100
AcDbSymbolTableRecord
100
AcDbBlockTableRecord
  2
*D1739
340
0
  0
BLOCK_RECORD
  5
12495
330
1
100
AcDbSymbolTableRecord
100
AcDbBlockTableRecord
  2
*D1740
340
0
  0
BLOCK_RECORD
  5
124A4
330
1
100
AcDbSymbolTableRecord
100
AcDbBlockTableRecord
  2
*D1741
340
0
  0
BLOCK_RECORD
  5
124B3
330
1
100
AcDbSymbolTableRecord
100
AcDbBlockTableRecord
  2
*D1742
340
0
  0
BLOCK_RECORD
  5
12509
330
1
100
AcDbSymbolTableRecord
100
AcDbBlockTableRecord
  2
RF-P10A
340
0
102
{BLKREFS
331
0
102
}
  0
BLOCK_RECORD
  5
12557
330
1
100
AcDbSymbolTableRecord
100
AcDbBlockTableRecord
  2
*D1746
340
0
  0
BLOCK_RECORD
  5
12564
330
1
100
AcDbSymbolTableRecord
100
AcDbBlockTableRecord
  2
*D1747
340
0
  0
BLOCK_RECORD
  5
12573
330
1
100
AcDbSymbolTableRecord
100
AcDbBlockTableRecord
  2
*D1748
340
0
  0
BLOCK_RECORD
  5
12582
330
1
100
AcDbSymbolTableRecord
100
AcDbBlockTableRecord
  2
*D1749
340
0
  0
BLOCK_RECORD
  5
1258F
330
1
100
AcDbSymbolTableRecord
100
AcDbBlockTableRecord
  2
*D1750
340
0
  0
BLOCK_RECORD
  5
1264A
330
1
100
AcDbSymbolTableRecord
100
AcDbBlockTableRecord
  2
*D1755
340
0
  0
BLOCK_RECORD
  5
12656
330
1
100
AcDbSymbolTableRecord
100
AcDbBlockTableRecord
  2
*D1756
340
0
  0
BLOCK_RECORD
  5
12662
330
1
100
AcDbSymbolTableRecord
100
AcDbBlockTableRecord
  2
*D1757
340
0
  0
BLOCK_RECORD
  5
127F7
330
1
100
AcDbSymbolTableRecord
100
AcDbBlockTableRecord
  2
*D1760
340
0
  0
ENDTAB
  0
ENDSEC
  0
SECTION
  2
BLOCKS
  0
BLOCK
  5
20
330
1F
100
AcDbEntity
  8
0
100
AcDbBlockBegin
  2
*Model_Space
 70
     0
 10
0.0
 20
0.0
 30
0.0
  3
*Model_Space
  1

  0
ENDBLK
  5
21
330
1F
100
AcDbEntity
  8
0
100
AcDbBlockEnd
  0
BLOCK
  5
1C
330
1B
100
AcDbEntity
 67
     1
  8
0
100
AcDbBlockBegin
  2
*Paper_Space
 70
     0
 10
0.0
 20
0.0
 30
0.0
  3
*Paper_Space
  1

  0
ENDBLK
  5
1D
330
1B
100
AcDbEntity
 67
     1
  8
0
100
AcDbBlockEnd
  0
BLOCK
  5
93
330
8F
100
AcDbEntity
  8
0
100
AcDbBlockBegin
  2
_Open
 70
     0
 10
0.0
 20
0.0
 30
0.0
  3
_Open
  1

  0
LINE
  5
90
330
8F
100
AcDbEntity
  8
01注記寸法
 62
     0
370
    -2
100
AcDbLine
 10
-1.0
 20
0.1666666666666667
 30
0.0
 11
0.0
 21
0.0
 31
0.0
  0
LINE
  5
91
330
8F
100
AcDbEntity
  8
01注記寸法
 62
     0
370
    -2
100
AcDbLine
 10
-1.0
 20
-0.1666666666666667
 30
0.0
 11
0.0
 21
0.0
 31
0.0
  0
LINE
  5
92
330
8F
100
AcDbEntity
  8
01注記寸法
 62
     0
370
    -2
100
AcDbLine
 10
0.0
 20
0.0
 30
0.0
 11
-1.0
 21
0.0
 31
0.0
  0
ENDBLK
  5
94
330
8F
100
AcDbEntity
  8
0
100
AcDbBlockEnd
  0
BLOCK
  5
82EC
330
82EB
100
AcDbEntity
  8
0
100
AcDbBlockBegin
  2
hole-φ14
 70
     0
 10
0.0
 20
0.0
 30
0.0
  3
hole-φ14
  1

  0
CIRCLE
  5
82ED
330
82EB
100
AcDbEntity
  8
02実線
100
AcDbCircle
 10
0.0
 20
0.0
 30
0.0
 40
7.0
  0
LINE
  5
82EE
330
82EB
100
AcDbEntity
  8
04一点鎖線
  6
CENTER
 48
0.2
100
AcDbLine
 10
0.0
 20
-20.0
 30
0.0
 11
0.0
 21
20.0
 31
0.0
  0
LINE
  5
82EF
330
82EB
100
AcDbEntity
  8
04一点鎖線
  6
CENTER
 48
0.2
100
AcDbLine
 10
-20.0
 20
0.0
 30
0.0
 11
20.0
 21
0.0
 31
0.0
  0
ENDBLK
  5
82F0
330
82EB
100
AcDbEntity
  8
0
100
AcDbBlockEnd
  0
BLOCK
  5
82F3
330
82F2
100
AcDbEntity
  8
0
100
AcDbBlockBegin
  2
hole-φ16
 70
     0
 10
0.0
 20
0.0
 30
0.0
  3
hole-φ16
  1

  0
CIRCLE
  5
82F4
330
82F2
100
AcDbEntity
  8
02実線
100
AcDbCircle
 10
0.0
 20
0.0
 30
0.0
 40
8.0
  0
LINE
  5
82F5
330
82F2
100
AcDbEntity
  8
04一点鎖線
  6
CENTER
 48
0.2
100
AcDbLine
 10
0.0
 20
-20.0
 30
0.0
 11
0.0
 21
20.0
 31
0.0
  0
LINE
  5
82F6
330
82F2
100
AcDbEntity
  8
04一点鎖線
  6
CENTER
 48
0.2
100
AcDbLine
 10
-20.0
 20
0.0
 30
0.0
 11
20.0
 21
0.0
 31
0.0
  0
ENDBLK
  5
82F7
330
82F2
100
AcDbEntity
  8
0
100
AcDbBlockEnd
  0
BLOCK
  5
EE67
330
EE66
100
AcDbEntity
  8
0
100
AcDbBlockBegin
  2
*D1102
 70
     1
 10
0.0
 20
0.0
 30
0.0
  3
*D1102
  1

  0
LINE
  5
EE69
330
EE66
100
AcDbEntity
  8
01注記寸法
 62
     0
370
    -2
100
AcDbLine
 10
535.0
 20
1199.999999999993
 30
0.0
 11
390.0000000000003
 21
1199.999999999993
 31
0.0
  0
LINE
  5
EE6A
330
EE66
100
AcDbEntity
  8
01注記寸法
 62
     0
370
    -2
100
AcDbLine
 10
485.0000000000003
 20
1399.999999999993
 30
0.0
 11
390.0000000000003
 21
1399.999999999993
 31
0.0
  0
LINE
  5
EE6B
330
EE66
100
AcDbEntity
  8
01注記寸法
 62
     0
370
    -2
100
AcDbLine
 10
400.0000000000003
 20
1229.999999999993
 30
0.0
 11
400.0000000000003
 21
1369.999999999993
 31
0.0
  0
INSERT
  5
EE6C
330
EE66
100
AcDbEntity
  8
01注記寸法
 62
     0
370
    -2
100
AcDbBlockReference
  2
_Open
 10
400.0000000000003
 20
1199.999999999993
 30
0.0
 41
30.0
 42
30.0
 43
30.0
 50
270.0
  0
INSERT
  5
EE6D
330
EE66
100
AcDbEntity
  8
01注記寸法
 62
     0
370
    -2
100
AcDbBlockReference
  2
_Open
 10
400.0000000000003
 20
1399.999999999993
 30
0.0
 41
30.0
 42
30.0
 43
30.0
 50
90.0
  0
MTEXT
  5
EE6E
330
EE66
100
AcDbEntity
  8
01注記寸法
 62
     0
100
AcDbMText
 10
374.9943728898339
 20
1299.999999999993
 30
0.0
 40
30.0
 41
0.0
 71
     5
 72
     1
  1
200
 11
0.0
 21
1.0
 31
0.0
 73
     1
 44
1.0
  0
POINT
  5
EE6F
330
EE66
100
AcDbEntity
  8
Defpoints
 62
     0
100
AcDbPoint
 10
550.0
 20
1199.999999999993
 30
0.0
  0
POINT
  5
EE70
330
EE66
100
AcDbEntity
  8
Defpoints
 62
     0
100
AcDbPoint
 10
500.0000000000003
 20
1399.999999999993
 30
0.0
  0
POINT
  5
EE71
330
EE66
100
AcDbEntity
  8
Defpoints
 62
     0
100
AcDbPoint
 10
400.0000000000003
 20
1399.999999999993
 30
0.0
  0
ENDBLK
  5
EE68
330
EE66
100
AcDbEntity
  8
0
100
AcDbBlockEnd
  0
BLOCK
  5
EE73
330
EE72
100
AcDbEntity
  8
0
100
AcDbBlockBegin
  2
*D1103
 70
     1
 10
0.0
 20
0.0
 30
0.0
  3
*D1103
  1

  0
LINE
  5
EE75
330
EE72
100
AcDbEntity
  8
01注記寸法
 62
     0
370
    -2
100
AcDbLine
 10
485.0000000000003
 20
1399.999999999993
 30
0.0
 11
390.0000000000003
 21
1399.999999999993
 31
0.0
  0
LINE
  5
EE76
330
EE72
100
AcDbEntity
  8
01注記寸法
 62
     0
370
    -2
100
AcDbLine
 10
485.0000000000003
 20
1409.999999999993
 30
0.0
 11
390.0000000000003
 21
1409.999999999993
 31
0.0
  0
LINE
  5
EE77
330
EE72
100
AcDbEntity
  8
01注記寸法
 62
     0
370
    -2
100
AcDbLine
 10
400.0000000000003
 20
1439.999999999993
 30
0.0
 11
400.0000000000003
 21
1545.45376391146
 31
0.0
  0
LINE
  5
EE78
330
EE72
100
AcDbEntity
  8
01注記寸法
 62
     0
370
    -2
100
AcDbLine
 10
400.0000000000003
 20
1399.999999999993
 30
0.0
 11
400.0000000000003
 21
1409.999999999993
 31
0.0
  0
LINE
  5
EE79
330
EE72
100
AcDbEntity
  8
01注記寸法
 62
     0
370
    -2
100
AcDbLine
 10
400.0000000000003
 20
1369.999999999993
 30
0.0
 11
400.0000000000003
 21
1339.999999999993
 31
0.0
  0
INSERT
  5
EE7A
330
EE72
100
AcDbEntity
  8
01注記寸法
 62
     0
370
    -2
100
AcDbBlockReference
  2
_Open
 10
400.0000000000003
 20
1399.999999999993
 30
0.0
 41
30.0
 42
30.0
 43
30.0
 50
90.0
  0
INSERT
  5
EE7B
330
EE72
100
AcDbEntity
  8
01注記寸法
 62
     0
370
    -2
100
AcDbBlockReference
  2
_Open
 10
400.0000000000003
 20
1409.999999999993
 30
0.0
 41
30.0
 42
30.0
 43
30.0
 50
270.0
  0
MTEXT
  5
EE7C
330
EE72
100
AcDbEntity
  8
01注記寸法
 62
     0
100
AcDbMText
 10
374.9943728898339
 20
1507.726881955726
 30
0.0
 40
30.0
 41
0.0
 71
     5
 72
     1
  1
t10
 11
0.0
 21
1.0
 31
0.0
 73
     1
 44
1.0
  0
POINT
  5
EE7D
330
EE72
100
AcDbEntity
  8
Defpoints
 62
     0
100
AcDbPoint
 10
500.0000000000003
 20
1399.999999999993
 30
0.0
  0
POINT
  5
EE7E
330
EE72
100
AcDbEntity
  8
Defpoints
 62
     0
100
AcDbPoint
 10
500.0000000000003
 20
1409.999999999993
 30
0.0
  0
POINT
  5
EE7F
330
EE72
100
AcDbEntity
  8
Defpoints
 62
     0
100
AcDbPoint
 10
400.0000000000003
 20
1409.999999999993
 30
0.0
  0
ENDBLK
  5
EE74
330
EE72
100
AcDbEntity
  8
0
100
AcDbBlockEnd
  0
BLOCK
  5
EE81
330
EE80
100
AcDbEntity
  8
0
100
AcDbBlockBegin
  2
*D1104
 70
     1
 10
0.0
 20
0.0
 30
0.0
  3
*D1104
  1

  0
LINE
  5
EE83
330
EE80
100
AcDbEntity
  8
08非表示
 62
     0
370
    -2
100
AcDbLine
 10
2650.000000000001
 20
1424.999999999993
 30
0.0
 11
2650.000000000001
 21
1509.999999999993
 31
0.0
  0
LINE
  5
EE84
330
EE80
100
AcDbEntity
  8
08非表示
 62
     0
370
    -2
100
AcDbLine
 10
3110.000000000001
 20
1424.999999999993
 30
0.0
 11
3110.000000000001
 21
1509.999999999993
 31
0.0
  0
LINE
  5
EE85
330
EE80
100
AcDbEntity
  8
08非表示
 62
     0
370
    -2
100
AcDbLine
 10
2680.000000000001
 20
1499.999999999993
 30
0.0
 11
3080.000000000001
 21
1499.999999999993
 31
0.0
  0
INSERT
  5
EE86
330
EE80
100
AcDbEntity
  8
08非表示
 62
     0
370
    -2
100
AcDbBlockReference
  2
_Open
 10
2650.000000000001
 20
1499.999999999993
 30
0.0
 41
30.0
 42
30.0
 43
30.0
 50
180.0
  0
INSERT
  5
EE87
330
EE80
100
AcDbEntity
  8
08非表示
 62
     0
370
    -2
100
AcDbBlockReference
  2
_Open
 10
3110.000000000001
 20
1499.999999999993
 30
0.0
 41
30.0
 42
30.0
 43
30.0
  0
MTEXT
  5
EE88
330
EE80
100
AcDbEntity
  8
08非表示
 62
     0
100
AcDbMText
 10
2880.000000000001
 20
1524.999999999993
 30
0.0
 40
30.0
 41
0.0
 71
     5
 72
     1
  1
460
 73
     1
 44
1.0
  0
POINT
  5
EE89
330
EE80
100
AcDbEntity
  8
Defpoints
 62
     0
100
AcDbPoint
 10
2650.000000000001
 20
1409.999999999993
 30
0.0
  0
POINT
  5
EE8A
330
EE80
100
AcDbEntity
  8
Defpoints
 62
     0
100
AcDbPoint
 10
3110.000000000001
 20
1409.999999999993
 30
0.0
  0
POINT
  5
EE8B
330
EE80
100
AcDbEntity
  8
Defpoints
 62
     0
100
AcDbPoint
 10
3110.000000000001
 20
1499.999999999993
 30
0.0
  0
ENDBLK
  5
EE82
330
EE80
100
AcDbEntity
  8
0
100
AcDbBlockEnd
  0
BLOCK
  5
EE8D
330
EE8C
100
AcDbEntity
  8
0
100
AcDbBlockBegin
  2
*D1105
 70
     1
 10
0.0
 20
0.0
 30
0.0
  3
*D1105
  1

  0
LINE
  5
EE8F
330
EE8C
100
AcDbEntity
  8
01注記寸法
 62
     0
370
    -2
100
AcDbLine
 10
535.0
 20
2010.0
 30
0.0
 11
290.0
 21
2010.0
 31
0.0
  0
LINE
  5
EE90
330
EE8C
100
AcDbEntity
  8
01注記寸法
 62
     0
370
    -2
100
AcDbLine
 10
535.0
 20
2470.0
 30
0.0
 11
290.0
 21
2470.0
 31
0.0
  0
LINE
  5
EE91
330
EE8C
100
AcDbEntity
  8
01注記寸法
 62
     0
370
    -2
100
AcDbLine
 10
300.0
 20
2040.0
 30
0.0
 11
300.0
 21
2440.0
 31
0.0
  0
INSERT
  5
EE92
330
EE8C
100
AcDbEntity
  8
01注記寸法
 62
     0
370
    -2
100
AcDbBlockReference
  2
_Open
 10
300.0
 20
2010.0
 30
0.0
 41
30.0
 42
30.0
 43
30.0
 50
270.0
  0
INSERT
  5
EE93
330
EE8C
100
AcDbEntity
  8
01注記寸法
 62
     0
370
    -2
100
AcDbBlockReference
  2
_Open
 10
300.0
 20
2470.0
 30
0.0
 41
30.0
 42
30.0
 43
30.0
 50
90.0
  0
MTEXT
  5
EE94
330
EE8C
100
AcDbEntity
  8
01注記寸法
 62
     0
100
AcDbMText
 10
275.0
 20
2240.0
 30
0.0
 40
30.0
 41
0.0
 71
     5
 72
     1
  1
460
 11
0.0
 21
1.0
 31
0.0
 73
     1
 44
1.0
  0
POINT
  5
EE95
330
EE8C
100
AcDbEntity
  8
Defpoints
 62
     0
100
AcDbPoint
 10
550.0
 20
2010.0
 30
0.0
  0
POINT
  5
EE96
330
EE8C
100
AcDbEntity
  8
Defpoints
 62
     0
100
AcDbPoint
 10
550.0
 20
2470.0
 30
0.0
  0
POINT
  5
EE97
330
EE8C
100
AcDbEntity
  8
Defpoints
 62
     0
100
AcDbPoint
 10
300.0
 20
2470.0
 30
0.0
  0
ENDBLK
  5
EE8E
330
EE8C
100
AcDbEntity
  8
0
100
AcDbBlockEnd
  0
BLOCK
  5
11E66
330
11E63
100
AcDbEntity
  8
0
100
AcDbBlockBegin
  2
シール(検査済)
 70
     0
 10
0.0
 20
0.0
 30
0.0
  3
シール(検査済)
  1

  0
LWPOLYLINE
  5
11E64
330
11E63
100
AcDbEntity
  8
07その他
100
AcDbPolyline
 90
        4
 70
     1
 43
0.0
 10
0.0
 20
0.0
 10
0.0
 20
25.0
 10
75.0
 20
25.0
 10
75.0
 20
0.0
  0
TEXT
  5
11E65
330
11E63
100
AcDbEntity
  8
08非表示
100
AcDbText
 10
8.25
 20
5.0
 30
0.0
 40
15.0
  1
検査済
 72
     1
 11
37.5
 21
12.5
 31
0.0
100
AcDbText
 73
     2
  0
ENDBLK
  5
11E67
330
11E63
100
AcDbEntity
  8
0
100
AcDbBlockEnd
  0
BLOCK
  5
11E6C
330
11E69
100
AcDbEntity
  8
0
100
AcDbBlockBegin
  2
シール(型式)
 70
     0
 10
0.0
 20
0.0
 30
0.0
  3
シール(型式)
  1

  0
LWPOLYLINE
  5
11E6A
330
11E69
100
AcDbEntity
  8
07その他
100
AcDbPolyline
 90
        4
 70
     1
 43
0.0
 10
0.0
 20
0.0
 10
0.0
 20
24.0
 10
94.0
 20
24.0
 10
94.0
 20
0.0
  0
TEXT
  5
11E6B
330
11E69
100
AcDbEntity
  8
08非表示
100
AcDbText
 10
27.5
 20
5.0
 30
0.0
 40
15.0
  1
型式
 72
     1
 11
47.0
 21
12.5
 31
0.0
100
AcDbText
 73
     2
  0
ENDBLK
  5
11E6D
330
11E69
100
AcDbEntity
  8
0
100
AcDbBlockEnd
  0
BLOCK
  5
12437
330
12436
100
AcDbEntity
  8
0
100
AcDbBlockBegin
  2
*D1733
 70
     1
 10
0.0
 20
0.0
 30
0.0
  3
*D1733
  1

  0
LINE
  5
12439
330
12436
100
AcDbEntity
  8
01注記寸法
 62
     0
370
    -2
100
AcDbLine
 10
535.0
 20
2470.0
 30
0.0
 11
390.0
 21
2470.0
 31
0.0
  0
LINE
  5
1243A
330
12436
100
AcDbEntity
  8
01注記寸法
 62
     0
370
    -2
100
AcDbLine
 10
488.0
 20
2390.0
 30
0.0
 11
390.0
 21
2390.0
 31
0.0
  0
LINE
  5
1243B
330
12436
100
AcDbEntity
  8
01注記寸法
 62
     0
370
    -2
100
AcDbLine
 10
400.0
 20
2440.0
 30
0.0
 11
400.0
 21
2420.0
 31
0.0
  0
INSERT
  5
1243C
330
12436
100
AcDbEntity
  8
01注記寸法
 62
     0
370
    -2
100
AcDbBlockReference
  2
_Open
 10
400.0
 20
2470.0
 30
0.0
 41
30.0
 42
30.0
 43
30.0
 50
90.0
  0
INSERT
  5
1243D
330
12436
100
AcDbEntity
  8
01注記寸法
 62
     0
370
    -2
100
AcDbBlockReference
  2
_Open
 10
400.0
 20
2390.0
 30
0.0
 41
30.0
 42
30.0
 43
30.0
 50
270.0
  0
MTEXT
  5
1243E
330
12436
100
AcDbEntity
  8
01注記寸法
 62
     0
100
AcDbMText
 10
375.0
 20
2430.0
 30
0.0
 40
30.0
 41
0.0
 71
     5
 72
     1
  1
80
 11
0.0
 21
1.0
 31
0.0
 73
     1
 44
1.0
  0
POINT
  5
1243F
330
12436
100
AcDbEntity
  8
Defpoints
 62
     0
100
AcDbPoint
 10
550.0
 20
2470.0
 30
0.0
  0
POINT
  5
12440
330
12436
100
AcDbEntity
  8
Defpoints
 62
     0
100
AcDbPoint
 10
503.0
 20
2390.0
 30
0.0
  0
POINT
  5
12441
330
12436
100
AcDbEntity
  8
Defpoints
 62
     0
100
AcDbPoint
 10
400.0
 20
2390.0
 30
0.0
  0
ENDBLK
  5
12438
330
12436
100
AcDbEntity
  8
0
100
AcDbBlockEnd
  0
BLOCK
  5
12444
330
12443
100
AcDbEntity
  8
0
100
AcDbBlockBegin
  2
*D1734
 70
     1
 10
0.0
 20
0.0
 30
0.0
  3
*D1734
  1

  0
LINE
  5
12446
330
12443
100
AcDbEntity
  8
01注記寸法
 62
     0
370
    -2
100
AcDbLine
 10
488.0
 20
2390.0
 30
0.0
 11
390.0
 21
2390.0
 31
0.0
  0
LINE
  5
12447
330
12443
100
AcDbEntity
  8
01注記寸法
 62
     0
370
    -2
100
AcDbLine
 10
488.0
 20
2090.0
 30
0.0
 11
390.0
 21
2090.0
 31
0.0
  0
LINE
  5
12448
330
12443
100
AcDbEntity
  8
01注記寸法
 62
     0
370
    -2
100
AcDbLine
 10
400.0
 20
2360.0
 30
0.0
 11
400.0
 21
2120.0
 31
0.0
  0
INSERT
  5
12449
330
12443
100
AcDbEntity
  8
01注記寸法
 62
     0
370
    -2
100
AcDbBlockReference
  2
_Open
 10
400.0
 20
2390.0
 30
0.0
 41
30.0
 42
30.0
 43
30.0
 50
90.0
  0
INSERT
  5
1244A
330
12443
100
AcDbEntity
  8
01注記寸法
 62
     0
370
    -2
100
AcDbBlockReference
  2
_Open
 10
400.0
 20
2090.0
 30
0.0
 41
30.0
 42
30.0
 43
30.0
 50
270.0
  0
MTEXT
  5
1244B
330
12443
100
AcDbEntity
  8
01注記寸法
 62
     0
100
AcDbMText
 10
375.0
 20
2240.0
 30
0.0
 40
30.0
 41
0.0
 71
     5
 72
     1
  1
300
 11
0.0
 21
1.0
 31
0.0
 73
     1
 44
1.0
  0
POINT
  5
1244C
330
12443
100
AcDbEntity
  8
Defpoints
 62
     0
100
AcDbPoint
 10
503.0
 20
2390.0
 30
0.0
  0
POINT
  5
1244D
330
12443
100
AcDbEntity
  8
Defpoints
 62
     0
100
AcDbPoint
 10
503.0
 20
2090.0
 30
0.0
  0
POINT
  5
1244E
330
12443
100
AcDbEntity
  8
Defpoints
 62
     0
100
AcDbPoint
 10
400.0
 20
2090.0
 30
0.0
  0
ENDBLK
  5
12445
330
12443
100
AcDbEntity
  8
0
100
AcDbBlockEnd
  0
BLOCK
  5
12451
330
12450
100
AcDbEntity
  8
0
100
AcDbBlockBegin
  2
*D1735
 70
     1
 10
0.0
 20
0.0
 30
0.0
  3
*D1735
  1

  0
LINE
  5
12453
330
12450
100
AcDbEntity
  8
01注記寸法
 62
     0
370
    -2
100
AcDbLine
 10
488.0
 20
2090.0
 30
0.0
 11
390.0
 21
2090.0
 31
0.0
  0
LINE
  5
12454
330
12450
100
AcDbEntity
  8
01注記寸法
 62
     0
370
    -2
100
AcDbLine
 10
535.0
 20
2010.0
 30
0.0
 11
390.0
 21
2010.0
 31
0.0
  0
LINE
  5
12455
330
12450
100
AcDbEntity
  8
01注記寸法
 62
     0
370
    -2
100
AcDbLine
 10
400.0
 20
2060.0
 30
0.0
 11
400.0
 21
2040.0
 31
0.0
  0
INSERT
  5
12456
330
12450
100
AcDbEntity
  8
01注記寸法
 62
     0
370
    -2
100
AcDbBlockReference
  2
_Open
 10
400.0
 20
2090.0
 30
0.0
 41
30.0
 42
30.0
 43
30.0
 50
90.0
  0
INSERT
  5
12457
330
12450
100
AcDbEntity
  8
01注記寸法
 62
     0
370
    -2
100
AcDbBlockReference
  2
_Open
 10
400.0
 20
2010.0
 30
0.0
 41
30.0
 42
30.0
 43
30.0
 50
270.0
  0
MTEXT
  5
12458
330
12450
100
AcDbEntity
  8
01注記寸法
 62
     0
100
AcDbMText
 10
375.0
 20
2050.0
 30
0.0
 40
30.0
 41
0.0
 71
     5
 72
     1
  1
80
 11
0.0
 21
1.0
 31
0.0
 73
     1
 44
1.0
  0
POINT
  5
12459
330
12450
100
AcDbEntity
  8
Defpoints
 62
     0
100
AcDbPoint
 10
503.0
 20
2090.0
 30
0.0
  0
POINT
  5
1245A
330
12450
100
AcDbEntity
  8
Defpoints
 62
     0
100
AcDbPoint
 10
550.0
 20
2010.0
 30
0.0
  0
POINT
  5
1245B
330
12450
100
AcDbEntity
  8
Defpoints
 62
     0
100
AcDbPoint
 10
400.0
 20
2010.0
 30
0.0
  0
ENDBLK
  5
12452
330
12450
100
AcDbEntity
  8
0
100
AcDbBlockEnd
  0
BLOCK
  5
1245E
330
1245D
100
AcDbEntity
  8
0
100
AcDbBlockBegin
  2
*D1736
 70
     1
 10
0.0
 20
0.0
 30
0.0
  3
*D1736
  1

  0
LINE
  5
12460
330
1245D
100
AcDbEntity
  8
01注記寸法
 62
     0
370
    -2
100
AcDbLine
 10
550.0
 20
2485.0
 30
0.0
 11
550.0
 21
2580.0
 31
0.0
  0
LINE
  5
12461
330
1245D
100
AcDbEntity
  8
01注記寸法
 62
     0
370
    -2
100
AcDbLine
 10
523.0
 20
2425.0
 30
0.0
 11
523.0
 21
2580.0
 31
0.0
  0
LINE
  5
12462
330
1245D
100
AcDbEntity
  8
01注記寸法
 62
     0
370
    -2
100
AcDbLine
 10
493.0
 20
2570.0
 30
0.0
 11
408.4400000000001
 21
2570.0
 31
0.0
  0
LINE
  5
12463
330
1245D
100
AcDbEntity
  8
01注記寸法
 62
     0
370
    -2
100
AcDbLine
 10
550.0
 20
2570.0
 30
0.0
 11
523.0
 21
2570.0
 31
0.0
  0
LINE
  5
12464
330
1245D
100
AcDbEntity
  8
01注記寸法
 62
     0
370
    -2
100
AcDbLine
 10
580.0
 20
2570.0
 30
0.0
 11
610.0
 21
2570.0
 31
0.0
  0
INSERT
  5
12465
330
1245D
100
AcDbEntity
  8
01注記寸法
 62
     0
370
    -2
100
AcDbBlockReference
  2
_Open
 10
550.0
 20
2570.0
 30
0.0
 41
30.0
 42
30.0
 43
30.0
 50
180.0
  0
INSERT
  5
12466
330
1245D
100
AcDbEntity
  8
01注記寸法
 62
     0
370
    -2
100
AcDbBlockReference
  2
_Open
 10
523.0
 20
2570.0
 30
0.0
 41
30.0
 42
30.0
 43
30.0
  0
MTEXT
  5
12467
330
1245D
100
AcDbEntity
  8
01注記寸法
 62
     0
100
AcDbMText
 10
435.72
 20
2595.0
 30
0.0
 40
30.0
 41
0.0
 71
     5
 72
     1
  1
27
 73
     1
 44
1.0
  0
POINT
  5
12468
330
1245D
100
AcDbEntity
  8
Defpoints
 62
     0
100
AcDbPoint
 10
550.0
 20
2470.0
 30
0.0
  0
POINT
  5
12469
330
1245D
100
AcDbEntity
  8
Defpoints
 62
     0
100
AcDbPoint
 10
523.0
 20
2410.0
 30
0.0
  0
POINT
  5
1246A
330
1245D
100
AcDbEntity
  8
Defpoints
 62
     0
100
AcDbPoint
 10
523.0
 20
2570.0
 30
0.0
  0
ENDBLK
  5
1245F
330
1245D
100
AcDbEntity
  8
0
100
AcDbBlockEnd
  0
BLOCK
  5
1246D
330
1246C
100
AcDbEntity
  8
0
100
AcDbBlockBegin
  2
*D1737
 70
     1
 10
0.0
 20
0.0
 30
0.0
  3
*D1737
  1

  0
LINE
  5
1246F
330
1246C
100
AcDbEntity
  8
01注記寸法
 62
     0
370
    -2
100
AcDbLine
 10
550.0
 20
2485.0
 30
0.0
 11
550.0
 21
2580.0
 31
0.0
  0
LINE
  5
12470
330
1246C
100
AcDbEntity
  8
01注記寸法
 62
     0
370
    -2
100
AcDbLine
 10
1950.0
 20
2485.0
 30
0.0
 11
1950.0
 21
2580.0
 31
0.0
  0
LINE
  5
12471
330
1246C
100
AcDbEntity
  8
01注記寸法
 62
     0
370
    -2
100
AcDbLine
 10
580.0
 20
2570.0
 30
0.0
 11
1920.0
 21
2570.0
 31
0.0
  0
INSERT
  5
12472
330
1246C
100
AcDbEntity
  8
01注記寸法
 62
     0
370
    -2
100
AcDbBlockReference
  2
_Open
 10
550.0
 20
2570.0
 30
0.0
 41
30.0
 42
30.0
 43
30.0
 50
180.0
  0
INSERT
  5
12473
330
1246C
100
AcDbEntity
  8
01注記寸法
 62
     0
370
    -2
100
AcDbBlockReference
  2
_Open
 10
1950.0
 20
2570.0
 30
0.0
 41
30.0
 42
30.0
 43
30.0
  0
MTEXT
  5
12474
330
1246C
100
AcDbEntity
  8
01注記寸法
 62
     0
100
AcDbMText
 10
1250.0
 20
2595.0
 30
0.0
 40
30.0
 41
0.0
 71
     5
 72
     1
  1
1400
 73
     1
 44
1.0
  0
POINT
  5
12475
330
1246C
100
AcDbEntity
  8
Defpoints
 62
     0
100
AcDbPoint
 10
550.0
 20
2470.0
 30
0.0
  0
POINT
  5
12476
330
1246C
100
AcDbEntity
  8
Defpoints
 62
     0
100
AcDbPoint
 10
1950.0
 20
2470.0
 30
0.0
  0
POINT
  5
12477
330
1246C
100
AcDbEntity
  8
Defpoints
 62
     0
100
AcDbPoint
 10
1950.0
 20
2570.0
 30
0.0
  0
ENDBLK
  5
1246E
330
1246C
100
AcDbEntity
  8
0
100
AcDbBlockEnd
  0
BLOCK
  5
1247A
330
12479
100
AcDbEntity
  8
0
100
AcDbBlockBegin
  2
*D1738
 70
     1
 10
0.0
 20
0.0
 30
0.0
  3
*D1738
  1

  0
LINE
  5
1247C
330
12479
100
AcDbEntity
  8
01注記寸法
 62
     0
370
    -2
100
AcDbLine
 10
1950.0
 20
2485.0
 30
0.0
 11
1950.0
 21
2580.0
 31
0.0
  0
LINE
  5
1247D
330
12479
100
AcDbEntity
  8
01注記寸法
 62
     0
370
    -2
100
AcDbLine
 10
1977.0
 20
2425.0
 30
0.0
 11
1977.0
 21
2580.0
 31
0.0
  0
LINE
  5
1247E
330
12479
100
AcDbEntity
  8
01注記寸法
 62
     0
370
    -2
100
AcDbLine
 10
2007.0
 20
2570.0
 30
0.0
 11
2091.56
 21
2570.0
 31
0.0
  0
LINE
  5
1247F
330
12479
100
AcDbEntity
  8
01注記寸法
 62
     0
370
    -2
100
AcDbLine
 10
1950.0
 20
2570.0
 30
0.0
 11
1977.0
 21
2570.0
 31
0.0
  0
LINE
  5
12480
330
12479
100
AcDbEntity
  8
01注記寸法
 62
     0
370
    -2
100
AcDbLine
 10
1920.0
 20
2570.0
 30
0.0
 11
1890.0
 21
2570.0
 31
0.0
  0
INSERT
  5
12481
330
12479
100
AcDbEntity
  8
01注記寸法
 62
     0
370
    -2
100
AcDbBlockReference
  2
_Open
 10
1950.0
 20
2570.0
 30
0.0
 41
30.0
 42
30.0
 43
30.0
  0
INSERT
  5
12482
330
12479
100
AcDbEntity
  8
01注記寸法
 62
     0
370
    -2
100
AcDbBlockReference
  2
_Open
 10
1977.0
 20
2570.0
 30
0.0
 41
30.0
 42
30.0
 43
30.0
 50
180.0
  0
MTEXT
  5
12483
330
12479
100
AcDbEntity
  8
01注記寸法
 62
     0
100
AcDbMText
 10
2064.28
 20
2595.0
 30
0.0
 40
30.0
 41
0.0
 71
     5
 72
     1
  1
27
 73
     1
 44
1.0
  0
POINT
  5
12484
330
12479
100
AcDbEntity
  8
Defpoints
 62
     0
100
AcDbPoint
 10
1950.0
 20
2470.0
 30
0.0
  0
POINT
  5
12485
330
12479
100
AcDbEntity
  8
Defpoints
 62
     0
100
AcDbPoint
 10
1977.0
 20
2410.0
 30
0.0
  0
POINT
  5
12486
330
12479
100
AcDbEntity
  8
Defpoints
 62
     0
100
AcDbPoint
 10
1977.0
 20
2570.0
 30
0.0
  0
ENDBLK
  5
1247B
330
12479
100
AcDbEntity
  8
0
100
AcDbBlockEnd
  0
BLOCK
  5
12489
330
12488
100
AcDbEntity
  8
0
100
AcDbBlockBegin
  2
*D1739
 70
     1
 10
0.0
 20
0.0
 30
0.0
  3
*D1739
  1

  0
LINE
  5
1248B
330
12488
100
AcDbEntity
  8
01注記寸法
 62
     0
370
    -2
100
AcDbLine
 10
1977.0
 20
2425.0
 30
0.0
 11
1977.0
 21
2680.0
 31
0.0
  0
LINE
  5
1248C
330
12488
100
AcDbEntity
  8
01注記寸法
 62
     0
370
    -2
100
AcDbLine
 10
523.0
 20
2425.0
 30
0.0
 11
523.0
 21
2680.0
 31
0.0
  0
LINE
  5
1248D
330
12488
100
AcDbEntity
  8
01注記寸法
 62
     0
370
    -2
100
AcDbLine
 10
1947.0
 20
2670.0
 30
0.0
 11
553.0
 21
2670.0
 31
0.0
  0
INSERT
  5
1248E
330
12488
100
AcDbEntity
  8
01注記寸法
 62
     0
370
    -2
100
AcDbBlockReference
  2
_Open
 10
1977.0
 20
2670.0
 30
0.0
 41
30.0
 42
30.0
 43
30.0
  0
INSERT
  5
1248F
330
12488
100
AcDbEntity
  8
01注記寸法
 62
     0
370
    -2
100
AcDbBlockReference
  2
_Open
 10
523.0
 20
2670.0
 30
0.0
 41
30.0
 42
30.0
 43
30.0
 50
180.0
  0
MTEXT
  5
12490
330
12488
100
AcDbEntity
  8
01注記寸法
 62
     0
100
AcDbMText
 10
1250.0
 20
2695.0
 30
0.0
 40
30.0
 41
0.0
 71
     5
 72
     1
  1
1454
 73
     1
 44
1.0
  0
POINT
  5
12491
330
12488
100
AcDbEntity
  8
Defpoints
 62
     0
100
AcDbPoint
 10
1977.0
 20
2410.0
 30
0.0
  0
POINT
  5
12492
330
12488
100
AcDbEntity
  8
Defpoints
 62
     0
100
AcDbPoint
 10
523.0
 20
2410.0
 30
0.0
  0
POINT
  5
12493
330
12488
100
AcDbEntity
  8
Defpoints
 62
     0
100
AcDbPoint
 10
523.0
 20
2670.0
 30
0.0
  0
ENDBLK
  5
1248A
330
12488
100
AcDbEntity
  8
0
100
AcDbBlockEnd
  0
BLOCK
  5
12496
330
12495
100
AcDbEntity
  8
0
100
AcDbBlockBegin
  2
*D1740
 70
     1
 10
0.0
 20
0.0
 30
0.0
  3
*D1740
  1

  0
LINE
  5
12498
330
12495
100
AcDbEntity
  8
01注記寸法
 62
     0
370
    -2
100
AcDbLine
 10
2000.0
 20
2040.0
 30
0.0
 11
2000.0
 21
1900.0
 31
0.0
  0
LINE
  5
12499
330
12495
100
AcDbEntity
  8
01注記寸法
 62
     0
370
    -2
100
AcDbLine
 10
1950.0
 20
1995.0
 30
0.0
 11
1950.0
 21
1900.0
 31
0.0
  0
LINE
  5
1249A
330
12495
100
AcDbEntity
  8
01注記寸法
 62
     0
370
    -2
100
AcDbLine
 10
1920.0
 20
1910.0
 30
0.0
 11
1834.21
 21
1910.0
 31
0.0
  0
LINE
  5
1249B
330
12495
100
AcDbEntity
  8
01注記寸法
 62
     0
370
    -2
100
AcDbLine
 10
2000.0
 20
1910.0
 30
0.0
 11
1950.0
 21
1910.0
 31
0.0
  0
LINE
  5
1249C
330
12495
100
AcDbEntity
  8
01注記寸法
 62
     0
370
    -2
100
AcDbLine
 10
2030.0
 20
1910.0
 30
0.0
 11
2060.0
 21
1910.0
 31
0.0
  0
INSERT
  5
1249D
330
12495
100
AcDbEntity
  8
01注記寸法
 62
     0
370
    -2
100
AcDbBlockReference
  2
_Open
 10
2000.0
 20
1910.0
 30
0.0
 41
30.0
 42
30.0
 43
30.0
 50
180.0
  0
INSERT
  5
1249E
330
12495
100
AcDbEntity
  8
01注記寸法
 62
     0
370
    -2
100
AcDbBlockReference
  2
_Open
 10
1950.0
 20
1910.0
 30
0.0
 41
30.0
 42
30.0
 43
30.0
  0
MTEXT
  5
1249F
330
12495
100
AcDbEntity
  8
01注記寸法
 62
     0
100
AcDbMText
 10
1862.105
 20
1935.0
 30
0.0
 40
30.0
 41
0.0
 71
     5
 72
     1
  1
50
 73
     1
 44
1.0
  0
POINT
  5
124A0
330
12495
100
AcDbEntity
  8
Defpoints
 62
     0
100
AcDbPoint
 10
2000.0
 20
2055.0
 30
0.0
  0
POINT
  5
124A1
330
12495
100
AcDbEntity
  8
Defpoints
 62
     0
100
AcDbPoint
 10
1950.0
 20
2010.0
 30
0.0
  0
POINT
  5
124A2
330
12495
100
AcDbEntity
  8
Defpoints
 62
     0
100
AcDbPoint
 10
1950.0
 20
1910.0
 30
0.0
  0
ENDBLK
  5
12497
330
12495
100
AcDbEntity
  8
0
100
AcDbBlockEnd
  0
BLOCK
  5
124A5
330
124A4
100
AcDbEntity
  8
0
100
AcDbBlockBegin
  2
*D1741
 70
     1
 10
0.0
 20
0.0
 30
0.0
  3
*D1741
  1

  0
LINE
  5
124A7
330
124A4
100
AcDbEntity
  8
01注記寸法
 62
     0
370
    -2
100
AcDbLine
 10
2012.0
 20
2090.0
 30
0.0
 11
2110.0
 21
2090.0
 31
0.0
  0
LINE
  5
124A8
330
124A4
100
AcDbEntity
  8
01注記寸法
 62
     0
370
    -2
100
AcDbLine
 10
2015.0
 20
2130.0
 30
0.0
 11
2110.0
 21
2130.0
 31
0.0
  0
LINE
  5
124A9
330
124A4
100
AcDbEntity
  8
01注記寸法
 62
     0
370
    -2
100
AcDbLine
 10
2100.0
 20
2160.0
 30
0.0
 11
2100.0
 21
2246.24
 31
0.0
  0
LINE
  5
124AA
330
124A4
100
AcDbEntity
  8
01注記寸法
 62
     0
370
    -2
100
AcDbLine
 10
2100.0
 20
2090.0
 30
0.0
 11
2100.0
 21
2130.0
 31
0.0
  0
LINE
  5
124AB
330
124A4
100
AcDbEntity
  8
01注記寸法
 62
     0
370
    -2
100
AcDbLine
 10
2100.0
 20
2060.0
 30
0.0
 11
2100.0
 21
2030.0
 31
0.0
  0
INSERT
  5
124AC
330
124A4
100
AcDbEntity
  8
01注記寸法
 62
     0
370
    -2
100
AcDbBlockReference
  2
_Open
 10
2100.0
 20
2090.0
 30
0.0
 41
30.0
 42
30.0
 43
30.0
 50
90.0
  0
INSERT
  5
124AD
330
124A4
100
AcDbEntity
  8
01注記寸法
 62
     0
370
    -2
100
AcDbBlockReference
  2
_Open
 10
2100.0
 20
2130.0
 30
0.0
 41
30.0
 42
30.0
 43
30.0
 50
270.0
  0
MTEXT
  5
124AE
330
124A4
100
AcDbEntity
  8
01注記寸法
 62
     0
100
AcDbMText
 10
2075.0
 20
2218.12
 30
0.0
 40
30.0
 41
0.0
 71
     5
 72
     1
  1
40
 11
0.0
 21
1.0
 31
0.0
 73
     1
 44
1.0
  0
POINT
  5
124AF
330
124A4
100
AcDbEntity
  8
Defpoints
 62
     0
100
AcDbPoint
 10
1997.0
 20
2090.0
 30
0.0
  0
POINT
  5
124B0
330
124A4
100
AcDbEntity
  8
Defpoints
 62
     0
100
AcDbPoint
 10
2000.0
 20
2130.0
 30
0.0
  0
POINT
  5
124B1
330
124A4
100
AcDbEntity
  8
Defpoints
 62
     0
100
AcDbPoint
 10
2100.0
 20
2130.0
 30
0.0
  0
ENDBLK
  5
124A6
330
124A4
100
AcDbEntity
  8
0
100
AcDbBlockEnd
  0
BLOCK
  5
124B4
330
124B3
100
AcDbEntity
  8
0
100
AcDbBlockBegin
  2
*D1742
 70
     1
 10
0.0
 20
0.0
 30
0.0
  3
*D1742
  1

  0
LINE
  5
124B6
330
124B3
100
AcDbEntity
  8
01注記寸法
 62
     0
370
    -2
100
AcDbLine
 10
2010.0
 20
2050.0
 30
0.0
 11
2210.0
 21
2050.0
 31
0.0
  0
LINE
  5
124B7
330
124B3
100
AcDbEntity
  8
01注記寸法
 62
     0
370
    -2
100
AcDbLine
 10
2015.0
 20
2130.0
 30
0.0
 11
2210.0
 21
2130.0
 31
0.0
  0
LINE
  5
124B8
330
124B3
100
AcDbEntity
  8
01注記寸法
 62
     0
370
    -2
100
AcDbLine
 10
2200.0
 20
2080.0
 30
0.0
 11
2200.0
 21
2100.0
 31
0.0
  0
INSERT
  5
124B9
330
124B3
100
AcDbEntity
  8
01注記寸法
 62
     0
370
    -2
100
AcDbBlockReference
  2
_Open
 10
2200.0
 20
2050.0
 30
0.0
 41
30.0
 42
30.0
 43
30.0
 50
270.0
  0
INSERT
  5
124BA
330
124B3
100
AcDbEntity
  8
01注記寸法
 62
     0
370
    -2
100
AcDbBlockReference
  2
_Open
 10
2200.0
 20
2130.0
 30
0.0
 41
30.0
 42
30.0
 43
30.0
 50
90.0
  0
MTEXT
  5
124BB
330
124B3
100
AcDbEntity
  8
01注記寸法
 62
     0
100
AcDbMText
 10
2175.0
 20
2090.0
 30
0.0
 40
30.0
 41
0.0
 71
     5
 72
     1
  1
80
 11
0.0
 21
1.0
 31
0.0
 73
     1
 44
1.0
  0
POINT
  5
124BC
330
124B3
100
AcDbEntity
  8
Defpoints
 62
     0
100
AcDbPoint
 10
1995.0
 20
2050.0
 30
0.0
  0
POINT
  5
124BD
330
124B3
100
AcDbEntity
  8
Defpoints
 62
     0
100
AcDbPoint
 10
2000.0
 20
2130.0
 30
0.0
  0
POINT
  5
124BE
330
124B3
100
AcDbEntity
  8
Defpoints
 62
     0
100
AcDbPoint
 10
2200.0
 20
2130.0
 30
0.0
  0
ENDBLK
  5
124B5
330
124B3
100
AcDbEntity
  8
0
100
AcDbBlockEnd
  0
BLOCK
  5
1250A
330
12509
100
AcDbEntity
  8
0
100
AcDbBlockBegin
  2
RF-P10A
 70
     0
 10
0.0
 20
0.0
 30
0.0
  3
RF-P10A
  1

  0
LINE
  5
1250B
330
12509
100
AcDbEntity
  8
11機器
100
AcDbLine
 10
696.0
 20
0.0
 30
0.0
 11
-696.0
 21
0.0
 31
0.0
  0
LINE
  5
1250C
330
12509
100
AcDbEntity
  8
11機器
100
AcDbLine
 10
696.0
 20
447.0
 30
0.0
 11
-696.0
 21
447.0
 31
0.0
  0
LINE
  5
1250D
330
12509
100
AcDbEntity
  8
11機器
100
AcDbLine
 10
669.9999799999996
 20
-26.0
 30
0.0
 11
-669.9999799999996
 21
-26.0
 31
0.0
  0
LINE
  5
1250E
330
12509
100
AcDbEntity
  8
11機器
100
AcDbLine
 10
709.9999779999998
 20
459.0
 30
0.0
 11
-709.9999779999998
 21
459.0
 31
0.0
  0
LINE
  5
1250F
330
12509
100
AcDbEntity
  8
11機器
100
AcDbLine
 10
-709.9999779999998
 20
103.2000109999999
 30
0.0
 11
-709.9999779999998
 21
343.2000040000003
 31
0.0
  0
LINE
  5
12510
330
12509
100
AcDbEntity
  8
11機器
100
AcDbLine
 10
-696.0
 20
447.0
 30
0.0
 11
-696.0
 21
0.0
 31
0.0
  0
LINE
  5
12511
330
12509
100
AcDbEntity
  8
11機器
100
AcDbLine
 10
-736.9999779999998
 20
234.2000070000004
 30
0.0
 11
-736.9999779999998
 21
212.2000079999998
 31
0.0
  0
LINE
  5
12512
330
12509
100
AcDbEntity
  8
11機器
100
AcDbLine
 10
-726.9999779999998
 20
237.2000070000004
 30
0.0
 11
-726.9999779999998
 21
209.2000079999998
 31
0.0
  0
LINE
  5
12513
330
12509
100
AcDbEntity
  8
11機器
100
AcDbLine
 10
-716.799978
 20
204.2000079999998
 30
0.0
 11
-716.799978
 21
242.2000070000004
 31
0.0
  0
LINE
  5
12514
330
12509
100
AcDbEntity
  8
11機器
100
AcDbLine
 10
-741.0
 20
98.59998799999994
 30
0.0
 11
-741.0
 21
47.80003500000021
 31
0.0
  0
LINE
  5
12515
330
12509
100
AcDbEntity
  8
11機器
100
AcDbLine
 10
-696.0
 20
43.20001299999967
 30
0.0
 11
-709.9999779999998
 21
43.20001299999967
 31
0.0
  0
LINE
  5
12516
330
12509
100
AcDbEntity
  8
11機器
100
AcDbLine
 10
-736.3999780000004
 20
43.20001299999967
 30
0.0
 11
-709.9999779999998
 21
43.20001299999967
 31
0.0
  0
ARC
  5
12517
330
12509
100
AcDbEntity
  8
11機器
100
AcDbCircle
 10
-669.9999799999996
 20
13.99999899999966
 30
0.0
 40
39.999999
100
AcDbArc
 50
180.0
 51
269.9999999999987
  0
LINE
  5
12518
330
12509
100
AcDbEntity
  8
11機器
100
AcDbLine
 10
-709.9999779999998
 20
13.99999899999966
 30
0.0
 11
-709.9999779999998
 21
43.20001299999967
 31
0.0
  0
LINE
  5
12519
330
12509
100
AcDbEntity
  8
11機器
100
AcDbLine
 10
-741.0
 20
47.80003500000021
 30
0.0
 11
-736.3999780000004
 21
43.20001299999967
 31
0.0
  0
LINE
  5
1251A
330
12509
100
AcDbEntity
  8
11機器
100
AcDbLine
 10
-696.0
 20
103.2000109999999
 30
0.0
 11
-709.9999779999998
 21
103.2000109999999
 31
0.0
  0
LINE
  5
1251B
330
12509
100
AcDbEntity
  8
11機器
100
AcDbLine
 10
-709.9999779999998
 20
204.2000079999998
 30
0.0
 11
-716.799978
 21
204.2000079999998
 31
0.0
  0
LINE
  5
1251C
330
12509
100
AcDbEntity
  8
11機器
100
AcDbLine
 10
-726.9999779999998
 20
212.2000079999998
 30
0.0
 11
-736.9999779999998
 21
212.2000079999998
 31
0.0
  0
LINE
  5
1251D
330
12509
100
AcDbEntity
  8
11機器
100
AcDbLine
 10
-716.799978
 20
209.2000079999998
 30
0.0
 11
-726.9999779999998
 21
209.2000079999998
 31
0.0
  0
LINE
  5
1251E
330
12509
100
AcDbEntity
  8
11機器
100
AcDbLine
 10
-736.3999780000004
 20
103.2000109999999
 30
0.0
 11
-709.9999779999998
 21
103.2000109999999
 31
0.0
  0
CIRCLE
  5
1251F
330
12509
100
AcDbEntity
  8
11機器
100
AcDbCircle
 10
-726.9999779999998
 20
74.0
 30
0.0
 40
6.0
  0
LINE
  5
12520
330
12509
100
AcDbEntity
  8
11機器
100
AcDbLine
 10
-736.3999780000004
 20
103.2000109999999
 30
0.0
 11
-741.0
 21
98.59998799999994
 31
0.0
  0
LINE
  5
12521
330
12509
100
AcDbEntity
  8
11機器
100
AcDbLine
 10
-741.0
 20
398.5999789999996
 30
0.0
 11
-741.0
 21
347.8000259999999
 31
0.0
  0
LINE
  5
12522
330
12509
100
AcDbEntity
  8
11機器
100
AcDbLine
 10
-696.0
 20
343.2000040000003
 30
0.0
 11
-736.3999780000004
 21
343.2000040000003
 31
0.0
  0
LINE
  5
12523
330
12509
100
AcDbEntity
  8
11機器
100
AcDbLine
 10
-736.3999780000004
 20
343.2000040000003
 30
0.0
 11
-741.0
 21
347.8000259999999
 31
0.0
  0
LINE
  5
12524
330
12509
100
AcDbEntity
  8
11機器
100
AcDbLine
 10
-716.799978
 20
242.2000070000004
 30
0.0
 11
-709.9999779999998
 21
242.2000070000004
 31
0.0
  0
LINE
  5
12525
330
12509
100
AcDbEntity
  8
11機器
100
AcDbLine
 10
-736.9999779999998
 20
234.2000070000004
 30
0.0
 11
-726.9999779999998
 21
234.2000070000004
 31
0.0
  0
LINE
  5
12526
330
12509
100
AcDbEntity
  8
11機器
100
AcDbLine
 10
-726.9999779999998
 20
237.2000070000004
 30
0.0
 11
-716.799978
 21
237.2000070000004
 31
0.0
  0
LINE
  5
12527
330
12509
100
AcDbEntity
  8
11機器
100
AcDbLine
 10
-709.9999779999998
 20
403.2000019999996
 30
0.0
 11
-709.9999779999998
 21
459.0
 31
0.0
  0
LINE
  5
12528
330
12509
100
AcDbEntity
  8
11機器
100
AcDbLine
 10
-696.0
 20
403.2000019999996
 30
0.0
 11
-709.9999779999998
 21
403.2000019999996
 31
0.0
  0
LINE
  5
12529
330
12509
100
AcDbEntity
  8
11機器
100
AcDbLine
 10
-741.0
 20
398.5999789999996
 30
0.0
 11
-736.3999780000004
 21
403.2000019999996
 31
0.0
  0
CIRCLE
  5
1252A
330
12509
100
AcDbEntity
  8
11機器
100
AcDbCircle
 10
-726.9999779999998
 20
374.0
 30
0.0
 40
6.0
  0
LINE
  5
1252B
330
12509
100
AcDbEntity
  8
11機器
100
AcDbLine
 10
-736.3999780000004
 20
403.2000019999996
 30
0.0
 11
-709.9999779999998
 21
403.2000019999996
 31
0.0
  0
LINE
  5
1252C
330
12509
100
AcDbEntity
  8
11機器
100
AcDbLine
 10
709.9999779999998
 20
103.2000109999999
 30
0.0
 11
709.9999779999998
 21
343.2000040000003
 31
0.0
  0
LINE
  5
1252D
330
12509
100
AcDbEntity
  8
11機器
100
AcDbLine
 10
696.0
 20
0.0
 30
0.0
 11
696.0
 21
447.0
 31
0.0
  0
LINE
  5
1252E
330
12509
100
AcDbEntity
  8
11機器
100
AcDbLine
 10
741.0
 20
98.59998799999994
 30
0.0
 11
741.0
 21
47.80003500000021
 31
0.0
  0
ARC
  5
1252F
330
12509
100
AcDbEntity
  8
11機器
100
AcDbCircle
 10
669.9999799999996
 20
13.99999899999966
 30
0.0
 40
39.999999
100
AcDbArc
 50
270.0
 51
0.0
  0
LINE
  5
12530
330
12509
100
AcDbEntity
  8
11機器
100
AcDbLine
 10
736.3999780000004
 20
43.20001299999967
 30
0.0
 11
696.0
 21
43.20001299999967
 31
0.0
  0
LINE
  5
12531
330
12509
100
AcDbEntity
  8
11機器
100
AcDbLine
 10
709.9999779999998
 20
13.99999899999966
 30
0.0
 11
709.9999779999998
 21
43.20001299999967
 31
0.0
  0
LINE
  5
12532
330
12509
100
AcDbEntity
  8
11機器
100
AcDbLine
 10
741.0
 20
47.80003500000021
 30
0.0
 11
736.3999780000004
 21
43.20001299999967
 31
0.0
  0
CIRCLE
  5
12533
330
12509
100
AcDbEntity
  8
11機器
100
AcDbCircle
 10
726.9999779999998
 20
74.0
 30
0.0
 40
6.0
  0
LINE
  5
12534
330
12509
100
AcDbEntity
  8
11機器
100
AcDbLine
 10
736.3999780000004
 20
103.2000109999999
 30
0.0
 11
741.0
 21
98.59998799999994
 31
0.0
  0
LINE
  5
12535
330
12509
100
AcDbEntity
  8
11機器
100
AcDbLine
 10
736.3999780000004
 20
103.2000109999999
 30
0.0
 11
696.0
 21
103.2000109999999
 31
0.0
  0
LINE
  5
12536
330
12509
100
AcDbEntity
  8
11機器
100
AcDbLine
 10
741.0
 20
398.5999789999996
 30
0.0
 11
741.0
 21
347.8000259999999
 31
0.0
  0
LINE
  5
12537
330
12509
100
AcDbEntity
  8
11機器
100
AcDbLine
 10
741.0
 20
347.8000259999999
 30
0.0
 11
736.3999780000004
 21
343.2000040000003
 31
0.0
  0
LINE
  5
12538
330
12509
100
AcDbEntity
  8
11機器
100
AcDbLine
 10
736.3999780000004
 20
343.2000040000003
 30
0.0
 11
696.0
 21
343.2000040000003
 31
0.0
  0
LINE
  5
12539
330
12509
100
AcDbEntity
  8
11機器
100
AcDbLine
 10
709.9999779999998
 20
403.2000019999996
 30
0.0
 11
709.9999779999998
 21
459.0
 31
0.0
  0
CIRCLE
  5
1253A
330
12509
100
AcDbEntity
  8
11機器
100
AcDbCircle
 10
726.9999779999998
 20
374.0
 30
0.0
 40
6.0
  0
LINE
  5
1253B
330
12509
100
AcDbEntity
  8
11機器
100
AcDbLine
 10
736.3999780000004
 20
403.2000019999996
 30
0.0
 11
741.0
 21
398.5999789999996
 31
0.0
  0
LINE
  5
1253C
330
12509
100
AcDbEntity
  8
11機器
100
AcDbLine
 10
736.3999780000004
 20
403.2000019999996
 30
0.0
 11
696.0
 21
403.2000019999996
 31
0.0
  0
ENDBLK
  5
1253D
330
12509
100
AcDbEntity
  8
0
100
AcDbBlockEnd
  0
BLOCK
  5
12558
330
12557
100
AcDbEntity
  8
0
100
AcDbBlockBegin
  2
*D1746
 70
     1
 10
0.0
 20
0.0
 30
0.0
  3
*D1746
  1

  0
LINE
  5
1255A
330
12557
100
AcDbEntity
  8
01注記寸法
 62
     0
370
    -2
100
AcDbLine
 10
640.0
 20
329.9999999999989
 30
0.0
 11
490.0
 21
329.9999999999989
 31
0.0
  0
LINE
  5
1255B
330
12557
100
AcDbEntity
  8
01注記寸法
 62
     0
370
    -2
100
AcDbLine
 10
639.9999999999995
 20
729.9999999999989
 30
0.0
 11
490.0
 21
729.9999999999989
 31
0.0
  0
LINE
  5
1255C
330
12557
100
AcDbEntity
  8
01注記寸法
 62
     0
370
    -2
100
AcDbLine
 10
500.0
 20
359.9999999999989
 30
0.0
 11
500.0
 21
699.9999999999989
 31
0.0
  0
INSERT
  5
1255D
330
12557
100
AcDbEntity
  8
01注記寸法
 62
     0
370
    -2
100
AcDbBlockReference
  2
_Open
 10
500.0
 20
329.9999999999989
 30
0.0
 41
30.0
 42
30.0
 43
30.0
 50
270.0
  0
INSERT
  5
1255E
330
12557
100
AcDbEntity
  8
01注記寸法
 62
     0
370
    -2
100
AcDbBlockReference
  2
_Open
 10
500.0
 20
729.9999999999989
 30
0.0
 41
30.0
 42
30.0
 43
30.0
 50
90.0
  0
MTEXT
  5
1255F
330
12557
100
AcDbEntity
  8
01注記寸法
 62
     0
100
AcDbMText
 10
475.0
 20
529.9999999999989
 30
0.0
 40
30.0
 41
0.0
 71
     5
 72
     1
  1
400
 11
0.0
 21
1.0
 31
0.0
 73
     1
 44
1.0
  0
POINT
  5
12560
330
12557
100
AcDbEntity
  8
Defpoints
 62
     0
100
AcDbPoint
 10
655.0
 20
329.9999999999989
 30
0.0
  0
POINT
  5
12561
330
12557
100
AcDbEntity
  8
Defpoints
 62
     0
100
AcDbPoint
 10
654.9999999999995
 20
729.9999999999989
 30
0.0
  0
POINT
  5
12562
330
12557
100
AcDbEntity
  8
Defpoints
 62
     0
100
AcDbPoint
 10
500.0
 20
729.9999999999989
 30
0.0
  0
ENDBLK
  5
12559
330
12557
100
AcDbEntity
  8
0
100
AcDbBlockEnd
  0
BLOCK
  5
12565
330
12564
100
AcDbEntity
  8
0
100
AcDbBlockBegin
  2
*D1747
 70
     1
 10
0.0
 20
0.0
 30
0.0
  3
*D1747
  1

  0
LINE
  5
12567
330
12564
100
AcDbEntity
  8
01注記寸法
 62
     0
370
    -2
100
AcDbLine
 10
639.9999999999995
 20
729.9999999999989
 30
0.0
 11
490.0
 21
729.9999999999989
 31
0.0
  0
LINE
  5
12568
330
12564
100
AcDbEntity
  8
01注記寸法
 62
     0
370
    -2
100
AcDbLine
 10
585.0
 20
759.9999999999989
 30
0.0
 11
490.0
 21
759.9999999999989
 31
0.0
  0
LINE
  5
12569
330
12564
100
AcDbEntity
  8
01注記寸法
 62
     0
370
    -2
100
AcDbLine
 10
500.0
 20
789.9999999999989
 30
0.0
 11
500.0
 21
875.7963923971479
 31
0.0
  0
LINE
  5
1256A
330
12564
100
AcDbEntity
  8
01注記寸法
 62
     0
370
    -2
100
AcDbLine
 10
500.0
 20
729.9999999999989
 30
0.0
 11
500.0
 21
759.9999999999989
 31
0.0
  0
LINE
  5
1256B
330
12564
100
AcDbEntity
  8
01注記寸法
 62
     0
370
    -2
100
AcDbLine
 10
500.0
 20
699.9999999999989
 30
0.0
 11
500.0
 21
669.9999999999989
 31
0.0
  0
INSERT
  5
1256C
330
12564
100
AcDbEntity
  8
01注記寸法
 62
     0
370
    -2
100
AcDbBlockReference
  2
_Open
 10
500.0
 20
729.9999999999989
 30
0.0
 41
30.0
 42
30.0
 43
30.0
 50
90.0
  0
INSERT
  5
1256D
330
12564
100
AcDbEntity
  8
01注記寸法
 62
     0
370
    -2
100
AcDbBlockReference
  2
_Open
 10
500.0
 20
759.9999999999989
 30
0.0
 41
30.0
 42
30.0
 43
30.0
 50
270.0
  0
MTEXT
  5
1256E
330
12564
100
AcDbEntity
  8
01注記寸法
 62
     0
100
AcDbMText
 10
474.9943728898337
 20
847.8981961985734
 30
0.0
 40
30.0
 41
0.0
 71
     5
 72
     1
  1
30
 11
0.0
 21
1.0
 31
0.0
 73
     1
 44
1.0
  0
POINT
  5
1256F
330
12564
100
AcDbEntity
  8
Defpoints
 62
     0
100
AcDbPoint
 10
654.9999999999995
 20
729.9999999999989
 30
0.0
  0
POINT
  5
12570
330
12564
100
AcDbEntity
  8
Defpoints
 62
     0
100
AcDbPoint
 10
600.0
 20
759.9999999999989
 30
0.0
  0
POINT
  5
12571
330
12564
100
AcDbEntity
  8
Defpoints
 62
     0
100
AcDbPoint
 10
500.0
 20
759.9999999999989
 30
0.0
  0
ENDBLK
  5
12566
330
12564
100
AcDbEntity
  8
0
100
AcDbBlockEnd
  0
BLOCK
  5
12574
330
12573
100
AcDbEntity
  8
0
100
AcDbBlockBegin
  2
*D1748
 70
     1
 10
0.0
 20
0.0
 30
0.0
  3
*D1748
  1

  0
LINE
  5
12576
330
12573
100
AcDbEntity
  8
01注記寸法
 62
     0
370
    -2
100
AcDbLine
 10
600.0
 20
774.9999999999989
 30
0.0
 11
600.0
 21
869.9999999999989
 31
0.0
  0
LINE
  5
12577
330
12573
100
AcDbEntity
  8
01注記寸法
 62
     0
370
    -2
100
AcDbLine
 10
674.9999999999995
 20
764.9999999999989
 30
0.0
 11
674.9999999999995
 21
869.9999999999989
 31
0.0
  0
LINE
  5
12578
330
12573
100
AcDbEntity
  8
01注記寸法
 62
     0
370
    -2
100
AcDbLine
 10
600.0
 20
859.9999999999989
 30
0.0
 11
674.9999999999995
 21
859.9999999999989
 31
0.0
  0
LINE
  5
12579
330
12573
100
AcDbEntity
  8
01注記寸法
 62
     0
370
    -2
100
AcDbLine
 10
570.0
 20
859.9999999999989
 30
0.0
 11
540.0
 21
859.9999999999989
 31
0.0
  0
LINE
  5
1257A
330
12573
100
AcDbEntity
  8
01注記寸法
 62
     0
370
    -2
100
AcDbLine
 10
704.9999999999995
 20
859.9999999999989
 30
0.0
 11
734.9999999999995
 21
859.9999999999989
 31
0.0
  0
INSERT
  5
1257B
330
12573
100
AcDbEntity
  8
01注記寸法
 62
     0
370
    -2
100
AcDbBlockReference
  2
_Open
 10
600.0
 20
859.9999999999989
 30
0.0
 41
30.0
 42
30.0
 43
30.0
  0
INSERT
  5
1257C
330
12573
100
AcDbEntity
  8
01注記寸法
 62
     0
370
    -2
100
AcDbBlockReference
  2
_Open
 10
674.9999999999995
 20
859.9999999999989
 30
0.0
 41
30.0
 42
30.0
 43
30.0
 50
180.0
  0
MTEXT
  5
1257D
330
12573
100
AcDbEntity
  8
01注記寸法
 62
     0
100
AcDbMText
 10
637.4999999999998
 20
885.0056271101652
 30
0.0
 40
30.0
 41
0.0
 71
     5
 72
     1
  1
75
 73
     1
 44
1.0
  0
POINT
  5
1257E
330
12573
100
AcDbEntity
  8
Defpoints
 62
     0
100
AcDbPoint
 10
600.0
 20
759.9999999999989
 30
0.0
  0
POINT
  5
1257F
330
12573
100
AcDbEntity
  8
Defpoints
 62
     0
100
AcDbPoint
 10
674.9999999999995
 20
749.9999999999989
 30
0.0
  0
POINT
  5
12580
330
12573
100
AcDbEntity
  8
Defpoints
 62
     0
100
AcDbPoint
 10
674.9999999999995
 20
859.9999999999989
 30
0.0
  0
ENDBLK
  5
12575
330
12573
100
AcDbEntity
  8
0
100
AcDbBlockEnd
  0
BLOCK
  5
12583
330
12582
100
AcDbEntity
  8
0
100
AcDbBlockBegin
  2
*D1749
 70
     1
 10
0.0
 20
0.0
 30
0.0
  3
*D1749
  1

  0
LINE
  5
12585
330
12582
100
AcDbEntity
  8
01注記寸法
 62
     0
370
    -2
100
AcDbLine
 10
674.9999999999995
 20
764.9999999999989
 30
0.0
 11
674.9999999999995
 21
869.9999999999989
 31
0.0
  0
LINE
  5
12586
330
12582
100
AcDbEntity
  8
01注記寸法
 62
     0
370
    -2
100
AcDbLine
 10
1925.0
 20
764.9999999999989
 30
0.0
 11
1925.0
 21
869.9999999999989
 31
0.0
  0
LINE
  5
12587
330
12582
100
AcDbEntity
  8
01注記寸法
 62
     0
370
    -2
100
AcDbLine
 10
704.9999999999995
 20
859.9999999999989
 30
0.0
 11
1895.0
 21
859.9999999999989
 31
0.0
  0
INSERT
  5
12588
330
12582
100
AcDbEntity
  8
01注記寸法
 62
     0
370
    -2
100
AcDbBlockReference
  2
_Open
 10
674.9999999999995
 20
859.9999999999989
 30
0.0
 41
30.0
 42
30.0
 43
30.0
 50
180.0
  0
INSERT
  5
12589
330
12582
100
AcDbEntity
  8
01注記寸法
 62
     0
370
    -2
100
AcDbBlockReference
  2
_Open
 10
1925.0
 20
859.9999999999989
 30
0.0
 41
30.0
 42
30.0
 43
30.0
  0
MTEXT
  5
1258A
330
12582
100
AcDbEntity
  8
01注記寸法
 62
     0
100
AcDbMText
 10
1300.0
 20
885.0056271101652
 30
0.0
 40
30.0
 41
0.0
 71
     5
 72
     1
  1
1250
 73
     1
 44
1.0
  0
POINT
  5
1258B
330
12582
100
AcDbEntity
  8
Defpoints
 62
     0
100
AcDbPoint
 10
674.9999999999995
 20
749.9999999999989
 30
0.0
  0
POINT
  5
1258C
330
12582
100
AcDbEntity
  8
Defpoints
 62
     0
100
AcDbPoint
 10
1925.0
 20
749.9999999999989
 30
0.0
  0
POINT
  5
1258D
330
12582
100
AcDbEntity
  8
Defpoints
 62
     0
100
AcDbPoint
 10
1925.0
 20
859.9999999999989
 30
0.0
  0
ENDBLK
  5
12584
330
12582
100
AcDbEntity
  8
0
100
AcDbBlockEnd
  0
BLOCK
  5
12590
330
1258F
100
AcDbEntity
  8
0
100
AcDbBlockBegin
  2
*D1750
 70
     1
 10
0.0
 20
0.0
 30
0.0
  3
*D1750
  1

  0
LINE
  5
12592
330
1258F
100
AcDbEntity
  8
01注記寸法
 62
     0
370
    -2
100
AcDbLine
 10
1925.0
 20
764.9999999999989
 30
0.0
 11
1925.0
 21
869.9999999999989
 31
0.0
  0
LINE
  5
12593
330
1258F
100
AcDbEntity
  8
01注記寸法
 62
     0
370
    -2
100
AcDbLine
 10
2000.0
 20
774.9999999999989
 30
0.0
 11
2000.0
 21
869.9999999999989
 31
0.0
  0
LINE
  5
12594
330
1258F
100
AcDbEntity
  8
01注記寸法
 62
     0
370
    -2
100
AcDbLine
 10
1925.0
 20
859.9999999999989
 30
0.0
 11
2000.0
 21
859.9999999999989
 31
0.0
  0
LINE
  5
12595
330
1258F
100
AcDbEntity
  8
01注記寸法
 62
     0
370
    -2
100
AcDbLine
 10
1895.0
 20
859.9999999999989
 30
0.0
 11
1865.0
 21
859.9999999999989
 31
0.0
  0
LINE
  5
12596
330
1258F
100
AcDbEntity
  8
01注記寸法
 62
     0
370
    -2
100
AcDbLine
 10
2030.0
 20
859.9999999999989
 30
0.0
 11
2060.0
 21
859.9999999999989
 31
0.0
  0
INSERT
  5
12597
330
1258F
100
AcDbEntity
  8
01注記寸法
 62
     0
370
    -2
100
AcDbBlockReference
  2
_Open
 10
1925.0
 20
859.9999999999989
 30
0.0
 41
30.0
 42
30.0
 43
30.0
  0
INSERT
  5
12598
330
1258F
100
AcDbEntity
  8
01注記寸法
 62
     0
370
    -2
100
AcDbBlockReference
  2
_Open
 10
2000.0
 20
859.9999999999989
 30
0.0
 41
30.0
 42
30.0
 43
30.0
 50
180.0
  0
MTEXT
  5
12599
330
1258F
100
AcDbEntity
  8
01注記寸法
 62
     0
100
AcDbMText
 10
1962.5
 20
885.0056271101652
 30
0.0
 40
30.0
 41
0.0
 71
     5
 72
     1
  1
75
 73
     1
 44
1.0
  0
POINT
  5
1259A
330
1258F
100
AcDbEntity
  8
Defpoints
 62
     0
100
AcDbPoint
 10
1925.0
 20
749.9999999999989
 30
0.0
  0
POINT
  5
1259B
330
1258F
100
AcDbEntity
  8
Defpoints
 62
     0
100
AcDbPoint
 10
2000.0
 20
759.9999999999989
 30
0.0
  0
POINT
  5
1259C
330
1258F
100
AcDbEntity
  8
Defpoints
 62
     0
100
AcDbPoint
 10
2000.0
 20
859.9999999999989
 30
0.0
  0
ENDBLK
  5
12591
330
1258F
100
AcDbEntity
  8
0
100
AcDbBlockEnd
  0
BLOCK
  5
1264B
330
1264A
100
AcDbEntity
  8
0
100
AcDbBlockBegin
  2
*D1755
 70
     1
 10
0.0
 20
0.0
 30
0.0
  3
*D1755
  1

  0
LINE
  5
1264D
330
1264A
100
AcDbEntity
  8
01注記寸法
 62
     0
370
    -2
100
AcDbLine
 10
2750.000000000001
 20
550.0000000000009
 30
0.0
 11
2750.000000000001
 21
645.0000000000009
 31
0.0
  0
LINE
  5
1264E
330
1264A
100
AcDbEntity
  8
01注記寸法
 62
     0
370
    -2
100
AcDbLine
 10
2975.000000000001
 20
520.0000000000005
 30
0.0
 11
2975.000000000001
 21
645.0000000000009
 31
0.0
  0
LINE
  5
1264F
330
1264A
100
AcDbEntity
  8
01注記寸法
 62
     0
370
    -2
100
AcDbLine
 10
2780.000000000001
 20
635.0000000000009
 30
0.0
 11
2945.000000000001
 21
635.0000000000009
 31
0.0
  0
INSERT
  5
12650
330
1264A
100
AcDbEntity
  8
01注記寸法
 62
     0
370
    -2
100
AcDbBlockReference
  2
_Open
 10
2750.000000000001
 20
635.0000000000009
 30
0.0
 41
30.0
 42
30.0
 43
30.0
 50
180.0
  0
INSERT
  5
12651
330
1264A
100
AcDbEntity
  8
01注記寸法
 62
     0
370
    -2
100
AcDbBlockReference
  2
_Open
 10
2975.000000000001
 20
635.0000000000009
 30
0.0
 41
30.0
 42
30.0
 43
30.0
  0
MTEXT
  5
12652
330
1264A
100
AcDbEntity
  8
01注記寸法
 62
     0
100
AcDbMText
 10
2862.500000000001
 20
660.0056271101672
 30
0.0
 40
30.0
 41
0.0
 71
     5
 72
     1
  1
75
 73
     1
 44
1.0
  0
POINT
  5
12653
330
1264A
100
AcDbEntity
  8
Defpoints
 62
     0
100
AcDbPoint
 10
2750.000000000001
 20
535.0000000000009
 30
0.0
  0
POINT
  5
12654
330
1264A
100
AcDbEntity
  8
Defpoints
 62
     0
100
AcDbPoint
 10
2975.000000000001
 20
505.0000000000005
 30
0.0
  0
POINT
  5
12655
330
1264A
100
AcDbEntity
  8
Defpoints
 62
     0
100
AcDbPoint
 10
2975.000000000001
 20
635.0000000000009
 30
0.0
  0
ENDBLK
  5
1264C
330
1264A
100
AcDbEntity
  8
0
100
AcDbBlockEnd
  0
BLOCK
  5
12657
330
12656
100
AcDbEntity
  8
0
100
AcDbBlockBegin
  2
*D1756
 70
     1
 10
0.0
 20
0.0
 30
0.0
  3
*D1756
  1

  0
LINE
  5
12659
330
12656
100
AcDbEntity
  8
01注記寸法
 62
     0
370
    -2
100
AcDbLine
 10
2900.000000000001
 20
445.0000000000005
 30
0.0
 11
2640.000000000001
 21
445.0000000000005
 31
0.0
  0
LINE
  5
1265A
330
12656
100
AcDbEntity
  8
01注記寸法
 62
     0
370
    -2
100
AcDbLine
 10
2735.000000000001
 20
535.0000000000009
 30
0.0
 11
2640.000000000001
 21
535.0000000000009
 31
0.0
  0
LINE
  5
1265B
330
12656
100
AcDbEntity
  8
01注記寸法
 62
     0
370
    -2
100
AcDbLine
 10
2650.000000000001
 20
475.0000000000005
 30
0.0
 11
2650.000000000001
 21
505.0000000000009
 31
0.0
  0
INSERT
  5
1265C
330
12656
100
AcDbEntity
  8
01注記寸法
 62
     0
370
    -2
100
AcDbBlockReference
  2
_Open
 10
2650.000000000001
 20
445.0000000000005
 30
0.0
 41
30.0
 42
30.0
 43
30.0
 50
270.0
  0
INSERT
  5
1265D
330
12656
100
AcDbEntity
  8
01注記寸法
 62
     0
370
    -2
100
AcDbBlockReference
  2
_Open
 10
2650.000000000001
 20
535.0000000000009
 30
0.0
 41
30.0
 42
30.0
 43
30.0
 50
90.0
  0
MTEXT
  5
1265E
330
12656
100
AcDbEntity
  8
01注記寸法
 62
     0
100
AcDbMText
 10
2624.994372889835
 20
490.0000000000007
 30
0.0
 40
30.0
 41
0.0
 71
     5
 72
     1
  1
30
 11
0.0
 21
1.0
 31
0.0
 73
     1
 44
1.0
  0
POINT
  5
1265F
330
12656
100
AcDbEntity
  8
Defpoints
 62
     0
100
AcDbPoint
 10
2915.000000000001
 20
445.0000000000005
 30
0.0
  0
POINT
  5
12660
330
12656
100
AcDbEntity
  8
Defpoints
 62
     0
100
AcDbPoint
 10
2750.000000000001
 20
535.0000000000009
 30
0.0
  0
POINT
  5
12661
330
12656
100
AcDbEntity
  8
Defpoints
 62
     0
100
AcDbPoint
 10
2650.000000000001
 20
535.0000000000009
 30
0.0
  0
ENDBLK
  5
12658
330
12656
100
AcDbEntity
  8
0
100
AcDbBlockEnd
  0
BLOCK
  5
12663
330
12662
100
AcDbEntity
  8
0
100
AcDbBlockBegin
  2
*D1757
 70
     1
 10
0.0
 20
0.0
 30
0.0
  3
*D1757
  1

  0
LINE
  5
12665
330
12662
100
AcDbEntity
  8
01注記寸法
 62
     0
370
    -2
100
AcDbLine
 10
2822.036232337128
 20
225.0
 30
0.0
 11
2900.000000000001
 21
225.0
 31
0.0
  0
LINE
  5
12666
330
12662
100
AcDbEntity
  8
01注記寸法
 62
     0
370
    -2
100
AcDbLine
 10
2900.000000000001
 20
225.0
 30
0.0
 11
2957.575607899441
 21
393.8884498383594
 31
0.0
  0
LINE
  5
12667
330
12662
100
AcDbEntity
  8
01注記寸法
 62
     0
370
    -2
100
AcDbLine
 10
2992.42439210056
 20
496.1115501616415
 30
0.0
 11
3002.104609934205
 21
524.5068558069977
 31
0.0
  0
MTEXT
  5
12668
330
12662
100
AcDbEntity
  8
01注記寸法
 62
     0
100
AcDbMText
 10
2856.018116168565
 20
252.4421658121796
 30
0.0
 40
30.0
 41
0.0
 71
     5
 72
     1
  1
φ16
 73
     1
 44
1.0
  0
LINE
  5
12669
330
12662
100
AcDbEntity
  8
01注記寸法
 62
     0
370
    -2
100
AcDbLine
 10
2982.744174266916
 20
467.7162445162853
 30
0.0
 11
2967.255825733086
 21
422.2837554837156
 31
0.0
  0
INSERT
  5
1266A
330
12662
100
AcDbEntity
  8
01注記寸法
 62
     0
370
    -2
100
AcDbBlockReference
  2
_Open
 10
2982.744174266916
 20
467.7162445162853
 30
0.0
 41
30.0
 42
30.0
 43
30.0
 50
251.17528998176
  0
INSERT
  5
1266B
330
12662
100
AcDbEntity
  8
01注記寸法
 62
     0
370
    -2
100
AcDbBlockReference
  2
_Open
 10
2967.255825733086
 20
422.2837554837156
 30
0.0
 41
30.0
 42
30.0
 43
30.0
 50
71.17528998176003
  0
POINT
  5
1266C
330
12662
100
AcDbEntity
  8
Defpoints
 62
     0
100
AcDbPoint
 10
2967.255825733086
 20
422.2837554837156
 30
0.0
  0
POINT
  5
1266D
330
12662
100
AcDbEntity
  8
Defpoints
 62
     0
100
AcDbPoint
 10
2982.744174266916
 20
467.7162445162853
 30
0.0
  0
ENDBLK
  5
12664
330
12662
100
AcDbEntity
  8
0
100
AcDbBlockEnd
  0
BLOCK
  5
127F8
330
127F7
100
AcDbEntity
  8
0
100
AcDbBlockBegin
  2
*D1760
 70
     1
 10
0.0
 20
0.0
 30
0.0
  3
*D1760
  1

  0
LINE
  5
127FA
330
127F7
100
AcDbEntity
  8
01注記寸法
 62
     0
370
    -2
100
AcDbLine
 10
640.0
 20
329.9999999999989
 30
0.0
 11
490.0
 21
329.9999999999989
 31
0.0
  0
LINE
  5
127FB
330
127F7
100
AcDbEntity
  8
01注記寸法
 62
     0
370
    -2
100
AcDbLine
 10
585.0
 20
299.9999999999989
 30
0.0
 11
490.0
 21
299.9999999999989
 31
0.0
  0
LINE
  5
127FC
330
127F7
100
AcDbEntity
  8
01注記寸法
 62
     0
370
    -2
100
AcDbLine
 10
500.0
 20
269.9999999999989
 30
0.0
 11
500.0
 21
184.2036076028499
 31
0.0
  0
LINE
  5
127FD
330
127F7
100
AcDbEntity
  8
01注記寸法
 62
     0
370
    -2
100
AcDbLine
 10
500.0
 20
329.9999999999989
 30
0.0
 11
500.0
 21
299.9999999999989
 31
0.0
  0
LINE
  5
127FE
330
127F7
100
AcDbEntity
  8
01注記寸法
 62
     0
370
    -2
100
AcDbLine
 10
500.0
 20
359.9999999999989
 30
0.0
 11
500.0
 21
389.9999999999989
 31
0.0
  0
INSERT
  5
127FF
330
127F7
100
AcDbEntity
  8
01注記寸法
 62
     0
370
    -2
100
AcDbBlockReference
  2
_Open
 10
500.0
 20
329.9999999999989
 30
0.0
 41
30.0
 42
30.0
 43
30.0
 50
270.0
  0
INSERT
  5
12800
330
127F7
100
AcDbEntity
  8
01注記寸法
 62
     0
370
    -2
100
AcDbBlockReference
  2
_Open
 10
500.0
 20
299.9999999999989
 30
0.0
 41
30.0
 42
30.0
 43
30.0
 50
90.0
  0
MTEXT
  5
12801
330
127F7
100
AcDbEntity
  8
01注記寸法
 62
     0
100
AcDbMText
 10
474.9943728898337
 20
212.1018038014244
 30
0.0
 40
30.0
 41
0.0
 71
     5
 72
     1
  1
30
 11
0.0
 21
1.0
 31
0.0
 73
     1
 44
1.0
  0
POINT
  5
12802
330
127F7
100
AcDbEntity
  8
Defpoints
 62
     0
100
AcDbPoint
 10
655.0
 20
329.9999999999989
 30
0.0
  0
POINT
  5
12803
330
127F7
100
AcDbEntity
  8
Defpoints
 62
     0
100
AcDbPoint
 10
600.0
 20
299.9999999999989
 30
0.0
  0
POINT
  5
12804
330
127F7
100
AcDbEntity
  8
Defpoints
 62
     0
100
AcDbPoint
 10
500.0
 20
299.9999999999989
 30
0.0
  0
ENDBLK
  5
127F9
330
127F7
100
AcDbEntity
  8
0
100
AcDbBlockEnd
  0
ENDSEC
  0
SECTION
  2
ENTITIES
  0
LWPOLYLINE
  5
ECC5
330
1F
100
AcDbEntity
  8
02実線
100
AcDbPolyline
 90
        4
 70
     1
 43
0.0
 10
550.0
 20
2010.0
 10
550.0
 20
2470.0
 10
1950.0
 20
2470.0
 10
1950.0
 20
2010.0
  0
LWPOLYLINE
  5
ECC6
330
1F
100
AcDbEntity
  8
02実線
100
AcDbPolyline
 90
        4
 70
     1
 43
0.0
 10
600.0
 20
2060.0
 10
600.0
 20
2420.0
 10
1900.0
 20
2420.0
 10
1900.0
 20
2060.0
  0
LWPOLYLINE
  5
ECC7
330
1F
100
AcDbEntity
  8
03破線
100
AcDbPolyline
 90
        4
 70
     1
 43
0.0
 10
553.2000000000007
 20
2013.200000000004
 10
553.2000000000007
 20
2466.800000000003
 10
1946.799999999999
 20
2466.800000000003
 10
1946.799999999999
 20
2013.200000000004
  0
LWPOLYLINE
  5
ECC8
330
1F
100
AcDbEntity
  8
03破線
100
AcDbPolyline
 90
        4
 70
     1
 43
0.0
 10
1248.4
 20
2420.0
 10
1248.4
 20
2466.800000000003
 10
1251.6
 20
2466.800000000003
 10
1251.6
 20
2420.0
  0
LWPOLYLINE
  5
ECC9
330
1F
100
AcDbEntity
  8
03破線
100
AcDbPolyline
 90
        4
 70
     1
 43
0.0
 10
1248.4
 20
2060.0
 10
1248.4
 20
2013.200000000004
 10
1251.6
 20
2013.200000000004
 10
1251.6
 20
2060.0
  0
LWPOLYLINE
  5
ECCA
330
1F
100
AcDbEntity
  8
02実線
100
AcDbPolyline
 90
        4
 70
     1
 43
0.0
 10
550.0
 20
1199.999999999993
 10
550.0000000000002
 20
1399.999999999993
 10
1950.0
 20
1399.999999999993
 10
1950.0
 20
1199.999999999993
  0
LWPOLYLINE
  5
ECCB
330
1F
100
AcDbEntity
  8
03破線
100
AcDbPolyline
 90
        4
 70
     1
 43
0.0
 10
553.2000000000007
 20
1203.19999999999
 10
553.200000000001
 20
1396.799999999996
 10
1946.799999999999
 20
1396.799999999996
 10
1946.799999999999
 20
1203.19999999999
  0
LWPOLYLINE
  5
ECCC
330
1F
100
AcDbEntity
  8
03破線
100
AcDbPolyline
 90
        4
 70
     1
 43
0.0
 10
1248.4
 20
1396.799999999996
 10
1248.4
 20
1203.19999999999
 10
1251.6
 20
1203.19999999999
 10
1251.600000000001
 20
1396.799999999996
  0
LWPOLYLINE
  5
ECCD
330
1F
100
AcDbEntity
  8
02実線
100
AcDbPolyline
 90
        4
 70
     1
 43
0.0
 10
2650.0
 20
1199.999999999993
 10
2650.000000000001
 20
1399.999999999993
 10
3110.000000000001
 20
1399.999999999993
 10
3110.0
 20
1199.999999999993
  0
LWPOLYLINE
  5
ECCE
330
1F
100
AcDbEntity
  8
03破線
100
AcDbPolyline
 90
        4
 70
     1
 43
0.0
 10
2653.200000000001
 20
1203.19999999999
 10
2653.200000000002
 20
1396.799999999996
 10
3106.8
 20
1396.799999999996
 10
3106.799999999999
 20
1203.19999999999
  0
LINE
  5
ECCF
330
1F
100
AcDbEntity
  8
04一点鎖線
100
AcDbLine
 10
625.0
 20
1213.19999999999
 30
0.0
 11
625.0
 21
1189.999999999993
 31
0.0
  0
LINE
  5
ECD0
330
1F
100
AcDbEntity
  8
04一点鎖線
100
AcDbLine
 10
1875.0
 20
1213.19999999999
 30
0.0
 11
1875.0
 21
1189.999999999993
 31
0.0
  0
LINE
  5
ECD1
330
1F
100
AcDbEntity
  8
04一点鎖線
100
AcDbLine
 10
2680.0
 20
1213.19999999999
 30
0.0
 11
2680.0
 21
1189.999999999993
 31
0.0
  0
LINE
  5
ECD2
330
1F
100
AcDbEntity
  8
04一点鎖線
100
AcDbLine
 10
3080.0
 20
1213.19999999999
 30
0.0
 11
3080.0
 21
1189.999999999993
 31
0.0
  0
LINE
  5
ECED
330
1F
100
AcDbEntity
  8
03破線
100
AcDbLine
 10
2700.0
 20
1199.999999999993
 30
0.0
 11
2700.0
 21
1203.199999999997
 31
0.0
  0
LINE
  5
ECEF
330
1F
100
AcDbEntity
  8
03破線
100
AcDbLine
 10
2700.000000000001
 20
1399.999999999993
 30
0.0
 11
2700.000000000001
 21
1396.799999999996
 31
0.0
  0
LINE
  5
ECF0
330
1F
100
AcDbEntity
  8
03破線
100
AcDbLine
 10
3060.0
 20
1199.999999999993
 30
0.0
 11
3060.0
 21
1203.199999999997
 31
0.0
  0
LINE
  5
ECF1
330
1F
100
AcDbEntity
  8
03破線
100
AcDbLine
 10
3060.000000000001
 20
1399.999999999993
 30
0.0
 11
3060.000000000001
 21
1396.799999999996
 31
0.0
  0
LINE
  5
ECF3
330
1F
100
AcDbEntity
  8
03破線
100
AcDbLine
 10
600.0000000000002
 20
1399.999999999993
 30
0.0
 11
600.0000000000002
 21
1396.799999999996
 31
0.0
  0
LINE
  5
ECF4
330
1F
100
AcDbEntity
  8
03破線
100
AcDbLine
 10
600.0
 20
1199.999999999993
 30
0.0
 11
600.0
 21
1203.199999999997
 31
0.0
  0
LINE
  5
ECF6
330
1F
100
AcDbEntity
  8
03破線
100
AcDbLine
 10
1900.0
 20
1399.999999999993
 30
0.0
 11
1900.0
 21
1396.799999999996
 31
0.0
  0
LINE
  5
ECF7
330
1F
100
AcDbEntity
  8
03破線
100
AcDbLine
 10
1900.0
 20
1199.999999999993
 30
0.0
 11
1900.0
 21
1203.199999999997
 31
0.0
  0
LINE
  5
ECFB
330
1F
100
AcDbEntity
  8
03破線
100
AcDbLine
 10
2700.000000000001
 20
1396.799999999996
 30
0.0
 11
2700.0
 21
1203.199999999997
 31
0.0
  0
LINE
  5
ECFC
330
1F
100
AcDbEntity
  8
03破線
100
AcDbLine
 10
3060.000000000001
 20
1396.799999999996
 30
0.0
 11
3060.0
 21
1203.199999999997
 31
0.0
  0
LWPOLYLINE
  5
ED10
102
{ACAD_REACTORS
330
ED11
102
}
330
1F
100
AcDbEntity
  8
02実線
100
AcDbPolyline
 90
        4
 70
     1
 43
0.0
 10
550.0000000000002
 20
1399.999999999993
 10
550.0000000000002
 20
1409.999999999993
 10
1950.0
 20
1409.999999999993
 10
1950.0
 20
1399.999999999993
  0
HATCH
  5
ED11
330
1F
100
AcDbEntity
  8
01注記寸法
100
AcDbHatch
 10
0.0
 20
0.0
 30
0.0
210
0.0
220
0.0
230
1.0
  2
ANSI31
 70
     0
 71
     1
 91
        1
 92
        1
 93
        4
 72
     1
 10
550.0000000000002
 20
1399.999999999993
 11
550.0000000000002
 21
1409.999999999993
 72
     1
 10
550.0000000000002
 20
1409.999999999993
 11
1950.0
 21
1409.999999999993
 72
     1
 10
1950.0
 20
1409.999999999993
 11
1950.0
 21
1399.999999999993
 72
     1
 10
1950.0
 20
1399.999999999993
 11
550.0000000000002
 21
1399.999999999993
 97
        1
330
ED10
 75
     0
 76
     1
 52
0.0
 41
5.0
 77
     0
 78
     1
 53
45.0
 43
13350.0
 44
-10890.00000000001
 45
-11.22532015133644
 46
11.22532015133644
 79
     0
 98
        1
 10
13350.0
 20
-10890.00000000001
1001
ACAD
1010
0.0
1020
0.0
1030
0.0
  0
LWPOLYLINE
  5
ED12
102
{ACAD_REACTORS
330
ED13
102
}
330
1F
100
AcDbEntity
  8
02実線
100
AcDbPolyline
 90
        4
 70
     1
 43
0.0
 10
2650.000000000001
 20
1399.999999999993
 10
2650.000000000001
 20
1409.999999999993
 10
3110.000000000001
 20
1409.999999999993
 10
3110.000000000001
 20
1399.999999999993
  0
HATCH
  5
ED13
330
1F
100
AcDbEntity
  8
01注記寸法
100
AcDbHatch
 10
0.0
 20
0.0
 30
0.0
210
0.0
220
0.0
230
1.0
  2
ANSI31
 70
     0
 71
     1
 91
        1
 92
        1
 93
        4
 72
     1
 10
2650.000000000001
 20
1399.999999999993
 11
2650.000000000001
 21
1409.999999999993
 72
     1
 10
2650.000000000001
 20
1409.999999999993
 11
3110.000000000001
 21
1409.999999999993
 72
     1
 10
3110.000000000001
 20
1409.999999999993
 11
3110.000000000001
 21
1399.999999999993
 72
     1
 10
3110.000000000001
 20
1399.999999999993
 11
2650.000000000001
 21
1399.999999999993
 97
        1
330
ED12
 75
     0
 76
     1
 52
0.0
 41
5.0
 77
     0
 78
     1
 53
45.0
 43
14850.0
 44
-10890.00000000001
 45
-11.22532015133644
 46
11.22532015133644
 79
     0
 98
        1
 10
14850.0
 20
-10890.00000000001
1001
ACAD
1010
0.0
1020
0.0
1030
0.0
  0
LWPOLYLINE
  5
123D6
102
{ACAD_REACTORS
330
124CC
102
}
330
1F
100
AcDbEntity
  8
02実線
100
AcDbPolyline
 90
        5
 70
     1
 43
0.0
 10
500.0
 20
2055.0
 10
500.0
 20
2130.0
 10
550.0
 20
2130.0
 10
550.0
 20
2050.0
 10
505.0
 20
2050.0
  0
LWPOLYLINE
  5
123D7
330
1F
100
AcDbEntity
  8
03破線
100
AcDbPolyline
 90
        4
 70
     1
 43
0.0
 10
500.0
 20
2126.8
 10
500.0
 20
2130.0
 10
550.0
 20
2130.0
 10
550.0
 20
2126.8
  0
LWPOLYLINE
  5
123D8
330
1F
100
AcDbEntity
  8
03破線
100
AcDbPolyline
 90
        4
 70
     1
 43
0.0
 10
500.0
 20
2353.2
 10
500.0
 20
2350.0
 10
550.0
 20
2350.0
 10
550.0
 20
2353.2
  0
LWPOLYLINE
  5
123D9
102
{ACAD_REACTORS
330
124CB
102
}
330
1F
100
AcDbEntity
  8
02実線
100
AcDbPolyline
 90
        5
 70
     1
 43
0.0
 10
500.0
 20
2425.0
 10
500.0
 20
2350.0
 10
550.0
 20
2350.0
 10
550.0
 20
2430.0
 10
505.0
 20
2430.0
  0
LWPOLYLINE
  5
123DA
330
1F
100
AcDbEntity
  8
03破線
100
AcDbPolyline
 90
        4
 70
     1
 43
0.0
 10
2000.0
 20
2126.8
 10
2000.0
 20
2130.0
 10
1950.0
 20
2130.0
 10
1950.0
 20
2126.8
  0
LWPOLYLINE
  5
123DB
102
{ACAD_REACTORS
330
124CE
102
}
330
1F
100
AcDbEntity
  8
02実線
100
AcDbPolyline
 90
        5
 70
     1
 43
0.0
 10
2000.0
 20
2055.0
 10
2000.0
 20
2130.0
 10
1950.0
 20
2130.0
 10
1950.0
 20
2050.0
 10
1995.0
 20
2050.0
  0
LWPOLYLINE
  5
123DC
330
1F
100
AcDbEntity
  8
03破線
100
AcDbPolyline
 90
        4
 70
     1
 43
0.0
 10
2000.0
 20
2353.2
 10
2000.0
 20
2350.0
 10
1950.0
 20
2350.0
 10
1950.0
 20
2353.2
  0
LWPOLYLINE
  5
123DD
102
{ACAD_REACTORS
330
124CD
102
}
330
1F
100
AcDbEntity
  8
02実線
100
AcDbPolyline
 90
        5
 70
     1
 43
0.0
 10
2000.0
 20
2425.0
 10
2000.0
 20
2350.0
 10
1950.0
 20
2350.0
 10
1950.0
 20
2430.0
 10
1995.0
 20
2430.0
  0
LWPOLYLINE
  5
123DE
330
1F
100
AcDbEntity
  8
02実線
100
AcDbPolyline
 90
        4
 70
     1
 43
0.0
 10
500.0000000000003
 20
1396.799999999993
 10
500.0000000000003
 20
1399.999999999993
 10
550.0000000000002
 20
1399.999999999993
 10
550.0000000000002
 20
1396.799999999993
  0
LWPOLYLINE
  5
123DF
330
1F
100
AcDbEntity
  8
02実線
100
AcDbPolyline
 90
        5
 70
     1
 43
0.0
 10
500.0000000000003
 20
1354.999999999993
 10
500.0000000000003
 20
1399.999999999993
 10
550.0000000000002
 20
1399.999999999993
 10
550.0000000000002
 20
1349.999999999993
 10
505.0000000000003
 20
1349.999999999993
  0
LWPOLYLINE
  5
123E0
102
{ACAD_REACTORS
330
123E2
102
}
330
1F
100
AcDbEntity
  8
02実線
100
AcDbPolyline
 90
        4
 70
     1
 43
0.0
 10
500.0000000000003
 20
1399.999999999993
 10
500.0000000000003
 20
1409.999999999993
 10
550.0000000000002
 20
1409.999999999993
 10
550.0000000000002
 20
1399.999999999993
  0
HATCH
  5
123E2
330
1F
100
AcDbEntity
  8
01注記寸法
100
AcDbHatch
 10
0.0
 20
0.0
 30
0.0
210
0.0
220
0.0
230
1.0
  2
ANSI31
 70
     0
 71
     1
 91
        1
 92
        1
 93
        4
 72
     1
 10
500.0000000000003
 20
1399.999999999993
 11
500.0000000000003
 21
1409.999999999993
 72
     1
 10
500.0000000000003
 20
1409.999999999993
 11
550.0000000000002
 21
1409.999999999993
 72
     1
 10
550.0000000000002
 20
1409.999999999993
 11
550.0000000000002
 21
1399.999999999993
 72
     1
 10
550.0000000000002
 20
1399.999999999993
 11
500.0000000000003
 21
1399.999999999993
 97
        1
330
123E0
 75
     0
 76
     1
 52
0.0
 41
5.0
 77
     0
 78
     1
 53
45.0
 43
4122.300974459627
 44
-115.5645329123981
 45
-11.22532015133644
 46
11.22532015133644
 79
     0
 98
        1
 10
4122.300974459627
 20
-115.5645329123981
1001
ACAD
1010
0.0
1020
0.0
1030
0.0
  0
LINE
  5
123E4
330
1F
100
AcDbEntity
  8
04一点鎖線
100
AcDbLine
 10
523.0000000000002
 20
1381.799999999993
 30
0.0
 11
523.0000000000002
 21
1424.999999999993
 31
0.0
  0
LWPOLYLINE
  5
123E5
330
1F
100
AcDbEntity
  8
02実線
100
AcDbPolyline
 90
        4
 70
     1
 43
0.0
 10
2000.0
 20
1396.799999999993
 10
2000.0
 20
1399.999999999993
 10
1950.0
 20
1399.999999999993
 10
1950.0
 20
1396.799999999993
  0
LWPOLYLINE
  5
123E6
330
1F
100
AcDbEntity
  8
02実線
100
AcDbPolyline
 90
        5
 70
     1
 43
0.0
 10
2000.0
 20
1354.999999999993
 10
2000.0
 20
1399.999999999993
 10
1950.0
 20
1399.999999999993
 10
1950.0
 20
1349.999999999993
 10
1995.0
 20
1349.999999999993
  0
LWPOLYLINE
  5
123E7
102
{ACAD_REACTORS
330
123E8
102
}
330
1F
100
AcDbEntity
  8
02実線
100
AcDbPolyline
 90
        4
 70
     1
 43
0.0
 10
2000.0
 20
1399.999999999993
 10
2000.0
 20
1409.999999999993
 10
1950.0
 20
1409.999999999993
 10
1950.0
 20
1399.999999999993
  0
HATCH
  5
123E8
330
1F
100
AcDbEntity
  8
01注記寸法
100
AcDbHatch
 10
0.0
 20
0.0
 30
0.0
210
0.0
220
0.0
230
1.0
  2
ANSI31
 70
     0
 71
     1
 91
        1
 92
        1
 93
        4
 72
     1
 10
2000.0
 20
1399.999999999993
 11
2000.0
 21
1409.999999999993
 72
     1
 10
2000.0
 20
1409.999999999993
 11
1950.0
 21
1409.999999999993
 72
     1
 10
1950.0
 20
1409.999999999993
 11
1950.0
 21
1399.999999999993
 72
     1
 10
1950.0
 20
1399.999999999993
 11
2000.0
 21
1399.999999999993
 97
        1
330
123E7
 75
     0
 76
     1
 52
180.0
 41
5.0
 77
     0
 78
     1
 53
225.0
 43
4122.300974459627
 44
188.005406481544
 45
11.22532015133644
 46
-11.22532015133644
 79
     0
 98
        1
 10
4122.300974459627
 20
188.005406481544
1001
ACAD
1010
0.0
1020
0.0
1030
0.0
  0
LINE
  5
123E9
330
1F
100
AcDbEntity
  8
04一点鎖線
100
AcDbLine
 10
1977.0
 20
1381.799999999993
 30
0.0
 11
1977.0
 21
1424.999999999993
 31
0.0
  0
INSERT
  5
12431
102
{ACAD_REACTORS
330
124CC
102
}
330
1F
100
AcDbEntity
  8
02実線
100
AcDbBlockReference
  2
hole-φ14
 10
523.0
 20
2090.0
 30
0.0
  0
INSERT
  5
12432
102
{ACAD_REACTORS
330
124CB
102
}
330
1F
100
AcDbEntity
  8
02実線
100
AcDbBlockReference
  2
hole-φ14
 10
523.0
 20
2390.0
 30
0.0
  0
INSERT
  5
12433
102
{ACAD_REACTORS
330
124CD
102
}
330
1F
100
AcDbEntity
  8
02実線
100
AcDbBlockReference
  2
hole-φ14
 10
1977.0
 20
2390.0
 30
0.0
  0
INSERT
  5
12434
102
{ACAD_REACTORS
330
124CE
102
}
330
1F
100
AcDbEntity
  8
02実線
100
AcDbBlockReference
  2
hole-φ14
 10
1977.0
 20
2090.0
 30
0.0
  0
LWPOLYLINE
  5
124C1
102
{ACAD_REACTORS
330
124C6
102
}
330
1F
100
AcDbEntity
  8
02実線
100
AcDbPolyline
 90
        4
 70
     1
 43
0.0
 10
2690.000000000001
 20
1399.999999999993
 10
2690.000000000001
 20
1409.999999999993
 10
2770.000000000001
 20
1409.999999999993
 10
2770.000000000001
 20
1399.999999999993
  0
LWPOLYLINE
  5
124C2
330
1F
100
AcDbEntity
  8
02実線
100
AcDbPolyline
 90
        7
 70
     0
 43
0.0
 10
2690.000000000001
 20
1399.999999999993
 10
2770.000000000001
 20
1399.999999999993
 10
2770.000000000001
 20
1349.999999999993
 10
2766.800000000001
 20
1349.999999999993
 10
2766.800000000001
 20
1396.799999999993
 10
2690.000000000001
 20
1396.799999999993
 10
2690.000000000001
 20
1399.999999999993
  0
LINE
  5
124C4
330
1F
100
AcDbEntity
  8
04一点鎖線
100
AcDbLine
 10
2730.000000000001
 20
1381.799999999993
 30
0.0
 11
2730.000000000001
 21
1424.999999999993
 31
0.0
  0
HATCH
  5
124C6
330
1F
100
AcDbEntity
  8
01注記寸法
100
AcDbHatch
 10
0.0
 20
0.0
 30
0.0
210
0.0
220
0.0
230
1.0
  2
ANSI31
 70
     0
 71
     1
 91
        1
 92
        1
 93
        4
 72
     1
 10
2690.000000000001
 20
1399.999999999993
 11
2690.000000000001
 21
1409.999999999993
 72
     1
 10
2690.000000000001
 20
1409.999999999993
 11
2770.000000000001
 21
1409.999999999993
 72
     1
 10
2770.000000000001
 20
1409.999999999993
 11
2770.000000000001
 21
1399.999999999993
 72
     1
 10
2770.000000000001
 20
1399.999999999993
 11
2690.000000000001
 21
1399.999999999993
 97
        1
330
124C1
 75
     0
 76
     1
 52
0.0
 41
5.0
 77
     0
 78
     1
 53
45.0
 43
3.935584345651478
 44
-79.81342905077736
 45
-11.22532015133644
 46
11.22532015133644
 79
     0
 98
        1
 10
3.935584345651478
 20
-79.81342905077736
1001
ACAD
1010
0.0
1020
0.0
1030
0.0
  0
LWPOLYLINE
  5
124C7
330
1F
100
AcDbEntity
  8
02実線
100
AcDbPolyline
 90
        7
 70
     0
 43
0.0
 10
3070.000000000001
 20
1399.999999999993
 10
2990.000000000001
 20
1399.999999999993
 10
2990.000000000001
 20
1349.999999999993
 10
2993.200000000001
 20
1349.999999999993
 10
2993.200000000001
 20
1396.799999999993
 10
3070.000000000001
 20
1396.799999999993
 10
3070.000000000001
 20
1399.999999999993
  0
LINE
  5
124C8
330
1F
100
AcDbEntity
  8
04一点鎖線
100
AcDbLine
 10
3030.000000000001
 20
1381.799999999993
 30
0.0
 11
3030.000000000001
 21
1424.999999999993
 31
0.0
  0
HATCH
  5
124C9
330
1F
100
AcDbEntity
  8
01注記寸法
100
AcDbHatch
 10
0.0
 20
0.0
 30
0.0
210
0.0
220
0.0
230
1.0
  2
ANSI31
 70
     0
 71
     1
 91
        1
 92
        1
 93
        4
 72
     1
 10
3070.000000000001
 20
1399.999999999993
 11
3070.000000000001
 21
1409.999999999993
 72
     1
 10
3070.000000000001
 20
1409.999999999993
 11
2990.000000000001
 21
1409.999999999993
 72
     1
 10
2990.000000000001
 20
1409.999999999993
 11
2990.000000000001
 21
1399.999999999993
 72
     1
 10
2990.000000000001
 20
1399.999999999993
 11
3070.000000000001
 21
1399.999999999993
 97
        1
330
124CA
 75
     0
 76
     1
 52
180.0
 41
5.0
 77
     0
 78
     1
 53
225.0
 43
-49.99999999999909
 44
100.0
 45
11.22532015133644
 46
-11.22532015133644
 79
     0
 98
        1
 10
-49.99999999999909
 20
100.0
1001
ACAD
1010
0.0
1020
0.0
1030
0.0
  0
LWPOLYLINE
  5
124CA
102
{ACAD_REACTORS
330
124C9
102
}
330
1F
100
AcDbEntity
  8
02実線
100
AcDbPolyline
 90
        4
 70
     1
 43
0.0
 10
3070.000000000001
 20
1399.999999999993
 10
3070.000000000001
 20
1409.999999999993
 10
2990.000000000001
 20
1409.999999999993
 10
2990.000000000001
 20
1399.999999999993
  0
HATCH
  5
124CB
330
1F
100
AcDbEntity
  8
01注記寸法
100
AcDbHatch
 10
0.0
 20
0.0
 30
0.0
210
0.0
220
0.0
230
1.0
  2
ANSI31
 70
     0
 71
     1
 91
        2
 92
        1
 93
        5
 72
     1
 10
500.0
 20
2425.0
 11
500.0
 21
2350.0
 72
     1
 10
500.0
 20
2350.0
 11
550.0
 21
2350.0
 72
     1
 10
550.0
 20
2350.0
 11
550.0
 21
2430.0
 72
     1
 10
550.0
 20
2430.0
 11
505.0
 21
2430.0
 72
     1
 10
505.0
 20
2430.0
 11
500.0
 21
2425.0
 97
        1
330
123D9
 92
       16
 93
        1
 72
     2
 10
523.0
 20
2390.0
 40
7.0
 50
0.0
 51
360.0
 73
     1
 97
        1
330
12432
 75
     0
 76
     1
 52
135.0
 41
5.0
 77
     0
 78
     1
 53
180.0
 43
0.0
 44
0.0
 45
-0.0000000000000019
 46
-15.875
 79
     0
 98
        1
 10
0.0
 20
0.0
1001
ACAD
1010
0.0
1020
0.0
1030
0.0
  0
HATCH
  5
124CC
330
1F
100
AcDbEntity
  8
01注記寸法
100
AcDbHatch
 10
0.0
 20
0.0
 30
0.0
210
0.0
220
0.0
230
1.0
  2
ANSI31
 70
     0
 71
     1
 91
        2
 92
        1
 93
        5
 72
     1
 10
500.0
 20
2055.0
 11
500.0
 21
2130.0
 72
     1
 10
500.0
 20
2130.0
 11
550.0
 21
2130.0
 72
     1
 10
550.0
 20
2130.0
 11
550.0
 21
2050.0
 72
     1
 10
550.0
 20
2050.0
 11
505.0
 21
2050.0
 72
     1
 10
505.0
 20
2050.0
 11
500.0
 21
2055.0
 97
        1
330
123D6
 92
       16
 93
        1
 72
     2
 10
523.0
 20
2090.0
 40
7.0
 50
0.0
 51
360.0
 73
     1
 97
        1
330
12431
 75
     0
 76
     1
 52
135.0
 41
5.0
 77
     0
 78
     1
 53
180.0
 43
0.0
 44
0.0
 45
-0.0000000000000019
 46
-15.875
 79
     0
 98
        1
 10
0.0
 20
0.0
1001
ACAD
1010
0.0
1020
0.0
1030
0.0
  0
HATCH
  5
124CD
330
1F
100
AcDbEntity
  8
01注記寸法
100
AcDbHatch
 10
0.0
 20
0.0
 30
0.0
210
0.0
220
0.0
230
1.0
  2
ANSI31
 70
     0
 71
     1
 91
        2
 92
        1
 93
        5
 72
     1
 10
2000.0
 20
2425.0
 11
2000.0
 21
2350.0
 72
     1
 10
2000.0
 20
2350.0
 11
1950.0
 21
2350.0
 72
     1
 10
1950.0
 20
2350.0
 11
1950.0
 21
2430.0
 72
     1
 10
1950.0
 20
2430.0
 11
1995.0
 21
2430.0
 72
     1
 10
1995.0
 20
2430.0
 11
2000.0
 21
2425.0
 97
        1
330
123DD
 92
       16
 93
        1
 72
     2
 10
1977.0
 20
2390.0
 40
7.0
 50
0.0
 51
360.0
 73
     1
 97
        1
330
12433
 75
     0
 76
     1
 52
135.0
 41
5.0
 77
     0
 78
     1
 53
180.0
 43
0.0
 44
0.0
 45
-0.0000000000000019
 46
-15.875
 79
     0
 98
        1
 10
0.0
 20
0.0
1001
ACAD
1010
0.0
1020
0.0
1030
0.0
  0
HATCH
  5
124CE
330
1F
100
AcDbEntity
  8
01注記寸法
100
AcDbHatch
 10
0.0
 20
0.0
 30
0.0
210
0.0
220
0.0
230
1.0
  2
ANSI31
 70
     0
 71
     1
 91
        2
 92
        1
 93
        5
 72
     1
 10
2000.0
 20
2055.0
 11
2000.0
 21
2130.0
 72
     1
 10
2000.0
 20
2130.0
 11
1950.0
 21
2130.0
 72
     1
 10
1950.0
 20
2130.0
 11
1950.0
 21
2050.0
 72
     1
 10
1950.0
 20
2050.0
 11
1995.0
 21
2050.0
 72
     1
 10
1995.0
 20
2050.0
 11
2000.0
 21
2055.0
 97
        1
330
123DB
 92
       16
 93
        1
 72
     2
 10
1977.0
 20
2090.0
 40
7.0
 50
0.0
 51
360.0
 73
     1
 97
        1
330
12434
 75
     0
 76
     1
 52
135.0
 41
5.0
 77
     0
 78
     1
 53
180.0
 43
0.0
 44
0.0
 45
-0.0000000000000019
 46
-15.875
 79
     0
 98
        1
 10
0.0
 20
0.0
1001
ACAD
1010
0.0
1020
0.0
1030
0.0
  0
LWPOLYLINE
  5
124D0
102
{ACAD_REACTORS
330
124D2
102
}
330
1F
100
AcDbEntity
  8
07その他
100
AcDbPolyline
 90
        4
 70
     1
 43
0.0
 10
550.0
 20
2010.0
 10
550.0
 20
2470.0
 10
600.0
 20
2470.0
 10
600.0
 20
2010.0
  0
HATCH
  5
124D2
330
1F
100
AcDbEntity
  8
01注記寸法
100
AcDbHatch
 10
0.0
 20
0.0
 30
0.0
210
0.0
220
0.0
230
1.0
  2
ANSI31
 70
     0
 71
     1
 91
        1
 92
        1
 93
        4
 72
     1
 10
550.0
 20
2010.0
 11
550.0
 21
2470.0
 72
     1
 10
550.0
 20
2470.0
 11
600.0
 21
2470.0
 72
     1
 10
600.0
 20
2470.0
 11
600.0
 21
2010.0
 72
     1
 10
600.0
 20
2010.0
 11
550.0
 21
2010.0
 97
        1
330
124D0
 75
     0
 76
     1
 52
135.0
 41
10.0
 77
     0
 78
     1
 53
180.0
 43
0.0
 44
0.0
 45
-0.0000000000000039
 46
-31.75
 79
     0
 98
        1
 10
0.0
 20
0.0
1001
ACAD
1010
0.0
1020
0.0
1030
0.0
  0
HATCH
  5
124D3
330
1F
100
AcDbEntity
  8
01注記寸法
100
AcDbHatch
 10
0.0
 20
0.0
 30
0.0
210
0.0
220
0.0
230
1.0
  2
ANSI31
 70
     0
 71
     1
 91
        1
 92
        1
 93
        4
 72
     1
 10
1900.0
 20
2010.0
 11
1900.0
 21
2470.0
 72
     1
 10
1900.0
 20
2470.0
 11
1950.0
 21
2470.0
 72
     1
 10
1950.0
 20
2470.0
 11
1950.0
 21
2010.0
 72
     1
 10
1950.0
 20
2010.0
 11
1900.0
 21
2010.0
 97
        1
330
124D4
 75
     0
 76
     1
 52
135.0
 41
10.0
 77
     0
 78
     1
 53
180.0
 43
1350.0
 44
0.0
 45
-0.0000000000000039
 46
-31.75
 79
     0
 98
        1
 10
1350.0
 20
0.0
1001
ACAD
1010
0.0
1020
0.0
1030
0.0
  0
LWPOLYLINE
  5
124D4
102
{ACAD_REACTORS
330
124D3
102
}
330
1F
100
AcDbEntity
  8
07その他
100
AcDbPolyline
 90
        4
 70
     1
 43
0.0
 10
1900.0
 20
2010.0
 10
1900.0
 20
2470.0
 10
1950.0
 20
2470.0
 10
1950.0
 20
2010.0
  0
LWPOLYLINE
  5
124D6
102
{ACAD_REACTORS
330
124D8
102
}
330
1F
100
AcDbEntity
  8
07その他
100
AcDbPolyline
 90
        4
 70
     1
 43
0.0
 10
600.0
 20
2010.0
 10
600.0
 20
2060.0
 10
1900.0
 20
2060.0
 10
1900.0
 20
2010.0
  0
HATCH
  5
124D8
330
1F
100
AcDbEntity
  8
01注記寸法
100
AcDbHatch
 10
0.0
 20
0.0
 30
0.0
210
0.0
220
0.0
230
1.0
  2
ANSI31
 70
     0
 71
     1
 91
        1
 92
        1
 93
        4
 72
     1
 10
600.0
 20
2010.0
 11
600.0
 21
2060.0
 72
     1
 10
600.0
 20
2060.0
 11
1900.0
 21
2060.0
 72
     1
 10
1900.0
 20
2060.0
 11
1900.0
 21
2010.0
 72
     1
 10
1900.0
 20
2010.0
 11
600.0
 21
2010.0
 97
        1
330
124D6
 75
     0
 76
     1
 52
45.0
 41
10.0
 77
     0
 78
     1
 53
90.0
 43
0.0
 44
0.0
 45
-31.75
 46
0.0000000000000019
 79
     0
 98
        1
 10
0.0
 20
0.0
1001
ACAD
1010
0.0
1020
0.0
1030
0.0
  0
HATCH
  5
124D9
330
1F
100
AcDbEntity
  8
01注記寸法
100
AcDbHatch
 10
0.0
 20
0.0
 30
0.0
210
0.0
220
0.0
230
1.0
  2
ANSI31
 70
     0
 71
     1
 91
        1
 92
        1
 93
        4
 72
     1
 10
600.0
 20
2420.0
 11
600.0
 21
2470.0
 72
     1
 10
600.0
 20
2470.0
 11
1900.0
 21
2470.0
 72
     1
 10
1900.0
 20
2470.0
 11
1900.0
 21
2420.0
 72
     1
 10
1900.0
 20
2420.0
 11
600.0
 21
2420.0
 97
        1
330
124DA
 75
     0
 76
     1
 52
45.0
 41
10.0
 77
     0
 78
     1
 53
90.0
 43
0.0
 44
410.0
 45
-31.75
 46
0.0000000000000019
 79
     0
 98
        1
 10
0.0
 20
410.0
1001
ACAD
1010
0.0
1020
0.0
1030
0.0
  0
LWPOLYLINE
  5
124DA
102
{ACAD_REACTORS
330
124D9
102
}
330
1F
100
AcDbEntity
  8
07その他
100
AcDbPolyline
 90
        4
 70
     1
 43
0.0
 10
600.0
 20
2420.0
 10
600.0
 20
2470.0
 10
1900.0
 20
2470.0
 10
1900.0
 20
2420.0
  0
VIEWPORT
  5
9F0D
330
1B
100
AcDbEntity
 67
     1
  8
0
100
AcDbViewport
 10
202.5
 20
128.5
 30
0.0
 40
486.0
 41
308.4
 68
     1
 69
     1
 12
202.5
 22
128.5
 13
0.0
 23
0.0
 14
0.5
 24
0.5
 15
0.0
 25
0.0
 16
0.0
 26
0.0
 36
1.0
 17
0.0
 27
0.0
 37
0.0
 42
50.0
 43
0.0
 44
0.0
 45
308.4
 50
0.0
 51
0.0
 72
   100
 90
   557152
  1

281
     0
 71
     1
 74
     0
110
0.0
120
0.0
130
0.0
111
1.0
121
0.0
131
0.0
112
0.0
122
1.0
132
0.0
 79
     0
146
0.0
  0
VIEWPORT
  5
9F0E
330
1B
100
AcDbEntity
 67
     1
  8
0
100
AcDbViewport
 10
202.5
 20
128.5
 30
0.0
 40
324.0
 41
205.6
 68
     2
 69
     2
 12
-3224.9849078482
 22
3553.815758143106
 13
0.0
 23
0.0
 14
0.5
 24
0.5
 15
0.0
 25
0.0
 16
0.0
 26
0.0
 36
1.0
 17
0.0
 27
0.0
 37
0.0
 42
50.0
 43
0.0
 44
0.0
 45
10712.16027781073
 50
0.0
 51
0.0
 72
   100
 90
   557152
  1

281
     0
 71
     1
 74
     0
110
0.0
120
0.0
130
0.0
111
1.0
121
0.0
131
0.0
112
0.0
122
1.0
132
0.0
 79
     0
146
0.0
  0
ENDSEC
  0
SECTION
  2
OBJECTS
  0
DICTIONARY
  5
C
330
0
100
AcDbDictionary
281
     1
  3
ACAD_DETAILVIEWSTYLE
350
127F4
  3
ACAD_GROUP
350
D
  3
ACAD_IMAGE_VARS
350
6A88
  3
ACAD_LAYOUT
350
1A
  3
ACAD_MLINESTYLE
350
17
  3
ACAD_PLOTSETTINGS
350
19
  3
ACAD_PLOTSTYLENAME
350
E
  3
ACAD_SCALELIST
350
6A4E
  3
ACAD_SECTIONVIEWSTYLE
350
127F5
  3
AcadDim
350
FB97
  3
AcDbVariableDictionary
350
79E
  3
APPDATA
350
6A87
  3
DWGPROPS
350
12890
  0
DICTIONARY
  5
7A6F
330
2
100
AcDbDictionary
280
     1
281
     1
  3
ACAD_LAYERSTATES
360
7A70
  3
ACLYDICTIONARY
360
F959
  0
DICTIONARY
  5
969E
330
1F
100
AcDbDictionary
280
     1
281
     1
  3
ACAD_SORTENTS
360
969F
  0
DICTIONARY
  5
127F4
102
{ACAD_REACTORS
330
C
102
}
330
C
100
AcDbDictionary
281
     1
  0
DICTIONARY
  5
D
102
{ACAD_REACTORS
330
C
102
}
330
C
100
AcDbDictionary
281
     1
  3
*A1
350
1228F
  3
*A2
350
12290
  3
*A3
350
12291
  3
*A4
350
12292
  3
*A5
350
12293
  0
RASTERVARIABLES
  5
6A88
102
{ACAD_REACTORS
330
C
102
}
330
C
100
AcDbRasterVariables
 90
        0
 70
     1
 71
     1
 72
     1
  0
DICTIONARY
  5
1A
102
{ACAD_REACTORS
330
C
102
}
330
C
100
AcDbDictionary
281
     1
  3
Layout1
350
1E
  3
Model
350
22
  0
DICTIONARY
  5
17
102
{ACAD_REACTORS
330
C
102
}
330
C
100
AcDbDictionary
281
     1
  3
Standard
350
18
  0
DICTIONARY
  5
19
102
{ACAD_REACTORS
330
C
102
}
330
C
100
AcDbDictionary
281
     1
  0
ACDBDICTIONARYWDFLT
  5
E
102
{ACAD_REACTORS
330
C
102
}
330
C
100
AcDbDictionary
281
     1
  3
Normal
350
F
100
AcDbDictionaryWithDefault
340
F
  0
DICTIONARY
  5
6A4E
102
{ACAD_REACTORS
330
C
102
}
330
C
100
AcDbDictionary
281
     1
  3
A0
350
6A4F
  3
A1
350
6A50
  3
A2
350
6A51
  3
A3
350
6A52
  3
A4
350
6A53
  3
A5
350
6A54
  3
A6
350
6A55
  3
A7
350
6A56
  3
A8
350
6A57
  3
A9
350
6A58
  3
B0
350
6A59
  3
B1
350
6A5A
  3
B2
350
6A5B
  3
B3
350
6A5C
  3
B4
350
6A5D
  3
B5
350
6A5E
  3
B6
350
6A5F
  3
B7
350
6A60
  3
B8
350
6A61
  3
B9
350
6A62
  3
C0
350
6A63
  3
C1
350
6A64
  3
C2
350
6A65
  3
C3
350
6A66
  3
C4
350
6A67
  3
C5
350
6A68
  3
C6
350
6A69
  3
C7
350
6A6A
  3
C8
350
6A6B
  3
C9
350
6A6C
  3
D0
350
6A6D
  3
D1
350
6A6E
  3
D2
350
6A6F
  0
DICTIONARY
  5
127F5
102
{ACAD_REACTORS
330
C
102
}
330
C
100
AcDbDictionary
281
     1
  0
XRECORD
  5
FB97
102
{ACAD_REACTORS
330
C
102
}
330
C
100
AcDbXrecord
280
     1
340
0
 72
     0
 71
     0
 70
     0
 69
     0
 68
     1
 67
     3
 66
     0
 65
     0
 64
     0
 63
     3
 62
     1
 61
     0
 60
     0
 40
0.0
  0
DICTIONARY
  5
79E
102
{ACAD_REACTORS
330
C
102
}
330
C
100
AcDbDictionary
281
     1
  3
DIMASSOC
350
79F
  3
SORTENTS
350
264F
  0
DICTIONARY
  5
6A87
102
{ACAD_REACTORS
330
C
102
}
330
C
100
AcDbDictionary
281
     1
  0
XRECORD
  5
12890
102
{ACAD_REACTORS
330
C
102
}
330
C
100
AcDbXrecord
280
     1
  1
DWGPROPS COOKIE
  2

  3

  4

  6

  7

  8
Sales
  9

300
=
301
=
302
=
303
=
304
=
305
=
306
=
307
=
308
=
309
=
 40
0.0
 41
2455859.030048461
 42
2459075.115182836
  1

 90
        0
  0
DICTIONARY
  5
7A70
102
{ACAD_REACTORS
330
7A6F
102
}
330
7A6F
100
AcDbDictionary
281
     1
  0
DICTIONARY
  5
F959
102
{ACAD_REACTORS
330
7A6F
102
}
330
7A6F
100
AcDbDictionary
281
     1
1001
ACAD
1000
<All
  0
SORTENTSTABLE
  5
969F
102
{ACAD_REACTORS
330
969E
102
}
330
969E
100
AcDbSortentsTable
330
1F
331
0
  5
A779
331
0
  5
7E74
331
0
  5
124D9
331
0
  5
12544
331
0
  5
12545
331
0
  5
A781
331
0
  5
A782
331
0
  5
12547
331
0
  5
124D8
331
0
  5
A767
331
0
  5
A768
331
0
  5
A76B
331
0
  5
A76C
331
0
  5
A76D
331
0
  5
A76E
331
0
  5
A76F
331
0
  5
A770
331
0
  5
A783
331
0
  5
A784
331
0
  5
A785
331
0
  5
A786
331
0
  5
A787
331
0
  5
A788
331
0
  5
A789
331
0
  5
A78A
331
0
  5
A78B
331
0
  5
A78C
331
0
  5
A78D
331
0
  5
A78E
331
0
  5
7E7B
331
0
  5
12556
331
0
  5
A790
331
0
  5
A791
331
0
  5
A793
331
0
  5
A794
331
0
  5
A795
331
0
  5
7E7C
331
0
  5
7E7D
331
0
  5
A796
331
0
  5
A797
331
0
  5
A798
331
0
  5
A799
331
0
  5
A79A
331
0
  5
7E7E
331
0
  5
7E7F
331
0
  5
A79B
331
0
  5
A79C
331
0
  5
A79D
331
0
  5
A79E
331
0
  5
A79F
331
0
  5
7E84
331
0
  5
7E85
331
0
  5
A7A0
331
0
  5
A7A1
331
0
  5
A7A2
331
0
  5
A7A3
331
0
  5
A7A4
331
0
  5
7E86
331
0
  5
7E87
331
0
  5
A7BB
331
0
  5
A7BC
331
0
  5
A7BD
331
0
  5
A7BF
331
0
  5
A7C0
331
0
  5
A7C1
331
0
  5
A7C2
331
0
  5
A7C3
331
0
  5
A7C4
331
0
  5
A7C5
331
0
  5
A7C6
331
0
  5
A7C9
331
0
  5
A843
331
0
  5
A845
331
0
  5
7EA7
331
0
  5
7EA8
331
0
  5
7EA9
331
0
  5
7EAA
331
0
  5
7EB1
331
0
  5
7EB2
331
0
  5
7EB3
331
0
  5
7EB4
331
0
  5
7EB5
331
0
  5
A853
331
0
  5
A854
331
0
  5
A855
331
0
  5
A917
331
0
  5
A919
331
0
  5
A91A
331
0
  5
7ED0
331
0
  5
A91B
331
0
  5
7E6F
331
0
  5
7ED1
331
0
  5
7ED2
331
0
  5
7ED4
331
0
  5
7ED7
331
0
  5
D810
331
0
  5
D812
331
0
  5
D823
331
0
  5
12572
331
0
  5
12581
331
0
  5
A771
331
0
  5
A772
331
0
  5
A773
331
0
  5
A774
331
0
  5
A775
331
0
  5
A776
331
0
  5
A777
331
0
  5
A778
331
0
  5
EE30
331
ECC5
  5
EE31
331
ECC6
  5
EE32
331
ECC7
  5
A436
331
ECC8
  5
A437
331
ECC9
  5
A438
331
ECCA
  5
EE33
331
ECCB
  5
A439
331
ECCC
  5
A54C
331
ECCD
  5
EE34
331
ECCE
  5
A54E
331
ECCF
  5
EE35
331
ECD0
  5
EE36
331
ECD1
  5
EE37
331
ECD2
  5
EE38
331
ECED
  5
A562
331
ECEF
  5
A564
331
ECF0
  5
A570
331
ECF1
  5
A571
331
ECF3
  5
A573
331
ECF4
  5
A574
331
ECF6
  5
A576
331
ECF7
  5
A577
331
ECFB
  5
A579
331
ECFC
  5
A57A
331
0
  5
7FCB
331
0
  5
7FDE
331
0
  5
7FDF
331
ED10
  5
EE55
331
ED11
  5
F100
331
ED12
  5
F101
331
ED13
  5
F102
331
0
  5
F103
331
0
  5
F104
331
0
  5
8081
331
0
  5
F105
331
0
  5
F107
331
0
  5
F108
331
0
  5
F109
331
0
  5
F10A
331
0
  5
F10E
331
0
  5
F10F
331
0
  5
F110
331
0
  5
F115
331
0
  5
F118
331
0
  5
F119
331
0
  5
F126
331
0
  5
F127
331
0
  5
F128
331
0
  5
F7D1
331
0
  5
F7D2
331
0
  5
81AC
331
0
  5
81AD
331
0
  5
F813
331
0
  5
F814
331
0
  5
FBD5
331
0
  5
FBD8
331
0
  5
FBE4
331
0
  5
FBED
331
0
  5
81BE
331
0
  5
81C0
331
0
  5
11AA0
331
0
  5
11AA1
331
123D6
  5
122E9
331
123D7
  5
86FF
331
123D8
  5
122EA
331
123D9
  5
122EB
331
123DA
  5
122EC
331
123DB
  5
122ED
331
123DC
  5
122EE
331
123DD
  5
122EF
331
123DE
  5
12394
331
123DF
  5
12395
331
123E0
  5
123B0
331
123E2
  5
123B1
331
123E4
  5
123B2
331
123E5
  5
123B3
331
123E6
  5
123D6
331
123E7
  5
123D7
331
123E8
  5
123D8
331
123E9
  5
123D9
331
0
  5
123DB
331
0
  5
123DD
331
0
  5
123DE
331
0
  5
123DF
331
0
  5
123E0
331
12431
  5
123E2
331
12432
  5
123E4
331
12433
  5
123E5
331
12434
  5
123E6
331
0
  5
123E7
331
0
  5
123E8
331
0
  5
123E9
331
0
  5
123EA
331
0
  5
123F9
331
0
  5
1242C
331
0
  5
1242D
331
0
  5
1242E
331
0
  5
1242F
331
0
  5
12430
331
124C1
  5
12431
331
124C2
  5
12432
331
124C4
  5
12433
331
124C6
  5
12434
331
124C7
  5
12435
331
124C8
  5
12442
331
124C9
  5
1244F
331
124CA
  5
1245C
331
124CB
  5
1246B
331
124CC
  5
12478
331
124CD
  5
12487
331
124CE
  5
12494
331
124D0
  5
124A3
331
124D2
  5
124B2
331
124D3
  5
124C1
331
124D4
  5
124C2
331
124D6
  5
124C4
331
124D8
  5
124C6
331
124D9
  5
124C7
331
124DA
  5
124C8
331
0
  5
124CA
331
0
  5
86F4
331
0
  5
86F5
331
0
  5
124CD
331
0
  5
124CE
331
0
  5
124D0
331
0
  5
124D2
331
0
  5
124D3
  0
GROUP
  5
1228F
102
{ACAD_REACTORS
330
D
102
}
330
D
100
AcDbGroup
300

 70
     1
 71
     1
  0
GROUP
  5
12290
102
{ACAD_REACTORS
330
D
102
}
330
D
100
AcDbGroup
300

 70
     1
 71
     1
  0
GROUP
  5
12291
102
{ACAD_REACTORS
330
D
102
}
330
D
100
AcDbGroup
300

 70
     1
 71
     1
  0
GROUP
  5
12292
102
{ACAD_REACTORS
330
D
102
}
330
D
100
AcDbGroup
300

 70
     1
 71
     1
  0
GROUP
  5
12293
102
{ACAD_REACTORS
330
D
102
}
330
D
100
AcDbGroup
300

 70
     1
 71
     1
  0
LAYOUT
  5
1E
102
{ACAD_REACTORS
330
1A
102
}
330
1A
100
AcDbPlotSettings
  1

  2
none_device
  4
ISO_A3_(420.00_x_297.00_MM)
  6

 40
7.5
 41
20.0
 42
7.5
 43
20.0
 44
420.0
 45
297.0
 46
0.0
 47
0.0
 48
0.0
 49
0.0
140
0.0
141
0.0
142
1.0
143
1.0
 70
   688
 72
     1
 73
     0
 74
     5
  7

 75
    16
147
1.0
148
0.0
149
0.0
100
AcDbLayout
  1
Layout1
 70
     1
 71
     1
 10
0.0
 20
0.0
 11
412.5
 21
277.0
 12
0.0
 22
0.0
 32
0.0
 14
1.000000000000000E+20
 24
1.000000000000000E+20
 34
1.000000000000000E+20
 15
-1.000000000000000E+20
 25
-1.000000000000000E+20
 35
-1.000000000000000E+20
146
0.0
 13
0.0
 23
0.0
 33
0.0
 16
1.0
 26
0.0
 36
0.0
 17
0.0
 27
1.0
 37
0.0
 76
     0
330
1B
331
9F0D
  0
LAYOUT
  5
22
102
{ACAD_REACTORS
330
1A
102
}
330
1A
100
AcDbPlotSettings
  1

  2
none_device
  4
A3
  6

 40
3.174999952316284
 41
3.174999952316284
 42
3.17498779296875
 43
3.17498779296875
 44
297.0318298339844
 45
420.1583251953125
 46
-3.16
 47
-3.1
 48
-90.0
 49
-90.0
140
329.9999999999998
141
207.0
142
1.0
143
1.0
 70
 11940
 72
     1
 73
     1
 74
     4
  7
monochrome.ctb
 75
     0
147
1.0
148
90.0
149
90.0
100
AcDbLayout
  1
Model
 70
     1
 71
     0
 10
0.0
 20
0.0
 11
4200.0
 21
2970.0
 12
0.0
 22
0.0
 32
0.0
 14
500.0
 24
1189.999999999993
 34
0.0
 15
3110.000000000001
 25
2470.0
 35
0.0
146
0.0
 13
0.0
 23
0.0
 33
0.0
 16
1.0
 26
0.0
 36
0.0
 17
0.0
 27
1.0
 37
0.0
 76
     0
330
1F
331
7A57
  0
MLINESTYLE
  5
18
102
{ACAD_REACTORS
330
17
102
}
330
17
100
AcDbMlineStyle
  2
STANDARD
 70
     0
  3

 62
   256
 51
90.0
 52
90.0
 71
     2
 49
0.5
 62
   256
  6
BYLAYER
 49
-0.5
 62
   256
  6
BYLAYER
  0
ACDBPLACEHOLDER
  5
F
102
{ACAD_REACTORS
330
E
102
}
330
E
  0
SCALE
  5
6A4F
102
{ACAD_REACTORS
330
6A4E
102
}
330
6A4E
100
AcDbScale
 70
     0
300
1:1
140
1.0
141
1.0
290
     1
  0
SCALE
  5
6A50
102
{ACAD_REACTORS
330
6A4E
102
}
330
6A4E
100
AcDbScale
 70
     0
300
1:2
140
1.0
141
2.0
290
     0
  0
SCALE
  5
6A51
102
{ACAD_REACTORS
330
6A4E
102
}
330
6A4E
100
AcDbScale
 70
     0
300
1:4
140
1.0
141
4.0
290
     0
  0
SCALE
  5
6A52
102
{ACAD_REACTORS
330
6A4E
102
}
330
6A4E
100
AcDbScale
 70
     0
300
1:5
140
1.0
141
5.0
290
     0
  0
SCALE
  5
6A53
102
{ACAD_REACTORS
330
6A4E
102
}
330
6A4E
100
AcDbScale
 70
     0
300
1:8
140
1.0
141
8.0
290
     0
  0
SCALE
  5
6A54
102
{ACAD_REACTORS
330
6A4E
102
}
330
6A4E
100
AcDbScale
 70
     0
300
1:10
140
1.0
141
10.0
290
     0
  0
SCALE
  5
6A55
102
{ACAD_REACTORS
330
6A4E
102
}
330
6A4E
100
AcDbScale
 70
     0
300
1:16
140
1.0
141
16.0
290
     0
  0
SCALE
  5
6A56
102
{ACAD_REACTORS
330
6A4E
102
}
330
6A4E
100
AcDbScale
 70
     0
300
1:20
140
1.0
141
20.0
290
     0
  0
SCALE
  5
6A57
102
{ACAD_REACTORS
330
6A4E
102
}
330
6A4E
100
AcDbScale
 70
     0
300
1:30
140
1.0
141
30.0
290
     0
  0
SCALE
  5
6A58
102
{ACAD_REACTORS
330
6A4E
102
}
330
6A4E
100
AcDbScale
 70
     0
300
1:40
140
1.0
141
40.0
290
     0
  0
SCALE
  5
6A59
102
{ACAD_REACTORS
330
6A4E
102
}
330
6A4E
100
AcDbScale
 70
     0
300
1:50
140
1.0
141
50.0
290
     0
  0
SCALE
  5
6A5A
102
{ACAD_REACTORS
330
6A4E
102
}
330
6A4E
100
AcDbScale
 70
     0
300
1:100
140
1.0
141
100.0
290
     0
  0
SCALE
  5
6A5B
102
{ACAD_REACTORS
330
6A4E
102
}
330
6A4E
100
AcDbScale
 70
     0
300
2:1
140
2.0
141
1.0
290
     0
  0
SCALE
  5
6A5C
102
{ACAD_REACTORS
330
6A4E
102
}
330
6A4E
100
AcDbScale
 70
     0
300
4:1
140
4.0
141
1.0
290
     0
  0
SCALE
  5
6A5D
102
{ACAD_REACTORS
330
6A4E
102
}
330
6A4E
100
AcDbScale
 70
     0
300
8:1
140
8.0
141
1.0
290
     0
  0
SCALE
  5
6A5E
102
{ACAD_REACTORS
330
6A4E
102
}
330
6A4E
100
AcDbScale
 70
     0
300
10:1
140
10.0
141
1.0
290
     0
  0
SCALE
  5
6A5F
102
{ACAD_REACTORS
330
6A4E
102
}
330
6A4E
100
AcDbScale
 70
     0
300
100:1
140
100.0
141
1.0
290
     0
  0
SCALE
  5
6A60
102
{ACAD_REACTORS
330
6A4E
102
}
330
6A4E
100
AcDbScale
 70
     0
300
1/128" = 1'-0"
140
0.0078125
141
12.0
290
     0
  0
SCALE
  5
6A61
102
{ACAD_REACTORS
330
6A4E
102
}
330
6A4E
100
AcDbScale
 70
     0
300
1/64" = 1'-0"
140
0.015625
141
12.0
290
     0
  0
SCALE
  5
6A62
102
{ACAD_REACTORS
330
6A4E
102
}
330
6A4E
100
AcDbScale
 70
     0
300
1/32" = 1'-0"
140
0.03125
141
12.0
290
     0
  0
SCALE
  5
6A63
102
{ACAD_REACTORS
330
6A4E
102
}
330
6A4E
100
AcDbScale
 70
     0
300
1/16" = 1'-0"
140
0.0625
141
12.0
290
     0
  0
SCALE
  5
6A64
102
{ACAD_REACTORS
330
6A4E
102
}
330
6A4E
100
AcDbScale
 70
     0
300
3/32" = 1'-0"
140
0.09375
141
12.0
290
     0
  0
SCALE
  5
6A65
102
{ACAD_REACTORS
330
6A4E
102
}
330
6A4E
100
AcDbScale
 70
     0
300
1/8" = 1'-0"
140
0.125
141
12.0
290
     0
  0
SCALE
  5
6A66
102
{ACAD_REACTORS
330
6A4E
102
}
330
6A4E
100
AcDbScale
 70
     0
300
3/16" = 1'-0"
140
0.1875
141
12.0
290
     0
  0
SCALE
  5
6A67
102
{ACAD_REACTORS
330
6A4E
102
}
330
6A4E
100
AcDbScale
 70
     0
300
1/4" = 1'-0"
140
0.25
141
12.0
290
     0
  0
SCALE
  5
6A68
102
{ACAD_REACTORS
330
6A4E
102
}
330
6A4E
100
AcDbScale
 70
     0
300
3/8" = 1'-0"
140
0.375
141
12.0
290
     0
  0
SCALE
  5
6A69
102
{ACAD_REACTORS
330
6A4E
102
}
330
6A4E
100
AcDbScale
 70
     0
300
1/2" = 1'-0"
140
0.5
141
12.0
290
     0
  0
SCALE
  5
6A6A
102
{ACAD_REACTORS
330
6A4E
102
}
330
6A4E
100
AcDbScale
 70
     0
300
3/4" = 1'-0"
140
0.75
141
12.0
290
     0
  0
SCALE
  5
6A6B
102
{ACAD_REACTORS
330
6A4E
102
}
330
6A4E
100
AcDbScale
 70
     0
300
1" = 1'-0"
140
1.0
141
12.0
290
     0
  0
SCALE
  5
6A6C
102
{ACAD_REACTORS
330
6A4E
102
}
330
6A4E
100
AcDbScale
 70
     0
300
1-1/2" = 1'-0"
140
1.5
141
12.0
290
     0
  0
SCALE
  5
6A6D
102
{ACAD_REACTORS
330
6A4E
102
}
330
6A4E
100
AcDbScale
 70
     0
300
3" = 1'-0"
140
3.0
141
12.0
290
     0
  0
SCALE
  5
6A6E
102
{ACAD_REACTORS
330
6A4E
102
}
330
6A4E
100
AcDbScale
 70
     0
300
6" = 1'-0"
140
6.0
141
12.0
290
     0
  0
SCALE
  5
6A6F
102
{ACAD_REACTORS
330
6A4E
102
}
330
6A4E
100
AcDbScale
 70
     0
300
1'-0" = 1'-0"
140
12.0
141
12.0
290
     0
  0
DICTIONARYVAR
  5
79F
102
{ACAD_REACTORS
330
79E
102
}
330
79E
100
DictionaryVariables
280
     0
  1
1
  0
DICTIONARYVAR
  5
264F
102
{ACAD_REACTORS
330
79E
102
}
330
79E
100
DictionaryVariables
280
     0
  1
96
  0
ENDSEC
  0
EOF
