  0
SECTION
  2
HEADER
  9
$ACADVER
  1
AC1015
  9
$ACADMAINTVER
 70
     6
  9
$DWGCODEPAGE
  3
ANSI_932
  9
$INSBASE
 10
0.0
 20
0.0
 30
0.0
  9
$EXTMIN
 10
848.9999999999991
 20
1190.000000000001
 30
0.0
  9
$EXTMAX
 10
2751.0
 20
2470.000000000001
 30
0.0
  9
$LIMMIN
 10
0.0
 20
0.0
  9
$LIMMAX
 10
4200.0
 20
2970.0
  9
$ORTHOMODE
 70
     1
  9
$REGENMODE
 70
     1
  9
$FILLMODE
 70
     1
  9
$QTEXTMODE
 70
     0
  9
$MIRRTEXT
 70
     0
  9
$LTSCALE
 40
3.0
  9
$ATTMODE
 70
     1
  9
$TEXTSIZE
 40
30.0
  9
$TRACEWID
 40
1.0
  9
$TEXTSTYLE
  7
Standard
  9
$CLAYER
  8
01注記寸法
  9
$CELTYPE
  6
ByLayer
  9
$CECOLOR
 62
   256
  9
$CELTSCALE
 40
1.0
  9
$DISPSILH
 70
     0
  9
$DIMSCALE
 40
10.0
  9
$DIMASZ
 40
3.0
  9
$DIMEXO
 40
1.5
  9
$DIMDLI
 40
10.0
  9
$DIMRND
 40
0.0
  9
$DIMDLE
 40
0.0
  9
$DIMEXE
 40
1.0
  9
$DIMTP
 40
0.0
  9
$DIMTM
 40
0.0
  9
$DIMTXT
 40
3.0
  9
$DIMCEN
 40
1.5
  9
$DIMTSZ
 40
0.0
  9
$DIMTOL
 70
     0
  9
$DIMLIM
 70
     0
  9
$DIMTIH
 70
     0
  9
$DIMTOH
 70
     0
  9
$DIMSE1
 70
     0
  9
$DIMSE2
 70
     0
  9
$DIMTAD
 70
     1
  9
$DIMZIN
 70
     8
  9
$DIMBLK
  1
Open
  9
$DIMASO
 70
     1
  9
$DIMSHO
 70
     1
  9
$DIMPOST
  1

  9
$DIMAPOST
  1

  9
$DIMALT
 70
     0
  9
$DIMALTD
 70
     3
  9
$DIMALTF
 40
0.03937007874016
  9
$DIMLFAC
 40
1.0
  9
$DIMTOFL
 70
     1
  9
$DIMTVP
 40
0.0
  9
$DIMTIX
 70
     0
  9
$DIMSOXD
 70
     0
  9
$DIMSAH
 70
     0
  9
$DIMBLK1
  1

  9
$DIMBLK2
  1

  9
$DIMSTYLE
  2
NEMY-10
  9
$DIMCLRD
 70
     0
  9
$DIMCLRE
 70
     0
  9
$DIMCLRT
 70
     0
  9
$DIMTFAC
 40
1.0
  9
$DIMGAP
 40
1.0
  9
$DIMJUST
 70
     0
  9
$DIMSD1
 70
     0
  9
$DIMSD2
 70
     0
  9
$DIMTOLJ
 70
     0
  9
$DIMTZIN
 70
     8
  9
$DIMALTZ
 70
     0
  9
$DIMALTTZ
 70
     0
  9
$DIMUPT
 70
     0
  9
$DIMDEC
 70
     1
  9
$DIMTDEC
 70
     1
  9
$DIMALTU
 70
     2
  9
$DIMALTTD
 70
     3
  9
$DIMTXSTY
  7
Standard
  9
$DIMAUNIT
 70
     0
  9
$DIMADEC
 70
     0
  9
$DIMALTRND
 40
0.0
  9
$DIMAZIN
 70
     0
  9
$DIMDSEP
 70
    46
  9
$DIMATFIT
 70
     3
  9
$DIMFRAC
 70
     0
  9
$DIMLDRBLK
  1
Open
  9
$DIMLUNIT
 70
     2
  9
$DIMLWD
 70
    -2
  9
$DIMLWE
 70
    -2
  9
$DIMTMOVE
 70
     0
  9
$LUNITS
 70
     2
  9
$LUPREC
 70
     4
  9
$SKETCHINC
 40
1.0
  9
$FILLETRAD
 40
5.0
  9
$AUNITS
 70
     0
  9
$AUPREC
 70
     0
  9
$MENU
  1
.
  9
$ELEVATION
 40
0.0
  9
$PELEVATION
 40
0.0
  9
$THICKNESS
 40
0.0
  9
$LIMCHECK
 70
     0
  9
$CHAMFERA
 40
5.0
  9
$CHAMFERB
 40
5.0
  9
$CHAMFERC
 40
20.0
  9
$CHAMFERD
 40
0.0
  9
$SKPOLY
 70
     0
  9
$TDCREATE
 40
2455859.405048461
  9
$TDUCREATE
 40
2455859.030048461
  9
$TDUPDATE
 40
2459075.492002164
  9
$TDUUPDATE
 40
2459075.117002164
  9
$TDINDWG
 40
1.4463899074
  9
$TDUSRTIMER
 40
0.0005358449
  9
$USRTIMER
 70
     1
  9
$ANGBASE
 50
0.0
  9
$ANGDIR
 70
     0
  9
$PDMODE
 70
     0
  9
$PDSIZE
 40
0.0
  9
$PLINEWID
 40
0.0
  9
$SPLFRAME
 70
     0
  9
$SPLINETYPE
 70
     6
  9
$SPLINESEGS
 70
     8
  9
$HANDSEED
  5
128DA
  9
$SURFTAB1
 70
     6
  9
$SURFTAB2
 70
     6
  9
$SURFTYPE
 70
     6
  9
$SURFU
 70
     6
  9
$SURFV
 70
     6
  9
$UCSBASE
  2

  9
$UCSNAME
  2

  9
$UCSORG
 10
0.0
 20
0.0
 30
0.0
  9
$UCSXDIR
 10
1.0
 20
0.0
 30
0.0
  9
$UCSYDIR
 10
0.0
 20
1.0
 30
0.0
  9
$UCSORTHOREF
  2

  9
$UCSORTHOVIEW
 70
     0
  9
$UCSORGTOP
 10
0.0
 20
0.0
 30
0.0
  9
$UCSORGBOTTOM
 10
0.0
 20
0.0
 30
0.0
  9
$UCSORGLEFT
 10
0.0
 20
0.0
 30
0.0
  9
$UCSORGRIGHT
 10
0.0
 20
0.0
 30
0.0
  9
$UCSORGFRONT
 10
0.0
 20
0.0
 30
0.0
  9
$UCSORGBACK
 10
0.0
 20
0.0
 30
0.0
  9
$PUCSBASE
  2

  9
$PUCSNAME
  2

  9
$PUCSORG
 10
0.0
 20
0.0
 30
0.0
  9
$PUCSXDIR
 10
1.0
 20
0.0
 30
0.0
  9
$PUCSYDIR
 10
0.0
 20
1.0
 30
0.0
  9
$PUCSORTHOREF
  2

  9
$PUCSORTHOVIEW
 70
     0
  9
$PUCSORGTOP
 10
0.0
 20
0.0
 30
0.0
  9
$PUCSORGBOTTOM
 10
0.0
 20
0.0
 30
0.0
  9
$PUCSORGLEFT
 10
0.0
 20
0.0
 30
0.0
  9
$PUCSORGRIGHT
 10
0.0
 20
0.0
 30
0.0
  9
$PUCSORGFRONT
 10
0.0
 20
0.0
 30
0.0
  9
$PUCSORGBACK
 10
0.0
 20
0.0
 30
0.0
  9
$USERI1
 70
     0
  9
$USERI2
 70
     0
  9
$USERI3
 70
     0
  9
$USERI4
 70
     0
  9
$USERI5
 70
     0
  9
$USERR1
 40
0.0
  9
$USERR2
 40
0.0
  9
$USERR3
 40
0.0
  9
$USERR4
 40
0.0
  9
$USERR5
 40
0.0
  9
$WORLDVIEW
 70
     1
  9
$SHADEDGE
 70
     3
  9
$SHADEDIF
 70
    70
  9
$TILEMODE
 70
     1
  9
$MAXACTVP
 70
    64
  9
$PINSBASE
 10
0.0
 20
0.0
 30
0.0
  9
$PLIMCHECK
 70
     0
  9
$PEXTMIN
 10
1.000000000000000E+20
 20
1.000000000000000E+20
 30
1.000000000000000E+20
  9
$PEXTMAX
 10
-1.000000000000000E+20
 20
-1.000000000000000E+20
 30
-1.000000000000000E+20
  9
$PLIMMIN
 10
-7.5
 20
-20.0
  9
$PLIMMAX
 10
412.5
 20
277.0
  9
$UNITMODE
 70
     0
  9
$VISRETAIN
 70
     1
  9
$PLINEGEN
 70
     0
  9
$PSLTSCALE
 70
     1
  9
$TREEDEPTH
 70
  3020
  9
$CMLSTYLE
  2
Standard
  9
$CMLJUST
 70
     0
  9
$CMLSCALE
 40
20.0
  9
$PROXYGRAPHICS
 70
     1
  9
$MEASUREMENT
 70
     1
  9
$CELWEIGHT
370
    -1
  9
$ENDCAPS
280
     0
  9
$JOINSTYLE
280
     0
  9
$LWDISPLAY
290
     0
  9
$INSUNITS
 70
     4
  9
$HYPERLINKBASE
  1

  9
$STYLESHEET
  1
monochrome.ctb
  9
$XEDIT
290
     1
  9
$CEPSNTYPE
380
     0
  9
$PSTYLEMODE
290
     1
  9
$FINGERPRINTGUID
  2
{FDEAD578-A652-11D2-9A35-0060089B3A3F}
  9
$VERSIONGUID
  2
{11DB8456-EC16-47A0-BA21-BBDA07550E8A}
  9
$EXTNAMES
290
     1
  9
$PSVPSCALE
 40
0.0
  9
$OLESTARTUP
290
     0
  0
ENDSEC
  0
SECTION
  2
CLASSES
  0
CLASS
  1
ACDBDICTIONARYWDFLT
  2
AcDbDictionaryWithDefault
  3
ObjectDBX Classes
 90
        0
280
     0
281
     0
  0
CLASS
  1
ACDBPLACEHOLDER
  2
AcDbPlaceHolder
  3
ObjectDBX Classes
 90
        0
280
     0
281
     0
  0
CLASS
  1
LAYOUT
  2
AcDbLayout
  3
ObjectDBX Classes
 90
        0
280
     0
281
     0
  0
CLASS
  1
DICTIONARYVAR
  2
AcDbDictionaryVar
  3
ObjectDBX Classes
 90
        0
280
     0
281
     0
  0
CLASS
  1
SCALE
  2
AcDbScale
  3
ObjectDBX Classes
 90
     1153
280
     0
281
     0
  0
CLASS
  1
MATERIAL
  2
AcDbMaterial
  3
ObjectDBX Classes
 90
     1153
280
     0
281
     0
  0
CLASS
  1
VISUALSTYLE
  2
AcDbVisualStyle
  3
ObjectDBX Classes
 90
     4095
280
     0
281
     0
  0
CLASS
  1
TABLESTYLE
  2
AcDbTableStyle
  3
ObjectDBX Classes
 90
     4095
280
     0
281
     0
  0
CLASS
  1
RASTERVARIABLES
  2
AcDbRasterVariables
  3
ISM
 90
        0
280
     0
281
     0
  0
CLASS
  1
SORTENTSTABLE
  2
AcDbSortentsTable
  3
ObjectDBX Classes
 90
        0
280
     0
281
     0
  0
CLASS
  1
SUN
  2
AcDbSun
  3
SCENEOE
 90
     1153
280
     0
281
     0
  0
CLASS
  1
MLEADERSTYLE
  2
AcDbMLeaderStyle
  3
ACDB_MLEADERSTYLE_CLASS
 90
     4095
280
     0
281
     0
  0
ENDSEC
  0
SECTION
  2
TABLES
  0
TABLE
  2
VPORT
  5
8
330
0
100
AcDbSymbolTable
 70
     1
  0
VPORT
  5
7A57
330
8
100
AcDbSymbolTableRecord
100
AcDbViewportTableRecord
  2
*Active
 70
     0
 10
0.0
 20
0.0
 11
1.0
 21
1.0
 12
1568.981749707488
 22
1923.637391333899
 13
0.0
 23
0.0
 14
10.0
 24
10.0
 15
10.0
 25
10.0
 16
0.0
 26
0.0
 36
1.0
 17
0.0
 27
0.0
 37
0.0
 40
2442.932104187401
 41
1.430340557275542
 42
50.0
 43
0.0
 44
0.0
 50
0.0
 51
0.0
 71
    16
 72
   100
 73
     1
 74
     2
 75
     0
 76
     0
 77
     0
 78
     0
281
     0
 65
     1
110
0.0
120
0.0
130
0.0
111
1.0
121
0.0
131
0.0
112
0.0
122
1.0
132
0.0
 79
     0
146
0.0
  0
ENDTAB
  0
TABLE
  2
LTYPE
  5
5
330
0
100
AcDbSymbolTable
 70
     5
  0
LTYPE
  5
14
330
5
100
AcDbSymbolTableRecord
100
AcDbLinetypeTableRecord
  2
ByBlock
 70
     0
  3

 72
    65
 73
     0
 40
0.0
  0
LTYPE
  5
15
330
5
100
AcDbSymbolTableRecord
100
AcDbLinetypeTableRecord
  2
ByLayer
 70
     0
  3

 72
    65
 73
     0
 40
0.0
  0
LTYPE
  5
16
330
5
100
AcDbSymbolTableRecord
100
AcDbLinetypeTableRecord
  2
Continuous
 70
     0
  3
Solid line
 72
    65
 73
     0
 40
0.0
  0
LTYPE
  5
BA
330
5
100
AcDbSymbolTableRecord
100
AcDbLinetypeTableRecord
  2
HIDDEN
 70
     0
  3
Hidden __ __ __ __ __ __ __ __ __ __ __ __ __ _
 72
    65
 73
     2
 40
9.524999999999999
 49
6.35
 74
     0
 49
-3.175
 74
     0
  0
LTYPE
  5
BB
330
5
100
AcDbSymbolTableRecord
100
AcDbLinetypeTableRecord
  2
PHANTOM
 70
     0
  3
Phantom ______  __  __  ______  __  __  ______
 72
    65
 73
     6
 40
63.5
 49
31.75
 74
     0
 49
-6.35
 74
     0
 49
6.35
 74
     0
 49
-6.35
 74
     0
 49
6.35
 74
     0
 49
-6.35
 74
     0
  0
LTYPE
  5
BC
330
5
100
AcDbSymbolTableRecord
100
AcDbLinetypeTableRecord
  2
CENTER
 70
     0
  3
Center ____ _ ____ _ ____ _ ____ _ ____ _ ____
 72
    65
 73
     4
 40
50.8
 49
31.75
 74
     0
 49
-6.35
 74
     0
 49
6.35
 74
     0
 49
-6.35
 74
     0
  0
LTYPE
  5
47C
330
5
100
AcDbSymbolTableRecord
100
AcDbLinetypeTableRecord
  2
DOT
 70
     0
  3
Dot . . . . . . . . . . . . . . . . . . . . . .
 72
    65
 73
     2
 40
6.35
 49
0.0
 74
     0
 49
-6.35
 74
     0
  0
ENDTAB
  0
TABLE
  2
LAYER
  5
2
102
{ACAD_XDICTIONARY
360
7A6F
102
}
330
0
100
AcDbSymbolTable
 70
    13
  0
LAYER
  5
10
330
2
100
AcDbSymbolTableRecord
100
AcDbLayerTableRecord
  2
0
 70
     0
 62
     7
  6
Continuous
370
    -3
390
F
  0
LAYER
  5
45
330
2
100
AcDbSymbolTableRecord
100
AcDbLayerTableRecord
  2
01注記寸法
 70
     0
 62
     7
  6
Continuous
370
     9
390
F
  0
LAYER
  5
46
330
2
100
AcDbSymbolTableRecord
100
AcDbLayerTableRecord
  2
02実線
 70
     0
 62
     2
  6
Continuous
370
    15
390
F
  0
LAYER
  5
5F
330
2
100
AcDbSymbolTableRecord
100
AcDbLayerTableRecord
  2
Defpoints
 70
     0
 62
     7
  6
Continuous
290
     0
370
    -3
390
F
  0
LAYER
  5
7E52
330
2
100
AcDbSymbolTableRecord
100
AcDbLayerTableRecord
  2
03破線
 70
     0
 62
     3
  6
HIDDEN
370
     9
390
F
  0
LAYER
  5
7E55
330
2
100
AcDbSymbolTableRecord
100
AcDbLayerTableRecord
  2
04一点鎖線
 70
     0
 62
    70
  6
CENTER
370
     9
390
F
  0
LAYER
  5
7E58
330
2
100
AcDbSymbolTableRecord
100
AcDbLayerTableRecord
  2
05二点鎖線
 70
     0
 62
   110
  6
PHANTOM
370
     9
390
F
  0
LAYER
  5
7E5B
330
2
100
AcDbSymbolTableRecord
100
AcDbLayerTableRecord
  2
06点線
 70
     0
 62
    96
  6
DOT
370
     9
390
F
  0
LAYER
  5
7E5E
330
2
100
AcDbSymbolTableRecord
100
AcDbLayerTableRecord
  2
07その他
 70
     0
 62
     6
  6
Continuous
370
    13
390
F
  0
LAYER
  5
7E60
330
2
100
AcDbSymbolTableRecord
100
AcDbLayerTableRecord
  2
08非表示
 70
     0
 62
     4
  6
Continuous
290
     0
370
     0
390
F
  0
LAYER
  5
7E62
330
2
100
AcDbSymbolTableRecord
100
AcDbLayerTableRecord
  2
09図枠
 70
     0
 62
     1
  6
Continuous
370
    30
390
F
  0
LAYER
  5
835A
330
2
100
AcDbSymbolTableRecord
100
AcDbLayerTableRecord
  2
10副資材
 70
     0
 62
    51
  6
Continuous
290
     0
370
    -3
390
F
1001
AcAecLayerStandard
1000

1000

  0
LAYER
  5
8CAC
330
2
100
AcDbSymbolTableRecord
100
AcDbLayerTableRecord
  2
11機器
 70
     0
 62
    11
  6
Continuous
290
     0
370
    -3
390
F
1001
AcAecLayerStandard
1000

1000

  0
ENDTAB
  0
TABLE
  2
STYLE
  5
3
330
0
100
AcDbSymbolTable
 70
     1
  0
STYLE
  5
11
330
3
100
AcDbSymbolTableRecord
100
AcDbTextStyleTableRecord
  2
Standard
 70
     0
 40
0.0
 41
1.0
 50
0.0
 71
     0
 42
30.0
  3
MSGOTHIC.TTC
  4

1001
ACAD
1000
MS Gothic
1071
    32817
  0
ENDTAB
  0
TABLE
  2
VIEW
  5
6
330
0
100
AcDbSymbolTable
 70
     0
  0
ENDTAB
  0
TABLE
  2
UCS
  5
7
330
0
100
AcDbSymbolTable
 70
     0
  0
ENDTAB
  0
TABLE
  2
APPID
  5
9
330
0
100
AcDbSymbolTable
 70
     9
  0
APPID
  5
12
330
9
100
AcDbSymbolTableRecord
100
AcDbRegAppTableRecord
  2
ACAD
 70
     0
  0
APPID
  5
6A9E
330
9
100
AcDbSymbolTableRecord
100
AcDbRegAppTableRecord
  2
ACAD_DSTYLE_DIMRADIAL_EXTENSION
 70
     0
  0
APPID
  5
742C
330
9
100
AcDbSymbolTableRecord
100
AcDbRegAppTableRecord
  2
ACAD_PSEXT
 70
     0
  0
APPID
  5
742D
330
9
100
AcDbSymbolTableRecord
100
AcDbRegAppTableRecord
  2
ACAD_DSTYLE_DIMJAG
 70
     0
  0
APPID
  5
742E
330
9
100
AcDbSymbolTableRecord
100
AcDbRegAppTableRecord
  2
ACAD_DSTYLE_DIMTALN
 70
     0
  0
APPID
  5
835C
330
9
100
AcDbSymbolTableRecord
100
AcDbRegAppTableRecord
  2
AcAecLayerStandard
 70
     0
  0
APPID
  5
1253F
330
9
100
AcDbSymbolTableRecord
100
AcDbRegAppTableRecord
  2
HATCHBACKGROUNDCOLOR
 70
     0
  0
APPID
  5
1262E
330
9
100
AcDbSymbolTableRecord
100
AcDbRegAppTableRecord
  2
PE_URL
 70
     0
  0
APPID
  5
1286D
330
9
100
AcDbSymbolTableRecord
100
AcDbRegAppTableRecord
  2
PLOTTRANSPARENCY
 70
     0
  0
ENDTAB
  0
TABLE
  2
DIMSTYLE
  5
A
330
0
100
AcDbSymbolTable
 70
    24
100
AcDbDimStyleTable
  0
DIMSTYLE
105
73
330
A
100
AcDbSymbolTableRecord
100
AcDbDimStyleTableRecord
  2
NEMY-1
 70
     0
 41
3.0
 42
1.5
 43
10.0
 44
1.0
 73
     0
 74
     0
 77
     1
 78
     8
140
3.0
141
1.5
143
0.03937007874016
147
1.0
171
     3
172
     1
178
     0
271
     1
272
     1
274
     3
283
     0
284
     8
340
11
341
8F
342
8F
  0
DIMSTYLE
105
4DCE
330
A
100
AcDbSymbolTableRecord
100
AcDbDimStyleTableRecord
  2
NEMY-2
 70
     0
 40
2.0
 41
3.0
 42
1.5
 43
10.0
 44
1.0
 73
     0
 74
     0
 77
     1
 78
     8
140
3.0
141
1.5
143
0.03937007874016
147
1.0
171
     3
172
     1
178
     0
271
     1
272
     1
274
     3
283
     0
284
     8
340
11
341
8F
342
8F
  0
DIMSTYLE
105
4DCF
330
A
100
AcDbSymbolTableRecord
100
AcDbDimStyleTableRecord
  2
NEMY-3
 70
     0
 40
3.0
 41
3.0
 42
1.5
 43
10.0
 44
1.0
 73
     0
 74
     0
 77
     1
 78
     8
140
3.0
141
1.5
143
0.03937007874016
147
1.0
171
     3
172
     1
178
     0
271
     1
272
     1
274
     3
283
     0
284
     8
340
11
341
8F
342
8F
  0
DIMSTYLE
105
4DD0
330
A
100
AcDbSymbolTableRecord
100
AcDbDimStyleTableRecord
  2
NEMY-5
 70
     0
 40
5.0
 41
3.0
 42
1.5
 43
10.0
 44
1.0
 73
     0
 74
     0
 77
     1
 78
     8
140
3.0
141
1.5
143
0.03937007874016
147
1.0
171
     3
172
     1
178
     0
271
     1
272
     1
274
     3
283
     0
284
     8
340
11
341
8F
342
8F
  0
DIMSTYLE
105
4DD1
330
A
100
AcDbSymbolTableRecord
100
AcDbDimStyleTableRecord
  2
NEMY-8
 70
     0
 40
8.0
 41
3.0
 42
1.5
 43
10.0
 44
1.0
 73
     0
 74
     0
 77
     1
 78
     8
140
3.0
141
1.5
143
0.03937007874016
147
1.0
171
     3
172
     1
178
     0
271
     1
272
     1
274
     3
283
     0
284
     8
340
11
341
8F
342
8F
  0
DIMSTYLE
105
4DD2
330
A
100
AcDbSymbolTableRecord
100
AcDbDimStyleTableRecord
  2
NEMY-15
 70
     0
 40
15.0
 41
3.0
 42
1.5
 43
10.0
 44
1.0
 73
     0
 74
     0
 77
     1
 78
     8
140
3.0
141
1.5
143
0.03937007874016
147
1.0
171
     3
172
     1
178
     0
271
     1
272
     1
274
     3
283
     0
284
     8
340
11
341
8F
342
8F
  0
DIMSTYLE
105
4DD3
102
{ACAD_REACTORS
102
}
330
A
100
AcDbSymbolTableRecord
100
AcDbDimStyleTableRecord
  2
NEMY-10
 70
     0
 40
10.0
 41
3.0
 42
1.5
 43
10.0
 44
1.0
 73
     0
 74
     0
 77
     1
 78
     8
140
3.0
141
1.5
143
0.03937007874016
147
1.0
171
     3
172
     1
178
     0
271
     1
272
     1
274
     3
283
     0
284
     8
340
11
341
8F
342
8F
  0
DIMSTYLE
105
4DD4
330
A
100
AcDbSymbolTableRecord
100
AcDbDimStyleTableRecord
  2
NEMY-25
 70
     0
 40
25.0
 41
3.0
 42
1.5
 43
10.0
 44
1.0
 73
     0
 74
     0
 77
     1
 78
     8
140
3.0
141
1.5
143
0.03937007874016
147
1.0
171
     3
172
     1
178
     0
271
     1
272
     1
274
     3
283
     0
284
     8
340
11
341
8F
342
8F
  0
DIMSTYLE
105
4DD5
330
A
100
AcDbSymbolTableRecord
100
AcDbDimStyleTableRecord
  2
NEMY-30
 70
     0
 40
30.0
 41
3.0
 42
1.5
 43
10.0
 44
1.0
 73
     0
 74
     0
 77
     1
 78
     8
140
3.0
141
1.5
143
0.03937007874016
147
1.0
171
     3
172
     1
178
     0
271
     1
272
     1
274
     3
283
     0
284
     8
340
11
341
8F
342
8F
  0
DIMSTYLE
105
4DD6
330
A
100
AcDbSymbolTableRecord
100
AcDbDimStyleTableRecord
  2
NEMY-50
 70
     0
 40
50.0
 41
3.0
 42
1.5
 43
10.0
 44
1.0
 73
     0
 74
     0
 77
     1
 78
     8
140
3.0
141
1.5
143
0.03937007874016
147
1.0
171
     3
172
     1
178
     0
271
     1
272
     1
274
     3
283
     0
284
     8
340
11
341
8F
342
8F
  0
DIMSTYLE
105
4E6F
330
A
100
AcDbSymbolTableRecord
100
AcDbDimStyleTableRecord
  2
NEMY-20
 70
     0
 40
20.0
 41
3.0
 42
1.5
 43
10.0
 44
1.0
 73
     0
 74
     0
 77
     1
 78
     8
140
3.0
141
1.5
143
0.03937007874016
147
1.0
171
     3
172
     1
178
     0
271
     1
272
     1
274
     3
283
     0
284
     8
340
11
341
8F
342
8F
  0
DIMSTYLE
105
4F44
330
A
100
AcDbSymbolTableRecord
100
AcDbDimStyleTableRecord
  2
NEMY-10$3
 70
     0
 40
10.0
 41
3.0
 42
1.5
 43
10.0
 44
1.0
 77
     1
 78
     8
140
3.0
141
1.5
143
0.03937007874016
147
1.0
171
     3
172
     1
178
     0
271
     1
272
     1
274
     3
283
     0
284
     8
340
11
341
8F
342
8F
  0
DIMSTYLE
105
4F45
330
A
100
AcDbSymbolTableRecord
100
AcDbDimStyleTableRecord
  2
NEMY-1$3
 70
     0
 41
3.0
 42
1.5
 43
10.0
 44
1.0
 77
     1
 78
     8
140
3.0
141
1.5
143
0.03937007874016
147
1.0
171
     3
172
     1
178
     0
271
     1
272
     1
274
     3
283
     0
284
     8
340
11
341
8F
342
8F
  0
DIMSTYLE
105
4F46
330
A
100
AcDbSymbolTableRecord
100
AcDbDimStyleTableRecord
  2
NEMY-12
 70
     0
 40
12.0
 41
3.0
 42
1.5
 43
10.0
 44
1.0
 73
     0
 74
     0
 77
     1
 78
     8
140
3.0
141
1.5
143
0.03937007874016
147
1.0
171
     3
172
     1
178
     0
271
     1
272
     1
274
     3
283
     0
284
     8
340
11
341
8F
342
8F
  0
DIMSTYLE
105
4F47
330
A
100
AcDbSymbolTableRecord
100
AcDbDimStyleTableRecord
  2
NEMY-12$3
 70
     0
 40
12.0
 41
3.0
 42
1.5
 43
10.0
 44
1.0
 77
     1
 78
     8
140
3.0
141
1.5
143
0.03937007874016
147
1.0
171
     3
172
     1
178
     0
271
     1
272
     1
274
     3
283
     0
284
     8
340
11
341
8F
342
8F
  0
DIMSTYLE
105
5E6E
330
A
100
AcDbSymbolTableRecord
100
AcDbDimStyleTableRecord
  2
NEMY-8$3
 70
     0
 40
8.0
 41
3.0
 42
1.5
 43
10.0
 44
1.0
 77
     1
 78
     8
140
3.0
141
1.5
143
0.03937007874016
147
1.0
171
     3
172
     1
178
     0
271
     1
272
     1
274
     3
283
     0
284
     8
340
11
341
8F
342
8F
  0
DIMSTYLE
105
5E6F
330
A
100
AcDbSymbolTableRecord
100
AcDbDimStyleTableRecord
  2
NEMY-50$3
 70
     0
 40
50.0
 41
3.0
 42
1.5
 43
10.0
 44
1.0
 77
     1
 78
     8
140
3.0
141
1.5
143
0.03937007874016
147
1.0
171
     3
172
     1
178
     0
271
     1
272
     1
274
     3
283
     0
284
     8
340
11
341
8F
342
8F
  0
DIMSTYLE
105
5E70
330
A
100
AcDbSymbolTableRecord
100
AcDbDimStyleTableRecord
  2
NEMY-5$3
 70
     0
 40
5.0
 41
3.0
 42
1.5
 43
10.0
 44
1.0
 77
     1
 78
     8
140
3.0
141
1.5
143
0.03937007874016
147
1.0
171
     3
172
     1
178
     0
271
     1
272
     1
274
     3
283
     0
284
     8
340
11
341
8F
342
8F
  0
DIMSTYLE
105
5E71
330
A
100
AcDbSymbolTableRecord
100
AcDbDimStyleTableRecord
  2
NEMY-30$3
 70
     0
 40
30.0
 41
3.0
 42
1.5
 43
10.0
 44
1.0
 77
     1
 78
     8
140
3.0
141
1.5
143
0.03937007874016
147
1.0
171
     3
172
     1
178
     0
271
     1
272
     1
274
     3
283
     0
284
     8
340
11
341
8F
342
8F
  0
DIMSTYLE
105
5E72
330
A
100
AcDbSymbolTableRecord
100
AcDbDimStyleTableRecord
  2
NEMY-3$3
 70
     0
 40
3.0
 41
3.0
 42
1.5
 43
10.0
 44
1.0
 77
     1
 78
     8
140
3.0
141
1.5
143
0.03937007874016
147
1.0
171
     3
172
     1
178
     0
271
     1
272
     1
274
     3
283
     0
284
     8
340
11
341
8F
342
8F
  0
DIMSTYLE
105
5E73
330
A
100
AcDbSymbolTableRecord
100
AcDbDimStyleTableRecord
  2
NEMY-25$3
 70
     0
 40
25.0
 41
3.0
 42
1.5
 43
10.0
 44
1.0
 77
     1
 78
     8
140
3.0
141
1.5
143
0.03937007874016
147
1.0
171
     3
172
     1
178
     0
271
     1
272
     1
274
     3
283
     0
284
     8
340
11
341
8F
342
8F
  0
DIMSTYLE
105
5E74
330
A
100
AcDbSymbolTableRecord
100
AcDbDimStyleTableRecord
  2
NEMY-20$3
 70
     0
 40
20.0
 41
3.0
 42
1.5
 43
10.0
 44
1.0
 77
     1
 78
     8
140
3.0
141
1.5
143
0.03937007874016
147
1.0
171
     3
172
     1
178
     0
271
     1
272
     1
274
     3
283
     0
284
     8
340
11
341
8F
342
8F
  0
DIMSTYLE
105
5E75
330
A
100
AcDbSymbolTableRecord
100
AcDbDimStyleTableRecord
  2
NEMY-2$3
 70
     0
 40
2.0
 41
3.0
 42
1.5
 43
10.0
 44
1.0
 77
     1
 78
     8
140
3.0
141
1.5
143
0.03937007874016
147
1.0
171
     3
172
     1
178
     0
271
     1
272
     1
274
     3
283
     0
284
     8
340
11
341
8F
342
8F
  0
DIMSTYLE
105
5E76
330
A
100
AcDbSymbolTableRecord
100
AcDbDimStyleTableRecord
  2
NEMY-15$3
 70
     0
 40
15.0
 41
3.0
 42
1.5
 43
10.0
 44
1.0
 77
     1
 78
     8
140
3.0
141
1.5
143
0.03937007874016
147
1.0
171
     3
172
     1
178
     0
271
     1
272
     1
274
     3
283
     0
284
     8
340
11
341
8F
342
8F
  0
ENDTAB
  0
TABLE
  2
BLOCK_RECORD
  5
1
330
0
100
AcDbSymbolTable
 70
    30
  0
BLOCK_RECORD
  5
1F
102
{ACAD_XDICTIONARY
360
969E
102
}
330
1
100
AcDbSymbolTableRecord
100
AcDbBlockTableRecord
  2
*Model_Space
340
22
  0
BLOCK_RECORD
  5
1B
330
1
100
AcDbSymbolTableRecord
100
AcDbBlockTableRecord
  2
*Paper_Space
340
1E
  0
BLOCK_RECORD
  5
8F
330
1
100
AcDbSymbolTableRecord
100
AcDbBlockTableRecord
  2
_Open
340
0
102
{BLKREFS
331
EE6C
331
EE86
331
EE92
331
EE9E
331
EEB8
331
EEE0
331
EEFA
331
EF06
331
1259A
331
125A6
331
127ED
331
127FA
331
12825
331
EE6D
331
EE87
331
EE93
331
EE9F
331
EEB9
331
EEE1
331
EEFB
331
EF07
331
1259B
331
125A7
331
127EE
331
127FB
331
12826
331
EE7A
331
EEC6
331
EED4
331
EEEE
331
125B4
331
1265E
331
12809
331
12818
331
12834
331
12846
331
12855
331
12864
331
EE7B
331
EEC7
331
EED5
331
EEEF
331
125B5
331
1265F
331
1280A
331
12819
331
12835
331
12847
331
12856
331
12865
102
}
  0
BLOCK_RECORD
  5
82E2
330
1
100
AcDbSymbolTableRecord
100
AcDbBlockTableRecord
  2
hole-φ12
340
0
102
{BLKREFS
331
124FF
331
127A9
331
127AD
331
127B1
102
}
  0
BLOCK_RECORD
  5
82EB
330
1
100
AcDbSymbolTableRecord
100
AcDbBlockTableRecord
  2
hole-φ14
340
0
102
{BLKREFS
331
0
331
0
331
0
331
0
331
0
102
}
  0
BLOCK_RECORD
  5
EE66
330
1
100
AcDbSymbolTableRecord
100
AcDbBlockTableRecord
  2
*D1102
340
0
  0
BLOCK_RECORD
  5
EE72
330
1
100
AcDbSymbolTableRecord
100
AcDbBlockTableRecord
  2
*D1103
340
0
  0
BLOCK_RECORD
  5
EE80
330
1
100
AcDbSymbolTableRecord
100
AcDbBlockTableRecord
  2
*D1104
340
0
  0
BLOCK_RECORD
  5
EE8C
330
1
100
AcDbSymbolTableRecord
100
AcDbBlockTableRecord
  2
*D1105
340
0
  0
BLOCK_RECORD
  5
EE98
330
1
100
AcDbSymbolTableRecord
100
AcDbBlockTableRecord
  2
*D1106
340
0
  0
BLOCK_RECORD
  5
EEB2
330
1
100
AcDbSymbolTableRecord
100
AcDbBlockTableRecord
  2
*D1108
340
0
  0
BLOCK_RECORD
  5
EEBE
330
1
100
AcDbSymbolTableRecord
100
AcDbBlockTableRecord
  2
*D1109
340
0
  0
BLOCK_RECORD
  5
EECC
330
1
100
AcDbSymbolTableRecord
100
AcDbBlockTableRecord
  2
*D1110
340
0
  0
BLOCK_RECORD
  5
EEDA
330
1
100
AcDbSymbolTableRecord
100
AcDbBlockTableRecord
  2
*D1111
340
0
  0
BLOCK_RECORD
  5
EEE6
330
1
100
AcDbSymbolTableRecord
100
AcDbBlockTableRecord
  2
*D1112
340
0
  0
BLOCK_RECORD
  5
EEF4
330
1
100
AcDbSymbolTableRecord
100
AcDbBlockTableRecord
  2
*D1113
340
0
  0
BLOCK_RECORD
  5
EF00
330
1
100
AcDbSymbolTableRecord
100
AcDbBlockTableRecord
  2
*D1114
340
0
  0
BLOCK_RECORD
  5
11E63
330
1
100
AcDbSymbolTableRecord
100
AcDbBlockTableRecord
  2
シール(検査済)
340
0
102
{BLKREFS
331
0
102
}
  0
BLOCK_RECORD
  5
11E69
330
1
100
AcDbSymbolTableRecord
100
AcDbBlockTableRecord
  2
シール(型式)
340
0
102
{BLKREFS
331
0
102
}
  0
BLOCK_RECORD
  5
12594
330
1
100
AcDbSymbolTableRecord
100
AcDbBlockTableRecord
  2
*D1732
340
0
  0
BLOCK_RECORD
  5
125A0
330
1
100
AcDbSymbolTableRecord
100
AcDbBlockTableRecord
  2
*D1733
340
0
  0
BLOCK_RECORD
  5
125AC
330
1
100
AcDbSymbolTableRecord
100
AcDbBlockTableRecord
  2
*D1734
340
0
  0
BLOCK_RECORD
  5
12656
330
1
100
AcDbSymbolTableRecord
100
AcDbBlockTableRecord
  2
*D1742
340
0
  0
BLOCK_RECORD
  5
127E7
330
1
100
AcDbSymbolTableRecord
100
AcDbBlockTableRecord
  2
*D1747
340
0
  0
BLOCK_RECORD
  5
127F4
330
1
100
AcDbSymbolTableRecord
100
AcDbBlockTableRecord
  2
*D1748
340
0
  0
BLOCK_RECORD
  5
12801
330
1
100
AcDbSymbolTableRecord
100
AcDbBlockTableRecord
  2
*D1749
340
0
  0
BLOCK_RECORD
  5
12810
330
1
100
AcDbSymbolTableRecord
100
AcDbBlockTableRecord
  2
*D1750
340
0
  0
BLOCK_RECORD
  5
1281F
330
1
100
AcDbSymbolTableRecord
100
AcDbBlockTableRecord
  2
*D1751
340
0
  0
BLOCK_RECORD
  5
1282C
330
1
100
AcDbSymbolTableRecord
100
AcDbBlockTableRecord
  2
*D1752
340
0
  0
BLOCK_RECORD
  5
1283E
330
1
100
AcDbSymbolTableRecord
100
AcDbBlockTableRecord
  2
*D1753
340
0
  0
BLOCK_RECORD
  5
1284D
330
1
100
AcDbSymbolTableRecord
100
AcDbBlockTableRecord
  2
*D1754
340
0
  0
BLOCK_RECORD
  5
1285C
330
1
100
AcDbSymbolTableRecord
100
AcDbBlockTableRecord
  2
*D1755
340
0
  0
ENDTAB
  0
ENDSEC
  0
SECTION
  2
BLOCKS
  0
BLOCK
  5
20
330
1F
100
AcDbEntity
  8
0
100
AcDbBlockBegin
  2
*Model_Space
 70
     0
 10
0.0
 20
0.0
 30
0.0
  3
*Model_Space
  1

  0
ENDBLK
  5
21
330
1F
100
AcDbEntity
  8
0
100
AcDbBlockEnd
  0
BLOCK
  5
1C
330
1B
100
AcDbEntity
 67
     1
  8
0
100
AcDbBlockBegin
  2
*Paper_Space
 70
     0
 10
0.0
 20
0.0
 30
0.0
  3
*Paper_Space
  1

  0
ENDBLK
  5
1D
330
1B
100
AcDbEntity
 67
     1
  8
0
100
AcDbBlockEnd
  0
BLOCK
  5
93
330
8F
100
AcDbEntity
  8
0
100
AcDbBlockBegin
  2
_Open
 70
     0
 10
0.0
 20
0.0
 30
0.0
  3
_Open
  1

  0
LINE
  5
90
330
8F
100
AcDbEntity
  8
01注記寸法
 62
     0
370
    -2
100
AcDbLine
 10
-1.0
 20
0.1666666666666667
 30
0.0
 11
0.0
 21
0.0
 31
0.0
  0
LINE
  5
91
330
8F
100
AcDbEntity
  8
01注記寸法
 62
     0
370
    -2
100
AcDbLine
 10
-1.0
 20
-0.1666666666666667
 30
0.0
 11
0.0
 21
0.0
 31
0.0
  0
LINE
  5
92
330
8F
100
AcDbEntity
  8
01注記寸法
 62
     0
370
    -2
100
AcDbLine
 10
0.0
 20
0.0
 30
0.0
 11
-1.0
 21
0.0
 31
0.0
  0
ENDBLK
  5
94
330
8F
100
AcDbEntity
  8
0
100
AcDbBlockEnd
  0
BLOCK
  5
82E3
330
82E2
100
AcDbEntity
  8
0
100
AcDbBlockBegin
  2
hole-φ12
 70
     0
 10
0.0
 20
0.0
 30
0.0
  3
hole-φ12
  1

  0
CIRCLE
  5
82E4
330
82E2
100
AcDbEntity
  8
02実線
100
AcDbCircle
 10
0.0
 20
0.0
 30
0.0
 40
6.0
  0
LINE
  5
82E5
330
82E2
100
AcDbEntity
  8
04一点鎖線
  6
CENTER
 48
0.2
100
AcDbLine
 10
0.0
 20
-20.0
 30
0.0
 11
0.0
 21
20.0
 31
0.0
  0
LINE
  5
82E8
330
82E2
100
AcDbEntity
  8
04一点鎖線
  6
CENTER
 48
0.2
100
AcDbLine
 10
-20.0
 20
0.0
 30
0.0
 11
20.0
 21
0.0
 31
0.0
  0
ENDBLK
  5
82E9
330
82E2
100
AcDbEntity
  8
0
100
AcDbBlockEnd
  0
BLOCK
  5
82EC
330
82EB
100
AcDbEntity
  8
0
100
AcDbBlockBegin
  2
hole-φ14
 70
     0
 10
0.0
 20
0.0
 30
0.0
  3
hole-φ14
  1

  0
CIRCLE
  5
82ED
330
82EB
100
AcDbEntity
  8
02実線
100
AcDbCircle
 10
0.0
 20
0.0
 30
0.0
 40
7.0
  0
LINE
  5
82EE
330
82EB
100
AcDbEntity
  8
04一点鎖線
  6
CENTER
 48
0.2
100
AcDbLine
 10
0.0
 20
-20.0
 30
0.0
 11
0.0
 21
20.0
 31
0.0
  0
LINE
  5
82EF
330
82EB
100
AcDbEntity
  8
04一点鎖線
  6
CENTER
 48
0.2
100
AcDbLine
 10
-20.0
 20
0.0
 30
0.0
 11
20.0
 21
0.0
 31
0.0
  0
ENDBLK
  5
82F0
330
82EB
100
AcDbEntity
  8
0
100
AcDbBlockEnd
  0
BLOCK
  5
EE67
330
EE66
100
AcDbEntity
  8
0
100
AcDbBlockBegin
  2
*D1102
 70
     1
 10
0.0
 20
0.0
 30
0.0
  3
*D1102
  1

  0
LINE
  5
EE69
330
EE66
100
AcDbEntity
  8
01注記寸法
 62
     0
370
    -2
100
AcDbLine
 10
884.0
 20
1200.000000000001
 30
0.0
 11
739.0000000000003
 21
1200.000000000001
 31
0.0
  0
LINE
  5
EE6A
330
EE66
100
AcDbEntity
  8
01注記寸法
 62
     0
370
    -2
100
AcDbLine
 10
834.0000000000003
 20
1400.000000000001
 30
0.0
 11
739.0000000000003
 21
1400.000000000001
 31
0.0
  0
LINE
  5
EE6B
330
EE66
100
AcDbEntity
  8
01注記寸法
 62
     0
370
    -2
100
AcDbLine
 10
749.0000000000003
 20
1230.000000000001
 30
0.0
 11
749.0000000000003
 21
1370.000000000001
 31
0.0
  0
INSERT
  5
EE6C
330
EE66
100
AcDbEntity
  8
01注記寸法
 62
     0
370
    -2
100
AcDbBlockReference
  2
_Open
 10
749.0000000000003
 20
1200.000000000001
 30
0.0
 41
30.0
 42
30.0
 43
30.0
 50
270.0
  0
INSERT
  5
EE6D
330
EE66
100
AcDbEntity
  8
01注記寸法
 62
     0
370
    -2
100
AcDbBlockReference
  2
_Open
 10
749.0000000000003
 20
1400.000000000001
 30
0.0
 41
30.0
 42
30.0
 43
30.0
 50
90.0
  0
MTEXT
  5
EE6E
330
EE66
100
AcDbEntity
  8
01注記寸法
 62
     0
100
AcDbMText
 10
723.9943728898339
 20
1300.000000000001
 30
0.0
 40
30.0
 41
0.0
 71
     5
 72
     1
  1
200
 11
0.0
 21
1.0
 31
0.0
 73
     1
 44
1.0
  0
POINT
  5
EE6F
330
EE66
100
AcDbEntity
  8
Defpoints
 62
     0
100
AcDbPoint
 10
899.0
 20
1200.000000000001
 30
0.0
  0
POINT
  5
EE70
330
EE66
100
AcDbEntity
  8
Defpoints
 62
     0
100
AcDbPoint
 10
849.0000000000003
 20
1400.000000000001
 30
0.0
  0
POINT
  5
EE71
330
EE66
100
AcDbEntity
  8
Defpoints
 62
     0
100
AcDbPoint
 10
749.0000000000003
 20
1400.000000000001
 30
0.0
  0
ENDBLK
  5
EE68
330
EE66
100
AcDbEntity
  8
0
100
AcDbBlockEnd
  0
BLOCK
  5
EE73
330
EE72
100
AcDbEntity
  8
0
100
AcDbBlockBegin
  2
*D1103
 70
     1
 10
0.0
 20
0.0
 30
0.0
  3
*D1103
  1

  0
LINE
  5
EE75
330
EE72
100
AcDbEntity
  8
01注記寸法
 62
     0
370
    -2
100
AcDbLine
 10
834.0000000000003
 20
1400.000000000001
 30
0.0
 11
739.0000000000003
 21
1400.000000000001
 31
0.0
  0
LINE
  5
EE76
330
EE72
100
AcDbEntity
  8
01注記寸法
 62
     0
370
    -2
100
AcDbLine
 10
834.0000000000003
 20
1410.000000000001
 30
0.0
 11
739.0000000000003
 21
1410.000000000001
 31
0.0
  0
LINE
  5
EE77
330
EE72
100
AcDbEntity
  8
01注記寸法
 62
     0
370
    -2
100
AcDbLine
 10
749.0000000000003
 20
1440.000000000001
 30
0.0
 11
749.0000000000003
 21
1545.453763911468
 31
0.0
  0
LINE
  5
EE78
330
EE72
100
AcDbEntity
  8
01注記寸法
 62
     0
370
    -2
100
AcDbLine
 10
749.0000000000003
 20
1400.000000000001
 30
0.0
 11
749.0000000000003
 21
1410.000000000001
 31
0.0
  0
LINE
  5
EE79
330
EE72
100
AcDbEntity
  8
01注記寸法
 62
     0
370
    -2
100
AcDbLine
 10
749.0000000000003
 20
1370.000000000001
 30
0.0
 11
749.0000000000003
 21
1340.000000000001
 31
0.0
  0
INSERT
  5
EE7A
330
EE72
100
AcDbEntity
  8
01注記寸法
 62
     0
370
    -2
100
AcDbBlockReference
  2
_Open
 10
749.0000000000003
 20
1400.000000000001
 30
0.0
 41
30.0
 42
30.0
 43
30.0
 50
90.0
  0
INSERT
  5
EE7B
330
EE72
100
AcDbEntity
  8
01注記寸法
 62
     0
370
    -2
100
AcDbBlockReference
  2
_Open
 10
749.0000000000003
 20
1410.000000000001
 30
0.0
 41
30.0
 42
30.0
 43
30.0
 50
270.0
  0
MTEXT
  5
EE7C
330
EE72
100
AcDbEntity
  8
01注記寸法
 62
     0
100
AcDbMText
 10
723.9943728898339
 20
1507.726881955734
 30
0.0
 40
30.0
 41
0.0
 71
     5
 72
     1
  1
t10
 11
0.0
 21
1.0
 31
0.0
 73
     1
 44
1.0
  0
POINT
  5
EE7D
330
EE72
100
AcDbEntity
  8
Defpoints
 62
     0
100
AcDbPoint
 10
849.0000000000003
 20
1400.000000000001
 30
0.0
  0
POINT
  5
EE7E
330
EE72
100
AcDbEntity
  8
Defpoints
 62
     0
100
AcDbPoint
 10
849.0000000000003
 20
1410.000000000001
 30
0.0
  0
POINT
  5
EE7F
330
EE72
100
AcDbEntity
  8
Defpoints
 62
     0
100
AcDbPoint
 10
749.0000000000003
 20
1410.000000000001
 30
0.0
  0
ENDBLK
  5
EE74
330
EE72
100
AcDbEntity
  8
0
100
AcDbBlockEnd
  0
BLOCK
  5
EE81
330
EE80
100
AcDbEntity
  8
0
100
AcDbBlockBegin
  2
*D1104
 70
     1
 10
0.0
 20
0.0
 30
0.0
  3
*D1104
  1

  0
LINE
  5
EE83
330
EE80
100
AcDbEntity
  8
08非表示
 62
     0
370
    -2
100
AcDbLine
 10
2291.0
 20
1425.000000000001
 30
0.0
 11
2291.0
 21
1510.000000000001
 31
0.0
  0
LINE
  5
EE84
330
EE80
100
AcDbEntity
  8
08非表示
 62
     0
370
    -2
100
AcDbLine
 10
2751.0
 20
1425.000000000001
 30
0.0
 11
2751.0
 21
1510.000000000001
 31
0.0
  0
LINE
  5
EE85
330
EE80
100
AcDbEntity
  8
08非表示
 62
     0
370
    -2
100
AcDbLine
 10
2321.0
 20
1500.000000000001
 30
0.0
 11
2721.0
 21
1500.000000000001
 31
0.0
  0
INSERT
  5
EE86
330
EE80
100
AcDbEntity
  8
08非表示
 62
     0
370
    -2
100
AcDbBlockReference
  2
_Open
 10
2291.0
 20
1500.000000000001
 30
0.0
 41
30.0
 42
30.0
 43
30.0
 50
180.0
  0
INSERT
  5
EE87
330
EE80
100
AcDbEntity
  8
08非表示
 62
     0
370
    -2
100
AcDbBlockReference
  2
_Open
 10
2751.0
 20
1500.000000000001
 30
0.0
 41
30.0
 42
30.0
 43
30.0
  0
MTEXT
  5
EE88
330
EE80
100
AcDbEntity
  8
08非表示
 62
     0
100
AcDbMText
 10
2521.0
 20
1525.000000000001
 30
0.0
 40
30.0
 41
0.0
 71
     5
 72
     1
  1
460
 73
     1
 44
1.0
  0
POINT
  5
EE89
330
EE80
100
AcDbEntity
  8
Defpoints
 62
     0
100
AcDbPoint
 10
2291.0
 20
1410.000000000001
 30
0.0
  0
POINT
  5
EE8A
330
EE80
100
AcDbEntity
  8
Defpoints
 62
     0
100
AcDbPoint
 10
2751.0
 20
1410.000000000001
 30
0.0
  0
POINT
  5
EE8B
330
EE80
100
AcDbEntity
  8
Defpoints
 62
     0
100
AcDbPoint
 10
2751.0
 20
1500.000000000001
 30
0.0
  0
ENDBLK
  5
EE82
330
EE80
100
AcDbEntity
  8
0
100
AcDbBlockEnd
  0
BLOCK
  5
EE8D
330
EE8C
100
AcDbEntity
  8
0
100
AcDbBlockBegin
  2
*D1105
 70
     1
 10
0.0
 20
0.0
 30
0.0
  3
*D1105
  1

  0
LINE
  5
EE8F
330
EE8C
100
AcDbEntity
  8
01注記寸法
 62
     0
370
    -2
100
AcDbLine
 10
884.0
 20
2010.000000000001
 30
0.0
 11
639.0
 21
2010.000000000001
 31
0.0
  0
LINE
  5
EE90
330
EE8C
100
AcDbEntity
  8
01注記寸法
 62
     0
370
    -2
100
AcDbLine
 10
884.0
 20
2470.0
 30
0.0
 11
639.0
 21
2470.0
 31
0.0
  0
LINE
  5
EE91
330
EE8C
100
AcDbEntity
  8
01注記寸法
 62
     0
370
    -2
100
AcDbLine
 10
649.0
 20
2040.000000000001
 30
0.0
 11
649.0
 21
2440.0
 31
0.0
  0
INSERT
  5
EE92
330
EE8C
100
AcDbEntity
  8
01注記寸法
 62
     0
370
    -2
100
AcDbBlockReference
  2
_Open
 10
649.0
 20
2010.000000000001
 30
0.0
 41
30.0
 42
30.0
 43
30.0
 50
270.0
  0
INSERT
  5
EE93
330
EE8C
100
AcDbEntity
  8
01注記寸法
 62
     0
370
    -2
100
AcDbBlockReference
  2
_Open
 10
649.0
 20
2470.0
 30
0.0
 41
30.0
 42
30.0
 43
30.0
 50
90.0
  0
MTEXT
  5
EE94
330
EE8C
100
AcDbEntity
  8
01注記寸法
 62
     0
100
AcDbMText
 10
624.0
 20
2240.000000000001
 30
0.0
 40
30.0
 41
0.0
 71
     5
 72
     1
  1
460
 11
0.0
 21
1.0
 31
0.0
 73
     1
 44
1.0
  0
POINT
  5
EE95
330
EE8C
100
AcDbEntity
  8
Defpoints
 62
     0
100
AcDbPoint
 10
899.0
 20
2010.000000000001
 30
0.0
  0
POINT
  5
EE96
330
EE8C
100
AcDbEntity
  8
Defpoints
 62
     0
100
AcDbPoint
 10
899.0
 20
2470.0
 30
0.0
  0
POINT
  5
EE97
330
EE8C
100
AcDbEntity
  8
Defpoints
 62
     0
100
AcDbPoint
 10
649.0
 20
2470.0
 30
0.0
  0
ENDBLK
  5
EE8E
330
EE8C
100
AcDbEntity
  8
0
100
AcDbBlockEnd
  0
BLOCK
  5
EE99
330
EE98
100
AcDbEntity
  8
0
100
AcDbBlockBegin
  2
*D1106
 70
     1
 10
0.0
 20
0.0
 30
0.0
  3
*D1106
  1

  0
LINE
  5
EE9B
330
EE98
100
AcDbEntity
  8
01注記寸法
 62
     0
370
    -2
100
AcDbLine
 10
873.0
 20
2425.0
 30
0.0
 11
873.0
 21
2680.0
 31
0.0
  0
LINE
  5
EE9C
330
EE98
100
AcDbEntity
  8
01注記寸法
 62
     0
370
    -2
100
AcDbLine
 10
1667.0
 20
2425.000000000002
 30
0.0
 11
1667.0
 21
2680.0
 31
0.0
  0
LINE
  5
EE9D
330
EE98
100
AcDbEntity
  8
01注記寸法
 62
     0
370
    -2
100
AcDbLine
 10
903.0
 20
2670.0
 30
0.0
 11
1637.0
 21
2670.0
 31
0.0
  0
INSERT
  5
EE9E
330
EE98
100
AcDbEntity
  8
01注記寸法
 62
     0
370
    -2
100
AcDbBlockReference
  2
_Open
 10
873.0
 20
2670.0
 30
0.0
 41
30.0
 42
30.0
 43
30.0
 50
180.0
  0
INSERT
  5
EE9F
330
EE98
100
AcDbEntity
  8
01注記寸法
 62
     0
370
    -2
100
AcDbBlockReference
  2
_Open
 10
1667.0
 20
2670.0
 30
0.0
 41
30.0
 42
30.0
 43
30.0
  0
MTEXT
  5
EEA0
330
EE98
100
AcDbEntity
  8
01注記寸法
 62
     0
100
AcDbMText
 10
1270.0
 20
2695.005627110167
 30
0.0
 40
30.0
 41
0.0
 71
     5
 72
     1
  1
794
 73
     1
 44
1.0
  0
POINT
  5
EEA1
330
EE98
100
AcDbEntity
  8
Defpoints
 62
     0
100
AcDbPoint
 10
873.0
 20
2410.0
 30
0.0
  0
POINT
  5
EEA2
330
EE98
100
AcDbEntity
  8
Defpoints
 62
     0
100
AcDbPoint
 10
1667.0
 20
2410.000000000002
 30
0.0
  0
POINT
  5
EEA3
330
EE98
100
AcDbEntity
  8
Defpoints
 62
     0
100
AcDbPoint
 10
1667.0
 20
2670.0
 30
0.0
  0
ENDBLK
  5
EE9A
330
EE98
100
AcDbEntity
  8
0
100
AcDbBlockEnd
  0
BLOCK
  5
EEB3
330
EEB2
100
AcDbEntity
  8
0
100
AcDbBlockBegin
  2
*D1108
 70
     1
 10
0.0
 20
0.0
 30
0.0
  3
*D1108
  1

  0
LINE
  5
EEB5
330
EEB2
100
AcDbEntity
  8
01注記寸法
 62
     0
370
    -2
100
AcDbLine
 10
969.0
 20
329.9999999999989
 30
0.0
 11
819.0
 21
329.9999999999989
 31
0.0
  0
LINE
  5
EEB6
330
EEB2
100
AcDbEntity
  8
01注記寸法
 62
     0
370
    -2
100
AcDbLine
 10
969.0
 20
729.9999999999989
 30
0.0
 11
819.0
 21
729.9999999999989
 31
0.0
  0
LINE
  5
EEB7
330
EEB2
100
AcDbEntity
  8
01注記寸法
 62
     0
370
    -2
100
AcDbLine
 10
829.0
 20
359.9999999999989
 30
0.0
 11
829.0
 21
699.9999999999989
 31
0.0
  0
INSERT
  5
EEB8
330
EEB2
100
AcDbEntity
  8
01注記寸法
 62
     0
370
    -2
100
AcDbBlockReference
  2
_Open
 10
829.0
 20
329.9999999999989
 30
0.0
 41
30.0
 42
30.0
 43
30.0
 50
270.0
  0
INSERT
  5
EEB9
330
EEB2
100
AcDbEntity
  8
01注記寸法
 62
     0
370
    -2
100
AcDbBlockReference
  2
_Open
 10
829.0
 20
729.9999999999989
 30
0.0
 41
30.0
 42
30.0
 43
30.0
 50
90.0
  0
MTEXT
  5
EEBA
330
EEB2
100
AcDbEntity
  8
01注記寸法
 62
     0
100
AcDbMText
 10
804.0
 20
529.9999999999989
 30
0.0
 40
30.0
 41
0.0
 71
     5
 72
     1
  1
400
 11
0.0
 21
1.0
 31
0.0
 73
     1
 44
1.0
  0
POINT
  5
EEBB
330
EEB2
100
AcDbEntity
  8
Defpoints
 62
     0
100
AcDbPoint
 10
984.0
 20
329.9999999999989
 30
0.0
  0
POINT
  5
EEBC
330
EEB2
100
AcDbEntity
  8
Defpoints
 62
     0
100
AcDbPoint
 10
984.0
 20
729.9999999999989
 30
0.0
  0
POINT
  5
EEBD
330
EEB2
100
AcDbEntity
  8
Defpoints
 62
     0
100
AcDbPoint
 10
829.0
 20
729.9999999999989
 30
0.0
  0
ENDBLK
  5
EEB4
330
EEB2
100
AcDbEntity
  8
0
100
AcDbBlockEnd
  0
BLOCK
  5
EEBF
330
EEBE
100
AcDbEntity
  8
0
100
AcDbBlockBegin
  2
*D1109
 70
     1
 10
0.0
 20
0.0
 30
0.0
  3
*D1109
  1

  0
LINE
  5
EEC1
330
EEBE
100
AcDbEntity
  8
01注記寸法
 62
     0
370
    -2
100
AcDbLine
 10
969.0
 20
729.9999999999989
 30
0.0
 11
819.0
 21
729.9999999999989
 31
0.0
  0
LINE
  5
EEC2
330
EEBE
100
AcDbEntity
  8
01注記寸法
 62
     0
370
    -2
100
AcDbLine
 10
914.0
 20
759.9999999999989
 30
0.0
 11
819.0
 21
759.9999999999989
 31
0.0
  0
LINE
  5
EEC3
330
EEBE
100
AcDbEntity
  8
01注記寸法
 62
     0
370
    -2
100
AcDbLine
 10
829.0
 20
789.9999999999989
 30
0.0
 11
829.0
 21
875.7963923971479
 31
0.0
  0
LINE
  5
EEC4
330
EEBE
100
AcDbEntity
  8
01注記寸法
 62
     0
370
    -2
100
AcDbLine
 10
829.0
 20
729.9999999999989
 30
0.0
 11
829.0
 21
759.9999999999989
 31
0.0
  0
LINE
  5
EEC5
330
EEBE
100
AcDbEntity
  8
01注記寸法
 62
     0
370
    -2
100
AcDbLine
 10
829.0
 20
699.9999999999989
 30
0.0
 11
829.0
 21
669.9999999999989
 31
0.0
  0
INSERT
  5
EEC6
330
EEBE
100
AcDbEntity
  8
01注記寸法
 62
     0
370
    -2
100
AcDbBlockReference
  2
_Open
 10
829.0
 20
729.9999999999989
 30
0.0
 41
30.0
 42
30.0
 43
30.0
 50
90.0
  0
INSERT
  5
EEC7
330
EEBE
100
AcDbEntity
  8
01注記寸法
 62
     0
370
    -2
100
AcDbBlockReference
  2
_Open
 10
829.0
 20
759.9999999999989
 30
0.0
 41
30.0
 42
30.0
 43
30.0
 50
270.0
  0
MTEXT
  5
EEC8
330
EEBE
100
AcDbEntity
  8
01注記寸法
 62
     0
100
AcDbMText
 10
803.9943728898337
 20
847.8981961985734
 30
0.0
 40
30.0
 41
0.0
 71
     5
 72
     1
  1
30
 11
0.0
 21
1.0
 31
0.0
 73
     1
 44
1.0
  0
POINT
  5
EEC9
330
EEBE
100
AcDbEntity
  8
Defpoints
 62
     0
100
AcDbPoint
 10
984.0
 20
729.9999999999989
 30
0.0
  0
POINT
  5
EECA
330
EEBE
100
AcDbEntity
  8
Defpoints
 62
     0
100
AcDbPoint
 10
929.0
 20
759.9999999999989
 30
0.0
  0
POINT
  5
EECB
330
EEBE
100
AcDbEntity
  8
Defpoints
 62
     0
100
AcDbPoint
 10
829.0
 20
759.9999999999989
 30
0.0
  0
ENDBLK
  5
EEC0
330
EEBE
100
AcDbEntity
  8
0
100
AcDbBlockEnd
  0
BLOCK
  5
EECD
330
EECC
100
AcDbEntity
  8
0
100
AcDbBlockBegin
  2
*D1110
 70
     1
 10
0.0
 20
0.0
 30
0.0
  3
*D1110
  1

  0
LINE
  5
EECF
330
EECC
100
AcDbEntity
  8
01注記寸法
 62
     0
370
    -2
100
AcDbLine
 10
929.0
 20
774.9999999999989
 30
0.0
 11
929.0
 21
869.9999999999989
 31
0.0
  0
LINE
  5
EED0
330
EECC
100
AcDbEntity
  8
01注記寸法
 62
     0
370
    -2
100
AcDbLine
 10
1004.0
 20
764.9999999999989
 30
0.0
 11
1004.0
 21
869.9999999999989
 31
0.0
  0
LINE
  5
EED1
330
EECC
100
AcDbEntity
  8
01注記寸法
 62
     0
370
    -2
100
AcDbLine
 10
929.0
 20
859.9999999999989
 30
0.0
 11
1004.0
 21
859.9999999999989
 31
0.0
  0
LINE
  5
EED2
330
EECC
100
AcDbEntity
  8
01注記寸法
 62
     0
370
    -2
100
AcDbLine
 10
899.0
 20
859.9999999999989
 30
0.0
 11
869.0
 21
859.9999999999989
 31
0.0
  0
LINE
  5
EED3
330
EECC
100
AcDbEntity
  8
01注記寸法
 62
     0
370
    -2
100
AcDbLine
 10
1034.0
 20
859.9999999999989
 30
0.0
 11
1064.0
 21
859.9999999999989
 31
0.0
  0
INSERT
  5
EED4
330
EECC
100
AcDbEntity
  8
01注記寸法
 62
     0
370
    -2
100
AcDbBlockReference
  2
_Open
 10
929.0
 20
859.9999999999989
 30
0.0
 41
30.0
 42
30.0
 43
30.0
  0
INSERT
  5
EED5
330
EECC
100
AcDbEntity
  8
01注記寸法
 62
     0
370
    -2
100
AcDbBlockReference
  2
_Open
 10
1004.0
 20
859.9999999999989
 30
0.0
 41
30.0
 42
30.0
 43
30.0
 50
180.0
  0
MTEXT
  5
EED6
330
EECC
100
AcDbEntity
  8
01注記寸法
 62
     0
100
AcDbMText
 10
966.5
 20
885.0056271101652
 30
0.0
 40
30.0
 41
0.0
 71
     5
 72
     1
  1
75
 73
     1
 44
1.0
  0
POINT
  5
EED7
330
EECC
100
AcDbEntity
  8
Defpoints
 62
     0
100
AcDbPoint
 10
929.0
 20
759.9999999999989
 30
0.0
  0
POINT
  5
EED8
330
EECC
100
AcDbEntity
  8
Defpoints
 62
     0
100
AcDbPoint
 10
1004.0
 20
749.9999999999989
 30
0.0
  0
POINT
  5
EED9
330
EECC
100
AcDbEntity
  8
Defpoints
 62
     0
100
AcDbPoint
 10
1004.0
 20
859.9999999999989
 30
0.0
  0
ENDBLK
  5
EECE
330
EECC
100
AcDbEntity
  8
0
100
AcDbBlockEnd
  0
BLOCK
  5
EEDB
330
EEDA
100
AcDbEntity
  8
0
100
AcDbBlockBegin
  2
*D1111
 70
     1
 10
0.0
 20
0.0
 30
0.0
  3
*D1111
  1

  0
LINE
  5
EEDD
330
EEDA
100
AcDbEntity
  8
01注記寸法
 62
     0
370
    -2
100
AcDbLine
 10
1004.0
 20
764.9999999999989
 30
0.0
 11
1004.0
 21
869.9999999999989
 31
0.0
  0
LINE
  5
EEDE
330
EEDA
100
AcDbEntity
  8
01注記寸法
 62
     0
370
    -2
100
AcDbLine
 10
1596.0
 20
764.9999999999989
 30
0.0
 11
1596.0
 21
869.9999999999989
 31
0.0
  0
LINE
  5
EEDF
330
EEDA
100
AcDbEntity
  8
01注記寸法
 62
     0
370
    -2
100
AcDbLine
 10
1034.0
 20
859.9999999999989
 30
0.0
 11
1566.0
 21
859.9999999999989
 31
0.0
  0
INSERT
  5
EEE0
330
EEDA
100
AcDbEntity
  8
01注記寸法
 62
     0
370
    -2
100
AcDbBlockReference
  2
_Open
 10
1004.0
 20
859.9999999999989
 30
0.0
 41
30.0
 42
30.0
 43
30.0
 50
180.0
  0
INSERT
  5
EEE1
330
EEDA
100
AcDbEntity
  8
01注記寸法
 62
     0
370
    -2
100
AcDbBlockReference
  2
_Open
 10
1596.0
 20
859.9999999999989
 30
0.0
 41
30.0
 42
30.0
 43
30.0
  0
MTEXT
  5
EEE2
330
EEDA
100
AcDbEntity
  8
01注記寸法
 62
     0
100
AcDbMText
 10
1300.0
 20
885.0056271101652
 30
0.0
 40
30.0
 41
0.0
 71
     5
 72
     1
  1
592
 73
     1
 44
1.0
  0
POINT
  5
EEE3
330
EEDA
100
AcDbEntity
  8
Defpoints
 62
     0
100
AcDbPoint
 10
1004.0
 20
749.9999999999989
 30
0.0
  0
POINT
  5
EEE4
330
EEDA
100
AcDbEntity
  8
Defpoints
 62
     0
100
AcDbPoint
 10
1596.0
 20
749.9999999999989
 30
0.0
  0
POINT
  5
EEE5
330
EEDA
100
AcDbEntity
  8
Defpoints
 62
     0
100
AcDbPoint
 10
1596.0
 20
859.9999999999989
 30
0.0
  0
ENDBLK
  5
EEDC
330
EEDA
100
AcDbEntity
  8
0
100
AcDbBlockEnd
  0
BLOCK
  5
EEE7
330
EEE6
100
AcDbEntity
  8
0
100
AcDbBlockBegin
  2
*D1112
 70
     1
 10
0.0
 20
0.0
 30
0.0
  3
*D1112
  1

  0
LINE
  5
EEE9
330
EEE6
100
AcDbEntity
  8
01注記寸法
 62
     0
370
    -2
100
AcDbLine
 10
1596.0
 20
764.9999999999989
 30
0.0
 11
1596.0
 21
869.9999999999989
 31
0.0
  0
LINE
  5
EEEA
330
EEE6
100
AcDbEntity
  8
01注記寸法
 62
     0
370
    -2
100
AcDbLine
 10
1671.0
 20
774.9999999999989
 30
0.0
 11
1671.0
 21
869.9999999999989
 31
0.0
  0
LINE
  5
EEEB
330
EEE6
100
AcDbEntity
  8
01注記寸法
 62
     0
370
    -2
100
AcDbLine
 10
1596.0
 20
859.9999999999989
 30
0.0
 11
1671.0
 21
859.9999999999989
 31
0.0
  0
LINE
  5
EEEC
330
EEE6
100
AcDbEntity
  8
01注記寸法
 62
     0
370
    -2
100
AcDbLine
 10
1566.0
 20
859.9999999999989
 30
0.0
 11
1536.0
 21
859.9999999999989
 31
0.0
  0
LINE
  5
EEED
330
EEE6
100
AcDbEntity
  8
01注記寸法
 62
     0
370
    -2
100
AcDbLine
 10
1701.0
 20
859.9999999999989
 30
0.0
 11
1731.0
 21
859.9999999999989
 31
0.0
  0
INSERT
  5
EEEE
330
EEE6
100
AcDbEntity
  8
01注記寸法
 62
     0
370
    -2
100
AcDbBlockReference
  2
_Open
 10
1596.0
 20
859.9999999999989
 30
0.0
 41
30.0
 42
30.0
 43
30.0
  0
INSERT
  5
EEEF
330
EEE6
100
AcDbEntity
  8
01注記寸法
 62
     0
370
    -2
100
AcDbBlockReference
  2
_Open
 10
1671.0
 20
859.9999999999989
 30
0.0
 41
30.0
 42
30.0
 43
30.0
 50
180.0
  0
MTEXT
  5
EEF0
330
EEE6
100
AcDbEntity
  8
01注記寸法
 62
     0
100
AcDbMText
 10
1633.5
 20
885.0056271101652
 30
0.0
 40
30.0
 41
0.0
 71
     5
 72
     1
  1
75
 73
     1
 44
1.0
  0
POINT
  5
EEF1
330
EEE6
100
AcDbEntity
  8
Defpoints
 62
     0
100
AcDbPoint
 10
1596.0
 20
749.9999999999989
 30
0.0
  0
POINT
  5
EEF2
330
EEE6
100
AcDbEntity
  8
Defpoints
 62
     0
100
AcDbPoint
 10
1671.0
 20
759.9999999999989
 30
0.0
  0
POINT
  5
EEF3
330
EEE6
100
AcDbEntity
  8
Defpoints
 62
     0
100
AcDbPoint
 10
1671.0
 20
859.9999999999989
 30
0.0
  0
ENDBLK
  5
EEE8
330
EEE6
100
AcDbEntity
  8
0
100
AcDbBlockEnd
  0
BLOCK
  5
EEF5
330
EEF4
100
AcDbEntity
  8
0
100
AcDbBlockBegin
  2
*D1113
 70
     1
 10
0.0
 20
0.0
 30
0.0
  3
*D1113
  1

  0
LINE
  5
EEF7
330
EEF4
100
AcDbEntity
  8
08非表示
 62
     0
370
    -2
100
AcDbLine
 10
914.0
 20
299.9999999999989
 30
0.0
 11
719.0
 21
299.9999999999989
 31
0.0
  0
LINE
  5
EEF8
330
EEF4
100
AcDbEntity
  8
08非表示
 62
     0
370
    -2
100
AcDbLine
 10
914.0
 20
759.9999999999989
 30
0.0
 11
719.0
 21
759.9999999999989
 31
0.0
  0
LINE
  5
EEF9
330
EEF4
100
AcDbEntity
  8
08非表示
 62
     0
370
    -2
100
AcDbLine
 10
729.0
 20
329.9999999999989
 30
0.0
 11
729.0
 21
729.9999999999989
 31
0.0
  0
INSERT
  5
EEFA
330
EEF4
100
AcDbEntity
  8
08非表示
 62
     0
370
    -2
100
AcDbBlockReference
  2
_Open
 10
729.0
 20
299.9999999999989
 30
0.0
 41
30.0
 42
30.0
 43
30.0
 50
270.0
  0
INSERT
  5
EEFB
330
EEF4
100
AcDbEntity
  8
08非表示
 62
     0
370
    -2
100
AcDbBlockReference
  2
_Open
 10
729.0
 20
759.9999999999989
 30
0.0
 41
30.0
 42
30.0
 43
30.0
 50
90.0
  0
MTEXT
  5
EEFC
330
EEF4
100
AcDbEntity
  8
08非表示
 62
     0
100
AcDbMText
 10
704.0
 20
529.9999999999989
 30
0.0
 40
30.0
 41
0.0
 71
     5
 72
     1
  1
460
 11
0.0
 21
1.0
 31
0.0
 73
     1
 44
1.0
  0
POINT
  5
EEFD
330
EEF4
100
AcDbEntity
  8
Defpoints
 62
     0
100
AcDbPoint
 10
929.0
 20
299.9999999999989
 30
0.0
  0
POINT
  5
EEFE
330
EEF4
100
AcDbEntity
  8
Defpoints
 62
     0
100
AcDbPoint
 10
929.0
 20
759.9999999999989
 30
0.0
  0
POINT
  5
EEFF
330
EEF4
100
AcDbEntity
  8
Defpoints
 62
     0
100
AcDbPoint
 10
729.0
 20
759.9999999999989
 30
0.0
  0
ENDBLK
  5
EEF6
330
EEF4
100
AcDbEntity
  8
0
100
AcDbBlockEnd
  0
BLOCK
  5
EF01
330
EF00
100
AcDbEntity
  8
0
100
AcDbBlockBegin
  2
*D1114
 70
     1
 10
0.0
 20
0.0
 30
0.0
  3
*D1114
  1

  0
LINE
  5
EF03
330
EF00
100
AcDbEntity
  8
08非表示
 62
     0
370
    -2
100
AcDbLine
 10
929.0
 20
774.9999999999989
 30
0.0
 11
929.0
 21
969.9999999999989
 31
0.0
  0
LINE
  5
EF04
330
EF00
100
AcDbEntity
  8
08非表示
 62
     0
370
    -2
100
AcDbLine
 10
1671.0
 20
774.9999999999989
 30
0.0
 11
1671.0
 21
969.9999999999989
 31
0.0
  0
LINE
  5
EF05
330
EF00
100
AcDbEntity
  8
08非表示
 62
     0
370
    -2
100
AcDbLine
 10
959.0
 20
959.9999999999989
 30
0.0
 11
1641.0
 21
959.9999999999989
 31
0.0
  0
INSERT
  5
EF06
330
EF00
100
AcDbEntity
  8
08非表示
 62
     0
370
    -2
100
AcDbBlockReference
  2
_Open
 10
929.0
 20
959.9999999999989
 30
0.0
 41
30.0
 42
30.0
 43
30.0
 50
180.0
  0
INSERT
  5
EF07
330
EF00
100
AcDbEntity
  8
08非表示
 62
     0
370
    -2
100
AcDbBlockReference
  2
_Open
 10
1671.0
 20
959.9999999999989
 30
0.0
 41
30.0
 42
30.0
 43
30.0
  0
MTEXT
  5
EF08
330
EF00
100
AcDbEntity
  8
08非表示
 62
     0
100
AcDbMText
 10
1300.0
 20
985.0056271101652
 30
0.0
 40
30.0
 41
0.0
 71
     5
 72
     1
  1
742
 73
     1
 44
1.0
  0
POINT
  5
EF09
330
EF00
100
AcDbEntity
  8
Defpoints
 62
     0
100
AcDbPoint
 10
929.0
 20
759.9999999999989
 30
0.0
  0
POINT
  5
EF0A
330
EF00
100
AcDbEntity
  8
Defpoints
 62
     0
100
AcDbPoint
 10
1671.0
 20
759.9999999999989
 30
0.0
  0
POINT
  5
EF0B
330
EF00
100
AcDbEntity
  8
Defpoints
 62
     0
100
AcDbPoint
 10
1671.0
 20
959.9999999999989
 30
0.0
  0
ENDBLK
  5
EF02
330
EF00
100
AcDbEntity
  8
0
100
AcDbBlockEnd
  0
BLOCK
  5
11E66
330
11E63
100
AcDbEntity
  8
0
100
AcDbBlockBegin
  2
シール(検査済)
 70
     0
 10
0.0
 20
0.0
 30
0.0
  3
シール(検査済)
  1

  0
LWPOLYLINE
  5
11E64
330
11E63
100
AcDbEntity
  8
07その他
100
AcDbPolyline
 90
        4
 70
     1
 43
0.0
 10
0.0
 20
0.0
 10
0.0
 20
25.0
 10
75.0
 20
25.0
 10
75.0
 20
0.0
  0
TEXT
  5
11E65
330
11E63
100
AcDbEntity
  8
08非表示
100
AcDbText
 10
8.25
 20
5.0
 30
0.0
 40
15.0
  1
検査済
 72
     1
 11
37.5
 21
12.5
 31
0.0
100
AcDbText
 73
     2
  0
ENDBLK
  5
11E67
330
11E63
100
AcDbEntity
  8
0
100
AcDbBlockEnd
  0
BLOCK
  5
11E6C
330
11E69
100
AcDbEntity
  8
0
100
AcDbBlockBegin
  2
シール(型式)
 70
     0
 10
0.0
 20
0.0
 30
0.0
  3
シール(型式)
  1

  0
LWPOLYLINE
  5
11E6A
330
11E69
100
AcDbEntity
  8
07その他
100
AcDbPolyline
 90
        4
 70
     1
 43
0.0
 10
0.0
 20
0.0
 10
0.0
 20
24.0
 10
94.0
 20
24.0
 10
94.0
 20
0.0
  0
TEXT
  5
11E6B
330
11E69
100
AcDbEntity
  8
08非表示
100
AcDbText
 10
27.5
 20
5.0
 30
0.0
 40
15.0
  1
型式
 72
     1
 11
47.0
 21
12.5
 31
0.0
100
AcDbText
 73
     2
  0
ENDBLK
  5
11E6D
330
11E69
100
AcDbEntity
  8
0
100
AcDbBlockEnd
  0
BLOCK
  5
12595
330
12594
100
AcDbEntity
  8
0
100
AcDbBlockBegin
  2
*D1732
 70
     1
 10
0.0
 20
0.0
 30
0.0
  3
*D1732
  1

  0
LINE
  5
12597
330
12594
100
AcDbEntity
  8
01注記寸法
 62
     0
370
    -2
100
AcDbLine
 10
2750.000000000001
 20
550.0000000000009
 30
0.0
 11
2750.000000000001
 21
645.0000000000009
 31
0.0
  0
LINE
  5
12598
330
12594
100
AcDbEntity
  8
01注記寸法
 62
     0
370
    -2
100
AcDbLine
 10
2975.000000000001
 20
520.0000000000005
 30
0.0
 11
2975.000000000001
 21
645.0000000000009
 31
0.0
  0
LINE
  5
12599
330
12594
100
AcDbEntity
  8
01注記寸法
 62
     0
370
    -2
100
AcDbLine
 10
2780.000000000001
 20
635.0000000000009
 30
0.0
 11
2945.000000000001
 21
635.0000000000009
 31
0.0
  0
INSERT
  5
1259A
330
12594
100
AcDbEntity
  8
01注記寸法
 62
     0
370
    -2
100
AcDbBlockReference
  2
_Open
 10
2750.000000000001
 20
635.0000000000009
 30
0.0
 41
30.0
 42
30.0
 43
30.0
 50
180.0
  0
INSERT
  5
1259B
330
12594
100
AcDbEntity
  8
01注記寸法
 62
     0
370
    -2
100
AcDbBlockReference
  2
_Open
 10
2975.000000000001
 20
635.0000000000009
 30
0.0
 41
30.0
 42
30.0
 43
30.0
  0
MTEXT
  5
1259C
330
12594
100
AcDbEntity
  8
01注記寸法
 62
     0
100
AcDbMText
 10
2862.500000000001
 20
660.0056271101672
 30
0.0
 40
30.0
 41
0.0
 71
     5
 72
     1
  1
75
 73
     1
 44
1.0
  0
POINT
  5
1259D
330
12594
100
AcDbEntity
  8
Defpoints
 62
     0
100
AcDbPoint
 10
2750.000000000001
 20
535.0000000000009
 30
0.0
  0
POINT
  5
1259E
330
12594
100
AcDbEntity
  8
Defpoints
 62
     0
100
AcDbPoint
 10
2975.000000000001
 20
505.0000000000005
 30
0.0
  0
POINT
  5
1259F
330
12594
100
AcDbEntity
  8
Defpoints
 62
     0
100
AcDbPoint
 10
2975.000000000001
 20
635.0000000000009
 30
0.0
  0
ENDBLK
  5
12596
330
12594
100
AcDbEntity
  8
0
100
AcDbBlockEnd
  0
BLOCK
  5
125A1
330
125A0
100
AcDbEntity
  8
0
100
AcDbBlockBegin
  2
*D1733
 70
     1
 10
0.0
 20
0.0
 30
0.0
  3
*D1733
  1

  0
LINE
  5
125A3
330
125A0
100
AcDbEntity
  8
01注記寸法
 62
     0
370
    -2
100
AcDbLine
 10
2900.000000000001
 20
445.0000000000005
 30
0.0
 11
2640.000000000001
 21
445.0000000000005
 31
0.0
  0
LINE
  5
125A4
330
125A0
100
AcDbEntity
  8
01注記寸法
 62
     0
370
    -2
100
AcDbLine
 10
2735.000000000001
 20
535.0000000000009
 30
0.0
 11
2640.000000000001
 21
535.0000000000009
 31
0.0
  0
LINE
  5
125A5
330
125A0
100
AcDbEntity
  8
01注記寸法
 62
     0
370
    -2
100
AcDbLine
 10
2650.000000000001
 20
475.0000000000005
 30
0.0
 11
2650.000000000001
 21
505.0000000000009
 31
0.0
  0
INSERT
  5
125A6
330
125A0
100
AcDbEntity
  8
01注記寸法
 62
     0
370
    -2
100
AcDbBlockReference
  2
_Open
 10
2650.000000000001
 20
445.0000000000005
 30
0.0
 41
30.0
 42
30.0
 43
30.0
 50
270.0
  0
INSERT
  5
125A7
330
125A0
100
AcDbEntity
  8
01注記寸法
 62
     0
370
    -2
100
AcDbBlockReference
  2
_Open
 10
2650.000000000001
 20
535.0000000000009
 30
0.0
 41
30.0
 42
30.0
 43
30.0
 50
90.0
  0
MTEXT
  5
125A8
330
125A0
100
AcDbEntity
  8
01注記寸法
 62
     0
100
AcDbMText
 10
2624.994372889835
 20
490.0000000000007
 30
0.0
 40
30.0
 41
0.0
 71
     5
 72
     1
  1
30
 11
0.0
 21
1.0
 31
0.0
 73
     1
 44
1.0
  0
POINT
  5
125A9
330
125A0
100
AcDbEntity
  8
Defpoints
 62
     0
100
AcDbPoint
 10
2915.000000000001
 20
445.0000000000005
 30
0.0
  0
POINT
  5
125AA
330
125A0
100
AcDbEntity
  8
Defpoints
 62
     0
100
AcDbPoint
 10
2750.000000000001
 20
535.0000000000009
 30
0.0
  0
POINT
  5
125AB
330
125A0
100
AcDbEntity
  8
Defpoints
 62
     0
100
AcDbPoint
 10
2650.000000000001
 20
535.0000000000009
 30
0.0
  0
ENDBLK
  5
125A2
330
125A0
100
AcDbEntity
  8
0
100
AcDbBlockEnd
  0
BLOCK
  5
125AD
330
125AC
100
AcDbEntity
  8
0
100
AcDbBlockBegin
  2
*D1734
 70
     1
 10
0.0
 20
0.0
 30
0.0
  3
*D1734
  1

  0
LINE
  5
125AF
330
125AC
100
AcDbEntity
  8
01注記寸法
 62
     0
370
    -2
100
AcDbLine
 10
2821.275165687132
 20
225.0
 30
0.0
 11
2900.0
 21
225.0
 31
0.0
  0
LINE
  5
125B0
330
125AC
100
AcDbEntity
  8
01注記寸法
 62
     0
370
    -2
100
AcDbLine
 10
2900.0
 20
225.0
 30
0.0
 11
2958.543629682806
 21
396.727980402895
 31
0.0
  0
LINE
  5
125B1
330
125AC
100
AcDbEntity
  8
01注記寸法
 62
     0
370
    -2
100
AcDbLine
 10
2991.456370317196
 20
493.2720195971061
 30
0.0
 11
3001.13658815084
 21
521.6673252424623
 31
0.0
  0
MTEXT
  5
125B2
330
125AC
100
AcDbEntity
  8
01注記寸法
 62
     0
100
AcDbMText
 10
2855.637582843566
 20
252.4421658121796
 30
0.0
 40
30.0
 41
0.0
 71
     5
 72
     1
  1
φ14
 73
     1
 44
1.0
  0
LINE
  5
125B3
330
125AC
100
AcDbEntity
  8
01注記寸法
 62
     0
370
    -2
100
AcDbLine
 10
2981.776152483552
 20
464.8767139517499
 30
0.0
 11
2968.22384751645
 21
425.1232860482512
 31
0.0
  0
INSERT
  5
125B4
330
125AC
100
AcDbEntity
  8
01注記寸法
 62
     0
370
    -2
100
AcDbBlockReference
  2
_Open
 10
2981.776152483552
 20
464.8767139517499
 30
0.0
 41
30.0
 42
30.0
 43
30.0
 50
251.1752899817598
  0
INSERT
  5
125B5
330
125AC
100
AcDbEntity
  8
01注記寸法
 62
     0
370
    -2
100
AcDbBlockReference
  2
_Open
 10
2968.22384751645
 20
425.1232860482512
 30
0.0
 41
30.0
 42
30.0
 43
30.0
 50
71.17528998175983
  0
POINT
  5
125B6
330
125AC
100
AcDbEntity
  8
Defpoints
 62
     0
100
AcDbPoint
 10
2968.22384751645
 20
425.1232860482512
 30
0.0
  0
POINT
  5
125B7
330
125AC
100
AcDbEntity
  8
Defpoints
 62
     0
100
AcDbPoint
 10
2981.776152483552
 20
464.8767139517499
 30
0.0
  0
ENDBLK
  5
125AE
330
125AC
100
AcDbEntity
  8
0
100
AcDbBlockEnd
  0
BLOCK
  5
12657
330
12656
100
AcDbEntity
  8
0
100
AcDbBlockBegin
  2
*D1742
 70
     1
 10
0.0
 20
0.0
 30
0.0
  3
*D1742
  1

  0
LINE
  5
12659
330
12656
100
AcDbEntity
  8
01注記寸法
 62
     0
370
    -2
100
AcDbLine
 10
969.0
 20
329.9999999999989
 30
0.0
 11
819.0
 21
329.9999999999989
 31
0.0
  0
LINE
  5
1265A
330
12656
100
AcDbEntity
  8
01注記寸法
 62
     0
370
    -2
100
AcDbLine
 10
914.0
 20
299.9999999999989
 30
0.0
 11
819.0
 21
299.9999999999989
 31
0.0
  0
LINE
  5
1265B
330
12656
100
AcDbEntity
  8
01注記寸法
 62
     0
370
    -2
100
AcDbLine
 10
829.0
 20
269.9999999999989
 30
0.0
 11
829.0
 21
184.2036076028499
 31
0.0
  0
LINE
  5
1265C
330
12656
100
AcDbEntity
  8
01注記寸法
 62
     0
370
    -2
100
AcDbLine
 10
829.0
 20
329.9999999999989
 30
0.0
 11
829.0
 21
299.9999999999989
 31
0.0
  0
LINE
  5
1265D
330
12656
100
AcDbEntity
  8
01注記寸法
 62
     0
370
    -2
100
AcDbLine
 10
829.0
 20
359.9999999999989
 30
0.0
 11
829.0
 21
389.9999999999989
 31
0.0
  0
INSERT
  5
1265E
330
12656
100
AcDbEntity
  8
01注記寸法
 62
     0
370
    -2
100
AcDbBlockReference
  2
_Open
 10
829.0
 20
329.9999999999989
 30
0.0
 41
30.0
 42
30.0
 43
30.0
 50
270.0
  0
INSERT
  5
1265F
330
12656
100
AcDbEntity
  8
01注記寸法
 62
     0
370
    -2
100
AcDbBlockReference
  2
_Open
 10
829.0
 20
299.9999999999989
 30
0.0
 41
30.0
 42
30.0
 43
30.0
 50
90.0
  0
MTEXT
  5
12660
330
12656
100
AcDbEntity
  8
01注記寸法
 62
     0
100
AcDbMText
 10
803.9943728898337
 20
212.1018038014244
 30
0.0
 40
30.0
 41
0.0
 71
     5
 72
     1
  1
30
 11
0.0
 21
1.0
 31
0.0
 73
     1
 44
1.0
  0
POINT
  5
12661
330
12656
100
AcDbEntity
  8
Defpoints
 62
     0
100
AcDbPoint
 10
984.0
 20
329.9999999999989
 30
0.0
  0
POINT
  5
12662
330
12656
100
AcDbEntity
  8
Defpoints
 62
     0
100
AcDbPoint
 10
929.0
 20
299.9999999999989
 30
0.0
  0
POINT
  5
12663
330
12656
100
AcDbEntity
  8
Defpoints
 62
     0
100
AcDbPoint
 10
829.0
 20
299.9999999999989
 30
0.0
  0
ENDBLK
  5
12658
330
12656
100
AcDbEntity
  8
0
100
AcDbBlockEnd
  0
BLOCK
  5
127E8
330
127E7
100
AcDbEntity
  8
0
100
AcDbBlockBegin
  2
*D1747
 70
     1
 10
0.0
 20
0.0
 30
0.0
  3
*D1747
  1

  0
LINE
  5
127EA
330
127E7
100
AcDbEntity
  8
01注記寸法
 62
     0
370
    -2
100
AcDbLine
 10
884.0
 20
2470.0
 30
0.0
 11
739.0
 21
2470.0
 31
0.0
  0
LINE
  5
127EB
330
127E7
100
AcDbEntity
  8
01注記寸法
 62
     0
370
    -2
100
AcDbLine
 10
838.0
 20
2390.0
 30
0.0
 11
739.0
 21
2390.0
 31
0.0
  0
LINE
  5
127EC
330
127E7
100
AcDbEntity
  8
01注記寸法
 62
     0
370
    -2
100
AcDbLine
 10
749.0
 20
2440.0
 30
0.0
 11
749.0
 21
2420.0
 31
0.0
  0
INSERT
  5
127ED
330
127E7
100
AcDbEntity
  8
01注記寸法
 62
     0
370
    -2
100
AcDbBlockReference
  2
_Open
 10
749.0
 20
2470.0
 30
0.0
 41
30.0
 42
30.0
 43
30.0
 50
90.0
  0
INSERT
  5
127EE
330
127E7
100
AcDbEntity
  8
01注記寸法
 62
     0
370
    -2
100
AcDbBlockReference
  2
_Open
 10
749.0
 20
2390.0
 30
0.0
 41
30.0
 42
30.0
 43
30.0
 50
270.0
  0
MTEXT
  5
127EF
330
127E7
100
AcDbEntity
  8
01注記寸法
 62
     0
100
AcDbMText
 10
724.0
 20
2430.0
 30
0.0
 40
30.0
 41
0.0
 71
     5
 72
     1
  1
80
 11
0.0
 21
1.0
 31
0.0
 73
     1
 44
1.0
  0
POINT
  5
127F0
330
127E7
100
AcDbEntity
  8
Defpoints
 62
     0
100
AcDbPoint
 10
899.0
 20
2470.0
 30
0.0
  0
POINT
  5
127F1
330
127E7
100
AcDbEntity
  8
Defpoints
 62
     0
100
AcDbPoint
 10
853.0
 20
2390.0
 30
0.0
  0
POINT
  5
127F2
330
127E7
100
AcDbEntity
  8
Defpoints
 62
     0
100
AcDbPoint
 10
749.0
 20
2390.0
 30
0.0
  0
ENDBLK
  5
127E9
330
127E7
100
AcDbEntity
  8
0
100
AcDbBlockEnd
  0
BLOCK
  5
127F5
330
127F4
100
AcDbEntity
  8
0
100
AcDbBlockBegin
  2
*D1748
 70
     1
 10
0.0
 20
0.0
 30
0.0
  3
*D1748
  1

  0
LINE
  5
127F7
330
127F4
100
AcDbEntity
  8
01注記寸法
 62
     0
370
    -2
100
AcDbLine
 10
838.0
 20
2390.0
 30
0.0
 11
739.0
 21
2390.0
 31
0.0
  0
LINE
  5
127F8
330
127F4
100
AcDbEntity
  8
01注記寸法
 62
     0
370
    -2
100
AcDbLine
 10
837.9999999999991
 20
2090.0
 30
0.0
 11
739.0
 21
2090.0
 31
0.0
  0
LINE
  5
127F9
330
127F4
100
AcDbEntity
  8
01注記寸法
 62
     0
370
    -2
100
AcDbLine
 10
749.0
 20
2360.0
 30
0.0
 11
749.0
 21
2120.0
 31
0.0
  0
INSERT
  5
127FA
330
127F4
100
AcDbEntity
  8
01注記寸法
 62
     0
370
    -2
100
AcDbBlockReference
  2
_Open
 10
749.0
 20
2390.0
 30
0.0
 41
30.0
 42
30.0
 43
30.0
 50
90.0
  0
INSERT
  5
127FB
330
127F4
100
AcDbEntity
  8
01注記寸法
 62
     0
370
    -2
100
AcDbBlockReference
  2
_Open
 10
749.0
 20
2090.0
 30
0.0
 41
30.0
 42
30.0
 43
30.0
 50
270.0
  0
MTEXT
  5
127FC
330
127F4
100
AcDbEntity
  8
01注記寸法
 62
     0
100
AcDbMText
 10
723.9943728898338
 20
2240.0
 30
0.0
 40
30.0
 41
0.0
 71
     5
 72
     1
  1
300
 11
0.0
 21
1.0
 31
0.0
 73
     1
 44
1.0
  0
POINT
  5
127FD
330
127F4
100
AcDbEntity
  8
Defpoints
 62
     0
100
AcDbPoint
 10
853.0
 20
2390.0
 30
0.0
  0
POINT
  5
127FE
330
127F4
100
AcDbEntity
  8
Defpoints
 62
     0
100
AcDbPoint
 10
852.9999999999991
 20
2090.0
 30
0.0
  0
POINT
  5
127FF
330
127F4
100
AcDbEntity
  8
Defpoints
 62
     0
100
AcDbPoint
 10
749.0
 20
2090.0
 30
0.0
  0
ENDBLK
  5
127F6
330
127F4
100
AcDbEntity
  8
0
100
AcDbBlockEnd
  0
BLOCK
  5
12802
330
12801
100
AcDbEntity
  8
0
100
AcDbBlockBegin
  2
*D1749
 70
     1
 10
0.0
 20
0.0
 30
0.0
  3
*D1749
  1

  0
LINE
  5
12804
330
12801
100
AcDbEntity
  8
01注記寸法
 62
     0
370
    -2
100
AcDbLine
 10
837.9999999999991
 20
2090.0
 30
0.0
 11
739.0
 21
2090.0
 31
0.0
  0
LINE
  5
12805
330
12801
100
AcDbEntity
  8
01注記寸法
 62
     0
370
    -2
100
AcDbLine
 10
884.0
 20
2010.000000000001
 30
0.0
 11
739.0
 21
2010.000000000001
 31
0.0
  0
LINE
  5
12806
330
12801
100
AcDbEntity
  8
01注記寸法
 62
     0
370
    -2
100
AcDbLine
 10
749.0
 20
2090.0
 30
0.0
 11
749.0
 21
2010.000000000001
 31
0.0
  0
LINE
  5
12807
330
12801
100
AcDbEntity
  8
01注記寸法
 62
     0
370
    -2
100
AcDbLine
 10
749.0
 20
2120.0
 30
0.0
 11
749.0
 21
2150.0
 31
0.0
  0
LINE
  5
12808
330
12801
100
AcDbEntity
  8
01注記寸法
 62
     0
370
    -2
100
AcDbLine
 10
749.0
 20
1980.000000000001
 30
0.0
 11
749.0
 21
1950.000000000001
 31
0.0
  0
INSERT
  5
12809
330
12801
100
AcDbEntity
  8
01注記寸法
 62
     0
370
    -2
100
AcDbBlockReference
  2
_Open
 10
749.0
 20
2090.0
 30
0.0
 41
30.0
 42
30.0
 43
30.0
 50
270.0
  0
INSERT
  5
1280A
330
12801
100
AcDbEntity
  8
01注記寸法
 62
     0
370
    -2
100
AcDbBlockReference
  2
_Open
 10
749.0
 20
2010.000000000001
 30
0.0
 41
30.0
 42
30.0
 43
30.0
 50
90.0
  0
MTEXT
  5
1280B
330
12801
100
AcDbEntity
  8
01注記寸法
 62
     0
100
AcDbMText
 10
724.0
 20
2050.000000000001
 30
0.0
 40
30.0
 41
0.0
 71
     5
 72
     1
  1
80
 11
0.0
 21
1.0
 31
0.0
 73
     1
 44
1.0
  0
POINT
  5
1280C
330
12801
100
AcDbEntity
  8
Defpoints
 62
     0
100
AcDbPoint
 10
852.9999999999991
 20
2090.0
 30
0.0
  0
POINT
  5
1280D
330
12801
100
AcDbEntity
  8
Defpoints
 62
     0
100
AcDbPoint
 10
899.0
 20
2010.000000000001
 30
0.0
  0
POINT
  5
1280E
330
12801
100
AcDbEntity
  8
Defpoints
 62
     0
100
AcDbPoint
 10
749.0
 20
2010.000000000001
 30
0.0
  0
ENDBLK
  5
12803
330
12801
100
AcDbEntity
  8
0
100
AcDbBlockEnd
  0
BLOCK
  5
12811
330
12810
100
AcDbEntity
  8
0
100
AcDbBlockBegin
  2
*D1750
 70
     1
 10
0.0
 20
0.0
 30
0.0
  3
*D1750
  1

  0
LINE
  5
12813
330
12810
100
AcDbEntity
  8
01注記寸法
 62
     0
370
    -2
100
AcDbLine
 10
899.0
 20
2485.0
 30
0.0
 11
899.0
 21
2580.0
 31
0.0
  0
LINE
  5
12814
330
12810
100
AcDbEntity
  8
01注記寸法
 62
     0
370
    -2
100
AcDbLine
 10
873.0
 20
2425.0
 30
0.0
 11
873.0
 21
2580.0
 31
0.0
  0
LINE
  5
12815
330
12810
100
AcDbEntity
  8
01注記寸法
 62
     0
370
    -2
100
AcDbLine
 10
843.0
 20
2570.0
 30
0.0
 11
757.962798549456
 21
2570.0
 31
0.0
  0
LINE
  5
12816
330
12810
100
AcDbEntity
  8
01注記寸法
 62
     0
370
    -2
100
AcDbLine
 10
899.0
 20
2570.0
 30
0.0
 11
873.0
 21
2570.0
 31
0.0
  0
LINE
  5
12817
330
12810
100
AcDbEntity
  8
01注記寸法
 62
     0
370
    -2
100
AcDbLine
 10
929.0
 20
2570.0
 30
0.0
 11
959.0
 21
2570.0
 31
0.0
  0
INSERT
  5
12818
330
12810
100
AcDbEntity
  8
01注記寸法
 62
     0
370
    -2
100
AcDbBlockReference
  2
_Open
 10
899.0
 20
2570.0
 30
0.0
 41
30.0
 42
30.0
 43
30.0
 50
180.0
  0
INSERT
  5
12819
330
12810
100
AcDbEntity
  8
01注記寸法
 62
     0
370
    -2
100
AcDbBlockReference
  2
_Open
 10
873.0
 20
2570.0
 30
0.0
 41
30.0
 42
30.0
 43
30.0
  0
MTEXT
  5
1281A
330
12810
100
AcDbEntity
  8
01注記寸法
 62
     0
100
AcDbMText
 10
785.481399274728
 20
2595.005627110167
 30
0.0
 40
30.0
 41
0.0
 71
     5
 72
     1
  1
26
 73
     1
 44
1.0
  0
POINT
  5
1281B
330
12810
100
AcDbEntity
  8
Defpoints
 62
     0
100
AcDbPoint
 10
899.0
 20
2470.0
 30
0.0
  0
POINT
  5
1281C
330
12810
100
AcDbEntity
  8
Defpoints
 62
     0
100
AcDbPoint
 10
873.0
 20
2410.0
 30
0.0
  0
POINT
  5
1281D
330
12810
100
AcDbEntity
  8
Defpoints
 62
     0
100
AcDbPoint
 10
873.0
 20
2570.0
 30
0.0
  0
ENDBLK
  5
12812
330
12810
100
AcDbEntity
  8
0
100
AcDbBlockEnd
  0
BLOCK
  5
12820
330
1281F
100
AcDbEntity
  8
0
100
AcDbBlockBegin
  2
*D1751
 70
     1
 10
0.0
 20
0.0
 30
0.0
  3
*D1751
  1

  0
LINE
  5
12822
330
1281F
100
AcDbEntity
  8
01注記寸法
 62
     0
370
    -2
100
AcDbLine
 10
899.0
 20
2485.0
 30
0.0
 11
899.0
 21
2580.000000000001
 31
0.0
  0
LINE
  5
12823
330
1281F
100
AcDbEntity
  8
01注記寸法
 62
     0
370
    -2
100
AcDbLine
 10
1641.0
 20
2485.000000000001
 30
0.0
 11
1641.0
 21
2580.000000000001
 31
0.0
  0
LINE
  5
12824
330
1281F
100
AcDbEntity
  8
01注記寸法
 62
     0
370
    -2
100
AcDbLine
 10
929.0
 20
2570.000000000001
 30
0.0
 11
1611.0
 21
2570.000000000001
 31
0.0
  0
INSERT
  5
12825
330
1281F
100
AcDbEntity
  8
01注記寸法
 62
     0
370
    -2
100
AcDbBlockReference
  2
_Open
 10
899.0
 20
2570.000000000001
 30
0.0
 41
30.0
 42
30.0
 43
30.0
 50
180.0
  0
INSERT
  5
12826
330
1281F
100
AcDbEntity
  8
01注記寸法
 62
     0
370
    -2
100
AcDbBlockReference
  2
_Open
 10
1641.0
 20
2570.000000000001
 30
0.0
 41
30.0
 42
30.0
 43
30.0
  0
MTEXT
  5
12827
330
1281F
100
AcDbEntity
  8
01注記寸法
 62
     0
100
AcDbMText
 10
1270.0
 20
2595.005627110168
 30
0.0
 40
30.0
 41
0.0
 71
     5
 72
     1
  1
742
 73
     1
 44
1.0
  0
POINT
  5
12828
330
1281F
100
AcDbEntity
  8
Defpoints
 62
     0
100
AcDbPoint
 10
899.0
 20
2470.0
 30
0.0
  0
POINT
  5
12829
330
1281F
100
AcDbEntity
  8
Defpoints
 62
     0
100
AcDbPoint
 10
1641.0
 20
2470.000000000001
 30
0.0
  0
POINT
  5
1282A
330
1281F
100
AcDbEntity
  8
Defpoints
 62
     0
100
AcDbPoint
 10
1641.0
 20
2570.000000000001
 30
0.0
  0
ENDBLK
  5
12821
330
1281F
100
AcDbEntity
  8
0
100
AcDbBlockEnd
  0
BLOCK
  5
1282D
330
1282C
100
AcDbEntity
  8
0
100
AcDbBlockBegin
  2
*D1752
 70
     1
 10
0.0
 20
0.0
 30
0.0
  3
*D1752
  1

  0
LINE
  5
1282F
330
1282C
100
AcDbEntity
  8
01注記寸法
 62
     0
370
    -2
100
AcDbLine
 10
1641.0
 20
2485.000000000001
 30
0.0
 11
1641.0
 21
2580.000000000001
 31
0.0
  0
LINE
  5
12830
330
1282C
100
AcDbEntity
  8
01注記寸法
 62
     0
370
    -2
100
AcDbLine
 10
1667.0
 20
2425.000000000002
 30
0.0
 11
1667.0
 21
2580.000000000001
 31
0.0
  0
LINE
  5
12831
330
1282C
100
AcDbEntity
  8
01注記寸法
 62
     0
370
    -2
100
AcDbLine
 10
1697.0
 20
2570.000000000001
 30
0.0
 11
1782.037201450544
 21
2570.000000000001
 31
0.0
  0
LINE
  5
12832
330
1282C
100
AcDbEntity
  8
01注記寸法
 62
     0
370
    -2
100
AcDbLine
 10
1641.0
 20
2570.000000000001
 30
0.0
 11
1667.0
 21
2570.000000000001
 31
0.0
  0
LINE
  5
12833
330
1282C
100
AcDbEntity
  8
01注記寸法
 62
     0
370
    -2
100
AcDbLine
 10
1611.0
 20
2570.000000000001
 30
0.0
 11
1581.0
 21
2570.000000000001
 31
0.0
  0
INSERT
  5
12834
330
1282C
100
AcDbEntity
  8
01注記寸法
 62
     0
370
    -2
100
AcDbBlockReference
  2
_Open
 10
1641.0
 20
2570.000000000001
 30
0.0
 41
30.0
 42
30.0
 43
30.0
  0
INSERT
  5
12835
330
1282C
100
AcDbEntity
  8
01注記寸法
 62
     0
370
    -2
100
AcDbBlockReference
  2
_Open
 10
1667.0
 20
2570.000000000001
 30
0.0
 41
30.0
 42
30.0
 43
30.0
 50
180.0
  0
MTEXT
  5
12836
330
1282C
100
AcDbEntity
  8
01注記寸法
 62
     0
100
AcDbMText
 10
1754.518600725272
 20
2595.005627110168
 30
0.0
 40
30.0
 41
0.0
 71
     5
 72
     1
  1
26
 73
     1
 44
1.0
  0
POINT
  5
12837
330
1282C
100
AcDbEntity
  8
Defpoints
 62
     0
100
AcDbPoint
 10
1641.0
 20
2470.000000000001
 30
0.0
  0
POINT
  5
12838
330
1282C
100
AcDbEntity
  8
Defpoints
 62
     0
100
AcDbPoint
 10
1667.0
 20
2410.000000000002
 30
0.0
  0
POINT
  5
12839
330
1282C
100
AcDbEntity
  8
Defpoints
 62
     0
100
AcDbPoint
 10
1667.0
 20
2570.000000000001
 30
0.0
  0
ENDBLK
  5
1282E
330
1282C
100
AcDbEntity
  8
0
100
AcDbBlockEnd
  0
BLOCK
  5
1283F
330
1283E
100
AcDbEntity
  8
0
100
AcDbBlockBegin
  2
*D1753
 70
     1
 10
0.0
 20
0.0
 30
0.0
  3
*D1753
  1

  0
LINE
  5
12841
330
1283E
100
AcDbEntity
  8
01注記寸法
 62
     0
370
    -2
100
AcDbLine
 10
1691.000000000003
 20
2050.000000000002
 30
0.0
 11
1691.000000000003
 21
1900.000000000001
 31
0.0
  0
LINE
  5
12842
330
1283E
100
AcDbEntity
  8
01注記寸法
 62
     0
370
    -2
100
AcDbLine
 10
1641.0
 20
1995.000000000001
 30
0.0
 11
1641.0
 21
1900.000000000001
 31
0.0
  0
LINE
  5
12843
330
1283E
100
AcDbEntity
  8
01注記寸法
 62
     0
370
    -2
100
AcDbLine
 10
1611.0
 20
1910.000000000001
 30
0.0
 11
1525.203607602851
 21
1910.000000000001
 31
0.0
  0
LINE
  5
12844
330
1283E
100
AcDbEntity
  8
01注記寸法
 62
     0
370
    -2
100
AcDbLine
 10
1691.000000000003
 20
1910.000000000001
 30
0.0
 11
1641.0
 21
1910.000000000001
 31
0.0
  0
LINE
  5
12845
330
1283E
100
AcDbEntity
  8
01注記寸法
 62
     0
370
    -2
100
AcDbLine
 10
1721.000000000003
 20
1910.000000000001
 30
0.0
 11
1751.000000000003
 21
1910.000000000001
 31
0.0
  0
INSERT
  5
12846
330
1283E
100
AcDbEntity
  8
01注記寸法
 62
     0
370
    -2
100
AcDbBlockReference
  2
_Open
 10
1691.000000000003
 20
1910.000000000001
 30
0.0
 41
30.0
 42
30.0
 43
30.0
 50
180.0
  0
INSERT
  5
12847
330
1283E
100
AcDbEntity
  8
01注記寸法
 62
     0
370
    -2
100
AcDbBlockReference
  2
_Open
 10
1641.0
 20
1910.000000000001
 30
0.0
 41
30.0
 42
30.0
 43
30.0
  0
MTEXT
  5
12848
330
1283E
100
AcDbEntity
  8
01注記寸法
 62
     0
100
AcDbMText
 10
1553.101803801426
 20
1935.005627110168
 30
0.0
 40
30.0
 41
0.0
 71
     5
 72
     1
  1
50
 73
     1
 44
1.0
  0
POINT
  5
12849
330
1283E
100
AcDbEntity
  8
Defpoints
 62
     0
100
AcDbPoint
 10
1691.000000000003
 20
2065.000000000002
 30
0.0
  0
POINT
  5
1284A
330
1283E
100
AcDbEntity
  8
Defpoints
 62
     0
100
AcDbPoint
 10
1641.0
 20
2010.000000000001
 30
0.0
  0
POINT
  5
1284B
330
1283E
100
AcDbEntity
  8
Defpoints
 62
     0
100
AcDbPoint
 10
1641.0
 20
1910.000000000001
 30
0.0
  0
ENDBLK
  5
12840
330
1283E
100
AcDbEntity
  8
0
100
AcDbBlockEnd
  0
BLOCK
  5
1284E
330
1284D
100
AcDbEntity
  8
0
100
AcDbBlockBegin
  2
*D1754
 70
     1
 10
0.0
 20
0.0
 30
0.0
  3
*D1754
  1

  0
LINE
  5
12850
330
1284D
100
AcDbEntity
  8
01注記寸法
 62
     0
370
    -2
100
AcDbLine
 10
1702.000000000003
 20
2090.000000000002
 30
0.0
 11
1801.0
 21
2090.000000000002
 31
0.0
  0
LINE
  5
12851
330
1284D
100
AcDbEntity
  8
01注記寸法
 62
     0
370
    -2
100
AcDbLine
 10
1705.999999999999
 20
2120.000000000002
 30
0.0
 11
1801.0
 21
2120.000000000002
 31
0.0
  0
LINE
  5
12852
330
1284D
100
AcDbEntity
  8
01注記寸法
 62
     0
370
    -2
100
AcDbLine
 10
1791.0
 20
2150.000000000002
 30
0.0
 11
1791.0
 21
2235.796392397151
 31
0.0
  0
LINE
  5
12853
330
1284D
100
AcDbEntity
  8
01注記寸法
 62
     0
370
    -2
100
AcDbLine
 10
1791.0
 20
2090.000000000002
 30
0.0
 11
1791.0
 21
2120.000000000002
 31
0.0
  0
LINE
  5
12854
330
1284D
100
AcDbEntity
  8
01注記寸法
 62
     0
370
    -2
100
AcDbLine
 10
1791.0
 20
2060.000000000002
 30
0.0
 11
1791.0
 21
2030.000000000002
 31
0.0
  0
INSERT
  5
12855
330
1284D
100
AcDbEntity
  8
01注記寸法
 62
     0
370
    -2
100
AcDbBlockReference
  2
_Open
 10
1791.0
 20
2090.000000000002
 30
0.0
 41
30.0
 42
30.0
 43
30.0
 50
90.0
  0
INSERT
  5
12856
330
1284D
100
AcDbEntity
  8
01注記寸法
 62
     0
370
    -2
100
AcDbBlockReference
  2
_Open
 10
1791.0
 20
2120.000000000002
 30
0.0
 41
30.0
 42
30.0
 43
30.0
 50
270.0
  0
MTEXT
  5
12857
330
1284D
100
AcDbEntity
  8
01注記寸法
 62
     0
100
AcDbMText
 10
1765.994372889834
 20
2207.898196198576
 30
0.0
 40
30.0
 41
0.0
 71
     5
 72
     1
  1
30
 11
0.0
 21
1.0
 31
0.0
 73
     1
 44
1.0
  0
POINT
  5
12858
330
1284D
100
AcDbEntity
  8
Defpoints
 62
     0
100
AcDbPoint
 10
1687.000000000003
 20
2090.000000000002
 30
0.0
  0
POINT
  5
12859
330
1284D
100
AcDbEntity
  8
Defpoints
 62
     0
100
AcDbPoint
 10
1690.999999999999
 20
2120.000000000002
 30
0.0
  0
POINT
  5
1285A
330
1284D
100
AcDbEntity
  8
Defpoints
 62
     0
100
AcDbPoint
 10
1791.0
 20
2120.000000000002
 30
0.0
  0
ENDBLK
  5
1284F
330
1284D
100
AcDbEntity
  8
0
100
AcDbBlockEnd
  0
BLOCK
  5
1285D
330
1285C
100
AcDbEntity
  8
0
100
AcDbBlockBegin
  2
*D1755
 70
     1
 10
0.0
 20
0.0
 30
0.0
  3
*D1755
  1

  0
LINE
  5
1285F
330
1285C
100
AcDbEntity
  8
01注記寸法
 62
     0
370
    -2
100
AcDbLine
 10
1701.000000000003
 20
2060.000000000002
 30
0.0
 11
1901.0
 21
2060.000000000002
 31
0.0
  0
LINE
  5
12860
330
1285C
100
AcDbEntity
  8
01注記寸法
 62
     0
370
    -2
100
AcDbLine
 10
1705.999999999999
 20
2120.000000000002
 30
0.0
 11
1901.0
 21
2120.000000000002
 31
0.0
  0
LINE
  5
12861
330
1285C
100
AcDbEntity
  8
01注記寸法
 62
     0
370
    -2
100
AcDbLine
 10
1891.0
 20
2060.000000000002
 30
0.0
 11
1891.0
 21
2120.000000000002
 31
0.0
  0
LINE
  5
12862
330
1285C
100
AcDbEntity
  8
01注記寸法
 62
     0
370
    -2
100
AcDbLine
 10
1891.0
 20
2030.000000000002
 30
0.0
 11
1891.0
 21
2000.000000000002
 31
0.0
  0
LINE
  5
12863
330
1285C
100
AcDbEntity
  8
01注記寸法
 62
     0
370
    -2
100
AcDbLine
 10
1891.0
 20
2150.000000000002
 30
0.0
 11
1891.0
 21
2180.000000000002
 31
0.0
  0
INSERT
  5
12864
330
1285C
100
AcDbEntity
  8
01注記寸法
 62
     0
370
    -2
100
AcDbBlockReference
  2
_Open
 10
1891.0
 20
2060.000000000002
 30
0.0
 41
30.0
 42
30.0
 43
30.0
 50
90.0
  0
INSERT
  5
12865
330
1285C
100
AcDbEntity
  8
01注記寸法
 62
     0
370
    -2
100
AcDbBlockReference
  2
_Open
 10
1891.0
 20
2120.000000000002
 30
0.0
 41
30.0
 42
30.0
 43
30.0
 50
270.0
  0
MTEXT
  5
12866
330
1285C
100
AcDbEntity
  8
01注記寸法
 62
     0
100
AcDbMText
 10
1866.0
 20
2090.000000000002
 30
0.0
 40
30.0
 41
0.0
 71
     5
 72
     1
  1
60
 11
0.0
 21
1.0
 31
0.0
 73
     1
 44
1.0
  0
POINT
  5
12867
330
1285C
100
AcDbEntity
  8
Defpoints
 62
     0
100
AcDbPoint
 10
1686.000000000003
 20
2060.000000000002
 30
0.0
  0
POINT
  5
12868
330
1285C
100
AcDbEntity
  8
Defpoints
 62
     0
100
AcDbPoint
 10
1690.999999999999
 20
2120.000000000002
 30
0.0
  0
POINT
  5
12869
330
1285C
100
AcDbEntity
  8
Defpoints
 62
     0
100
AcDbPoint
 10
1891.0
 20
2120.000000000002
 30
0.0
  0
ENDBLK
  5
1285E
330
1285C
100
AcDbEntity
  8
0
100
AcDbBlockEnd
  0
ENDSEC
  0
SECTION
  2
ENTITIES
  0
LWPOLYLINE
  5
ECC5
330
1F
100
AcDbEntity
  8
02実線
100
AcDbPolyline
 90
        4
 70
     1
 43
0.0
 10
899.0
 20
2010.000000000001
 10
899.0
 20
2470.0
 10
1641.0
 20
2470.000000000001
 10
1641.0
 20
2010.000000000001
  0
LWPOLYLINE
  5
ECC6
330
1F
100
AcDbEntity
  8
02実線
100
AcDbPolyline
 90
        4
 70
     1
 43
0.0
 10
949.0
 20
2060.0
 10
949.0
 20
2420.0
 10
1591.0
 20
2420.000000000001
 10
1591.0
 20
2060.000000000001
  0
LWPOLYLINE
  5
ECC7
330
1F
100
AcDbEntity
  8
03破線
100
AcDbPolyline
 90
        4
 70
     1
 43
0.0
 10
902.2000000000007
 20
2013.200000000005
 10
902.2000000000007
 20
2466.800000000003
 10
1637.799999999999
 20
2466.800000000004
 10
1637.799999999999
 20
2013.200000000006
  0
LWPOLYLINE
  5
ECCA
330
1F
100
AcDbEntity
  8
02実線
100
AcDbPolyline
 90
        4
 70
     1
 43
0.0
 10
899.0
 20
1200.000000000001
 10
899.0000000000003
 20
1400.000000000001
 10
1641.0
 20
1400.000000000001
 10
1641.0
 20
1200.000000000001
  0
LWPOLYLINE
  5
ECCB
330
1F
100
AcDbEntity
  8
03破線
100
AcDbPolyline
 90
        4
 70
     1
 43
0.0
 10
902.2000000000007
 20
1203.199999999998
 10
902.2000000000011
 20
1396.800000000004
 10
1637.8
 20
1396.800000000004
 10
1637.799999999999
 20
1203.199999999998
  0
LWPOLYLINE
  5
ECCD
330
1F
100
AcDbEntity
  8
02実線
100
AcDbPolyline
 90
        4
 70
     1
 43
0.0
 10
2291.0
 20
1200.000000000001
 10
2291.0
 20
1400.000000000001
 10
2751.0
 20
1400.000000000001
 10
2751.0
 20
1200.000000000001
  0
LWPOLYLINE
  5
ECCE
330
1F
100
AcDbEntity
  8
03破線
100
AcDbPolyline
 90
        4
 70
     1
 43
0.0
 10
2294.200000000001
 20
1203.199999999998
 10
2294.200000000001
 20
1396.800000000004
 10
2747.799999999999
 20
1396.800000000004
 10
2747.799999999999
 20
1203.199999999998
  0
LINE
  5
ECCF
330
1F
100
AcDbEntity
  8
04一点鎖線
100
AcDbLine
 10
974.0
 20
1213.199999999998
 30
0.0
 11
974.0
 21
1190.000000000001
 31
0.0
  0
LINE
  5
ECD0
330
1F
100
AcDbEntity
  8
04一点鎖線
100
AcDbLine
 10
1566.0
 20
1213.199999999998
 30
0.0
 11
1566.0
 21
1190.000000000001
 31
0.0
  0
LINE
  5
ECD1
330
1F
100
AcDbEntity
  8
04一点鎖線
100
AcDbLine
 10
2321.0
 20
1213.199999999998
 30
0.0
 11
2321.0
 21
1190.000000000001
 31
0.0
  0
LINE
  5
ECD2
330
1F
100
AcDbEntity
  8
04一点鎖線
100
AcDbLine
 10
2721.0
 20
1213.199999999998
 30
0.0
 11
2721.0
 21
1190.000000000001
 31
0.0
  0
LINE
  5
ECED
330
1F
100
AcDbEntity
  8
03破線
100
AcDbLine
 10
2341.0
 20
1200.000000000001
 30
0.0
 11
2341.0
 21
1203.200000000006
 31
0.0
  0
LINE
  5
ECEF
330
1F
100
AcDbEntity
  8
03破線
100
AcDbLine
 10
2341.0
 20
1400.000000000001
 30
0.0
 11
2341.0
 21
1396.800000000004
 31
0.0
  0
LINE
  5
ECF0
330
1F
100
AcDbEntity
  8
03破線
100
AcDbLine
 10
2701.0
 20
1200.000000000001
 30
0.0
 11
2701.0
 21
1203.200000000006
 31
0.0
  0
LINE
  5
ECF1
330
1F
100
AcDbEntity
  8
03破線
100
AcDbLine
 10
2701.0
 20
1400.000000000001
 30
0.0
 11
2701.0
 21
1396.800000000004
 31
0.0
  0
LINE
  5
ECF3
330
1F
100
AcDbEntity
  8
03破線
100
AcDbLine
 10
949.0000000000003
 20
1400.000000000001
 30
0.0
 11
949.0000000000003
 21
1396.800000000004
 31
0.0
  0
LINE
  5
ECF4
330
1F
100
AcDbEntity
  8
03破線
100
AcDbLine
 10
949.0
 20
1200.000000000001
 30
0.0
 11
949.0
 21
1203.200000000006
 31
0.0
  0
LINE
  5
ECF6
330
1F
100
AcDbEntity
  8
03破線
100
AcDbLine
 10
1591.0
 20
1400.000000000001
 30
0.0
 11
1591.0
 21
1396.800000000004
 31
0.0
  0
LINE
  5
ECF7
330
1F
100
AcDbEntity
  8
03破線
100
AcDbLine
 10
1591.0
 20
1200.000000000001
 30
0.0
 11
1591.0
 21
1203.200000000006
 31
0.0
  0
LWPOLYLINE
  5
ED10
102
{ACAD_REACTORS
330
ED11
102
}
330
1F
100
AcDbEntity
  8
02実線
100
AcDbPolyline
 90
        4
 70
     1
 43
0.0
 10
899.0000000000003
 20
1400.000000000001
 10
899.0000000000003
 20
1410.000000000001
 10
1641.0
 20
1410.000000000001
 10
1641.0
 20
1400.000000000001
  0
HATCH
  5
ED11
330
1F
100
AcDbEntity
  8
01注記寸法
100
AcDbHatch
 10
0.0
 20
0.0
 30
0.0
210
0.0
220
0.0
230
1.0
  2
ANSI31
 70
     0
 71
     1
 91
        1
 92
        1
 93
        4
 72
     1
 10
899.0000000000003
 20
1400.000000000001
 11
899.0000000000003
 21
1410.000000000001
 72
     1
 10
899.0000000000003
 20
1410.000000000001
 11
1641.0
 21
1410.000000000001
 72
     1
 10
1641.0
 20
1410.000000000001
 11
1641.0
 21
1400.000000000001
 72
     1
 10
1641.0
 20
1400.000000000001
 11
899.0000000000003
 21
1400.000000000001
 97
        1
330
ED10
 75
     0
 76
     1
 52
45.0
 41
5.000000000000006
 77
     0
 78
     1
 53
90.0
 43
13099.0
 44
0.0000000000097771
 45
-15.875
 46
0.000000000000001
 79
     0
 98
        1
 10
13099.0
 20
-10890.0
1001
ACAD
1010
0.0
1020
0.0
1030
0.0
  0
LWPOLYLINE
  5
ED12
102
{ACAD_REACTORS
330
ED13
102
}
330
1F
100
AcDbEntity
  8
02実線
100
AcDbPolyline
 90
        4
 70
     1
 43
0.0
 10
2291.0
 20
1400.000000000001
 10
2291.0
 20
1410.000000000001
 10
2751.0
 20
1410.000000000001
 10
2751.0
 20
1400.000000000001
  0
HATCH
  5
ED13
330
1F
100
AcDbEntity
  8
01注記寸法
100
AcDbHatch
 10
0.0
 20
0.0
 30
0.0
210
0.0
220
0.0
230
1.0
  2
ANSI31
 70
     0
 71
     1
 91
        1
 92
        1
 93
        4
 72
     1
 10
2291.0
 20
1400.000000000001
 11
2291.0
 21
1410.000000000001
 72
     1
 10
2291.0
 20
1410.000000000001
 11
2751.0
 21
1410.000000000001
 72
     1
 10
2751.0
 20
1410.000000000001
 11
2751.0
 21
1400.000000000001
 72
     1
 10
2751.0
 20
1400.000000000001
 11
2291.0
 21
1400.000000000001
 97
        1
330
ED12
 75
     0
 76
     1
 52
45.0
 41
5.000000000000006
 77
     0
 78
     1
 53
90.0
 43
13291.0
 44
0.0000000000097771
 45
-15.875
 46
0.000000000000001
 79
     0
 98
        1
 10
14491.0
 20
-10890.0
1001
ACAD
1010
0.0
1020
0.0
1030
0.0
  0
LWPOLYLINE
  5
124FD
102
{ACAD_REACTORS
330
127A5
102
}
330
1F
100
AcDbEntity
  8
02実線
100
AcDbPolyline
 90
        5
 70
     1
 43
0.0
 10
848.9999999999991
 20
2065.0
 10
849.0000000000018
 20
2120.0
 10
899.0000000000018
 20
2120.0
 10
898.9999999999991
 20
2060.0
 10
853.9999999999991
 20
2060.0
  0
LWPOLYLINE
  5
124FE
330
1F
100
AcDbEntity
  8
03破線
100
AcDbPolyline
 90
        4
 70
     1
 43
0.0
 10
849.0000000000018
 20
2116.800000000001
 10
849.0000000000018
 20
2120.0
 10
899.0000000000018
 20
2120.0
 10
899.0000000000018
 20
2116.800000000001
  0
INSERT
  5
124FF
102
{ACAD_REACTORS
330
127A5
102
}
330
1F
100
AcDbEntity
  8
02実線
100
AcDbBlockReference
  2
hole-φ12
 10
872.9999999999991
 20
2090.0
 30
0.0
  0
LWPOLYLINE
  5
12502
330
1F
100
AcDbEntity
  8
02実線
100
AcDbPolyline
 90
        4
 70
     1
 43
0.0
 10
849.0000000000003
 20
1396.800000000001
 10
849.0000000000003
 20
1400.000000000001
 10
899.0000000000003
 20
1400.000000000001
 10
899.0000000000003
 20
1396.800000000001
  0
LWPOLYLINE
  5
12503
330
1F
100
AcDbEntity
  8
02実線
100
AcDbPolyline
 90
        5
 70
     1
 43
0.0
 10
849.0000000000003
 20
1355.000000000001
 10
849.0000000000003
 20
1400.000000000001
 10
899.0000000000003
 20
1400.000000000001
 10
899.0000000000003
 20
1350.000000000001
 10
854.0000000000003
 20
1350.000000000001
  0
LWPOLYLINE
  5
12504
102
{ACAD_REACTORS
330
12506
102
}
330
1F
100
AcDbEntity
  8
02実線
100
AcDbPolyline
 90
        4
 70
     1
 43
0.0
 10
849.0000000000003
 20
1400.000000000001
 10
849.0000000000003
 20
1410.000000000001
 10
899.0000000000003
 20
1410.000000000001
 10
899.0000000000003
 20
1400.000000000001
  0
LINE
  5
12505
330
1F
100
AcDbEntity
  8
04一点鎖線
100
AcDbLine
 10
873.0000000000003
 20
1381.800000000001
 30
0.0
 11
873.0000000000003
 21
1425.000000000001
 31
0.0
  0
HATCH
  5
12506
330
1F
100
AcDbEntity
  8
01注記寸法
100
AcDbHatch
 10
0.0
 20
0.0
 30
0.0
210
0.0
220
0.0
230
1.0
  2
ANSI31
 70
     0
 71
     1
 91
        1
 92
        1
 93
        4
 72
     1
 10
849.0000000000003
 20
1400.000000000001
 11
849.0000000000003
 21
1410.000000000001
 72
     1
 10
849.0000000000003
 20
1410.000000000001
 11
899.0000000000003
 21
1410.000000000001
 72
     1
 10
899.0000000000003
 20
1410.000000000001
 11
899.0000000000003
 21
1400.000000000001
 72
     1
 10
899.0000000000003
 20
1400.000000000001
 11
849.0000000000003
 21
1400.000000000001
 97
        1
330
12504
 75
     0
 76
     1
 52
45.0
 41
5.000000000000006
 77
     0
 78
     1
 53
90.0
 43
4520.681869869737
 44
2426.698660858379
 45
-15.875
 46
0.000000000000001
 79
     0
 98
        1
 10
4520.681869869737
 20
2416.698660858379
1001
ACAD
1010
0.0
1020
0.0
1030
0.0
  0
LWPOLYLINE
  5
12507
330
1F
100
AcDbEntity
  8
02実線
100
AcDbPolyline
 90
        9
 70
     0
 43
0.0
 10
2341.0
 20
1400.000000000001
 10
2394.599999999999
 20
1400.000000000001
 42
-0.4142135623730948
 10
2401.0
 20
1393.600000000002
 10
2401.0
 20
1350.000000000001
 10
2397.8
 20
1350.000000000001
 10
2397.8
 20
1393.600000000002
 42
0.4142135623730948
 10
2394.6
 20
1396.800000000001
 10
2341.0
 20
1396.800000000001
 10
2341.0
 20
1400.000000000001
  0
LWPOLYLINE
  5
12508
102
{ACAD_REACTORS
330
1250A
102
}
330
1F
100
AcDbEntity
  8
02実線
100
AcDbPolyline
 90
        4
 70
     1
 43
0.0
 10
2341.0
 20
1400.000000000001
 10
2341.0
 20
1410.000000000001
 10
2401.0
 20
1410.000000000001
 10
2401.0
 20
1400.000000000001
  0
LINE
  5
12509
330
1F
100
AcDbEntity
  8
04一点鎖線
100
AcDbLine
 10
2371.0
 20
1381.800000000001
 30
0.0
 11
2371.0
 21
1425.000000000001
 31
0.0
  0
HATCH
  5
1250A
330
1F
100
AcDbEntity
  8
01注記寸法
100
AcDbHatch
 10
0.0
 20
0.0
 30
0.0
210
0.0
220
0.0
230
1.0
  2
ANSI31
 70
     0
 71
     1
 91
        1
 92
        1
 93
        4
 72
     1
 10
2341.0
 20
1400.000000000001
 11
2341.0
 21
1410.000000000001
 72
     1
 10
2341.0
 20
1410.000000000001
 11
2401.0
 21
1410.000000000001
 72
     1
 10
2401.0
 20
1410.000000000001
 11
2401.0
 21
1400.000000000001
 72
     1
 10
2401.0
 20
1400.000000000001
 11
2341.0
 21
1400.000000000001
 97
        1
330
12508
 75
     0
 76
     1
 52
45.0
 41
5.000000000000007
 77
     0
 78
     1
 53
90.0
 43
5892.681869869737
 44
2426.698660858379
 45
-15.875
 46
0.000000000000001
 79
     0
 98
        1
 10
5892.681869869737
 20
2426.698660858379
1001
ACAD
1010
0.0
1020
0.0
1030
0.0
  0
LWPOLYLINE
  5
1275F
102
{ACAD_REACTORS
330
12762
102
}
330
1F
100
AcDbEntity
  8
01注記寸法
100
AcDbPolyline
 90
        4
 70
     1
 43
0.0
 10
899.0
 20
2010.000000000001
 10
899.0
 20
2060.0
 10
1641.0
 20
2060.000000000001
 10
1641.0
 20
2010.000000000001
  0
LWPOLYLINE
  5
12760
102
{ACAD_REACTORS
330
12764
102
}
330
1F
100
AcDbEntity
  8
01注記寸法
100
AcDbPolyline
 90
        4
 70
     1
 43
0.0
 10
899.0
 20
2060.0
 10
899.0
 20
2420.0
 10
949.0
 20
2420.0
 10
949.0
 20
2060.0
  0
HATCH
  5
12762
330
1F
100
AcDbEntity
  8
01注記寸法
100
AcDbHatch
 10
0.0
 20
0.0
 30
0.0
210
0.0
220
0.0
230
1.0
  2
ANSI31
 70
     0
 71
     1
 91
        1
 92
        1
 93
        4
 72
     1
 10
899.0
 20
2010.000000000001
 11
899.0
 21
2060.0
 72
     1
 10
899.0
 20
2060.0
 11
1641.0
 21
2060.000000000001
 72
     1
 10
1641.0
 20
2060.000000000001
 11
1641.0
 21
2010.000000000001
 72
     1
 10
1641.0
 20
2010.000000000001
 11
899.0
 21
2010.000000000001
 97
        1
330
1275F
 75
     0
 76
     1
 52
45.0
 41
10.00000000000001
 77
     0
 78
     1
 53
90.0
 43
6699.0
 44
40.00000000000955
 45
-31.75
 46
0.0000000000000019
 79
     0
 98
        1
 10
6699.0
 20
40.00000000000955
1001
ACAD
1010
0.0
1020
0.0
1030
0.0
1001
HATCHBACKGROUNDCOLOR
1071
-939524096
1000

1000

  0
HATCH
  5
12764
330
1F
100
AcDbEntity
  8
01注記寸法
100
AcDbHatch
 10
0.0
 20
0.0
 30
0.0
210
0.0
220
0.0
230
1.0
  2
ANSI31
 70
     0
 71
     1
 91
        1
 92
        1
 93
        4
 72
     1
 10
899.0
 20
2060.0
 11
899.0
 21
2420.0
 72
     1
 10
899.0
 20
2420.0
 11
949.0
 21
2420.0
 72
     1
 10
949.0
 20
2420.0
 11
949.0
 21
2060.0
 72
     1
 10
949.0
 20
2060.0
 11
899.0
 21
2060.0
 97
        1
330
12760
 75
     0
 76
     1
 52
135.0
 41
10.0
 77
     0
 78
     1
 53
180.0
 43
6699.0
 44
0.0000000000095497
 45
-0.0000000000000039
 46
-31.75
 79
     0
 98
        1
 10
6699.0
 20
0.0000000000095497
1001
ACAD
1010
0.0
1020
0.0
1030
0.0
1001
HATCHBACKGROUNDCOLOR
1071
-939524096
1000

1000

  0
HATCH
  5
12765
330
1F
100
AcDbEntity
  8
01注記寸法
100
AcDbHatch
 10
0.0
 20
0.0
 30
0.0
210
0.0
220
0.0
230
1.0
  2
ANSI31
 70
     0
 71
     1
 91
        1
 92
        1
 93
        4
 72
     1
 10
1591.0
 20
2060.000000000001
 11
1591.0
 21
2420.000000000001
 72
     1
 10
1591.0
 20
2420.000000000001
 11
1641.0
 21
2420.000000000001
 72
     1
 10
1641.0
 20
2420.000000000001
 11
1641.0
 21
2060.000000000001
 72
     1
 10
1641.0
 20
2060.000000000001
 11
1591.0
 21
2060.000000000001
 97
        1
330
12766
 75
     0
 76
     1
 52
135.0
 41
10.0
 77
     0
 78
     1
 53
180.0
 43
7391.0
 44
0.0000000000097771
 45
-0.0000000000000039
 46
-31.75
 79
     0
 98
        1
 10
7391.0
 20
0.0000000000097771
1001
ACAD
1010
0.0
1020
0.0
1030
0.0
1001
HATCHBACKGROUNDCOLOR
1071
-939524096
1000

1000

  0
LWPOLYLINE
  5
12766
102
{ACAD_REACTORS
330
12765
102
}
330
1F
100
AcDbEntity
  8
01注記寸法
100
AcDbPolyline
 90
        4
 70
     1
 43
0.0
 10
1591.0
 20
2060.000000000001
 10
1591.0
 20
2420.000000000001
 10
1641.0
 20
2420.000000000001
 10
1641.0
 20
2060.000000000001
  0
HATCH
  5
12767
330
1F
100
AcDbEntity
  8
01注記寸法
100
AcDbHatch
 10
0.0
 20
0.0
 30
0.0
210
0.0
220
0.0
230
1.0
  2
ANSI31
 70
     0
 71
     1
 91
        1
 92
        1
 93
        4
 72
     1
 10
899.0
 20
2420.0
 11
899.0
 21
2470.0
 72
     1
 10
899.0
 20
2470.0
 11
1641.0
 21
2470.000000000001
 72
     1
 10
1641.0
 20
2470.000000000001
 11
1641.0
 21
2420.000000000001
 72
     1
 10
1641.0
 20
2420.000000000001
 11
899.0
 21
2420.0
 97
        1
330
12768
 75
     0
 76
     1
 52
45.0
 41
10.00000000000001
 77
     0
 78
     1
 53
90.0
 43
6699.0
 44
450.0000000000095
 45
-31.75
 46
0.0000000000000019
 79
     0
 98
        1
 10
6699.0
 20
450.0000000000095
1001
ACAD
1010
0.0
1020
0.0
1030
0.0
1001
HATCHBACKGROUNDCOLOR
1071
-939524096
1000

1000

  0
LWPOLYLINE
  5
12768
102
{ACAD_REACTORS
330
12767
102
}
330
1F
100
AcDbEntity
  8
01注記寸法
100
AcDbPolyline
 90
        4
 70
     1
 43
0.0
 10
899.0
 20
2420.0
 10
899.0
 20
2470.0
 10
1641.0
 20
2470.000000000001
 10
1641.0
 20
2420.000000000001
  0
HATCH
  5
127A5
330
1F
100
AcDbEntity
  8
01注記寸法
100
AcDbHatch
 10
0.0
 20
0.0
 30
0.0
210
0.0
220
0.0
230
1.0
  2
ANSI31
 70
     0
 71
     1
 91
        2
 92
        1
 93
        5
 72
     1
 10
848.9999999999991
 20
2065.0
 11
849.0000000000018
 21
2120.0
 72
     1
 10
849.0000000000018
 20
2120.0
 11
899.0000000000018
 21
2120.0
 72
     1
 10
899.0000000000018
 20
2120.0
 11
898.9999999999991
 21
2060.0
 72
     1
 10
898.9999999999991
 20
2060.0
 11
853.9999999999991
 21
2060.0
 72
     1
 10
853.9999999999991
 20
2060.0
 11
848.9999999999991
 21
2065.0
 97
        1
330
124FD
 92
       16
 93
        1
 72
     2
 10
872.9999999999991
 20
2090.0
 40
6.0
 50
0.0
 51
360.0
 73
     1
 97
        1
330
124FF
 75
     0
 76
     1
 52
135.0
 41
5.0
 77
     0
 78
     1
 53
180.0
 43
7728.897648389589
 44
-231.1544132668387
 45
-0.0000000000000019
 46
-15.875
 79
     0
 98
        1
 10
7728.897648389589
 20
-231.1544132668387
1001
ACAD
1010
0.0
1020
0.0
1030
0.0
1001
HATCHBACKGROUNDCOLOR
1071
-939524096
1000

1000

  0
LWPOLYLINE
  5
127A6
330
1F
100
AcDbEntity
  8
03破線
100
AcDbPolyline
 90
        4
 70
     1
 43
0.0
 10
849.0000000000027
 20
2363.2
 10
849.0000000000027
 20
2360.0
 10
899.0000000000027
 20
2360.0
 10
899.0000000000027
 20
2363.199999999999
  0
HATCH
  5
127A7
330
1F
100
AcDbEntity
  8
01注記寸法
100
AcDbHatch
 10
0.0
 20
0.0
 30
0.0
210
0.0
220
0.0
230
1.0
  2
ANSI31
 70
     0
 71
     1
 91
        2
 92
        1
 93
        5
 72
     1
 10
849.0000000000009
 20
2415.0
 11
849.0000000000027
 21
2360.0
 72
     1
 10
849.0000000000027
 20
2360.0
 11
899.0000000000027
 21
2360.0
 72
     1
 10
899.0000000000027
 20
2360.0
 11
899.0000000000009
 21
2420.0
 72
     1
 10
899.0000000000009
 20
2420.0
 11
854.0000000000009
 21
2420.0
 72
     1
 10
854.0000000000009
 20
2420.0
 11
849.0000000000009
 21
2415.0
 97
        1
330
127A8
 92
       16
 93
        1
 72
     2
 10
873.0
 20
2390.0
 40
6.0
 50
0.0
 51
360.0
 73
     1
 97
        1
330
127A9
 75
     0
 76
     1
 52
135.0
 41
5.0
 77
     0
 78
     1
 53
180.0
 43
6641.0
 44
0.0000000000097771
 45
-0.0000000000000019
 46
-15.875
 79
     0
 98
        1
 10
7728.897648389601
 20
4711.154413266808
1001
ACAD
1010
0.0
1020
0.0
1030
0.0
1001
HATCHBACKGROUNDCOLOR
1071
-939524096
1000

1000

  0
LWPOLYLINE
  5
127A8
102
{ACAD_REACTORS
330
127A7
102
}
330
1F
100
AcDbEntity
  8
02実線
100
AcDbPolyline
 90
        5
 70
     1
 43
0.0
 10
849.0000000000009
 20
2415.0
 10
849.0000000000027
 20
2360.0
 10
899.0000000000027
 20
2360.0
 10
899.0000000000009
 20
2420.0
 10
854.0000000000009
 20
2420.0
  0
INSERT
  5
127A9
102
{ACAD_REACTORS
330
127A7
102
}
330
1F
100
AcDbEntity
  8
02実線
100
AcDbBlockReference
  2
hole-φ12
 10
873.0
 20
2390.0
 30
0.0
 41
-1.0
 50
179.9999999999997
  0
LWPOLYLINE
  5
127AA
330
1F
100
AcDbEntity
  8
03破線
100
AcDbPolyline
 90
        4
 70
     1
 43
0.0
 10
1690.999999999999
 20
2116.800000000002
 10
1690.999999999999
 20
2120.000000000002
 10
1640.999999999999
 20
2120.000000000002
 10
1640.999999999999
 20
2116.800000000002
  0
HATCH
  5
127AB
330
1F
100
AcDbEntity
  8
01注記寸法
100
AcDbHatch
 10
0.0
 20
0.0
 30
0.0
210
0.0
220
0.0
230
1.0
  2
ANSI31
 70
     0
 71
     1
 91
        2
 92
        1
 93
        5
 72
     1
 10
1691.000000000003
 20
2065.000000000002
 11
1690.999999999999
 21
2120.000000000002
 72
     1
 10
1690.999999999999
 20
2120.000000000002
 11
1640.999999999999
 21
2120.000000000002
 72
     1
 10
1640.999999999999
 20
2120.000000000002
 11
1641.000000000003
 21
2060.000000000002
 72
     1
 10
1641.000000000003
 20
2060.000000000002
 11
1686.000000000003
 21
2060.000000000002
 72
     1
 10
1686.000000000003
 20
2060.000000000002
 11
1691.000000000003
 21
2065.000000000002
 97
        1
330
127AC
 92
       16
 93
        1
 72
     2
 10
1667.000000000003
 20
2090.000000000002
 40
6.0
 50
0.0
 51
360.0
 73
     1
 97
        1
330
127AD
 75
     0
 76
     1
 52
135.0
 41
5.0
 77
     0
 78
     1
 53
180.0
 43
6641.0
 44
0.0000000000097771
 45
-0.0000000000000019
 46
-15.875
 79
     0
 98
        1
 10
-5188.897648389577
 20
-231.1544132668682
1001
ACAD
1010
0.0
1020
0.0
1030
0.0
1001
HATCHBACKGROUNDCOLOR
1071
-939524096
1000

1000

  0
LWPOLYLINE
  5
127AC
102
{ACAD_REACTORS
330
127AB
102
}
330
1F
100
AcDbEntity
  8
02実線
100
AcDbPolyline
 90
        5
 70
     1
 43
0.0
 10
1691.000000000003
 20
2065.000000000002
 10
1690.999999999999
 20
2120.000000000002
 10
1640.999999999999
 20
2120.000000000002
 10
1641.000000000003
 20
2060.000000000002
 10
1686.000000000003
 20
2060.000000000002
  0
INSERT
  5
127AD
102
{ACAD_REACTORS
330
127AB
102
}
330
1F
100
AcDbEntity
  8
02実線
100
AcDbBlockReference
  2
hole-φ12
 10
1667.000000000003
 20
2090.000000000002
 30
0.0
 41
-1.0
  0
LWPOLYLINE
  5
127AE
330
1F
100
AcDbEntity
  8
03破線
100
AcDbPolyline
 90
        4
 70
     1
 43
0.0
 10
1690.999999999997
 20
2363.200000000002
 10
1690.999999999997
 20
2360.000000000002
 10
1640.999999999997
 20
2360.000000000001
 10
1640.999999999997
 20
2363.200000000001
  0
HATCH
  5
127AF
330
1F
100
AcDbEntity
  8
01注記寸法
100
AcDbHatch
 10
0.0
 20
0.0
 30
0.0
210
0.0
220
0.0
230
1.0
  2
ANSI31
 70
     0
 71
     1
 91
        2
 92
        1
 93
        5
 72
     1
 10
1690.999999999999
 20
2415.000000000002
 11
1690.999999999997
 21
2360.000000000002
 72
     1
 10
1690.999999999997
 20
2360.000000000002
 11
1640.999999999997
 21
2360.000000000001
 72
     1
 10
1640.999999999997
 20
2360.000000000001
 11
1640.999999999999
 21
2420.000000000001
 72
     1
 10
1640.999999999999
 20
2420.000000000001
 11
1685.999999999999
 21
2420.000000000002
 72
     1
 10
1685.999999999999
 20
2420.000000000002
 11
1690.999999999999
 21
2415.000000000002
 97
        1
330
127B0
 92
       16
 93
        1
 72
     2
 10
1667.0
 20
2390.000000000002
 40
6.0
 50
0.0
 51
360.0
 73
     1
 97
        1
330
127B1
 75
     0
 76
     1
 52
135.0
 41
5.0
 77
     0
 78
     1
 53
180.0
 43
6641.0
 44
0.0000000000097771
 45
-0.0000000000000019
 46
-15.875
 79
     0
 98
        1
 10
-5188.897648389611
 20
4711.154413266779
1001
ACAD
1010
0.0
1020
0.0
1030
0.0
1001
HATCHBACKGROUNDCOLOR
1071
-939524096
1000

1000

  0
LWPOLYLINE
  5
127B0
102
{ACAD_REACTORS
330
127AF
102
}
330
1F
100
AcDbEntity
  8
02実線
100
AcDbPolyline
 90
        5
 70
     1
 43
0.0
 10
1690.999999999999
 20
2415.000000000002
 10
1690.999999999997
 20
2360.000000000002
 10
1640.999999999997
 20
2360.000000000001
 10
1640.999999999999
 20
2420.000000000001
 10
1685.999999999999
 20
2420.000000000002
  0
INSERT
  5
127B1
102
{ACAD_REACTORS
330
127AF
102
}
330
1F
100
AcDbEntity
  8
02実線
100
AcDbBlockReference
  2
hole-φ12
 10
1667.0
 20
2390.000000000002
 30
0.0
 50
180.0000000000004
  0
LWPOLYLINE
  5
127B2
330
1F
100
AcDbEntity
  8
02実線
100
AcDbPolyline
 90
        4
 70
     1
 43
0.0
 10
1691.0
 20
1396.800000000001
 10
1691.0
 20
1400.000000000001
 10
1641.0
 20
1400.000000000001
 10
1641.0
 20
1396.800000000001
  0
LWPOLYLINE
  5
127B3
330
1F
100
AcDbEntity
  8
02実線
100
AcDbPolyline
 90
        5
 70
     1
 43
0.0
 10
1691.0
 20
1355.000000000001
 10
1691.0
 20
1400.000000000001
 10
1641.0
 20
1400.000000000001
 10
1641.0
 20
1350.000000000001
 10
1686.0
 20
1350.000000000001
  0
LWPOLYLINE
  5
127B4
102
{ACAD_REACTORS
330
127B6
102
}
330
1F
100
AcDbEntity
  8
02実線
100
AcDbPolyline
 90
        4
 70
     1
 43
0.0
 10
1691.0
 20
1400.000000000001
 10
1691.0
 20
1410.000000000001
 10
1641.0
 20
1410.000000000001
 10
1641.0
 20
1400.000000000001
  0
LINE
  5
127B5
330
1F
100
AcDbEntity
  8
04一点鎖線
100
AcDbLine
 10
1667.0
 20
1381.800000000001
 30
0.0
 11
1667.0
 21
1425.000000000001
 31
0.0
  0
HATCH
  5
127B6
330
1F
100
AcDbEntity
  8
01注記寸法
100
AcDbHatch
 10
0.0
 20
0.0
 30
0.0
210
0.0
220
0.0
230
1.0
  2
ANSI31
 70
     0
 71
     1
 91
        1
 92
        1
 93
        4
 72
     1
 10
1691.0
 20
1400.000000000001
 11
1691.0
 21
1410.000000000001
 72
     1
 10
1691.0
 20
1410.000000000001
 11
1641.0
 21
1410.000000000001
 72
     1
 10
1641.0
 20
1410.000000000001
 11
1641.0
 21
1400.000000000001
 72
     1
 10
1641.0
 20
1400.000000000001
 11
1691.0
 21
1400.000000000001
 97
        1
330
127B4
 75
     0
 76
     1
 52
45.0
 41
5.000000000000007
 77
     0
 78
     1
 53
90.0
 43
6641.0
 44
100.0000000000098
 45
-15.87500000000001
 46
0.000000000000001
 79
     0
 98
        1
 10
-1980.681869869737
 20
2416.698660858379
1001
ACAD
1010
0.0
1020
0.0
1030
0.0
  0
LWPOLYLINE
  5
127BB
330
1F
100
AcDbEntity
  8
02実線
100
AcDbPolyline
 90
        9
 70
     0
 43
0.0
 10
2701.0
 20
1400.000000000001
 10
2647.400000000001
 20
1400.000000000001
 42
0.4142135623730948
 10
2641.0
 20
1393.600000000002
 10
2641.0
 20
1350.000000000001
 10
2644.2
 20
1350.000000000001
 10
2644.2
 20
1393.600000000002
 42
-0.4142135623730948
 10
2647.4
 20
1396.800000000001
 10
2701.0
 20
1396.800000000001
 10
2701.0
 20
1400.000000000001
  0
LWPOLYLINE
  5
127BC
102
{ACAD_REACTORS
330
127BE
102
}
330
1F
100
AcDbEntity
  8
02実線
100
AcDbPolyline
 90
        4
 70
     1
 43
0.0
 10
2701.0
 20
1400.000000000001
 10
2701.0
 20
1410.000000000001
 10
2641.0
 20
1410.000000000001
 10
2641.0
 20
1400.000000000001
  0
LINE
  5
127BD
330
1F
100
AcDbEntity
  8
04一点鎖線
100
AcDbLine
 10
2671.0
 20
1381.800000000001
 30
0.0
 11
2671.0
 21
1425.000000000001
 31
0.0
  0
HATCH
  5
127BE
330
1F
100
AcDbEntity
  8
01注記寸法
100
AcDbHatch
 10
0.0
 20
0.0
 30
0.0
210
0.0
220
0.0
230
1.0
  2
ANSI31
 70
     0
 71
     1
 91
        1
 92
        1
 93
        4
 72
     1
 10
2701.0
 20
1400.000000000001
 11
2701.0
 21
1410.000000000001
 72
     1
 10
2701.0
 20
1410.000000000001
 11
2641.0
 21
1410.000000000001
 72
     1
 10
2641.0
 20
1410.000000000001
 11
2641.0
 21
1400.000000000001
 72
     1
 10
2641.0
 20
1400.000000000001
 11
2701.0
 21
1400.000000000001
 97
        1
330
127BC
 75
     0
 76
     1
 52
45.0
 41
5.000000000000008
 77
     0
 78
     1
 53
90.0
 43
6891.0
 44
100.0000000000098
 45
-15.87500000000001
 46
0.000000000000001
 79
     0
 98
        1
 10
-850.681869869737
 20
2426.698660858379
1001
ACAD
1010
0.0
1020
0.0
1030
0.0
  0
VIEWPORT
  5
9F0D
330
1B
100
AcDbEntity
 67
     1
  8
0
100
AcDbViewport
 10
202.5
 20
128.5
 30
0.0
 40
486.0
 41
308.4
 68
     1
 69
     1
 12
202.5
 22
128.5
 13
0.0
 23
0.0
 14
0.5
 24
0.5
 15
0.0
 25
0.0
 16
0.0
 26
0.0
 36
1.0
 17
0.0
 27
0.0
 37
0.0
 42
50.0
 43
0.0
 44
0.0
 45
308.4
 50
0.0
 51
0.0
 72
   100
 90
   557152
  1

281
     0
 71
     1
 74
     0
110
0.0
120
0.0
130
0.0
111
1.0
121
0.0
131
0.0
112
0.0
122
1.0
132
0.0
 79
     0
146
0.0
  0
VIEWPORT
  5
9F0E
330
1B
100
AcDbEntity
 67
     1
  8
0
100
AcDbViewport
 10
202.5
 20
128.5
 30
0.0
 40
324.0
 41
205.6
 68
     2
 69
     2
 12
-3224.9849078482
 22
3553.815758143106
 13
0.0
 23
0.0
 14
0.5
 24
0.5
 15
0.0
 25
0.0
 16
0.0
 26
0.0
 36
1.0
 17
0.0
 27
0.0
 37
0.0
 42
50.0
 43
0.0
 44
0.0
 45
10712.16027781073
 50
0.0
 51
0.0
 72
   100
 90
   557152
  1

281
     0
 71
     1
 74
     0
110
0.0
120
0.0
130
0.0
111
1.0
121
0.0
131
0.0
112
0.0
122
1.0
132
0.0
 79
     0
146
0.0
  0
ENDSEC
  0
SECTION
  2
OBJECTS
  0
DICTIONARY
  5
C
330
0
100
AcDbDictionary
281
     1
  3
ACAD_DETAILVIEWSTYLE
350
12677
  3
ACAD_GROUP
350
D
  3
ACAD_IMAGE_VARS
350
6A88
  3
ACAD_LAYOUT
350
1A
  3
ACAD_MLINESTYLE
350
17
  3
ACAD_PLOTSETTINGS
350
19
  3
ACAD_PLOTSTYLENAME
350
E
  3
ACAD_SCALELIST
350
6A4E
  3
ACAD_SECTIONVIEWSTYLE
350
12678
  3
AcadDim
350
1286B
  3
AcDbVariableDictionary
350
79E
  3
APPDATA
350
6A87
  3
DWGPROPS
350
128D9
  0
DICTIONARY
  5
7A6F
330
2
100
AcDbDictionary
280
     1
281
     1
  3
ACAD_LAYERSTATES
360
7A70
  3
ACLYDICTIONARY
360
F959
  0
DICTIONARY
  5
969E
330
1F
100
AcDbDictionary
280
     1
281
     1
  3
ACAD_SORTENTS
360
969F
  0
DICTIONARY
  5
12677
102
{ACAD_REACTORS
330
C
102
}
330
C
100
AcDbDictionary
281
     1
  0
DICTIONARY
  5
D
102
{ACAD_REACTORS
330
C
102
}
330
C
100
AcDbDictionary
281
     1
  3
*A1
350
1228F
  3
*A2
350
12290
  3
*A3
350
12291
  3
*A4
350
12292
  3
*A5
350
12293
  0
RASTERVARIABLES
  5
6A88
102
{ACAD_REACTORS
330
C
102
}
330
C
100
AcDbRasterVariables
 90
        0
 70
     1
 71
     1
 72
     1
  0
DICTIONARY
  5
1A
102
{ACAD_REACTORS
330
C
102
}
330
C
100
AcDbDictionary
281
     1
  3
Layout1
350
1E
  3
Model
350
22
  0
DICTIONARY
  5
17
102
{ACAD_REACTORS
330
C
102
}
330
C
100
AcDbDictionary
281
     1
  3
Standard
350
18
  0
DICTIONARY
  5
19
102
{ACAD_REACTORS
330
C
102
}
330
C
100
AcDbDictionary
281
     1
  0
ACDBDICTIONARYWDFLT
  5
E
102
{ACAD_REACTORS
330
C
102
}
330
C
100
AcDbDictionary
281
     1
  3
Normal
350
F
100
AcDbDictionaryWithDefault
340
F
  0
DICTIONARY
  5
6A4E
102
{ACAD_REACTORS
330
C
102
}
330
C
100
AcDbDictionary
281
     1
  3
A0
350
6A4F
  3
A1
350
6A50
  3
A2
350
6A51
  3
A3
350
6A52
  3
A4
350
6A53
  3
A5
350
6A54
  3
A6
350
6A55
  3
A7
350
6A56
  3
A8
350
6A57
  3
A9
350
6A58
  3
B0
350
6A59
  3
B1
350
6A5A
  3
B2
350
6A5B
  3
B3
350
6A5C
  3
B4
350
6A5D
  3
B5
350
6A5E
  3
B6
350
6A5F
  3
B7
350
6A60
  3
B8
350
6A61
  3
B9
350
6A62
  3
C0
350
6A63
  3
C1
350
6A64
  3
C2
350
6A65
  3
C3
350
6A66
  3
C4
350
6A67
  3
C5
350
6A68
  3
C6
350
6A69
  3
C7
350
6A6A
  3
C8
350
6A6B
  3
C9
350
6A6C
  3
D0
350
6A6D
  3
D1
350
6A6E
  3
D2
350
6A6F
  0
DICTIONARY
  5
12678
102
{ACAD_REACTORS
330
C
102
}
330
C
100
AcDbDictionary
281
     1
  0
XRECORD
  5
1286B
102
{ACAD_REACTORS
330
C
102
}
330
C
100
AcDbXrecord
280
     1
340
0
 72
     0
 71
     0
 70
     0
 69
     0
 68
     1
 67
     3
 66
     0
 65
     0
 64
     0
 63
     3
 62
     1
 61
     0
 60
     0
 40
0.0
  0
DICTIONARY
  5
79E
102
{ACAD_REACTORS
330
C
102
}
330
C
100
AcDbDictionary
281
     1
  3
DIMASSOC
350
79F
  3
SORTENTS
350
264F
  0
DICTIONARY
  5
6A87
102
{ACAD_REACTORS
330
C
102
}
330
C
100
AcDbDictionary
281
     1
  0
XRECORD
  5
128D9
102
{ACAD_REACTORS
330
C
102
}
330
C
100
AcDbXrecord
280
     1
  1
DWGPROPS COOKIE
  2

  3

  4

  6

  7

  8
Sales
  9

300
=
301
=
302
=
303
=
304
=
305
=
306
=
307
=
308
=
309
=
 40
0.0
 41
2455859.030048461
 42
2459075.117002164
  1

 90
        0
  0
DICTIONARY
  5
7A70
102
{ACAD_REACTORS
330
7A6F
102
}
330
7A6F
100
AcDbDictionary
281
     1
  0
DICTIONARY
  5
F959
102
{ACAD_REACTORS
330
7A6F
102
}
330
7A6F
100
AcDbDictionary
281
     1
1001
ACAD
1000
<All
  0
SORTENTSTABLE
  5
969F
102
{ACAD_REACTORS
330
969E
102
}
330
969E
100
AcDbSortentsTable
330
1F
331
0
  5
A9C3
331
0
  5
7E90
331
0
  5
122EF
331
0
  5
122EE
331
0
  5
122ED
331
0
  5
122EC
331
0
  5
A78E
331
0
  5
7E94
331
0
  5
A78F
331
0
  5
122EB
331
0
  5
A790
331
0
  5
A791
331
0
  5
A793
331
0
  5
122EA
331
0
  5
122E9
331
0
  5
A794
331
0
  5
A795
331
0
  5
122E8
331
0
  5
12394
331
0
  5
A77D
331
0
  5
A77F
331
0
  5
A780
331
0
  5
A781
331
0
  5
A782
331
0
  5
A783
331
0
  5
A784
331
0
  5
A785
331
0
  5
A796
331
0
  5
A797
331
0
  5
A798
331
0
  5
A799
331
0
  5
A79A
331
0
  5
A79B
331
0
  5
A79C
331
0
  5
A79D
331
0
  5
A79E
331
0
  5
A79F
331
0
  5
A7A0
331
0
  5
A7A1
331
0
  5
A7A2
331
0
  5
7E95
331
0
  5
7E97
331
0
  5
7E98
331
0
  5
12299
331
0
  5
A7A3
331
0
  5
A7A4
331
0
  5
A7A5
331
0
  5
A7A6
331
0
  5
A7A7
331
0
  5
7EA4
331
0
  5
7EA5
331
0
  5
A7A8
331
0
  5
A7A9
331
0
  5
A7AA
331
0
  5
A7AB
331
0
  5
A7B1
331
0
  5
7EA6
331
0
  5
7EA7
331
0
  5
A7B2
331
0
  5
A7B3
331
0
  5
A7B4
331
0
  5
A7B5
331
0
  5
A7B6
331
0
  5
7EA8
331
0
  5
7EA9
331
0
  5
A7B7
331
0
  5
A7B8
331
0
  5
A7B9
331
0
  5
A7BA
331
0
  5
A7BB
331
0
  5
7EAA
331
0
  5
7EB1
331
0
  5
A7BC
331
0
  5
A7BD
331
0
  5
A7BE
331
0
  5
A7BF
331
0
  5
A7C0
331
0
  5
A7C1
331
0
  5
A7C2
331
0
  5
A7C3
331
0
  5
A7C4
331
0
  5
A7C5
331
0
  5
A7C6
331
0
  5
A7C7
331
0
  5
A7C9
331
0
  5
A843
331
0
  5
A845
331
0
  5
A846
331
0
  5
A847
331
0
  5
A848
331
0
  5
A849
331
0
  5
A84A
331
0
  5
A84B
331
0
  5
A84C
331
0
  5
A84D
331
0
  5
A84E
331
0
  5
A859
331
0
  5
A85A
331
0
  5
A85B
331
0
  5
A85C
331
0
  5
A85D
331
0
  5
A85E
331
0
  5
A85F
331
0
  5
A865
331
0
  5
A867
331
0
  5
A868
331
0
  5
A8E7
331
0
  5
A8E8
331
0
  5
A8E9
331
0
  5
A8EA
331
0
  5
A916
331
0
  5
A917
331
0
  5
A919
331
0
  5
A91A
331
0
  5
A91B
331
0
  5
7EB3
331
0
  5
7EB4
331
0
  5
7EB5
331
0
  5
7EB6
331
0
  5
7EB9
331
0
  5
7EBA
331
0
  5
A91D
331
0
  5
A91E
331
0
  5
A91F
331
0
  5
7ED4
331
0
  5
7ED7
331
0
  5
7EDC
331
0
  5
7EDD
331
0
  5
7EDE
331
0
  5
7EDF
331
0
  5
7EE0
331
0
  5
7EE2
331
0
  5
7EE3
331
0
  5
A9BF
331
0
  5
A9C1
331
0
  5
A9C2
331
0
  5
7EE4
331
0
  5
7EE8
331
0
  5
7EE9
331
0
  5
7EEA
331
0
  5
7EEB
331
0
  5
7EED
331
0
  5
AA34
331
0
  5
AA35
331
0
  5
AA36
331
0
  5
7EEF
331
0
  5
AA5A
331
0
  5
7E8F
331
0
  5
7F17
331
0
  5
7F4B
331
0
  5
7F4C
331
0
  5
7F4D
331
0
  5
7F91
331
0
  5
7F92
331
0
  5
7F93
331
0
  5
7F94
331
0
  5
7F95
331
0
  5
8083
331
0
  5
8084
331
0
  5
8192
331
0
  5
8193
331
0
  5
8194
331
0
  5
8195
331
0
  5
8196
331
0
  5
8197
331
0
  5
8198
331
0
  5
819A
331
0
  5
819C
331
0
  5
819D
331
0
  5
819F
331
0
  5
81A1
331
0
  5
81AB
331
0
  5
81B0
331
0
  5
81B1
331
0
  5
81B2
331
0
  5
81BA
331
0
  5
81BB
331
0
  5
81BD
331
0
  5
81BE
331
0
  5
81BF
331
0
  5
81C0
331
0
  5
81C4
331
0
  5
81C5
331
0
  5
81C6
331
0
  5
86B2
331
0
  5
86B3
331
0
  5
86B4
331
0
  5
86B5
331
0
  5
86B7
331
0
  5
86B8
331
0
  5
86B9
331
0
  5
86C4
331
0
  5
86C5
331
0
  5
86F1
331
0
  5
86F2
331
0
  5
86F3
331
0
  5
8ACA
331
0
  5
D2BC
331
0
  5
D2BD
331
0
  5
D2BE
331
0
  5
D2BF
331
0
  5
D2C0
331
0
  5
12110
331
0
  5
1210F
331
0
  5
A786
331
0
  5
A787
331
0
  5
A788
331
0
  5
A789
331
0
  5
A78A
331
0
  5
A78B
331
0
  5
A78C
331
0
  5
A78D
331
0
  5
EE43
331
ECC5
  5
EE44
331
ECC6
  5
EE46
331
ECC7
  5
A564
331
ECCA
  5
EE47
331
ECCB
  5
A572
331
ECCD
  5
EE48
331
ECCE
  5
A574
331
ECCF
  5
EE49
331
ECD0
  5
EE4B
331
ECD1
  5
EE4C
331
ECD2
  5
EE4E
331
ECED
  5
A57F
331
ECEF
  5
A581
331
ECF0
  5
A582
331
ECF1
  5
A583
331
ECF3
  5
A585
331
ECF4
  5
A586
331
ECF6
  5
A588
331
ECF7
  5
A589
331
ED10
  5
F114
331
ED11
  5
F115
331
ED12
  5
F118
331
ED13
  5
F119
331
0
  5
F11A
331
0
  5
F11B
331
0
  5
8F53
331
0
  5
F11D
331
0
  5
F11E
331
0
  5
F121
331
0
  5
F122
331
0
  5
F124
331
0
  5
F12B
331
0
  5
F1B8
331
0
  5
F1B9
331
0
  5
F1BA
331
0
  5
F1BD
331
0
  5
F1BE
331
0
  5
8FAD
331
0
  5
8FBC
331
0
  5
F1BF
331
0
  5
F1C0
331
0
  5
F1C1
331
0
  5
9299
331
0
  5
92A3
331
0
  5
FC03
331
0
  5
FC06
331
0
  5
FC0B
331
0
  5
FC0E
331
0
  5
FE79
331
0
  5
FE7A
331
0
  5
9432
331
0
  5
9433
331
0
  5
9436
331
0
  5
9437
331
0
  5
9438
331
0
  5
9439
331
0
  5
9525
331
0
  5
FE87
331
0
  5
FE88
331
0
  5
9526
331
0
  5
9757
331
0
  5
9771
331
0
  5
11A6E
331
0
  5
11A6F
331
0
  5
11A70
331
0
  5
11A71
331
0
  5
9772
331
0
  5
11D90
331
0
  5
11D91
331
0
  5
9774
331
0
  5
11E79
331
0
  5
120A9
331
0
  5
11EA5
331
0
  5
9801
331
0
  5
9802
331
0
  5
11EA7
331
0
  5
9803
331
0
  5
11EA8
331
0
  5
9806
331
0
  5
11EAA
331
0
  5
9AF1
331
0
  5
9A0E
331
0
  5
9A0F
331
0
  5
11EAD
331
0
  5
11EB0
331
0
  5
9A10
331
0
  5
9A59
331
0
  5
11EB1
331
0
  5
11EB3
331
0
  5
9A5A
331
0
  5
9AF2
331
0
  5
123E1
331
0
  5
123E2
331
0
  5
9AF3
331
0
  5
9AF4
331
0
  5
9B90
331
0
  5
9B91
331
0
  5
9BBB
331
0
  5
9BBC
331
0
  5
123EE
331
0
  5
12434
331
0
  5
12435
331
0
  5
9BBD
331
0
  5
9BBE
331
0
  5
9BBF
331
0
  5
9BC0
331
0
  5
12436
331
0
  5
12437
331
0
  5
12438
331
0
  5
9BC1
331
0
  5
9BDC
331
0
  5
9BDD
331
124FD
  5
12500
331
124FE
  5
124FD
331
124FF
  5
12501
331
12502
  5
12504
331
12503
  5
12505
331
12504
  5
12506
331
12505
  5
12507
331
12506
  5
12508
331
12507
  5
12509
331
12508
  5
1250A
331
12509
  5
12584
331
1250A
  5
12585
331
0
  5
12586
331
0
  5
12587
331
0
  5
12588
331
0
  5
12589
331
0
  5
1258A
331
0
  5
1258B
331
0
  5
1258C
331
0
  5
1258D
331
0
  5
1258F
331
0
  5
12590
331
0
  5
12591
331
0
  5
12592
331
0
  5
12593
331
0
  5
125B8
331
0
  5
125B9
331
0
  5
12664
331
0
  5
1273A
331
0
  5
12752
331
0
  5
12753
331
0
  5
12754
331
0
  5
12755
331
0
  5
12756
331
0
  5
12757
331
1275F
  5
12764
331
12760
  5
12766
331
12762
  5
12763
331
12764
  5
12765
331
12765
  5
12767
331
12766
  5
12768
331
12767
  5
12769
331
12768
  5
1276A
331
127A5
  5
124FF
  0
GROUP
  5
1228F
102
{ACAD_REACTORS
330
D
102
}
330
D
100
AcDbGroup
300

 70
     1
 71
     1
  0
GROUP
  5
12290
102
{ACAD_REACTORS
330
D
102
}
330
D
100
AcDbGroup
300

 70
     1
 71
     1
  0
GROUP
  5
12291
102
{ACAD_REACTORS
330
D
102
}
330
D
100
AcDbGroup
300

 70
     1
 71
     1
  0
GROUP
  5
12292
102
{ACAD_REACTORS
330
D
102
}
330
D
100
AcDbGroup
300

 70
     1
 71
     1
  0
GROUP
  5
12293
102
{ACAD_REACTORS
330
D
102
}
330
D
100
AcDbGroup
300

 70
     1
 71
     1
  0
LAYOUT
  5
1E
102
{ACAD_REACTORS
330
1A
102
}
330
1A
100
AcDbPlotSettings
  1

  2
none_device
  4
ISO_A3_(420.00_x_297.00_MM)
  6

 40
7.5
 41
20.0
 42
7.5
 43
20.0
 44
420.0
 45
297.0
 46
0.0
 47
0.0
 48
0.0
 49
0.0
140
0.0
141
0.0
142
1.0
143
1.0
 70
   688
 72
     1
 73
     0
 74
     5
  7

 75
    16
147
1.0
148
0.0
149
0.0
100
AcDbLayout
  1
Layout1
 70
     1
 71
     1
 10
0.0
 20
0.0
 11
412.5
 21
277.0
 12
0.0
 22
0.0
 32
0.0
 14
1.000000000000000E+20
 24
1.000000000000000E+20
 34
1.000000000000000E+20
 15
-1.000000000000000E+20
 25
-1.000000000000000E+20
 35
-1.000000000000000E+20
146
0.0
 13
0.0
 23
0.0
 33
0.0
 16
1.0
 26
0.0
 36
0.0
 17
0.0
 27
1.0
 37
0.0
 76
     0
330
1B
331
9F0D
  0
LAYOUT
  5
22
102
{ACAD_REACTORS
330
1A
102
}
330
1A
100
AcDbPlotSettings
  1

  2
none_device
  4
A3
  6

 40
3.174999952316284
 41
3.174999952316284
 42
3.17498779296875
 43
3.17498779296875
 44
297.0318298339844
 45
420.1583251953125
 46
-3.16
 47
-3.1
 48
-90.0
 49
-90.0
140
329.9999999999998
141
207.0
142
1.0
143
1.0
 70
 11940
 72
     1
 73
     1
 74
     4
  7
monochrome.ctb
 75
     0
147
1.0
148
90.0
149
90.0
100
AcDbLayout
  1
Model
 70
     1
 71
     0
 10
0.0
 20
0.0
 11
4200.0
 21
2970.0
 12
0.0
 22
0.0
 32
0.0
 14
848.9999999999991
 24
1190.000000000001
 34
0.0
 15
2751.0
 25
2470.000000000001
 35
0.0
146
0.0
 13
0.0
 23
0.0
 33
0.0
 16
1.0
 26
0.0
 36
0.0
 17
0.0
 27
1.0
 37
0.0
 76
     0
330
1F
331
7A57
  0
MLINESTYLE
  5
18
102
{ACAD_REACTORS
330
17
102
}
330
17
100
AcDbMlineStyle
  2
STANDARD
 70
     0
  3

 62
   256
 51
90.0
 52
90.0
 71
     2
 49
0.5
 62
   256
  6
BYLAYER
 49
-0.5
 62
   256
  6
BYLAYER
  0
ACDBPLACEHOLDER
  5
F
102
{ACAD_REACTORS
330
E
102
}
330
E
  0
SCALE
  5
6A4F
102
{ACAD_REACTORS
330
6A4E
102
}
330
6A4E
100
AcDbScale
 70
     0
300
1:1
140
1.0
141
1.0
290
     1
  0
SCALE
  5
6A50
102
{ACAD_REACTORS
330
6A4E
102
}
330
6A4E
100
AcDbScale
 70
     0
300
1:2
140
1.0
141
2.0
290
     0
  0
SCALE
  5
6A51
102
{ACAD_REACTORS
330
6A4E
102
}
330
6A4E
100
AcDbScale
 70
     0
300
1:4
140
1.0
141
4.0
290
     0
  0
SCALE
  5
6A52
102
{ACAD_REACTORS
330
6A4E
102
}
330
6A4E
100
AcDbScale
 70
     0
300
1:5
140
1.0
141
5.0
290
     0
  0
SCALE
  5
6A53
102
{ACAD_REACTORS
330
6A4E
102
}
330
6A4E
100
AcDbScale
 70
     0
300
1:8
140
1.0
141
8.0
290
     0
  0
SCALE
  5
6A54
102
{ACAD_REACTORS
330
6A4E
102
}
330
6A4E
100
AcDbScale
 70
     0
300
1:10
140
1.0
141
10.0
290
     0
  0
SCALE
  5
6A55
102
{ACAD_REACTORS
330
6A4E
102
}
330
6A4E
100
AcDbScale
 70
     0
300
1:16
140
1.0
141
16.0
290
     0
  0
SCALE
  5
6A56
102
{ACAD_REACTORS
330
6A4E
102
}
330
6A4E
100
AcDbScale
 70
     0
300
1:20
140
1.0
141
20.0
290
     0
  0
SCALE
  5
6A57
102
{ACAD_REACTORS
330
6A4E
102
}
330
6A4E
100
AcDbScale
 70
     0
300
1:30
140
1.0
141
30.0
290
     0
  0
SCALE
  5
6A58
102
{ACAD_REACTORS
330
6A4E
102
}
330
6A4E
100
AcDbScale
 70
     0
300
1:40
140
1.0
141
40.0
290
     0
  0
SCALE
  5
6A59
102
{ACAD_REACTORS
330
6A4E
102
}
330
6A4E
100
AcDbScale
 70
     0
300
1:50
140
1.0
141
50.0
290
     0
  0
SCALE
  5
6A5A
102
{ACAD_REACTORS
330
6A4E
102
}
330
6A4E
100
AcDbScale
 70
     0
300
1:100
140
1.0
141
100.0
290
     0
  0
SCALE
  5
6A5B
102
{ACAD_REACTORS
330
6A4E
102
}
330
6A4E
100
AcDbScale
 70
     0
300
2:1
140
2.0
141
1.0
290
     0
  0
SCALE
  5
6A5C
102
{ACAD_REACTORS
330
6A4E
102
}
330
6A4E
100
AcDbScale
 70
     0
300
4:1
140
4.0
141
1.0
290
     0
  0
SCALE
  5
6A5D
102
{ACAD_REACTORS
330
6A4E
102
}
330
6A4E
100
AcDbScale
 70
     0
300
8:1
140
8.0
141
1.0
290
     0
  0
SCALE
  5
6A5E
102
{ACAD_REACTORS
330
6A4E
102
}
330
6A4E
100
AcDbScale
 70
     0
300
10:1
140
10.0
141
1.0
290
     0
  0
SCALE
  5
6A5F
102
{ACAD_REACTORS
330
6A4E
102
}
330
6A4E
100
AcDbScale
 70
     0
300
100:1
140
100.0
141
1.0
290
     0
  0
SCALE
  5
6A60
102
{ACAD_REACTORS
330
6A4E
102
}
330
6A4E
100
AcDbScale
 70
     0
300
1/128" = 1'-0"
140
0.0078125
141
12.0
290
     0
  0
SCALE
  5
6A61
102
{ACAD_REACTORS
330
6A4E
102
}
330
6A4E
100
AcDbScale
 70
     0
300
1/64" = 1'-0"
140
0.015625
141
12.0
290
     0
  0
SCALE
  5
6A62
102
{ACAD_REACTORS
330
6A4E
102
}
330
6A4E
100
AcDbScale
 70
     0
300
1/32" = 1'-0"
140
0.03125
141
12.0
290
     0
  0
SCALE
  5
6A63
102
{ACAD_REACTORS
330
6A4E
102
}
330
6A4E
100
AcDbScale
 70
     0
300
1/16" = 1'-0"
140
0.0625
141
12.0
290
     0
  0
SCALE
  5
6A64
102
{ACAD_REACTORS
330
6A4E
102
}
330
6A4E
100
AcDbScale
 70
     0
300
3/32" = 1'-0"
140
0.09375
141
12.0
290
     0
  0
SCALE
  5
6A65
102
{ACAD_REACTORS
330
6A4E
102
}
330
6A4E
100
AcDbScale
 70
     0
300
1/8" = 1'-0"
140
0.125
141
12.0
290
     0
  0
SCALE
  5
6A66
102
{ACAD_REACTORS
330
6A4E
102
}
330
6A4E
100
AcDbScale
 70
     0
300
3/16" = 1'-0"
140
0.1875
141
12.0
290
     0
  0
SCALE
  5
6A67
102
{ACAD_REACTORS
330
6A4E
102
}
330
6A4E
100
AcDbScale
 70
     0
300
1/4" = 1'-0"
140
0.25
141
12.0
290
     0
  0
SCALE
  5
6A68
102
{ACAD_REACTORS
330
6A4E
102
}
330
6A4E
100
AcDbScale
 70
     0
300
3/8" = 1'-0"
140
0.375
141
12.0
290
     0
  0
SCALE
  5
6A69
102
{ACAD_REACTORS
330
6A4E
102
}
330
6A4E
100
AcDbScale
 70
     0
300
1/2" = 1'-0"
140
0.5
141
12.0
290
     0
  0
SCALE
  5
6A6A
102
{ACAD_REACTORS
330
6A4E
102
}
330
6A4E
100
AcDbScale
 70
     0
300
3/4" = 1'-0"
140
0.75
141
12.0
290
     0
  0
SCALE
  5
6A6B
102
{ACAD_REACTORS
330
6A4E
102
}
330
6A4E
100
AcDbScale
 70
     0
300
1" = 1'-0"
140
1.0
141
12.0
290
     0
  0
SCALE
  5
6A6C
102
{ACAD_REACTORS
330
6A4E
102
}
330
6A4E
100
AcDbScale
 70
     0
300
1-1/2" = 1'-0"
140
1.5
141
12.0
290
     0
  0
SCALE
  5
6A6D
102
{ACAD_REACTORS
330
6A4E
102
}
330
6A4E
100
AcDbScale
 70
     0
300
3" = 1'-0"
140
3.0
141
12.0
290
     0
  0
SCALE
  5
6A6E
102
{ACAD_REACTORS
330
6A4E
102
}
330
6A4E
100
AcDbScale
 70
     0
300
6" = 1'-0"
140
6.0
141
12.0
290
     0
  0
SCALE
  5
6A6F
102
{ACAD_REACTORS
330
6A4E
102
}
330
6A4E
100
AcDbScale
 70
     0
300
1'-0" = 1'-0"
140
12.0
141
12.0
290
     0
  0
DICTIONARYVAR
  5
79F
102
{ACAD_REACTORS
330
79E
102
}
330
79E
100
DictionaryVariables
280
     0
  1
1
  0
DICTIONARYVAR
  5
264F
102
{ACAD_REACTORS
330
79E
102
}
330
79E
100
DictionaryVariables
280
     0
  1
96
  0
ENDSEC
  0
EOF
